999
DXF file: S:\Engenharia\Wildfire\Engenharia\Produtos\Linha Industrial\95000005\95000005.dxf
999
Pro/ENGINEER 2013150 by Parametric Technology Corporation
  0
SECTION
  2
HEADER
  9
$ACADVER
  1
AC1021
  9
$DWGCODEPAGE
  3
ANSI_1252
  9
$EXTMAX
 10
628.0
 20
454.0
 30
0.0
  9
$EXTMIN
 10
0.0
 20
0.0
 30
0.0
  9
$LIMMIN
 10
0.0
 20
0.0
  9
$LIMMAX
 10
628.0
 20
454.0
  9
$VIEWCTR
 10
314.0
 20
227.0
  9
$VIEWSIZE
 40
454.0
  9
$CLAYER
  8
0
  9
$LTSCALE
 40
34.54
  9
$CELTYPE
  6
BYLAYER
  9
$DIMSCALE
 40
1.0
  9
$DIMASZ
 40
3.0
  9
$DIMEXO
 40
0.5
  9
$DIMDLI
 40
23.864
  9
$DIMEXE
 40
0.5
  9
$DIMCEN
 40
5.652
  9
$DIMLFAC
 40
1.0
  9
$DIMBLK
  1
_FILLED
  9
$DIMTXT
 40
1.8
  9
$DIMTOL
 70
1
  9
$DIMLIM
 70
0
  9
$DIMTFAC
 40
1.0
  9
$DIMTP
 40
0.001
  9
$DIMTM
 40
0.001
  9
$DIMGAP
 40
0.625
  9
$DIMDSEP
 70
46
  9
$PDMODE
 70
3
  9
$PDSIZE
 40
1.0
  9
$HANDSEED
  5
518
  9
$TILEMODE
 70
1
  9
$MEASUREMENT
 70
1
  9
$INSUNITS
 70
4
  0
ENDSEC
  0
SECTION
  2
CLASSES
  0
CLASS
  1
ACDBDICTIONARYWDFLT
  2
AcDbDictionaryWithDefault
  3
AutoCAD 2000
 90
0
 91
1
280
0
281
0
  0
CLASS
  1
ACDBPLACEHOLDER
  2
AcDbPlaceHolder
  3
AutoCAD 2000
 90
0
 91
1
280
0
281
0
  0
CLASS
  1
LAYOUT
  2
AcDbLayout
  3
AutoCAD 2000
 90
0
 91
0
280
0
281
0
  0
ENDSEC
  0
SECTION
  2
TABLES
  0
TABLE
  2
VPORT
  5
8
100
AcDbSymbolTable
 70
2
  0
VPORT
  5
1F4
100
AcDbSymbolTableRecord
100
AcDbViewportTableRecord
  2
*ACTIVE
 70
0
 10
0.0
 20
0.0
 11
1.0
 21
1.0
 12
314.0
 22
227.0
 13
0.0
 23
0.0
 14
1.0
 24
1.0
 15
0.0
 25
0.0
 16
0.0
 26
0.0
 36
1.0
 17
0.0
 27
0.0
 37
0.0
 40
454.0
 41
1.3832599119
 42
50.0
 43
0.0
 44
0.0
 50
0.0
 51
0.0
 71
0
 72
100
 73
1
 74
1
 75
0
 76
0
 77
0
 78
0
  0
ENDTAB
  0
TABLE
  2
LTYPE
  5
5
100
AcDbSymbolTable
 70
6
  0
LTYPE
  5
14
100
AcDbSymbolTableRecord
100
AcDbLinetypeTableRecord
  2
BYBLOCK
 70
0
  3

 72
65
 73
0
 40
0.0
  0
LTYPE
  5
15
100
AcDbSymbolTableRecord
100
AcDbLinetypeTableRecord
  2
BYLAYER
 70
0
  3

 72
65
 73
0
 40
0.0
  0
LTYPE
  5
16
100
AcDbSymbolTableRecord
100
AcDbLinetypeTableRecord
  2
CONTINUOUS
 70
64
  3
Solid line
 72
65
 73
0
 40
0.0
  0
LTYPE
  5
1F5
100
AcDbSymbolTableRecord
100
AcDbLinetypeTableRecord
  2
CENTER
 70
64
  3
____ _ ____ _ ____ _ ____ _ ____ _ ____ _ ____
 72
65
 73
4
 40
0.6
 49
0.375
 74
0
 49
-0.075
 74
0
 49
0.075
 74
0
 49
-0.075
 74
0
  0
LTYPE
  5
1F6
100
AcDbSymbolTableRecord
100
AcDbLinetypeTableRecord
  2
HIDDEN
 70
64
  3
- - - - - - - - - - - - - - - - - - - -
 72
65
 73
2
 40
0.2
 49
0.1
 74
0
 49
-0.1
 74
0
  0
LTYPE
  5
1F7
100
AcDbSymbolTableRecord
100
AcDbLinetypeTableRecord
  2
PHANTOM
 70
64
  3
_____ _ _ _____ _ _ _____ _ _ _____
 72
65
 73
6
 40
0.8
 49
0.45
 74
0
 49
-0.05
 74
0
 49
0.1
 74
0
 49
-0.05
 74
0
 49
0.1
 74
0
 49
-0.05
 74
0
  0
LTYPE
  5
1F8
100
AcDbSymbolTableRecord
100
AcDbLinetypeTableRecord
  2
DOT
 70
64
  3
. . . . . . . . . . . . . . . . . . . .
 72
65
 73
2
 40
0.2
 49
0.1
 74
0
 49
-0.1
 74
0
  0
LTYPE
  5
1F9
100
AcDbSymbolTableRecord
100
AcDbLinetypeTableRecord
  2
DASHED
 70
64
  3
- - - - - - - - - - - - - - - - - - - -
 72
65
 73
2
 40
0.2
 49
0.1
 74
0
 49
-0.1
 74
0
  0
ENDTAB
  0
TABLE
  2
LAYER
  5
2
100
AcDbSymbolTable
 70
36
  0
LAYER
  5
10
100
AcDbSymbolTableRecord
100
AcDbLayerTableRecord
  2
0
 70
0
 62
7
  6
CONTINUOUS
370
-3
390
F
  0
LAYER
  5
1FA
100
AcDbSymbolTableRecord
100
AcDbLayerTableRecord
  2
DEFAULT_1
 70
0
 62
7
  6
CENTER
370
-3
390
F
  0
LAYER
  5
1FB
100
AcDbSymbolTableRecord
100
AcDbLayerTableRecord
  2
DEFAULT_2
 70
0
 62
8
  6
HIDDEN
370
-3
390
F
  0
LAYER
  5
1FC
100
AcDbSymbolTableRecord
100
AcDbLayerTableRecord
  2
DEFAULT_3
 70
0
 62
7
  6
PHANTOM
370
-3
390
F
  0
LAYER
  5
1FD
100
AcDbSymbolTableRecord
100
AcDbLayerTableRecord
  2
01_ALL_DTM_PLN
 70
0
 62
7
  6
CONTINUOUS
370
-3
390
F
  0
LAYER
  5
1FE
100
AcDbSymbolTableRecord
100
AcDbLayerTableRecord
  2
01__ASM_ALL_DTM_PLN
 70
0
 62
7
  6
CONTINUOUS
370
-3
390
F
  0
LAYER
  5
1FF
100
AcDbSymbolTableRecord
100
AcDbLayerTableRecord
  2
01__ASM_DEF_DTM_PLN
 70
0
 62
7
  6
CONTINUOUS
370
-3
390
F
  0
LAYER
  5
200
100
AcDbSymbolTableRecord
100
AcDbLayerTableRecord
  2
01___PRT_ALL_DTM_PLN
 70
0
 62
7
  6
CONTINUOUS
370
-3
390
F
  0
LAYER
  5
201
100
AcDbSymbolTableRecord
100
AcDbLayerTableRecord
  2
01___PRT_DEF_DTM_PLN
 70
0
 62
7
  6
CONTINUOUS
370
-3
390
F
  0
LAYER
  5
202
100
AcDbSymbolTableRecord
100
AcDbLayerTableRecord
  2
02_ALL_AXES
 70
0
 62
7
  6
CONTINUOUS
370
-3
390
F
  0
LAYER
  5
203
100
AcDbSymbolTableRecord
100
AcDbLayerTableRecord
  2
02__ASM_ALL_AXES
 70
0
 62
7
  6
CONTINUOUS
370
-3
390
F
  0
LAYER
  5
204
100
AcDbSymbolTableRecord
100
AcDbLayerTableRecord
  2
02___PRT_ALL_AXES
 70
0
 62
7
  6
CONTINUOUS
370
-3
390
F
  0
LAYER
  5
205
100
AcDbSymbolTableRecord
100
AcDbLayerTableRecord
  2
03_ALL_CURVES
 70
0
 62
7
  6
CONTINUOUS
370
-3
390
F
  0
LAYER
  5
206
100
AcDbSymbolTableRecord
100
AcDbLayerTableRecord
  2
03__ASM_ALL_CURVES
 70
0
 62
7
  6
CONTINUOUS
370
-3
390
F
  0
LAYER
  5
207
100
AcDbSymbolTableRecord
100
AcDbLayerTableRecord
  2
03___PRT_ALL_CURVES
 70
0
 62
7
  6
CONTINUOUS
370
-3
390
F
  0
LAYER
  5
208
100
AcDbSymbolTableRecord
100
AcDbLayerTableRecord
  2
04_ALL_DTM_PNT
 70
0
 62
7
  6
CONTINUOUS
370
-3
390
F
  0
LAYER
  5
209
100
AcDbSymbolTableRecord
100
AcDbLayerTableRecord
  2
04__ASM_ALL_DTM_PNT
 70
0
 62
7
  6
CONTINUOUS
370
-3
390
F
  0
LAYER
  5
20A
100
AcDbSymbolTableRecord
100
AcDbLayerTableRecord
  2
04___PRT_ALL_DTM_PNT
 70
0
 62
7
  6
CONTINUOUS
370
-3
390
F
  0
LAYER
  5
20B
100
AcDbSymbolTableRecord
100
AcDbLayerTableRecord
  2
05_ALL_DTM_CSYS
 70
0
 62
7
  6
CONTINUOUS
370
-3
390
F
  0
LAYER
  5
20C
100
AcDbSymbolTableRecord
100
AcDbLayerTableRecord
  2
05__ASM_ALL_DTM_CSYS
 70
0
 62
7
  6
CONTINUOUS
370
-3
390
F
  0
LAYER
  5
20D
100
AcDbSymbolTableRecord
100
AcDbLayerTableRecord
  2
05__ASM_DEF_DTM_CSYS
 70
0
 62
7
  6
CONTINUOUS
370
-3
390
F
  0
LAYER
  5
20E
100
AcDbSymbolTableRecord
100
AcDbLayerTableRecord
  2
05___PRT_ALL_DTM_CSYS
 70
0
 62
7
  6
CONTINUOUS
370
-3
390
F
  0
LAYER
  5
20F
100
AcDbSymbolTableRecord
100
AcDbLayerTableRecord
  2
05___PRT_DEF_DTM_CSYS
 70
0
 62
7
  6
CONTINUOUS
370
-3
390
F
  0
LAYER
  5
210
100
AcDbSymbolTableRecord
100
AcDbLayerTableRecord
  2
06_ALL_SURFS
 70
0
 62
7
  6
CONTINUOUS
370
-3
390
F
  0
LAYER
  5
211
100
AcDbSymbolTableRecord
100
AcDbLayerTableRecord
  2
06__ASM_ALL_SURFS
 70
0
 62
7
  6
CONTINUOUS
370
-3
390
F
  0
LAYER
  5
212
100
AcDbSymbolTableRecord
100
AcDbLayerTableRecord
  2
06___PRT_ALL_SURFS
 70
0
 62
7
  6
CONTINUOUS
370
-3
390
F
  0
LAYER
  5
213
100
AcDbSymbolTableRecord
100
AcDbLayerTableRecord
  2
07__ASM_ALL_SKELETONS
 70
0
 62
7
  6
CONTINUOUS
370
-3
390
F
  0
ENDTAB
  0
TABLE
  2
STYLE
  5
3
100
AcDbSymbolTable
 70
1
  0
STYLE
  5
11
100
AcDbSymbolTableRecord
100
AcDbTextStyleTableRecord
  2
STANDARD
 70
0
 40
0.0
 41
0.8
 50
0.0
 71
0
 42
0.2
  3
txt
  4

  0
STYLE
  5
214
100
AcDbSymbolTableRecord
100
AcDbTextStyleTableRecord
  2
TEXTSTYLE_1
 70
0
 40
0.0
 41
0.8
 50
0.0
 71
0
 42
0.2
  3
gdt
  4

  0
ENDTAB
  0
TABLE
  2
VIEW
  5
6
100
AcDbSymbolTable
 70
0
  0
ENDTAB
  0
TABLE
  2
UCS
  5
7
100
AcDbSymbolTable
 70
0
  0
ENDTAB
  0
TABLE
  2
APPID
  5
9
100
AcDbSymbolTable
 70
1
  0
APPID
  5
215
100
AcDbSymbolTableRecord
100
AcDbRegAppTableRecord
  2
ACAD
 70
0
  0
ENDTAB
  0
TABLE
  2
BLOCK_RECORD
  5
1
100
AcDbSymbolTable
 70
0
  0
BLOCK_RECORD
  5
216
100
AcDbSymbolTableRecord
100
AcDbBlockTableRecord
  2
*Model_Space
  0
BLOCK_RECORD
  5
217
100
AcDbSymbolTableRecord
100
AcDbBlockTableRecord
  2
*Paper_Space
  0
ENDTAB
  0
TABLE
  2
DIMSTYLE
  5
A
100
AcDbSymbolTable
 70
1
100
AcDbDimStyleTable
 71
0
  0
DIMSTYLE
105
218
100
AcDbSymbolTableRecord
100
AcDbDimStyleTableRecord
  2
STANDARD
 70
0
  3

  4

 40
1.0
 41
3.0
 42
0.5
 43
0.38
 44
0.5
 45
0.0
 46
0.0
 47
0.001
 48
0.001
140
1.8
141
0.09
142
0.0
143
25.4
144
1.0
145
0.0
146
1.0
147
0.625
 71
1.0
 72
0.0
 73
0
 74
0
 75
0
 76
0
 77
1
 78
8
170
0
171
2
172
0
173
0
174
0
175
0
176
0
177
0
178
0
270
2
271
3
272
3
273
2
274
2
275
0
280
0
281
0
282
0
283
1
284
8
285
0
286
0
287
3
288
0
340
11
278
46
  0
ENDTAB
  0
ENDSEC
  0
SECTION
  2
BLOCKS
  0
BLOCK
  5
20
100
AcDbEntity
  8
0
100
AcDbBlockBegin
  2
*Model_Space
 70
0
 10
0.0
 20
0.0
 30
0.0
  3
*Model_Space
  1

  0
ENDBLK
  5
21
100
AcDbEntity
  8
0
100
AcDbBlockEnd
  0
BLOCK
  5
1C
100
AcDbEntity
  8
0
100
AcDbBlockBegin
  2
*Paper_Space
 70
0
 10
0.0
 20
0.0
 30
0.0
  3
*Paper_Space
  1

  0
ENDBLK
  5
1D
100
AcDbEntity
  8
0
100
AcDbBlockEnd
  0
ENDSEC
  0
SECTION
  2
ENTITIES
  0
LINE
  5
219
100
AcDbEntity
  8
0
100
AcDbLine
 62
7
  6
CONTINUOUS
 10
27.6866991135
 20
224.1879270223
 11
27.6866991135
 21
202.1299261099
  0
LINE
  5
21A
100
AcDbEntity
  8
0
100
AcDbLine
 62
3
  6
CONTINUOUS
 10
28.5352219518
 20
200.2519568322
 11
28.5352219518
 21
199.6815222875
  0
LINE
  5
21B
100
AcDbEntity
  8
0
100
AcDbLine
 62
7
  6
CONTINUOUS
 10
29.2423316769
 20
199.8437160777
 11
29.2423316769
 21
199.273281533
  0
LINE
  5
21C
100
AcDbEntity
  8
0
100
AcDbLine
 62
7
  6
CONTINUOUS
 10
29.8080194571
 20
200.431711447
 11
29.8080194571
 21
200.1703254078
  0
LINE
  5
21D
100
AcDbEntity
  8
0
100
AcDbLine
 62
7
  6
CONTINUOUS
 10
37.0205386536
 20
196.0062697117
 11
37.0205386536
 21
196.2676557509
  0
LINE
  5
21E
100
AcDbEntity
  8
0
100
AcDbLine
 62
7
  6
CONTINUOUS
 10
28.5619423617
 20
225.229964667
 11
28.410753251
 21
225.4724908316
  0
LINE
  5
21F
100
AcDbEntity
  8
0
100
AcDbLine
 62
7
  6
CONTINUOUS
 10
97.5730425793
 20
234.0997045957
 11
97.2177568812
 21
235.4319763415
  0
LINE
  5
220
100
AcDbEntity
  8
0
100
AcDbLine
 62
7
  6
CONTINUOUS
 10
312.9693600637
 20
34.3669025235
 11
593.9880101515
 21
38.6177924638
  0
LWPOLYLINE
  5
221
100
AcDbEntity
  8
02___PRT_ALL_AXES
100
AcDbPolyline
 62
3
  6
CONTINUOUS
 90
30
 70
0
 10
265.262955787
 20
42.8164200376
 10
267.0057864668
 20
42.0082455165
 10
268.8458774261
 20
41.2076978619
 10
270.706179568
 20
40.4503342205
 10
272.5855086803
 20
39.735518343
 10
274.4828378575
 20
39.0626816674
 10
276.3966568301
 20
38.4314923504
 10
278.325765593
 20
37.841414108
 10
280.2689104165
 20
37.2919570707
 10
282.2248483505
 20
36.7826949882
 10
284.1923329175
 20
36.3132635602
 10
286.1700416855
 20
35.8833228384
 10
288.1566568025
 20
35.4924705727
 10
290.1507721019
 20
35.1403600575
 10
292.1510999992
 20
34.8266740152
 10
294.1560712343
 20
34.5511810425
 10
296.1650616317
 20
34.313492512
 10
298.1770310504
 20
34.1132457323
 10
300.1916327779
 20
33.9500843049
 10
302.2083468224
 20
33.8237718988
 10
304.2266602052
 20
33.7341598598
 10
306.2460408249
 20
33.6810942111
 10
308.2659859537
 20
33.6644343273
 10
310.2859792613
 20
33.6841298597
 10
312.3055133379
 20
33.7402219018
 10
314.3240886159
 20
33.8328293131
 10
316.3411884808
 20
33.9620481049
 10
318.3563097713
 20
34.1280134285
 10
320.368929714
 20
34.3309525623
 10
321.7851602728
 20
34.5002566494
  0
LWPOLYLINE
  5
222
100
AcDbEntity
  8
02___PRT_ALL_AXES
100
AcDbPolyline
 62
3
  6
CONTINUOUS
 90
15
 70
0
 10
159.8691159162
 20
103.6743945286
 10
166.7175264433
 20
98.9989525456
 10
173.7224197324
 20
94.3250113621
 10
180.8269676684
 20
89.6963124814
 10
188.0306060887
 20
85.1178927073
 10
195.3336418893
 20
80.5941477742
 10
202.7351753553
 20
76.1297931428
 10
210.2326355205
 20
71.7296449645
 10
217.8262280025
 20
67.3956364397
 10
225.5135847418
 20
63.1297993992
 10
233.2938228805
 20
58.9319402342
 10
241.1648235921
 20
54.8014244701
 10
249.1266892394
 20
50.735716506
 10
257.1806943964
 20
46.7314292042
 10
265.2629257529
 20
42.8164344009
  0
LINE
  5
223
100
AcDbEntity
  8
02___PRT_ALL_AXES
100
AcDbLine
 62
3
  6
CONTINUOUS
 10
159.8689758239
 20
103.6744912448
 11
159.8691159162
 21
103.6743945286
  0
LINE
  5
224
100
AcDbEntity
  8
0
100
AcDbLine
 62
7
  6
CONTINUOUS
 10
28.1898673026
 20
225.1875246073
 11
28.3235747447
 21
225.0563340498
  0
LWPOLYLINE
  5
225
100
AcDbEntity
  8
02___PRT_ALL_AXES
100
AcDbPolyline
 62
3
  6
CONTINUOUS
 90
29
 70
0
 10
134.9402275887
 20
139.7349759253
 10
134.9873574181
 20
139.4847881767
 10
135.3084229341
 20
138.0193111542
 10
135.6737930699
 20
136.5587130698
 10
136.0836025772
 20
135.1036106913
 10
136.5380205435
 20
133.6546118119
 10
137.0372225627
 20
132.2124016126
 10
137.5814480061
 20
130.7775716639
 10
138.1708414435
 20
129.3510223408
 10
138.8054602184
 20
127.93373688
 10
139.4856972885
 20
126.5259314952
 10
140.2118959313
 20
125.1280941711
 10
140.9846168298
 20
123.7404466312
 10
141.8045344974
 20
122.3632079221
 10
142.6721504561
 20
120.9970501613
 10
143.5882201832
 20
119.6423698751
 10
144.5530370182
 20
118.3003291923
 10
145.5670561212
 20
116.9717677228
 10
146.6305430319
 20
115.6577653951
 10
147.744135181
 20
114.3589794632
 10
148.9073219177
 20
113.0773936862
 10
150.1199552975
 20
111.8144427428
 10
151.3813479935
 20
110.5720089955
 10
152.6907978418
 20
109.3517756637
 10
154.0476401926
 20
108.1551086956
 10
155.4509694659
 20
106.9834613368
 10
156.9003783185
 20
105.8378070061
 10
158.3951501631
 20
104.7193500658
 10
159.8689758239
 20
103.6744912448
  0
LINE
  5
226
100
AcDbEntity
  8
0
100
AcDbLine
 62
7
  6
CONTINUOUS
 10
303.1806565503
 20
425.6075236412
 11
312.8616748955
 21
431.1968288252
  0
LINE
  5
227
100
AcDbEntity
  8
0
100
AcDbLine
 62
7
  6
CONTINUOUS
 10
310.9227572057
 20
61.9553073191
 11
310.5222771183
 21
62.0247899073
  0
LINE
  5
228
100
AcDbEntity
  8
0
100
AcDbLine
 62
7
  6
CONTINUOUS
 10
312.2075612935
 20
34.5540758881
 11
311.5004515684
 21
34.9623166426
  0
LINE
  5
229
100
AcDbEntity
  8
0
100
AcDbLine
 62
7
  6
CONTINUOUS
 10
30.0707809598
 20
197.4421369417
 11
29.3636712347
 21
197.8503776962
  0
LINE
  5
22A
100
AcDbEntity
  8
0
100
AcDbLine
 62
7
  6
CONTINUOUS
 10
311.3791120106
 20
36.3852204794
 11
310.6720022854
 21
36.7934612339
  0
LINE
  5
22B
100
AcDbEntity
  8
0
100
AcDbLine
 62
7
  6
CONTINUOUS
 10
29.2423316769
 20
199.273281533
 11
28.5352219518
 21
199.6815222875
  0
LINE
  5
22C
100
AcDbEntity
  8
0
100
AcDbLine
 62
7
  6
CONTINUOUS
 10
311.3791120106
 20
36.9556550241
 11
310.6720022854
 21
37.3638957786
  0
LINE
  5
22D
100
AcDbEntity
  8
0
100
AcDbLine
 62
7
  6
CONTINUOUS
 10
28.5352219518
 20
200.2519568322
 11
29.2423316769
 21
199.8437160777
  0
LINE
  5
22E
100
AcDbEntity
  8
0
100
AcDbLine
 62
3
  6
CONTINUOUS
 10
310.1063145053
 20
38.343690316
 11
302.8937953088
 21
42.5077460121
  0
LINE
  5
22F
100
AcDbEntity
  8
0
100
AcDbLine
 62
7
  6
CONTINUOUS
 10
29.8080194571
 20
200.1703254078
 11
37.0205386536
 21
196.0062697117
  0
LINE
  5
230
100
AcDbEntity
  8
0
100
AcDbLine
 62
7
  6
CONTINUOUS
 10
310.1544255448
 20
38.5773000619
 11
28.218511404
 21
201.3493935886
  0
LINE
  5
231
100
AcDbEntity
  8
0
100
AcDbLine
 62
7
  6
CONTINUOUS
 10
310.1063233372
 20
39.0785687545
 11
27.6866991135
 21
202.1299261099
  0
LINE
  5
232
100
AcDbEntity
  8
0
100
AcDbLine
 62
7
  6
CONTINUOUS
 10
310.5305856396
 20
39.3235152468
 11
310.7427185571
 21
39.2010430204
  0
LINE
  5
233
100
AcDbEntity
  8
03___PRT_ALL_CURVES
100
AcDbLine
 62
2
  6
CONTINUOUS
 10
274.6371096528
 20
65.6224983013
 11
275.1627548851
 21
65.3190237504
  0
LINE
  5
234
100
AcDbEntity
  8
03___PRT_ALL_CURVES
100
AcDbLine
 62
2
  6
CONTINUOUS
 10
282.305846123
 20
61.1950513981
 11
282.9747480015
 21
60.8088694551
  0
LINE
  5
235
100
AcDbEntity
  8
03___PRT_ALL_CURVES
100
AcDbLine
 62
2
  6
CONTINUOUS
 10
283.9267282621
 20
60.2592558293
 11
284.3234197571
 21
60.0302310691
  0
LINE
  5
236
100
AcDbEntity
  8
03___PRT_ALL_CURVES
100
AcDbLine
 62
2
  6
CONTINUOUS
 10
284.9194573225
 20
59.6861164052
 11
285.3609433331
 21
59.4312301044
  0
LINE
  5
237
100
AcDbEntity
  8
03___PRT_ALL_CURVES
100
AcDbLine
 62
2
  6
CONTINUOUS
 10
290.9346507238
 20
56.2341525911
 11
289.841131272
 21
56.8654820583
  0
LINE
  5
238
100
AcDbEntity
  8
03___PRT_ALL_CURVES
100
AcDbLine
 62
2
  6
CONTINUOUS
 10
289.417093606
 20
57.1102947806
 11
289.0564826138
 21
57.318488924
  0
LINE
  5
239
100
AcDbEntity
  8
03___PRT_ALL_CURVES
100
AcDbLine
 62
2
  6
CONTINUOUS
 10
288.7534828299
 20
57.4934219733
 11
287.4626358938
 21
58.2386759394
  0
LINE
  5
23A
100
AcDbEntity
  8
03___PRT_ALL_CURVES
100
AcDbLine
 62
2
  6
CONTINUOUS
 10
287.3176371593
 20
58.322389104
 11
286.9179140161
 21
58.5531641475
  0
LINE
  5
23B
100
AcDbEntity
  8
03___PRT_ALL_CURVES
100
AcDbLine
 62
2
  6
CONTINUOUS
 10
285.8128443995
 20
59.1911619547
 11
285.4400867203
 21
59.4063688325
  0
LINE
  5
23C
100
AcDbEntity
  8
03___PRT_ALL_CURVES
100
AcDbLine
 62
2
  6
CONTINUOUS
 10
281.1332236629
 20
61.8928811256
 11
280.6853624476
 21
62.1514480692
  0
LINE
  5
23D
100
AcDbEntity
  8
03___PRT_ALL_CURVES
100
AcDbLine
 62
2
  6
CONTINUOUS
 10
279.9433544699
 20
62.5798368835
 11
279.5989025788
 21
62.7787017766
  0
LINE
  5
23E
100
AcDbEntity
  8
03___PRT_ALL_CURVES
100
AcDbLine
 62
2
  6
CONTINUOUS
 10
279.1938207813
 20
63.0125705706
 11
278.8332097892
 21
63.220764714
  0
LINE
  5
23F
100
AcDbEntity
  8
03___PRT_ALL_CURVES
100
AcDbLine
 62
2
  6
CONTINUOUS
 10
277.7104463774
 20
63.8689778075
 11
276.6088473751
 21
64.5049718999
  0
LINE
  5
240
100
AcDbEntity
  8
03___PRT_ALL_CURVES
100
AcDbLine
 62
2
  6
CONTINUOUS
 10
274.3882855451
 20
65.7869848672
 11
273.988562402
 21
66.0177599106
  0
LINE
  5
241
100
AcDbEntity
  8
03___PRT_ALL_CURVES
100
AcDbLine
 62
2
  6
CONTINUOUS
 10
272.8834927854
 20
66.6557577178
 11
272.5107351062
 21
66.8709645956
  0
LINE
  5
242
100
AcDbEntity
  8
03___PRT_ALL_CURVES
100
AcDbLine
 62
2
  6
CONTINUOUS
 10
272.2438026947
 20
67.0250746088
 11
271.8993508036
 21
67.2239395019
  0
LINE
  5
243
100
AcDbEntity
  8
03___PRT_ALL_CURVES
100
AcDbLine
 62
2
  6
CONTINUOUS
 10
271.369979422
 20
67.5295652974
 11
271.0206807172
 21
67.7312284364
  0
LINE
  5
244
100
AcDbEntity
  8
03___PRT_ALL_CURVES
100
AcDbLine
 62
2
  6
CONTINUOUS
 10
270.4911617314
 20
68.0369394493
 11
270.1468652163
 21
68.2357146381
  0
LINE
  5
245
100
AcDbEntity
  8
03___PRT_ALL_CURVES
100
AcDbLine
 62
2
  6
CONTINUOUS
 10
276.9694583673
 20
64.6195229874
 11
277.7104463774
 21
64.1917230385
  0
LINE
  5
246
100
AcDbEntity
  8
03___PRT_ALL_CURVES
100
AcDbLine
 62
2
  6
CONTINUOUS
 10
287.8311256358
 20
58.3486783315
 11
288.7534828299
 21
57.8161672043
  0
LINE
  5
247
100
AcDbEntity
  8
03___PRT_ALL_CURVES
100
AcDbLine
 62
2
  6
CONTINUOUS
 10
290.2017422642
 20
56.9800331459
 11
290.9346507238
 21
56.5568978221
  0
LINE
  5
248
100
AcDbEntity
  8
03___PRT_ALL_CURVES
100
AcDbLine
 62
2
  6
CONTINUOUS
 10
282.872044484
 20
61.2325715485
 11
282.702537618
 21
61.3304341693
  0
LINE
  5
249
100
AcDbEntity
  8
03___PRT_ALL_CURVES
100
AcDbLine
 62
2
  6
CONTINUOUS
 10
275.2356262159
 20
65.6413599512
 11
275.0338011477
 21
65.7578810725
  0
LINE
  5
24A
100
AcDbEntity
  8
03___PRT_ALL_CURVES
100
AcDbLine
 62
2
  6
CONTINUOUS
 10
286.7555461255
 20
59.1465710842
 11
285.9776983058
 21
59.5956515727
  0
LINE
  5
24B
100
AcDbEntity
  8
03___PRT_ALL_CURVES
100
AcDbLine
 62
2
  6
CONTINUOUS
 10
273.8261945114
 20
66.6111668473
 11
273.0483466917
 21
67.0602473359
  0
LINE
  5
24C
100
AcDbEntity
  8
03___PRT_ALL_CURVES
100
AcDbLine
 62
2
  6
CONTINUOUS
 10
271.1859135726
 20
68.1428360037
 11
271.2045982761
 21
68.1320486291
  0
LINE
  5
24D
100
AcDbEntity
  8
03___PRT_ALL_CURVES
100
AcDbLine
 62
2
  6
CONTINUOUS
 10
280.7689415678
 20
62.632085793
 11
280.7889271478
 21
62.620547374
  0
LINE
  5
24E
100
AcDbEntity
  8
03___PRT_ALL_CURVES
100
AcDbLine
 62
2
  6
CONTINUOUS
 10
273.1501379318
 20
67.3242246964
 11
273.7271665445
 21
66.9910846082
  0
LINE
  5
24F
100
AcDbEntity
  8
03___PRT_ALL_CURVES
100
AcDbLine
 62
2
  6
CONTINUOUS
 10
286.0794895459
 20
59.8596289333
 11
286.6565181586
 21
59.5264888451
  0
LINE
  5
250
100
AcDbEntity
  8
03___PRT_ALL_CURVES
100
AcDbLine
 62
2
  6
CONTINUOUS
 10
284.3234197571
 20
60.9359091747
 11
284.4360590174
 21
60.8708783387
  0
LINE
  5
251
100
AcDbEntity
  8
03___PRT_ALL_CURVES
100
AcDbLine
 62
2
  6
CONTINUOUS
 10
282.702537618
 20
61.9404200198
 11
282.872044484
 21
61.842557399
  0
LINE
  5
252
100
AcDbEntity
  8
03___PRT_ALL_CURVES
100
AcDbLine
 62
2
  6
CONTINUOUS
 10
277.6428578296
 20
64.8635541811
 11
276.9694583673
 21
65.2523327466
  0
LINE
  5
253
100
AcDbEntity
  8
03___PRT_ALL_CURVES
100
AcDbLine
 62
2
  6
CONTINUOUS
 10
284.4388557849
 20
61.2334917788
 11
284.3234197571
 21
61.3001372928
  0
LINE
  5
254
100
AcDbEntity
  8
03___PRT_ALL_CURVES
100
AcDbLine
 62
2
  6
CONTINUOUS
 10
276.9694583673
 20
65.5750779775
 11
277.6428578296
 21
65.186299412
  0
LINE
  5
255
100
AcDbEntity
  8
03___PRT_ALL_CURVES
100
AcDbLine
 62
2
  6
CONTINUOUS
 10
282.8476504565
 20
62.2022101185
 11
282.702537618
 21
62.2859891595
  0
LINE
  5
256
100
AcDbEntity
  8
03___PRT_ALL_CURVES
100
AcDbLine
 62
2
  6
CONTINUOUS
 10
279.9631749302
 20
64.198542619
 11
279.9433544699
 21
64.2099857082
  0
LINE
  5
257
100
AcDbEntity
  8
03___PRT_ALL_CURVES
100
AcDbLine
 62
2
  6
CONTINUOUS
 10
286.3770406964
 20
60.6080713747
 11
286.3589670081
 21
60.6185059875
  0
LINE
  5
258
100
AcDbEntity
  8
03___PRT_ALL_CURVES
100
AcDbLine
 62
2
  6
CONTINUOUS
 10
273.4476890823
 20
68.0726671378
 11
273.4296153939
 21
68.0831017506
  0
LINE
  5
259
100
AcDbEntity
  8
03___PRT_ALL_CURVES
100
AcDbLine
 62
2
  6
CONTINUOUS
 10
275.0338011477
 20
67.2297681946
 11
275.2356262159
 21
67.1132470733
  0
LINE
  5
25A
100
AcDbEntity
  8
03___PRT_ALL_CURVES
100
AcDbLine
 62
2
  6
CONTINUOUS
 10
282.702537618
 20
62.8023212914
 11
282.8395709059
 21
62.7232068756
  0
LINE
  5
25B
100
AcDbEntity
  8
03___PRT_ALL_CURVES
100
AcDbLine
 62
2
  6
CONTINUOUS
 10
284.3234197571
 20
61.8665257226
 11
284.4388557849
 21
61.7998802086
  0
LINE
  5
25C
100
AcDbEntity
  8
03___PRT_ALL_CURVES
100
AcDbLine
 62
2
  6
CONTINUOUS
 10
288.3578671761
 20
59.5581202638
 11
287.4977508635
 21
60.0546974143
  0
LINE
  5
25D
100
AcDbEntity
  8
03___PRT_ALL_CURVES
100
AcDbLine
 62
2
  6
CONTINUOUS
 10
277.7050082184
 20
65.7084121125
 11
276.9694583673
 21
66.1330724099
  0
LINE
  5
25E
100
AcDbEntity
  8
03___PRT_ALL_CURVES
100
AcDbLine
 62
2
  6
CONTINUOUS
 10
270.1468652163
 20
70.3947545225
 11
270.7370323897
 21
70.0540290543
  0
LINE
  5
25F
100
AcDbEntity
  8
03___PRT_ALL_CURVES
100
AcDbLine
 62
2
  6
CONTINUOUS
 10
271.653634835
 20
69.5248403576
 11
272.2438026947
 21
69.1841144932
  0
LINE
  5
260
100
AcDbEntity
  8
03___PRT_ALL_CURVES
100
AcDbLine
 62
2
  6
CONTINUOUS
 10
273.2392559408
 20
68.6094022953
 11
273.6542246282
 21
68.3698254319
  0
LINE
  5
261
100
AcDbEntity
  8
03___PRT_ALL_CURVES
100
AcDbLine
 62
2
  6
CONTINUOUS
 10
276.6088473751
 20
66.6640117843
 11
277.7050082184
 21
66.0311573434
  0
LINE
  5
262
100
AcDbEntity
  8
03___PRT_ALL_CURVES
100
AcDbLine
 62
2
  6
CONTINUOUS
 10
278.8332097892
 20
65.3798045984
 11
279.1938207813
 21
65.171610455
  0
LINE
  5
263
100
AcDbEntity
  8
03___PRT_ALL_CURVES
100
AcDbLine
 62
2
  6
CONTINUOUS
 10
279.5989025788
 20
64.937741661
 11
280.0495508178
 21
64.6775656649
  0
LINE
  5
264
100
AcDbEntity
  8
03___PRT_ALL_CURVES
100
AcDbLine
 62
2
  6
CONTINUOUS
 10
280.7889271478
 20
64.2506961988
 11
281.1332236629
 21
64.05192101
  0
LINE
  5
265
100
AcDbEntity
  8
03___PRT_ALL_CURVES
100
AcDbLine
 62
2
  6
CONTINUOUS
 10
286.1686075549
 20
61.1448065322
 11
286.5835762423
 21
60.9052296688
  0
LINE
  5
266
100
AcDbEntity
  8
03___PRT_ALL_CURVES
100
AcDbLine
 62
2
  6
CONTINUOUS
 10
287.4977508635
 20
60.3774426453
 11
288.7345269613
 21
59.6634057859
  0
LINE
  5
267
100
AcDbEntity
  8
03___PRT_ALL_CURVES
100
AcDbLine
 62
2
  6
CONTINUOUS
 10
289.0564826138
 20
59.4775288084
 11
289.417093606
 21
59.269334665
  0
LINE
  5
268
100
AcDbEntity
  8
03___PRT_ALL_CURVES
100
AcDbLine
 62
2
  6
CONTINUOUS
 10
289.841131272
 20
59.0245219427
 11
290.2017422642
 21
58.8163277993
  0
LINE
  5
269
100
AcDbEntity
  8
03___PRT_ALL_CURVES
100
AcDbLine
 62
2
  6
CONTINUOUS
 10
284.344076442
 20
62.2190073811
 11
283.9267282621
 21
62.4599580141
  0
LINE
  5
26A
100
AcDbEntity
  8
03___PRT_ALL_CURVES
100
AcDbLine
 62
2
  6
CONTINUOUS
 10
282.9747480015
 20
63.0095716399
 11
282.305846123
 21
63.395753583
  0
LINE
  5
26B
100
AcDbEntity
  8
03___PRT_ALL_CURVES
100
AcDbLine
 62
2
  6
CONTINUOUS
 10
275.1627548851
 20
67.5197259353
 11
274.6371096528
 21
67.8232004862
  0
LINE
  5
26C
100
AcDbEntity
  8
03___PRT_ALL_CURVES
100
AcDbLine
 62
2
  6
CONTINUOUS
 10
298.1247803189
 20
55.901581174
 11
262.6389204313
 21
76.3888884477
  0
LINE
  5
26D
100
AcDbEntity
  8
03___PRT_ALL_CURVES
100
AcDbLine
 62
2
  6
CONTINUOUS
 10
262.6389204313
 20
76.3888884477
 11
262.6051480657
 21
76.4086668584
  0
LINE
  5
26E
100
AcDbEntity
  8
0
100
AcDbLine
 62
7
  6
CONTINUOUS
 10
28.4107546289
 20
225.472491564
 11
28.4716305225
 21
225.5104107137
  0
LINE
  5
26F
100
AcDbEntity
  8
0
100
AcDbLine
 62
7
  6
CONTINUOUS
 10
28.4716308722
 20
225.5104109157
 11
301.7003457536
 21
383.2581413758
  0
LINE
  5
270
100
AcDbEntity
  8
03___PRT_ALL_CURVES
100
AcDbLine
 62
2
  6
CONTINUOUS
 10
279.7702336599
 20
68.6977355995
 11
279.8013886456
 21
68.6800441911
  0
LINE
  5
271
100
AcDbEntity
  8
03___PRT_ALL_CURVES
100
AcDbLine
 62
2
  6
CONTINUOUS
 10
279.7907196123
 20
72.955563704
 11
279.7605159267
 21
72.9727222668
  0
LINE
  5
272
100
AcDbEntity
  8
03___PRT_ALL_CURVES
100
AcDbLine
 62
2
  6
CONTINUOUS
 10
265.3669047286
 20
77.0880089815
 11
265.7975314219
 21
76.8393921687
  0
LINE
  5
273
100
AcDbEntity
  8
03___PRT_ALL_CURVES
100
AcDbLine
 62
2
  6
CONTINUOUS
 10
267.4807043941
 20
75.8676337842
 11
267.8764571069
 21
75.6391510179
  0
LINE
  5
274
100
AcDbEntity
  8
03___PRT_ALL_CURVES
100
AcDbLine
 62
2
  6
CONTINUOUS
 10
269.24690429
 20
74.8479408674
 11
269.7821529599
 21
74.5389218947
  0
LINE
  5
275
100
AcDbEntity
  8
03___PRT_ALL_CURVES
100
AcDbLine
 62
2
  6
CONTINUOUS
 10
269.9101807331
 20
74.4650066975
 11
270.6083647047
 21
74.0619191126
  0
LINE
  5
276
100
AcDbEntity
  8
03___PRT_ALL_CURVES
100
AcDbLine
 62
2
  6
CONTINUOUS
 10
272.8503598222
 20
72.767531911
 11
273.3312520146
 21
72.4898949552
  0
LINE
  5
277
100
AcDbEntity
  8
03___PRT_ALL_CURVES
100
AcDbLine
 62
2
  6
CONTINUOUS
 10
273.5241320073
 20
72.3785381588
 11
274.1974011962
 21
71.989834805
  0
LINE
  5
278
100
AcDbEntity
  8
03___PRT_ALL_CURVES
100
AcDbLine
 62
2
  6
CONTINUOUS
 10
277.3253657431
 20
70.1839444865
 11
277.7365075183
 21
69.9465770419
  0
LINE
  5
279
100
AcDbEntity
  8
03___PRT_ALL_CURVES
100
AcDbLine
 62
2
  6
CONTINUOUS
 10
282.3545975159
 20
67.280381856
 11
282.7308651748
 21
67.0631485363
  0
LINE
  5
27A
100
AcDbEntity
  8
03___PRT_ALL_CURVES
100
AcDbLine
 62
2
  6
CONTINUOUS
 10
284.7055042188
 20
65.9231159437
 11
285.0866702149
 21
65.7030546317
  0
LINE
  5
27B
100
AcDbEntity
  8
03___PRT_ALL_CURVES
100
AcDbLine
 62
2
  6
CONTINUOUS
 10
286.7698458644
 20
64.7312947015
 11
287.2004698893
 21
64.4826794293
  0
LINE
  5
27C
100
AcDbEntity
  8
03___PRT_ALL_CURVES
100
AcDbLine
 62
2
  6
CONTINUOUS
 10
288.9124809639
 20
63.4942717353
 11
289.3431076659
 21
63.2456549174
  0
LINE
  5
27D
100
AcDbEntity
  8
03___PRT_ALL_CURVES
100
AcDbLine
 62
2
  6
CONTINUOUS
 10
290.2934238693
 20
62.6970020138
 11
290.6696605612
 21
62.4797865725
  0
LINE
  5
27E
100
AcDbEntity
  8
03___PRT_ALL_CURVES
100
AcDbLine
 62
2
  6
CONTINUOUS
 10
292.6449367261
 20
61.3393861462
 11
293.0264380491
 21
61.1191312375
  0
LINE
  5
27F
100
AcDbEntity
  8
03___PRT_ALL_CURVES
100
AcDbLine
 62
2
  6
CONTINUOUS
 10
293.4069697707
 20
60.8994361158
 11
294.1051202273
 21
60.4963678804
  0
LINE
  5
280
100
AcDbEntity
  8
03___PRT_ALL_CURVES
100
AcDbLine
 62
2
  6
CONTINUOUS
 10
296.3469783516
 20
59.20205977
 11
296.8277028805
 21
58.9245196126
  0
LINE
  5
281
100
AcDbEntity
  8
03___PRT_ALL_CURVES
100
AcDbLine
 62
2
  6
CONTINUOUS
 10
275.5927320272
 20
71.5272001166
 11
275.9146457824
 21
71.3413473279
  0
LINE
  5
282
100
AcDbEntity
  8
03___PRT_ALL_CURVES
100
AcDbLine
 62
2
  6
CONTINUOUS
 10
270.8853781906
 20
74.8107894165
 11
272.3306726293
 21
73.9763671604
  0
LINE
  5
283
100
AcDbEntity
  8
03___PRT_ALL_CURVES
100
AcDbLine
 62
2
  6
CONTINUOUS
 10
294.3828350371
 20
61.2448332838
 11
295.8272888462
 21
60.4108963545
  0
LINE
  5
284
100
AcDbEntity
  8
03___PRT_ALL_CURVES
100
AcDbLine
 62
2
  6
CONTINUOUS
 10
267.8764571069
 20
77.1599649158
 11
268.3368608305
 21
76.8941567154
  0
LINE
  5
285
100
AcDbEntity
  8
03___PRT_ALL_CURVES
100
AcDbLine
 62
2
  6
CONTINUOUS
 10
295.6045983035
 20
61.2592401577
 11
294.6051902497
 21
61.8362356133
  0
LINE
  5
286
100
AcDbEntity
  8
03___PRT_ALL_CURVES
100
AcDbLine
 62
2
  6
CONTINUOUS
 10
272.1083151061
 20
74.8245186991
 11
271.1087058561
 21
75.4016303127
  0
LINE
  5
287
100
AcDbEntity
  8
03___PRT_ALL_CURVES
100
AcDbLine
 62
2
  6
CONTINUOUS
 10
268.3419600099
 20
77.5932121983
 11
267.8764571069
 21
77.8619643447
  0
LINE
  5
288
100
AcDbEntity
  8
03___PRT_ALL_CURVES
100
AcDbLine
 62
2
  6
CONTINUOUS
 10
264.381714525
 20
81.0408317116
 11
265.0942840171
 21
80.6294388304
  0
LINE
  5
289
100
AcDbEntity
  8
03___PRT_ALL_CURVES
100
AcDbLine
 62
2
  6
CONTINUOUS
 10
265.7975314219
 20
80.2234279372
 11
266.7827216186
 21
79.6546409796
  0
LINE
  5
28A
100
AcDbEntity
  8
03___PRT_ALL_CURVES
100
AcDbLine
 62
2
  6
CONTINUOUS
 10
285.7845188932
 20
68.6841963926
 11
286.4970883854
 21
68.2728035115
  0
LINE
  5
28B
100
AcDbEntity
  8
03___PRT_ALL_CURVES
100
AcDbLine
 62
2
  6
CONTINUOUS
 10
287.2004698893
 20
67.8667151978
 11
288.1854924226
 21
67.2980250386
  0
LINE
  5
28C
100
AcDbEntity
  8
03___PRT_ALL_CURVES
100
AcDbLine
 62
2
  6
CONTINUOUS
 10
267.8764571069
 20
79.0515730379
 11
268.3419600099
 21
78.7828208915
  0
LINE
  5
28D
100
AcDbEntity
  8
03___PRT_ALL_CURVES
100
AcDbLine
 62
2
  6
CONTINUOUS
 10
295.4519910694
 20
63.8394203935
 11
294.7734907822
 21
64.231143855
  0
LINE
  5
28E
100
AcDbEntity
  8
03___PRT_ALL_CURVES
100
AcDbLine
 62
2
  6
CONTINUOUS
 10
293.0264380491
 20
65.2397824023
 11
292.3774129893
 21
65.6144887183
  0
LINE
  5
28F
100
AcDbEntity
  8
03___PRT_ALL_CURVES
100
AcDbLine
 62
2
  6
CONTINUOUS
 10
290.6552778201
 20
66.6087414288
 11
290.02194328
 21
66.974389024
  0
LINE
  5
290
100
AcDbEntity
  8
03___PRT_ALL_CURVES
100
AcDbLine
 62
2
  6
CONTINUOUS
 10
289.3431076659
 20
67.3663060821
 11
288.6410003746
 21
67.7716587455
  0
LINE
  5
291
100
AcDbEntity
  8
03___PRT_ALL_CURVES
100
AcDbLine
 62
2
  6
CONTINUOUS
 10
288.1854924226
 20
68.0346404348
 11
285.5123702582
 21
69.577933322
  0
LINE
  5
292
100
AcDbEntity
  8
03___PRT_ALL_CURVES
100
AcDbLine
 62
2
  6
CONTINUOUS
 10
285.0866702149
 20
69.8237057964
 11
284.4379469493
 21
70.1982378755
  0
LINE
  5
293
100
AcDbEntity
  8
03___PRT_ALL_CURVES
100
AcDbLine
 62
2
  6
CONTINUOUS
 10
282.7158090005
 20
71.1924921907
 11
282.0818401149
 21
71.5585060171
  0
LINE
  5
294
100
AcDbEntity
  8
03___PRT_ALL_CURVES
100
AcDbLine
 62
2
  6
CONTINUOUS
 10
277.1817763602
 20
74.3874951447
 11
276.5584373348
 21
74.7473719573
  0
LINE
  5
295
100
AcDbEntity
  8
03___PRT_ALL_CURVES
100
AcDbLine
 62
2
  6
CONTINUOUS
 10
274.7070979624
 20
75.8162190618
 11
274.078695502
 21
76.1790191838
  0
LINE
  5
296
100
AcDbEntity
  8
03___PRT_ALL_CURVES
100
AcDbLine
 62
2
  6
CONTINUOUS
 10
271.9547354191
 20
77.4052603681
 11
271.2767045894
 21
77.7967127943
  0
LINE
  5
297
100
AcDbEntity
  8
03___PRT_ALL_CURVES
100
AcDbLine
 62
2
  6
CONTINUOUS
 10
268.4012100473
 20
79.4568427851
 11
267.208251353
 21
80.145582227
  0
LINE
  5
298
100
AcDbEntity
  8
03___PRT_ALL_CURVES
100
AcDbLine
 62
2
  6
CONTINUOUS
 10
266.7827216186
 20
80.3912563758
 11
264.1090938186
 21
81.9348411853
  0
LINE
  5
299
100
AcDbEntity
  8
03___PRT_ALL_CURVES
100
AcDbLine
 62
2
  6
CONTINUOUS
 10
262.6389204409
 20
85.5273145828
 11
298.1247805535
 21
65.0400071792
  0
LINE
  5
29A
100
AcDbEntity
  8
0
100
AcDbLine
 62
7
  6
CONTINUOUS
 10
27.6972636482
 20
224.3326925569
 11
310.0957588025
 21
61.2935337994
  0
LINE
  5
29B
100
AcDbEntity
  8
0
100
AcDbLine
 62
7
  6
CONTINUOUS
 10
310.5305856396
 20
61.1365654341
 11
310.7427185571
 21
61.0140932077
  0
LINE
  5
29C
100
AcDbEntity
  8
0
100
AcDbLine
 62
7
  6
CONTINUOUS
 10
27.9881257214
 20
224.7421567162
 11
27.974607455
 21
224.7499613144
  0
LINE
  5
29D
100
AcDbEntity
  8
0
100
AcDbLine
 62
7
  6
CONTINUOUS
 10
310.4729420017
 20
61.6531615609
 11
310.8184975138
 21
61.4536595063
  0
LINE
  5
29E
100
AcDbEntity
  8
0
100
AcDbLine
 62
7
  6
CONTINUOUS
 10
310.3184480117
 20
63.4511445298
 11
29.4544651833
 21
225.6043722252
  0
LINE
  5
29F
100
AcDbEntity
  8
03___PRT_ALL_CURVES
100
AcDbLine
 62
2
  6
CONTINUOUS
 10
268.3419600099
 20
78.7828208915
 11
268.3528518283
 21
78.776447137
  0
LINE
  5
2A0
100
AcDbEntity
  8
03___PRT_ALL_CURVES
100
AcDbLine
 62
2
  6
CONTINUOUS
 10
298.1247805535
 20
65.0400071792
 11
298.1585485561
 21
65.0202308143
  0
LINE
  5
2A1
100
AcDbEntity
  8
03___PRT_ALL_CURVES
100
AcDbLine
 62
2
  6
CONTINUOUS
 10
279.7805592221
 20
69.4754390426
 11
279.7625940368
 21
69.4859811473
  0
LINE
  5
2A2
100
AcDbEntity
  8
03___PRT_ALL_CURVES
100
AcDbLine
 62
2
  6
CONTINUOUS
 10
279.7805592144
 20
72.1788919625
 11
279.7985162326
 21
72.1683529358
  0
LINE
  5
2A3
100
AcDbEntity
  8
0
100
AcDbLine
 62
7
  6
CONTINUOUS
 10
29.4544651833
 20
225.6043722252
 11
302.2551255804
 21
383.1049667889
  0
LINE
  5
2A4
100
AcDbEntity
  8
0
100
AcDbLine
 62
7
  6
CONTINUOUS
 10
94.4934471389
 20
239.20751451
 11
287.4620843146
 21
350.6173441015
  0
LINE
  5
2A5
100
AcDbEntity
  8
0
100
AcDbLine
 62
7
  6
CONTINUOUS
 10
29.8080243447
 20
200.1703169422
 11
29.2423316769
 21
199.8437160777
  0
LWPOLYLINE
  5
2A6
100
AcDbEntity
  8
0
100
AcDbPolyline
 62
7
  6
CONTINUOUS
 90
9
 70
0
 10
267.5753816886
 20
117.4350585209
 10
265.8717902556
 20
118.0159574213
 10
264.1181670502
 20
118.6600208015
 10
262.3923807777
 20
119.3378058289
 10
260.695226555
 20
120.0455364859
 10
259.0278829709
 20
120.7797260718
 10
257.3918531746
 20
121.5371126149
 10
255.7881404381
 20
122.3150338808
 10
254.279813997
 20
123.0791548724
  0
LWPOLYLINE
  5
2A7
100
AcDbEntity
  8
0
100
AcDbPolyline
 62
7
  6
CONTINUOUS
 90
15
 70
0
 10
254.2798013716
 20
123.0791614021
 10
246.3262154288
 20
127.2357185373
 10
238.3913324943
 20
131.4639258964
 10
230.5426892044
 20
135.7197467041
 10
222.7806293812
 20
139.9957121774
 10
215.1056464254
 20
144.2853427758
 10
207.5184552563
 20
148.5840411935
 10
200.0197551973
 20
152.8883840326
 10
192.6102486766
 20
157.1970721243
 10
185.2905453241
 20
161.5100366406
 10
178.0614180167
 20
165.8291613058
 10
170.9234987756
 20
170.1574034786
 10
163.8772305111
 20
174.499646669
 10
156.9229597471
 20
178.8615753236
 10
150.1143186256
 20
183.2159573935
  0
LINE
  5
2A8
100
AcDbEntity
  8
0
100
AcDbLine
 62
7
  6
CONTINUOUS
 10
287.3931737004
 20
101.0008829856
 11
94.4936406803
 21
212.3689608187
  0
LINE
  5
2A9
100
AcDbEntity
  8
0
100
AcDbLine
 62
7
  6
CONTINUOUS
 10
289.443138918
 20
101.2039473122
 11
96.5436058979
 21
212.5720251454
  0
LINE
  5
2AA
100
AcDbEntity
  8
0
100
AcDbLine
 62
7
  6
CONTINUOUS
 10
295.8577051608
 20
98.4100747622
 11
264.8975981898
 21
116.2844964827
  0
LINE
  5
2AB
100
AcDbEntity
  8
0
100
AcDbLine
 62
7
  6
CONTINUOUS
 10
135.1086404289
 20
191.2164909955
 11
103.5533527993
 21
209.4345326556
  0
LINE
  5
2AC
100
AcDbEntity
  8
0
100
AcDbLine
 62
7
  6
CONTINUOUS
 10
280.7401981836
 20
120.4865786622
 11
284.9828565345
 21
118.0371341351
  0
LINE
  5
2AD
100
AcDbEntity
  8
02___PRT_ALL_AXES
100
AcDbLine
 62
7
  6
CONTINUOUS
 10
292.0539537859
 20
113.9547265899
 11
295.8313628196
 21
111.7738878046
  0
LINE
  5
2AE
100
AcDbEntity
  8
0
100
AcDbLine
 62
7
  6
CONTINUOUS
 10
263.7798459421
 20
122.9131512922
 11
209.9145704309
 21
156.7272219666
  0
LWPOLYLINE
  5
2AF
100
AcDbEntity
  8
0
100
AcDbPolyline
 62
7
  6
CONTINUOUS
 90
11
 70
0
 10
150.1142899528
 20
183.2159759206
 10
149.1281966332
 20
183.8639980039
 10
148.1162636496
 20
184.5531908418
 10
147.1355470367
 20
185.2472028615
 10
146.1870187306
 20
185.9460102328
 10
145.2714073917
 20
186.6497917202
 10
144.3894387201
 20
187.3588280321
 10
143.5416998864
 20
188.073511416
 10
142.7285622855
 20
188.794505829
 10
141.9504037629
 20
189.5224501043
 10
141.2416024978
 20
190.2233989719
  0
LINE
  5
2B0
100
AcDbEntity
  8
0
100
AcDbLine
 62
7
  6
CONTINUOUS
 10
310.6522271121
 20
38.7758257772
 11
310.4797784237
 21
38.9669277239
  0
LINE
  5
2B1
100
AcDbEntity
  8
0
100
AcDbLine
 62
7
  6
CONTINUOUS
 10
302.0495218252
 20
383.4378989542
 11
302.2096701517
 21
383.6367643542
  0
LINE
  5
2B2
100
AcDbEntity
  8
0
100
AcDbLine
 62
7
  6
CONTINUOUS
 10
97.2177568812
 20
235.4319763415
 11
290.1863940569
 21
346.841805933
  0
LINE
  5
2B3
100
AcDbEntity
  8
0
100
AcDbLine
 62
7
  6
CONTINUOUS
 10
97.5730425793
 20
234.0997045957
 11
290.541679755
 21
345.5095341872
  0
LINE
  5
2B4
100
AcDbEntity
  8
0
100
AcDbLine
 62
7
  6
CONTINUOUS
 10
103.5532346966
 20
225.8119378844
 11
144.8384312714
 21
249.6478149594
  0
LINE
  5
2B5
100
AcDbEntity
  8
0
100
AcDbLine
 62
7
  6
CONTINUOUS
 10
214.9317565763
 20
290.1159736302
 11
296.5218718723
 21
337.2217674759
  0
LINE
  5
2B6
100
AcDbEntity
  8
02___PRT_ALL_AXES
100
AcDbLine
 62
7
  6
CONTINUOUS
 10
297.4228167991
 20
114.3191642309
 11
297.7965866863
 21
114.1033729678
  0
LINE
  5
2B7
100
AcDbEntity
  8
02___PRT_ALL_AXES
100
AcDbLine
 62
7
  6
CONTINUOUS
 10
298.4229297512
 20
116.0511498271
 11
298.7965697193
 21
115.8354335712
  0
LINE
  5
2B8
100
AcDbEntity
  8
0
100
AcDbLine
 62
7
  6
CONTINUOUS
 10
282.3866182189
 20
126.1961025521
 11
285.2150571194
 21
124.563139534
  0
LINE
  5
2B9
100
AcDbEntity
  8
0
100
AcDbLine
 62
7
  6
CONTINUOUS
 10
293.7003738212
 20
119.6642504798
 11
296.5288127218
 21
118.0312874617
  0
LINE
  5
2BA
100
AcDbEntity
  8
0
100
AcDbLine
 62
7
  6
CONTINUOUS
 10
280.9723987686
 20
128.6455888954
 11
282.3866182189
 21
127.8291073864
  0
LINE
  5
2BB
100
AcDbEntity
  8
0
100
AcDbLine
 62
7
  6
CONTINUOUS
 10
285.2150571194
 20
126.1961443683
 11
293.7003738212
 21
121.2972553141
  0
LINE
  5
2BC
100
AcDbEntity
  8
0
100
AcDbLine
 62
7
  6
CONTINUOUS
 10
296.5288127218
 20
119.664292296
 11
297.9430321721
 21
118.8478107869
  0
LINE
  5
2BD
100
AcDbEntity
  8
0
100
AcDbLine
 62
7
  6
CONTINUOUS
 10
280.9723987686
 20
132.7281009811
 11
297.9430321721
 21
122.9303228726
  0
LINE
  5
2BE
100
AcDbEntity
  8
0
100
AcDbLine
 62
7
  6
CONTINUOUS
 10
283.0937102802
 20
133.9528334427
 11
300.0643436837
 21
124.1550553342
  0
LINE
  5
2BF
100
AcDbEntity
  8
0
100
AcDbLine
 62
7
  6
CONTINUOUS
 10
297.9430321721
 20
135.1778591295
 11
280.9723987686
 21
144.975637238
  0
LINE
  5
2C0
100
AcDbEntity
  8
03___PRT_ALL_CURVES
100
AcDbLine
 62
2
  6
CONTINUOUS
 10
282.7308651748
 20
69.9265163836
 11
284.2801086378
 21
66.4547354484
  0
LINE
  5
2C1
100
AcDbEntity
  8
03___PRT_ALL_CURVES
100
AcDbLine
 62
2
  6
CONTINUOUS
 10
284.4379469493
 20
67.2836043949
 11
282.7158090005
 21
71.1924921907
  0
LINE
  5
2C2
100
AcDbEntity
  8
03___PRT_ALL_CURVES
100
AcDbLine
 62
2
  6
CONTINUOUS
 10
269.7821529599
 20
74.5389218947
 11
268.9652632933
 21
76.6793885942
  0
LINE
  5
2C3
100
AcDbEntity
  8
03___PRT_ALL_CURVES
100
AcDbLine
 62
2
  6
CONTINUOUS
 10
268.3368608305
 20
76.8941567154
 11
268.9056757139
 21
75.2792027744
  0
LINE
  5
2C4
100
AcDbEntity
  8
0
100
AcDbLine
 62
7
  6
CONTINUOUS
 10
297.9430321721
 20
139.2603712152
 11
280.9723987686
 21
149.0581493237
  0
LINE
  5
2C5
100
AcDbEntity
  8
0
100
AcDbLine
 62
7
  6
CONTINUOUS
 10
300.0643436837
 20
140.4851036768
 11
283.0937102802
 21
150.2828817853
  0
LINE
  5
2C6
100
AcDbEntity
  8
03___PRT_ALL_CURVES
100
AcDbLine
 62
2
  6
CONTINUOUS
 10
290.6696605612
 20
65.3431544198
 11
292.2195774935
 21
61.8709846643
  0
LINE
  5
2C7
100
AcDbEntity
  8
03___PRT_ALL_CURVES
100
AcDbLine
 62
2
  6
CONTINUOUS
 10
292.3774129893
 20
62.6998552377
 11
290.6552778201
 21
66.6087414288
  0
LINE
  5
2C8
100
AcDbEntity
  8
03___PRT_ALL_CURVES
100
AcDbLine
 62
2
  6
CONTINUOUS
 10
280.6853624476
 20
62.1514480692
 11
279.9631749302
 21
64.198542619
  0
LINE
  5
2C9
100
AcDbEntity
  8
03___PRT_ALL_CURVES
100
AcDbLine
 62
2
  6
CONTINUOUS
 10
280.0495508178
 20
64.6775656649
 11
280.7689415678
 21
62.632085793
  0
LINE
  5
2CA
100
AcDbEntity
  8
03___PRT_ALL_CURVES
100
AcDbLine
 62
2
  6
CONTINUOUS
 10
285.3609433331
 20
59.4312301044
 11
285.0529520889
 21
60.4761537768
  0
LINE
  5
2CB
100
AcDbEntity
  8
03___PRT_ALL_CURVES
100
AcDbLine
 62
2
  6
CONTINUOUS
 10
273.6542246282
 20
68.3698254319
 11
274.3882855451
 21
65.7869848672
  0
LINE
  5
2CC
100
AcDbEntity
  8
03___PRT_ALL_CURVES
100
AcDbLine
 62
2
  6
CONTINUOUS
 10
286.5835762423
 20
60.9052296688
 11
287.3176371593
 21
58.322389104
  0
LINE
  5
2CD
100
AcDbEntity
  8
03___PRT_ALL_CURVES
100
AcDbLine
 62
2
  6
CONTINUOUS
 10
273.3312520146
 20
72.4898949552
 11
271.9547354191
 21
77.4052603681
  0
LINE
  5
2CE
100
AcDbEntity
  8
03___PRT_ALL_CURVES
100
AcDbLine
 62
2
  6
CONTINUOUS
 10
284.6900719126
 20
60.5060937177
 11
284.9194573225
 21
59.6861164052
  0
LINE
  5
2CF
100
AcDbEntity
  8
03___PRT_ALL_CURVES
100
AcDbLine
 62
2
  6
CONTINUOUS
 10
274.518644289
 20
74.6333104487
 11
275.2462699536
 21
72.0246363522
  0
LINE
  5
2D0
100
AcDbEntity
  8
03___PRT_ALL_CURVES
100
AcDbLine
 62
2
  6
CONTINUOUS
 10
275.6326670506
 20
72.4819871408
 11
274.7070979624
 21
75.8162190618
  0
LINE
  5
2D1
100
AcDbEntity
  8
03___PRT_ALL_CURVES
100
AcDbLine
 62
2
  6
CONTINUOUS
 10
273.988562402
 20
66.0177599106
 11
273.8261945114
 21
66.6111668473
  0
LINE
  5
2D2
100
AcDbEntity
  8
03___PRT_ALL_CURVES
100
AcDbLine
 62
2
  6
CONTINUOUS
 10
286.9179140161
 20
58.5531641475
 11
286.7555461255
 21
59.1465710842
  0
LINE
  5
2D3
100
AcDbEntity
  8
03___PRT_ALL_CURVES
100
AcDbLine
 62
2
  6
CONTINUOUS
 10
272.3306726293
 20
73.9763671604
 11
272.5287779936
 21
73.2335735565
  0
LINE
  5
2D4
100
AcDbEntity
  8
03___PRT_ALL_CURVES
100
AcDbLine
 62
2
  6
CONTINUOUS
 10
271.6079404255
 20
76.7199097998
 11
272.1083151061
 21
74.8245186991
  0
LINE
  5
2D5
100
AcDbEntity
  8
03___PRT_ALL_CURVES
100
AcDbLine
 62
2
  6
CONTINUOUS
 10
273.7271665445
 20
66.9910846082
 11
273.4476890823
 21
68.0726671378
  0
LINE
  5
2D6
100
AcDbEntity
  8
03___PRT_ALL_CURVES
100
AcDbLine
 62
2
  6
CONTINUOUS
 10
286.6565181586
 20
59.5264888451
 11
286.3770406964
 21
60.6080713747
  0
LINE
  5
2D7
100
AcDbEntity
  8
03___PRT_ALL_CURVES
100
AcDbLine
 62
2
  6
CONTINUOUS
 10
271.0206807172
 20
67.7312284364
 11
270.4911617314
 21
69.8836365137
  0
LINE
  5
2D8
100
AcDbEntity
  8
03___PRT_ALL_CURVES
100
AcDbLine
 62
2
  6
CONTINUOUS
 10
270.7370323897
 20
70.0540290543
 11
271.1859135726
 21
68.1428360037
  0
LINE
  5
2D9
100
AcDbEntity
  8
03___PRT_ALL_CURVES
100
AcDbLine
 62
2
  6
CONTINUOUS
 10
276.7164433321
 20
73.319446258
 11
277.0034519854
 21
70.6724698601
  0
LINE
  5
2DA
100
AcDbEntity
  8
03___PRT_ALL_CURVES
100
AcDbLine
 62
2
  6
CONTINUOUS
 10
260.9362670065
 20
79.3378017926
 11
260.9362670065
 21
84.5440586398
  0
LINE
  5
2DB
100
AcDbEntity
  8
03___PRT_ALL_CURVES
100
AcDbLine
 62
2
  6
CONTINUOUS
 10
264.1090938186
 20
81.9348411853
 11
264.1090938186
 21
81.5118991135
  0
LINE
  5
2DC
100
AcDbEntity
  8
03___PRT_ALL_CURVES
100
AcDbLine
 62
2
  6
CONTINUOUS
 10
265.0942840171
 20
80.6294388304
 11
265.0942840171
 21
77.5601992837
  0
LINE
  5
2DD
100
AcDbEntity
  8
03___PRT_ALL_CURVES
100
AcDbLine
 62
2
  6
CONTINUOUS
 10
265.7975314219
 20
76.8393921687
 11
265.7975314219
 21
80.2234279372
  0
LINE
  5
2DE
100
AcDbEntity
  8
03___PRT_ALL_CURVES
100
AcDbLine
 62
2
  6
CONTINUOUS
 10
266.7827216186
 20
79.6546409796
 11
266.7827216186
 21
80.3912563758
  0
LINE
  5
2DF
100
AcDbEntity
  8
03___PRT_ALL_CURVES
100
AcDbLine
 62
2
  6
CONTINUOUS
 10
267.208251353
 20
80.145582227
 11
267.208251353
 21
76.3397272256
  0
LINE
  5
2E0
100
AcDbEntity
  8
03___PRT_ALL_CURVES
100
AcDbLine
 62
2
  6
CONTINUOUS
 10
267.8764571069
 20
75.6391510179
 11
267.8764571069
 21
77.1599649158
  0
LINE
  5
2E1
100
AcDbEntity
  8
03___PRT_ALL_CURVES
100
AcDbLine
 62
2
  6
CONTINUOUS
 10
267.8764571069
 20
77.8619643447
 11
267.8764571069
 21
79.0515730379
  0
LINE
  5
2E2
100
AcDbEntity
  8
03___PRT_ALL_CURVES
100
AcDbLine
 62
2
  6
CONTINUOUS
 10
296.8277028805
 20
58.9245196126
 11
295.4519910694
 21
63.8394203935
  0
LINE
  5
2E3
100
AcDbEntity
  8
03___PRT_ALL_CURVES
100
AcDbLine
 62
2
  6
CONTINUOUS
 10
295.8272888462
 20
60.4108963545
 11
296.0260740024
 21
59.6676886655
  0
LINE
  5
2E4
100
AcDbEntity
  8
03___PRT_ALL_CURVES
100
AcDbLine
 62
2
  6
CONTINUOUS
 10
295.1052296034
 20
63.1540504684
 11
295.6045983035
 21
61.2592401577
  0
LINE
  5
2E5
100
AcDbEntity
  8
03___PRT_ALL_CURVES
100
AcDbLine
 62
2
  6
CONTINUOUS
 10
277.7365075183
 20
69.9465770419
 11
277.1817763602
 21
74.3874951447
  0
LINE
  5
2E6
100
AcDbEntity
  8
03___PRT_ALL_CURVES
100
AcDbLine
 62
2
  6
CONTINUOUS
 10
270.1468652163
 20
68.2357146381
 11
270.1468652163
 21
70.3947545225
  0
LINE
  5
2E7
100
AcDbEntity
  8
03___PRT_ALL_CURVES
100
AcDbLine
 62
2
  6
CONTINUOUS
 10
270.4911617314
 20
69.8836365137
 11
270.4911617314
 21
68.0369394493
  0
LINE
  5
2E8
100
AcDbEntity
  8
03___PRT_ALL_CURVES
100
AcDbLine
 62
2
  6
CONTINUOUS
 10
271.8993508036
 20
67.2239395019
 11
271.8993508036
 21
69.0771494761
  0
LINE
  5
2E9
100
AcDbEntity
  8
03___PRT_ALL_CURVES
100
AcDbLine
 62
2
  6
CONTINUOUS
 10
272.2438026947
 20
69.1841144932
 11
272.2438026947
 21
67.0250746088
  0
LINE
  5
2EA
100
AcDbEntity
  8
0
100
AcDbLine
 62
7
  6
CONTINUOUS
 10
272.4870820668
 20
144.1590093723
 11
272.4870820668
 21
143.3425069552
  0
LINE
  5
2EB
100
AcDbEntity
  8
03___PRT_ALL_CURVES
100
AcDbLine
 62
2
  6
CONTINUOUS
 10
274.6371096528
 20
67.8232004862
 11
274.6371096528
 21
65.6224983013
  0
LINE
  5
2EC
100
AcDbEntity
  8
03___PRT_ALL_CURVES
100
AcDbLine
 62
2
  6
CONTINUOUS
 10
275.0338011477
 20
65.7578810725
 11
275.0338011477
 21
67.2297681946
  0
LINE
  5
2ED
100
AcDbEntity
  8
0
100
AcDbLine
 62
7
  6
CONTINUOUS
 10
276.0226306925
 20
142.1178055997
 11
276.0226306925
 21
141.3013031826
  0
LINE
  5
2EE
100
AcDbEntity
  8
03___PRT_ALL_CURVES
100
AcDbLine
 62
2
  6
CONTINUOUS
 10
276.6088473751
 20
64.5049718999
 11
276.6088473751
 21
66.6640117843
  0
LINE
  5
2EF
100
AcDbEntity
  8
03___PRT_ALL_CURVES
100
AcDbLine
 62
2
  6
CONTINUOUS
 10
276.9694583673
 20
66.1330724099
 11
276.9694583673
 21
65.5750779775
  0
LINE
  5
2F0
100
AcDbEntity
  8
03___PRT_ALL_CURVES
100
AcDbLine
 62
2
  6
CONTINUOUS
 10
276.9694583673
 20
65.2523327466
 11
276.9694583673
 21
64.6195229874
  0
LINE
  5
2F1
100
AcDbEntity
  8
03___PRT_ALL_CURVES
100
AcDbLine
 62
2
  6
CONTINUOUS
 10
277.6428578296
 20
65.186299412
 11
277.6428578296
 21
64.8635541811
  0
LINE
  5
2F2
100
AcDbEntity
  8
03___PRT_ALL_CURVES
100
AcDbLine
 62
2
  6
CONTINUOUS
 10
277.7050082184
 20
66.0311573434
 11
277.7050082184
 21
65.7084121125
  0
LINE
  5
2F3
100
AcDbEntity
  8
03___PRT_ALL_CURVES
100
AcDbLine
 62
2
  6
CONTINUOUS
 10
277.7104463774
 20
64.1917230385
 11
277.7104463774
 21
63.8689778075
  0
LINE
  5
2F4
100
AcDbEntity
  8
0
100
AcDbLine
 62
7
  6
CONTINUOUS
 10
278.1439422042
 20
143.3425380614
 11
278.1439422042
 21
142.5260356442
  0
LINE
  5
2F5
100
AcDbEntity
  8
03___PRT_ALL_CURVES
100
AcDbLine
 62
2
  6
CONTINUOUS
 10
278.8332097892
 20
63.220764714
 11
278.8332097892
 21
65.3798045984
  0
LINE
  5
2F6
100
AcDbEntity
  8
03___PRT_ALL_CURVES
100
AcDbLine
 62
2
  6
CONTINUOUS
 10
279.1938207813
 20
65.171610455
 11
279.1938207813
 21
63.0125705706
  0
LINE
  5
2F7
100
AcDbEntity
  8
03___PRT_ALL_CURVES
100
AcDbLine
 62
2
  6
CONTINUOUS
 10
279.5989025788
 20
62.7787017766
 11
279.5989025788
 21
64.937741661
  0
LINE
  5
2F8
100
AcDbEntity
  8
03___PRT_ALL_CURVES
100
AcDbLine
 62
2
  6
CONTINUOUS
 10
279.9433544699
 20
64.2099857082
 11
279.9433544699
 21
62.5798368835
  0
LINE
  5
2F9
100
AcDbEntity
  8
03___PRT_ALL_CURVES
100
AcDbLine
 62
2
  6
CONTINUOUS
 10
280.7889271478
 20
62.620547374
 11
280.7889271478
 21
64.2506961988
  0
LINE
  5
2FA
100
AcDbEntity
  8
03___PRT_ALL_CURVES
100
AcDbLine
 62
2
  6
CONTINUOUS
 10
281.1332236629
 20
64.05192101
 11
281.1332236629
 21
61.8928811256
  0
LINE
  5
2FB
100
AcDbEntity
  8
03___PRT_ALL_CURVES
100
AcDbLine
 62
2
  6
CONTINUOUS
 10
282.0818401149
 20
71.5585060171
 11
282.0818401149
 21
67.7526509571
  0
LINE
  5
2FC
100
AcDbEntity
  8
03___PRT_ALL_CURVES
100
AcDbLine
 62
2
  6
CONTINUOUS
 10
282.305846123
 20
63.395753583
 11
282.305846123
 21
61.1950513981
  0
LINE
  5
2FD
100
AcDbEntity
  8
0
100
AcDbLine
 62
7
  6
CONTINUOUS
 10
282.3866182189
 20
127.8291073864
 11
282.3866182189
 21
126.1961025521
  0
LINE
  5
2FE
100
AcDbEntity
  8
03___PRT_ALL_CURVES
100
AcDbLine
 62
2
  6
CONTINUOUS
 10
282.702537618
 20
61.3304341693
 11
282.702537618
 21
61.9404200198
  0
LINE
  5
2FF
100
AcDbEntity
  8
03___PRT_ALL_CURVES
100
AcDbLine
 62
2
  6
CONTINUOUS
 10
282.702537618
 20
62.2859891595
 11
282.702537618
 21
62.8023212914
  0
LINE
  5
300
100
AcDbEntity
  8
03___PRT_ALL_CURVES
100
AcDbLine
 62
2
  6
CONTINUOUS
 10
282.7308651748
 20
67.0631485363
 11
282.7308651748
 21
69.9265163836
  0
LINE
  5
301
100
AcDbEntity
  8
03___PRT_ALL_CURVES
100
AcDbLine
 62
2
  6
CONTINUOUS
 10
283.9267282621
 20
62.4599580141
 11
283.9267282621
 21
60.2592558293
  0
LINE
  5
302
100
AcDbEntity
  8
03___PRT_ALL_CURVES
100
AcDbLine
 62
2
  6
CONTINUOUS
 10
284.3234197571
 20
60.0302310691
 11
284.3234197571
 21
60.9359091747
  0
LINE
  5
303
100
AcDbEntity
  8
03___PRT_ALL_CURVES
100
AcDbLine
 62
2
  6
CONTINUOUS
 10
284.3234197571
 20
61.3001372928
 11
284.3234197571
 21
61.8665257226
  0
LINE
  5
304
100
AcDbEntity
  8
03___PRT_ALL_CURVES
100
AcDbLine
 62
2
  6
CONTINUOUS
 10
284.4379469493
 20
70.1982378755
 11
284.4379469493
 21
67.2836043949
  0
LINE
  5
305
100
AcDbEntity
  8
03___PRT_ALL_CURVES
100
AcDbLine
 62
2
  6
CONTINUOUS
 10
285.0866702149
 20
65.7030546317
 11
285.0866702149
 21
69.8237057964
  0
LINE
  5
306
100
AcDbEntity
  8
0
100
AcDbLine
 62
7
  6
CONTINUOUS
 10
285.2150571194
 20
124.563139534
 11
285.2150571194
 21
126.1961443683
  0
LINE
  5
307
100
AcDbEntity
  8
03___PRT_ALL_CURVES
100
AcDbLine
 62
2
  6
CONTINUOUS
 10
285.5123702582
 20
69.577933322
 11
285.5123702582
 21
69.1549912502
  0
LINE
  5
308
100
AcDbEntity
  8
0
100
AcDbLine
 62
7
  6
CONTINUOUS
 10
286.0183712262
 20
113.6557086779
 11
286.0183712262
 21
121.0930564035
  0
LINE
  5
309
100
AcDbEntity
  8
03___PRT_ALL_CURVES
100
AcDbLine
 62
2
  6
CONTINUOUS
 10
286.4970883854
 20
68.2728035115
 11
286.4970883854
 21
65.2035639647
  0
LINE
  5
30A
100
AcDbEntity
  8
03___PRT_ALL_CURVES
100
AcDbLine
 62
2
  6
CONTINUOUS
 10
287.2004698893
 20
64.4826794293
 11
287.2004698893
 21
67.8667151978
  0
LINE
  5
30B
100
AcDbEntity
  8
03___PRT_ALL_CURVES
100
AcDbLine
 62
2
  6
CONTINUOUS
 10
287.4626358938
 20
58.2386759394
 11
287.4626358938
 21
58.5809641925
  0
LINE
  5
30C
100
AcDbEntity
  8
03___PRT_ALL_CURVES
100
AcDbLine
 62
2
  6
CONTINUOUS
 10
287.4977508635
 20
60.0546974143
 11
287.4977508635
 21
60.3774426453
  0
LINE
  5
30D
100
AcDbEntity
  8
03___PRT_ALL_CURVES
100
AcDbLine
 62
2
  6
CONTINUOUS
 10
288.1854924226
 20
67.2980250386
 11
288.1854924226
 21
68.0346404348
  0
LINE
  5
30E
100
AcDbEntity
  8
03___PRT_ALL_CURVES
100
AcDbLine
 62
2
  6
CONTINUOUS
 10
288.6410003746
 20
67.7716587455
 11
288.6410003746
 21
63.9658038025
  0
LINE
  5
30F
100
AcDbEntity
  8
03___PRT_ALL_CURVES
100
AcDbLine
 62
2
  6
CONTINUOUS
 10
288.7345269613
 20
59.6634057859
 11
288.7345269613
 21
59.3209627483
  0
LINE
  5
310
100
AcDbEntity
  8
03___PRT_ALL_CURVES
100
AcDbLine
 62
2
  6
CONTINUOUS
 10
288.7534828299
 20
57.8161672043
 11
288.7534828299
 21
57.4934219733
  0
LINE
  5
311
100
AcDbEntity
  8
03___PRT_ALL_CURVES
100
AcDbLine
 62
2
  6
CONTINUOUS
 10
289.0564826138
 20
57.318488924
 11
289.0564826138
 21
59.4775288084
  0
LINE
  5
312
100
AcDbEntity
  8
03___PRT_ALL_CURVES
100
AcDbLine
 62
2
  6
CONTINUOUS
 10
289.3431076659
 20
63.2456549174
 11
289.3431076659
 21
67.3663060821
  0
LINE
  5
313
100
AcDbEntity
  8
03___PRT_ALL_CURVES
100
AcDbLine
 62
2
  6
CONTINUOUS
 10
289.417093606
 20
59.269334665
 11
289.417093606
 21
57.1102947806
  0
LINE
  5
314
100
AcDbEntity
  8
03___PRT_ALL_CURVES
100
AcDbLine
 62
2
  6
CONTINUOUS
 10
289.841131272
 20
56.8654820583
 11
289.841131272
 21
59.0245219427
  0
LINE
  5
315
100
AcDbEntity
  8
03___PRT_ALL_CURVES
100
AcDbLine
 62
2
  6
CONTINUOUS
 10
290.02194328
 20
66.974389024
 11
290.02194328
 21
63.1685340809
  0
LINE
  5
316
100
AcDbEntity
  8
03___PRT_ALL_CURVES
100
AcDbLine
 62
2
  6
CONTINUOUS
 10
290.2017422642
 20
58.8163277993
 11
290.2017422642
 21
56.9800331459
  0
LINE
  5
317
100
AcDbEntity
  8
03___PRT_ALL_CURVES
100
AcDbLine
 62
2
  6
CONTINUOUS
 10
290.6696605612
 20
62.4797865725
 11
290.6696605612
 21
65.3431544198
  0
LINE
  5
318
100
AcDbEntity
  8
03___PRT_ALL_CURVES
100
AcDbLine
 62
2
  6
CONTINUOUS
 10
290.9346507238
 20
56.5568978221
 11
290.9346507238
 21
56.2341525911
  0
LINE
  5
319
100
AcDbEntity
  8
0
100
AcDbLine
 62
7
  6
CONTINUOUS
 10
30.83257973
 20
197.2549635771
 11
34.7549199096
 21
197.3142957119
  0
LINE
  5
31A
100
AcDbEntity
  8
03___PRT_ALL_CURVES
100
AcDbLine
 62
2
  6
CONTINUOUS
 10
292.3774129893
 20
65.6144887183
 11
292.3774129893
 21
62.6998552377
  0
LINE
  5
31B
100
AcDbEntity
  8
03___PRT_ALL_CURVES
100
AcDbLine
 62
2
  6
CONTINUOUS
 10
293.0264380491
 20
61.1191312375
 11
293.0264380491
 21
65.2397824023
  0
LINE
  5
31C
100
AcDbEntity
  8
0
100
AcDbLine
 62
7
  6
CONTINUOUS
 10
293.7003738212
 20
121.2972553141
 11
293.7003738212
 21
119.6642504798
  0
LINE
  5
31D
100
AcDbEntity
  8
0
100
AcDbLine
 62
7
  6
CONTINUOUS
 10
296.5288127218
 20
118.0312874617
 11
296.5288127218
 21
119.664292296
  0
LINE
  5
31E
100
AcDbEntity
  8
03___PRT_ALL_CURVES
100
AcDbLine
 62
2
  6
CONTINUOUS
 10
299.8273018805
 20
62.0908172786
 11
299.8273018805
 21
56.8845605599
  0
LINE
  5
31F
100
AcDbEntity
  8
0
100
AcDbLine
 62
7
  6
CONTINUOUS
 10
302.4107540223
 20
384.8501043998
 11
302.4107540223
 21
424.0117246306
  0
LINE
  5
320
100
AcDbEntity
  8
0
100
AcDbLine
 62
7
  6
CONTINUOUS
 10
302.8208086502
 20
384.0847640457
 11
302.8208086502
 21
423.1135795845
  0
LINE
  5
321
100
AcDbEntity
  8
0
100
AcDbLine
 62
7
  6
CONTINUOUS
 10
302.8928002481
 20
125.7881545108
 11
302.8928002481
 21
126.604656928
  0
LINE
  5
322
100
AcDbEntity
  8
0
100
AcDbLine
 62
7
  6
CONTINUOUS
 10
302.8937953088
 20
42.5077460121
 11
302.8937953088
 21
42.7691320512
  0
LINE
  5
323
100
AcDbEntity
  8
0
100
AcDbLine
 62
7
  6
CONTINUOUS
 10
306.4283488739
 20
123.7469507382
 11
306.4283488739
 21
124.5634531554
  0
LINE
  5
324
100
AcDbEntity
  8
0
100
AcDbLine
 62
7
  6
CONTINUOUS
 10
308.5496603855
 20
124.9716831999
 11
308.5496603855
 21
125.788185617
  0
LINE
  5
325
100
AcDbEntity
  8
0
100
AcDbLine
 62
7
  6
CONTINUOUS
 10
310.1063145053
 20
38.6050763551
 11
310.1063145053
 21
38.343690316
  0
LINE
  5
326
100
AcDbEntity
  8
0
100
AcDbLine
 62
7
  6
CONTINUOUS
 10
310.1063233372
 20
61.1365696669
 11
310.1063233372
 21
39.0785687545
  0
LINE
  5
327
100
AcDbEntity
  8
0
100
AcDbLine
 62
7
  6
CONTINUOUS
 10
310.3184480117
 20
62.9612430795
 11
310.3184480117
 21
63.4511445298
  0
LINE
  5
328
100
AcDbEntity
  8
0
100
AcDbLine
 62
3
  6
CONTINUOUS
 10
310.5305856396
 20
61.3815161592
 11
310.5305856396
 21
39.3235152468
  0
LINE
  5
329
100
AcDbEntity
  8
0
100
AcDbLine
 62
3
  6
CONTINUOUS
 10
310.6720022854
 20
37.3638957786
 11
310.6720022854
 21
36.7934612339
  0
LINE
  5
32A
100
AcDbEntity
  8
0
100
AcDbLine
 62
7
  6
CONTINUOUS
 10
310.7427185571
 20
61.0140932077
 11
310.7427185571
 21
39.2010430204
  0
LINE
  5
32B
100
AcDbEntity
  8
0
100
AcDbLine
 62
7
  6
CONTINUOUS
 10
311.3791120106
 20
36.9556550241
 11
311.3791120106
 21
36.3852204794
  0
LINE
  5
32C
100
AcDbEntity
  8
03___PRT_ALL_CURVES
100
AcDbLine
 62
2
  6
CONTINUOUS
 10
274.1974011962
 20
71.989834805
 11
274.518644289
 21
74.6333104487
  0
LINE
  5
32D
100
AcDbEntity
  8
03___PRT_ALL_CURVES
100
AcDbLine
 62
2
  6
CONTINUOUS
 10
274.078695502
 20
76.1790191838
 11
273.5241320073
 21
72.3785381588
  0
LINE
  5
32E
100
AcDbEntity
  8
0
100
AcDbLine
 62
7
  6
CONTINUOUS
 10
330.8689176757
 20
345.509631122
 11
331.2242004155
 21
346.8419045758
  0
LINE
  5
32F
100
AcDbEntity
  8
03___PRT_ALL_CURVES
100
AcDbLine
 62
2
  6
CONTINUOUS
 10
271.2045982761
 20
68.1320486291
 11
271.653634835
 21
69.5248403576
  0
LINE
  5
330
100
AcDbEntity
  8
03___PRT_ALL_CURVES
100
AcDbLine
 62
2
  6
CONTINUOUS
 10
271.8993508036
 20
69.0771494761
 11
271.369979422
 21
67.5295652974
  0
LINE
  5
331
100
AcDbEntity
  8
03___PRT_ALL_CURVES
100
AcDbLine
 62
2
  6
CONTINUOUS
 10
273.4296153939
 20
68.0831017506
 11
273.1501379318
 21
67.3242246964
  0
LINE
  5
332
100
AcDbEntity
  8
03___PRT_ALL_CURVES
100
AcDbLine
 62
2
  6
CONTINUOUS
 10
270.6083647047
 20
74.0619191126
 11
270.8853781906
 21
74.8107894165
  0
LINE
  5
333
100
AcDbEntity
  8
03___PRT_ALL_CURVES
100
AcDbLine
 62
2
  6
CONTINUOUS
 10
271.1087058561
 20
75.4016303127
 11
271.6079404255
 21
76.7199097998
  0
LINE
  5
334
100
AcDbEntity
  8
03___PRT_ALL_CURVES
100
AcDbLine
 62
2
  6
CONTINUOUS
 10
273.0483466917
 20
67.0602473359
 11
272.8834927854
 21
66.6557577178
  0
LINE
  5
335
100
AcDbEntity
  8
03___PRT_ALL_CURVES
100
AcDbLine
 62
2
  6
CONTINUOUS
 10
271.2767045894
 20
77.7967127943
 11
269.9101807331
 21
74.4650066975
  0
LINE
  5
336
100
AcDbEntity
  8
0
100
AcDbLine
 62
7
  6
CONTINUOUS
 10
290.541679755
 20
345.5095341872
 11
290.1863940569
 21
346.841805933
  0
LINE
  5
337
100
AcDbEntity
  8
03___PRT_ALL_CURVES
100
AcDbLine
 62
2
  6
CONTINUOUS
 10
286.3589670081
 20
60.6185059875
 11
286.0794895459
 21
59.8596289333
  0
LINE
  5
338
100
AcDbEntity
  8
03___PRT_ALL_CURVES
100
AcDbLine
 62
2
  6
CONTINUOUS
 10
294.1051202273
 20
60.4963678804
 11
294.3828350371
 21
61.2448332838
  0
LINE
  5
339
100
AcDbEntity
  8
03___PRT_ALL_CURVES
100
AcDbLine
 62
2
  6
CONTINUOUS
 10
294.6051902497
 20
61.8362356133
 11
295.1052296034
 21
63.1540504684
  0
LINE
  5
33A
100
AcDbEntity
  8
03___PRT_ALL_CURVES
100
AcDbLine
 62
2
  6
CONTINUOUS
 10
275.9146457824
 20
71.3413473279
 11
276.7164433321
 21
73.319446258
  0
LINE
  5
33B
100
AcDbEntity
  8
03___PRT_ALL_CURVES
100
AcDbLine
 62
2
  6
CONTINUOUS
 10
285.9776983058
 20
59.5956515727
 11
285.8128443995
 21
59.1911619547
  0
LINE
  5
33C
100
AcDbEntity
  8
03___PRT_ALL_CURVES
100
AcDbLine
 62
2
  6
CONTINUOUS
 10
276.5584373348
 20
74.7473719573
 11
275.6326670506
 21
72.4819871408
  0
LINE
  5
33D
100
AcDbEntity
  8
03___PRT_ALL_CURVES
100
AcDbLine
 62
2
  6
CONTINUOUS
 10
294.7734907822
 20
64.231143855
 11
293.4069697707
 21
60.8994361158
  0
LINE
  5
33E
100
AcDbEntity
  8
03___PRT_ALL_CURVES
100
AcDbLine
 62
2
  6
CONTINUOUS
 10
272.5107351062
 20
66.8709645956
 11
273.2392559408
 21
68.6094022953
  0
LINE
  5
33F
100
AcDbEntity
  8
03___PRT_ALL_CURVES
100
AcDbLine
 62
2
  6
CONTINUOUS
 10
285.4400867203
 20
59.4063688325
 11
286.1686075549
 21
61.1448065322
  0
LINE
  5
340
100
AcDbEntity
  8
0
100
AcDbLine
 62
7
  6
CONTINUOUS
 10
277.0937371415
 20
150.8771731335
 11
274.9724256298
 21
149.6524406718
  0
LINE
  5
341
100
AcDbEntity
  8
0
100
AcDbLine
 62
7
  6
CONTINUOUS
 10
283.0937102802
 20
150.2828817853
 11
280.9723987686
 21
149.0581493237
  0
LINE
  5
342
100
AcDbEntity
  8
0
100
AcDbLine
 62
7
  6
CONTINUOUS
 10
276.0226306925
 20
142.1178055997
 11
278.1439422042
 21
143.3425380614
  0
LINE
  5
343
100
AcDbEntity
  8
0
100
AcDbLine
 62
7
  6
CONTINUOUS
 10
276.0226306925
 20
141.3013031826
 11
278.1439422042
 21
142.5260356442
  0
LINE
  5
344
100
AcDbEntity
  8
0
100
AcDbLine
 62
7
  6
CONTINUOUS
 10
280.9723987686
 20
132.7281009811
 11
283.0937102802
 21
133.9528334427
  0
LINE
  5
345
100
AcDbEntity
  8
0
100
AcDbLine
 62
7
  6
CONTINUOUS
 10
300.0643436837
 20
140.4851036768
 11
297.9430321721
 21
139.2603712152
  0
LINE
  5
346
100
AcDbEntity
  8
0
100
AcDbLine
 62
7
  6
CONTINUOUS
 10
286.6293010082
 20
125.37964875
 11
285.2150571194
 21
124.563139534
  0
LINE
  5
347
100
AcDbEntity
  8
0
100
AcDbLine
 62
7
  6
CONTINUOUS
 10
297.9430321721
 20
122.9303228726
 11
300.0643436837
 21
124.1550553342
  0
LINE
  5
348
100
AcDbEntity
  8
0
100
AcDbLine
 62
7
  6
CONTINUOUS
 10
308.5496603855
 20
125.788185617
 11
306.4283488739
 21
124.5634531554
  0
LINE
  5
349
100
AcDbEntity
  8
0
100
AcDbLine
 62
7
  6
CONTINUOUS
 10
308.5496603855
 20
124.9716831999
 11
306.4283488739
 21
123.7469507382
  0
LINE
  5
34A
100
AcDbEntity
  8
0
100
AcDbLine
 62
7
  6
CONTINUOUS
 10
297.9430443911
 20
118.8477896228
 11
296.5288127218
 21
118.0312874617
  0
LINE
  5
34B
100
AcDbEntity
  8
0
100
AcDbLine
 62
7
  6
CONTINUOUS
 10
306.0643168225
 20
119.4782519004
 11
303.9430053108
 21
118.2535194388
  0
LINE
  5
34C
100
AcDbEntity
  8
0
100
AcDbLine
 62
7
  6
CONTINUOUS
 10
584.1186152955
 20
261.2083486702
 11
584.1733447164
 21
261.2350335493
  0
LINE
  5
34D
100
AcDbEntity
  8
0
100
AcDbLine
 62
7
  6
CONTINUOUS
 10
310.200827358
 20
38.650105766
 11
310.216300325
 21
38.6704537423
  0
LINE
  5
34E
100
AcDbEntity
  8
03___PRT_ALL_CURVES
100
AcDbLine
 62
2
  6
CONTINUOUS
 10
287.4626358938
 20
58.5809641925
 11
288.3578671761
 21
59.5581202638
  0
LINE
  5
34F
100
AcDbEntity
  8
03___PRT_ALL_CURVES
100
AcDbLine
 62
2
  6
CONTINUOUS
 10
288.7345269613
 20
59.3209627483
 11
287.8311256358
 21
58.3486783315
  0
LINE
  5
350
100
AcDbEntity
  8
0
100
AcDbLine
 62
7
  6
CONTINUOUS
 10
586.0245466091
 20
262.3112218331
 11
595.7055649543
 21
267.900527017
  0
LINE
  5
351
100
AcDbEntity
  8
0
100
AcDbLine
 62
7
  6
CONTINUOUS
 10
584.0445431958
 20
261.1680534
 11
583.6847914785
 21
260.960351889
  0
LINE
  5
352
100
AcDbEntity
  8
0
100
AcDbLine
 62
7
  6
CONTINUOUS
 10
585.9462044659
 20
261.7760897953
 11
586.0245466091
 21
261.8213203828
  0
LINE
  5
353
100
AcDbEntity
  8
0
100
AcDbLine
 62
3
  6
CONTINUOUS
 10
586.0245466091
 20
261.8213203828
 11
595.7055649543
 21
267.4106255668
  0
LINE
  5
354
100
AcDbEntity
  8
0
100
AcDbLine
 62
7
  6
CONTINUOUS
 10
596.271248024
 20
267.0840189562
 11
596.6955103264
 21
267.3289654485
  0
LINE
  5
355
100
AcDbEntity
  8
0
100
AcDbLine
 62
7
  6
CONTINUOUS
 10
596.271248024
 20
260.0620981688
 11
596.6955103264
 21
260.3070446612
  0
LINE
  5
356
100
AcDbEntity
  8
0
100
AcDbLine
 62
7
  6
CONTINUOUS
 10
596.6955103264
 20
260.2662195403
 11
596.2358928322
 21
260.0008608403
  0
LWPOLYLINE
  5
357
100
AcDbEntity
  8
0
100
AcDbPolyline
 62
7
  6
CONTINUOUS
 90
3
 70
0
 10
584.0445431958
 20
261.1680534
 10
584.0662602152
 20
261.1803764491
 10
584.1186152955
 20
261.2083486702
  0
LINE
  5
358
100
AcDbEntity
  8
0
100
AcDbLine
 62
7
  6
CONTINUOUS
 10
324.8887753541
 20
337.2218356615
 11
517.7883083742
 21
225.8537578284
  0
LINE
  5
359
100
AcDbEntity
  8
0
100
AcDbLine
 62
7
  6
CONTINUOUS
 10
330.8689176757
 20
345.509631122
 11
523.7684506958
 21
234.1415532888
  0
LINE
  5
35A
100
AcDbEntity
  8
0
100
AcDbLine
 62
7
  6
CONTINUOUS
 10
331.2242004155
 20
346.8419045758
 11
524.1237334356
 21
235.4738267426
  0
LINE
  5
35B
100
AcDbEntity
  8
0
100
AcDbLine
 62
7
  6
CONTINUOUS
 10
333.9484874731
 20
350.6174558411
 11
526.8480204932
 21
239.2493780079
  0
LINE
  5
35C
100
AcDbEntity
  8
0
100
AcDbLine
 62
7
  6
CONTINUOUS
 10
310.1968140287
 20
38.6533519463
 11
310.4797784237
 21
38.9669277239
  0
LWPOLYLINE
  5
35D
100
AcDbEntity
  8
0
100
AcDbPolyline
 62
7
  6
CONTINUOUS
 90
15
 70
0
 10
431.3618813266
 20
162.4598225561
 10
426.9403706866
 20
159.4933298777
 10
422.3887106547
 20
156.5184586738
 10
417.7641682434
 20
153.5697926913
 10
413.0672476118
 20
150.6440892307
 10
408.2985374085
 20
147.738966983
 10
403.4586550508
 20
144.852901747
 10
398.5483176282
 20
141.9853026065
 10
393.5681443855
 20
139.1364283415
 10
388.5188561533
 20
136.3075314373
 10
383.4010786141
 20
133.5007647436
 10
378.2155071793
 20
130.7192873499
 10
372.9627756592
 20
127.9672014575
 10
367.6434023224
 20
125.249539041
 10
362.3201880094
 20
122.6028691532
  0
LINE
  5
35E
100
AcDbEntity
  8
0
100
AcDbLine
 62
7
  6
CONTINUOUS
 10
517.7884264769
 20
209.4763525997
 11
436.1983111809
 21
162.370558754
  0
LINE
  5
35F
100
AcDbEntity
  8
0
100
AcDbLine
 62
7
  6
CONTINUOUS
 10
366.104985876
 20
121.9024000832
 11
325.415584121
 21
98.4105032544
  0
LINE
  5
360
100
AcDbEntity
  8
0
100
AcDbLine
 62
7
  6
CONTINUOUS
 10
524.7982232122
 20
212.6138738606
 11
331.8295860365
 21
101.2040442691
  0
LINE
  5
361
100
AcDbEntity
  8
0
100
AcDbLine
 62
7
  6
CONTINUOUS
 10
526.8482140346
 20
212.4108243167
 11
333.8795768589
 21
101.0009947251
  0
LINE
  5
362
100
AcDbEntity
  8
0
100
AcDbLine
 62
7
  6
CONTINUOUS
 10
583.1191084088
 20
220.9517390934
 11
302.2551255804
 21
383.1049667889
  0
LINE
  5
363
100
AcDbEntity
  8
0
100
AcDbLine
 62
7
  6
CONTINUOUS
 10
302.4086576967
 20
383.218670719
 11
302.0430652492
 21
383.4297408419
  0
LINE
  5
364
100
AcDbEntity
  8
0
100
AcDbLine
 62
7
  6
CONTINUOUS
 10
584.0382690444
 20
220.6234171918
 11
584.4625348795
 21
220.378472739
  0
LINE
  5
365
100
AcDbEntity
  8
0
100
AcDbLine
 62
7
  6
CONTINUOUS
 10
302.5860107829
 20
383.4194889049
 11
302.2096701517
 21
383.6367643542
  0
LINE
  5
366
100
AcDbEntity
  8
0
100
AcDbLine
 62
7
  6
CONTINUOUS
 10
584.2050285403
 20
220.8303514515
 11
584.6292943754
 21
220.5854069988
  0
LINE
  5
367
100
AcDbEntity
  8
0
100
AcDbLine
 62
7
  6
CONTINUOUS
 10
583.6847914785
 20
221.9315363502
 11
302.8208086502
 21
384.0847640457
  0
LINE
  5
368
100
AcDbEntity
  8
0
100
AcDbLine
 62
7
  6
CONTINUOUS
 10
584.5594818691
 20
221.7427057167
 11
584.9810245432
 21
221.4993334461
  0
LINE
  5
369
100
AcDbEntity
  8
0
100
AcDbLine
 62
7
  6
CONTINUOUS
 10
583.1191084088
 20
220.9517390934
 11
310.3184480117
 21
63.4511445298
  0
LINE
  5
36A
100
AcDbEntity
  8
0
100
AcDbLine
 62
7
  6
CONTINUOUS
 10
310.5200211049
 20
61.5384802917
 11
310.0957588025
 21
61.2935337994
  0
LINE
  5
36B
100
AcDbEntity
  8
0
100
AcDbLine
 62
7
  6
CONTINUOUS
 10
310.5305856396
 20
61.3815161592
 11
310.1063233372
 21
61.1365696669
  0
LINE
  5
36C
100
AcDbEntity
  8
0
100
AcDbLine
 62
7
  6
CONTINUOUS
 10
310.8184975138
 20
61.4536595063
 11
584.6026482319
 21
219.5220690821
  0
LINE
  5
36D
100
AcDbEntity
  8
0
100
AcDbLine
 62
7
  6
CONTINUOUS
 10
310.5168847428
 20
61.5589149407
 11
310.092790139
 21
61.3278396405
  0
LINE
  5
36E
100
AcDbEntity
  8
0
100
AcDbLine
 62
7
  6
CONTINUOUS
 10
310.4372475982
 20
62.322565642
 11
310.7542894916
 21
62.4650618999
  0
LINE
  5
36F
100
AcDbEntity
  8
0
100
AcDbLine
 62
7
  6
CONTINUOUS
 10
302.8208086502
 20
423.1135795845
 11
583.6847914785
 21
260.960351889
  0
LINE
  5
370
100
AcDbEntity
  8
0
100
AcDbLine
 62
7
  6
CONTINUOUS
 10
585.5007727437
 20
261.6501309211
 11
585.6646904658
 21
261.555495121
  0
LINE
  5
371
100
AcDbEntity
  8
0
100
AcDbLine
 62
7
  6
CONTINUOUS
 10
585.9421306036
 20
261.7784417876
 11
585.9462044659
 21
261.7760897953
  0
LINE
  5
372
100
AcDbEntity
  8
0
100
AcDbLine
 62
7
  6
CONTINUOUS
 10
585.5807309203
 20
262.1519330017
 11
302.9047599526
 21
425.3512888706
  0
LINE
  5
373
100
AcDbEntity
  8
0
100
AcDbLine
 62
7
  6
CONTINUOUS
 10
584.3691303366
 20
219.8577809899
 11
596.2712444913
 21
211.0293523707
  0
LINE
  5
374
100
AcDbEntity
  8
0
100
AcDbLine
 62
7
  6
CONTINUOUS
 10
584.4691460489
 20
220.3865415988
 11
596.4833774088
 21
211.4749497087
  0
LINE
  5
375
100
AcDbEntity
  8
0
100
AcDbLine
 62
7
  6
CONTINUOUS
 10
596.6955103264
 20
210.5003972163
 11
584.6026482319
 21
219.5220690821
  0
LINE
  5
376
100
AcDbEntity
  8
02___PRT_ALL_AXES
100
AcDbLine
 62
7
  6
CONTINUOUS
 10
484.6190604856
 20
222.4618138165
 11
484.6190604856
 21
222.9517152668
  0
LINE
  5
377
100
AcDbEntity
  8
0
100
AcDbLine
 62
7
  6
CONTINUOUS
 10
310.5305856396
 20
39.3235152468
 11
310.1063233372
 21
39.0785687545
  0
LINE
  5
378
100
AcDbEntity
  8
0
100
AcDbLine
 62
7
  6
CONTINUOUS
 10
596.6955103264
 20
204.2949788461
 11
310.7427185571
 21
39.2010430204
  0
LINE
  5
379
100
AcDbEntity
  8
0
100
AcDbLine
 62
7
  6
CONTINUOUS
 10
596.4055535774
 20
203.6540785278
 11
310.6946119953
 21
38.6997741394
  0
LINE
  5
37A
100
AcDbEntity
  8
0
100
AcDbLine
 62
7
  6
CONTINUOUS
 10
311.3791120106
 20
36.9556550241
 11
595.4227234194
 21
200.9473316343
  0
LINE
  5
37B
100
AcDbEntity
  8
0
100
AcDbLine
 62
7
  6
CONTINUOUS
 10
302.6153147891
 20
424.3531838132
 11
302.4744220382
 21
424.3785907614
  0
LINE
  5
37C
100
AcDbEntity
  8
0
100
AcDbLine
 62
7
  6
CONTINUOUS
 10
302.6021194315
 20
424.5843473336
 11
302.6357278454
 21
424.5730044232
  0
LINE
  5
37D
100
AcDbEntity
  8
0
100
AcDbLine
 62
3
  6
CONTINUOUS
 10
596.271248024
 20
260.0620981688
 11
596.2358928322
 21
260.0825100366
  0
LINE
  5
37E
100
AcDbEntity
  8
0
100
AcDbLine
 62
7
  6
CONTINUOUS
 10
596.6601542292
 20
260.2866319308
 11
596.6955103264
 21
260.2662195403
  0
LINE
  5
37F
100
AcDbEntity
  8
0
100
AcDbLine
 62
3
  6
CONTINUOUS
 10
596.109691999
 20
267.1772912606
 11
596.271248024
 21
267.0840189562
  0
LINE
  5
380
100
AcDbEntity
  8
0
100
AcDbLine
 62
7
  6
CONTINUOUS
 10
595.9873568609
 20
267.2863470626
 11
595.7401758448
 21
267.4290538603
  0
LINE
  5
381
100
AcDbEntity
  8
0
100
AcDbLine
 62
7
  6
CONTINUOUS
 10
312.8616748955
 20
431.1968288252
 11
595.7055649543
 21
267.900527017
  0
LINE
  5
382
100
AcDbEntity
  8
0
100
AcDbLine
 62
7
  6
CONTINUOUS
 10
313.5616630186
 20
431.2661678635
 11
596.4055530774
 21
267.9698660554
  0
LINE
  5
383
100
AcDbEntity
  8
0
100
AcDbLine
 62
7
  6
CONTINUOUS
 10
523.7684506958
 20
234.1415532888
 11
524.1237334356
 21
235.4738267426
  0
LINE
  5
384
100
AcDbEntity
  8
0
100
AcDbLine
 62
7
  6
CONTINUOUS
 10
584.8882762371
 20
261.5125290005
 11
584.6239367643
 21
261.7430757398
  0
LINE
  5
385
100
AcDbEntity
  8
0
100
AcDbLine
 62
3
  6
CONTINUOUS
 10
584.0448802138
 20
220.6314860515
 11
584.2050285403
 21
220.8303514515
  0
LINE
  5
386
100
AcDbEntity
  8
0
100
AcDbLine
 62
7
  6
CONTINUOUS
 10
584.4691460489
 20
220.3865415988
 11
584.6292943754
 21
220.5854069988
  0
LINE
  5
387
100
AcDbEntity
  8
0
100
AcDbLine
 62
7
  6
CONTINUOUS
 10
585.3812895008
 20
261.3254107836
 11
585.0952752644
 21
261.6078787416
  0
LINE
  5
388
100
AcDbEntity
  8
0
100
AcDbLine
 62
7
  6
CONTINUOUS
 10
585.6646904658
 20
222.5901598395
 11
596.6955103264
 21
241.8018338793
  0
LINE
  5
389
100
AcDbEntity
  8
0
100
AcDbLine
 62
7
  6
CONTINUOUS
 10
584.9807367445
 20
221.4207531352
 11
585.6270188376
 21
222.5453352061
  0
LINE
  5
38A
100
AcDbEntity
  8
0
100
AcDbLine
 62
7
  6
CONTINUOUS
 10
584.9132547074
 20
261.5435177654
 11
585.0921408725
 21
261.2128660165
  0
LINE
  5
38B
100
AcDbEntity
  8
0
100
AcDbLine
 62
7
  6
CONTINUOUS
 10
584.9082461832
 20
261.9473078988
 11
585.0882280057
 21
261.6075857728
  0
LINE
  5
38C
100
AcDbEntity
  8
0
100
AcDbLine
 62
7
  6
CONTINUOUS
 10
583.6847914785
 20
260.960351889
 11
583.6847914785
 21
221.9315363502
  0
LINE
  5
38D
100
AcDbEntity
  8
0
100
AcDbLine
 62
3
  6
CONTINUOUS
 10
584.5594818691
 20
221.7427057167
 11
584.5594818691
 21
221.8520479267
  0
LINE
  5
38E
100
AcDbEntity
  8
0
100
AcDbLine
 62
7
  6
CONTINUOUS
 10
585.5807309203
 20
261.6620315514
 11
585.5807309203
 21
262.1519330017
  0
LINE
  5
38F
100
AcDbEntity
  8
0
100
AcDbLine
 62
7
  6
CONTINUOUS
 10
585.6646904658
 20
222.5901598395
 11
585.6646904658
 21
261.555495121
  0
LINE
  5
390
100
AcDbEntity
  8
0
100
AcDbLine
 62
7
  6
CONTINUOUS
 10
586.0245466091
 20
261.8213203828
 11
586.0245466091
 21
262.3112218331
  0
LINE
  5
391
100
AcDbEntity
  8
0
100
AcDbLine
 62
7
  6
CONTINUOUS
 10
595.4227234194
 20
200.9473316343
 11
595.4227234194
 21
39.1165525592
  0
LINE
  5
392
100
AcDbEntity
  8
0
100
AcDbLine
 62
7
  6
CONTINUOUS
 10
595.7055649543
 20
267.4106255668
 11
595.7055649543
 21
267.900527017
  0
LINE
  5
393
100
AcDbEntity
  8
0
100
AcDbLine
 62
7
  6
CONTINUOUS
 10
595.9499259141
 20
202.008764228
 11
595.9499259141
 21
39.8513859173
  0
LINE
  5
394
100
AcDbEntity
  8
0
100
AcDbLine
 62
7
  6
CONTINUOUS
 10
596.2358928322
 20
260.0008608403
 11
596.2358928322
 21
266.7370057816
  0
LINE
  5
395
100
AcDbEntity
  8
0
100
AcDbLine
 62
3
  6
CONTINUOUS
 10
596.271248024
 20
267.0840189562
 11
596.271248024
 21
260.0620981688
  0
LINE
  5
396
100
AcDbEntity
  8
0
100
AcDbLine
 62
7
  6
CONTINUOUS
 10
596.2712444913
 20
211.0293523707
 11
596.2712444913
 21
210.8169134486
  0
LINE
  5
397
100
AcDbEntity
  8
0
100
AcDbLine
 62
7
  6
CONTINUOUS
 10
596.4833774088
 20
241.4362596698
 11
596.4833774088
 21
211.4749497087
  0
LINE
  5
398
100
AcDbEntity
  8
0
100
AcDbLine
 62
7
  6
CONTINUOUS
 10
596.6955103264
 20
267.3289654485
 11
596.6955103264
 21
260.3070446612
  0
LINE
  5
399
100
AcDbEntity
  8
0
100
AcDbLine
 62
7
  6
CONTINUOUS
 10
596.6955103264
 20
204.2949788461
 11
596.6955103264
 21
210.5003972163
  0
LINE
  5
39A
100
AcDbEntity
  8
0
100
AcDbLine
 62
7
  6
CONTINUOUS
 10
596.6955103264
 20
241.8018338793
 11
596.6955103264
 21
260.2662195403
  0
LINE
  5
39B
100
AcDbEntity
  8
0
100
AcDbLine
 62
7
  6
CONTINUOUS
 10
595.2261774472
 20
39.0030773666
 11
595.4227234194
 21
39.1165525592
  0
ARC
  5
39C
100
AcDbEntity
  8
0
100
AcDbCircle
 62
7
  6
CONTINUOUS
 10
-1582.9418846008
 20
296.8396081056
 40
1908.069931519
100
AcDbArc
 50
357.5746806931
 51
359.4668576163
  0
ARC
  5
39D
100
AcDbEntity
  8
0
100
AcDbCircle
 62
7
  6
CONTINUOUS
 10
-1227.6571500447
 20
236.6126377011
 40
1656.8644491523
100
AcDbArc
 50
357.3434736913
 51
359.3910190908
  0
ARC
  5
39E
100
AcDbEntity
  8
0
100
AcDbCircle
 62
7
  6
CONTINUOUS
 10
282.4301623999
 20
92.3457620521
 40
35.0997203741
100
AcDbArc
 50
118.4330402861
 51
119.9899323605
  0
ARC
  5
39F
100
AcDbEntity
  8
0
100
AcDbCircle
 62
7
  6
CONTINUOUS
 10
281.0024879339
 20
94.7869404823
 40
32.271767549
100
AcDbArc
 50
119.9609752503
 51
123.2954377555
  0
ARC
  5
3A0
100
AcDbEntity
  8
02___PRT_ALL_AXES
100
AcDbCircle
 62
7
  6
CONTINUOUS
 10
281.7742691032
 20
95.4009413261
 40
32.0198567407
100
AcDbArc
 50
119.9892767612
 51
121.7074364683
  0
ARC
  5
3A1
100
AcDbEntity
  8
0
100
AcDbCircle
 62
7
  6
CONTINUOUS
 10
280.2479961717
 20
95.9490051991
 40
30.8862723848
100
AcDbArc
 50
123.3089424829
 51
123.5099869013
  0
ARC
  5
3A2
100
AcDbEntity
  8
02___PRT_ALL_AXES
100
AcDbCircle
 62
7
  6
CONTINUOUS
 10
280.5436361543
 20
97.3608909429
 40
29.7056496724
100
AcDbArc
 50
121.6749598728
 51
124.7967813863
  0
ARC
  5
3A3
100
AcDbEntity
  8
02___PRT_ALL_AXES
100
AcDbCircle
 62
7
  6
CONTINUOUS
 10
279.7547297735
 20
98.506407973
 40
28.3147699711
100
AcDbArc
 50
124.8086678576
 51
125.3387046004
  0
ARC
  5
3A4
100
AcDbEntity
  8
0
100
AcDbCircle
 62
7
  6
CONTINUOUS
 10
99.9231363324
 20
222.7452609636
 40
10.7399646811
100
AcDbArc
 50
198.7474716283
 51
201.7709405064
  0
ARC
  5
3A5
100
AcDbEntity
  8
0
100
AcDbCircle
 62
7
  6
CONTINUOUS
 10
29.6287442912
 20
224.2095642444
 40
1.7401717347
100
AcDbArc
 50
161.9080802129
 51
163.1026032208
  0
ARC
  5
3A6
100
AcDbEntity
  8
0
100
AcDbCircle
 62
7
  6
CONTINUOUS
 10
28.5529453608
 20
224.2015799188
 40
0.8656683644
100
AcDbArc
 50
171.2885547545
 51
173.6104798035
  0
ARC
  5
3A7
100
AcDbEntity
  8
0
100
AcDbCircle
 62
7
  6
CONTINUOUS
 10
28.4594811071
 20
224.2541620146
 40
0.7662522436
100
AcDbArc
 50
171.82515404
 51
174.1176253292
  0
ARC
  5
3A8
100
AcDbEntity
  8
02___PRT_ALL_AXES
100
AcDbCircle
 62
7
  6
CONTINUOUS
 10
548.2027999291
 20
-430.2046671258
 40
724.4747043892
100
AcDbArc
 50
116.7252664866
 51
119.9712040608
  0
ARC
  5
3A9
100
AcDbEntity
  8
02___PRT_ALL_AXES
100
AcDbCircle
 62
7
  6
CONTINUOUS
 10
539.8790339969
 20
-415.6764097721
 40
660.6984674145
100
AcDbArc
 50
116.563931221
 51
119.9614782672
  0
ARC
  5
3AA
100
AcDbEntity
  8
02___PRT_ALL_AXES
100
AcDbCircle
 62
7
  6
CONTINUOUS
 10
503.5212694679
 20
-352.980412096
 40
635.2558385102
100
AcDbArc
 50
119.9596545521
 51
123.1101781867
  0
ARC
  5
3AB
100
AcDbEntity
  8
02___PRT_ALL_AXES
100
AcDbCircle
 62
7
  6
CONTINUOUS
 10
513.4028634165
 20
-368.9632298032
 40
607.0054324808
100
AcDbArc
 50
119.9984279757
 51
120.8954740705
  0
ARC
  5
3AC
100
AcDbEntity
  8
0
100
AcDbCircle
 62
7
  6
CONTINUOUS
 10
521.3562657338
 20
222.8099927874
 40
10.80630647
100
AcDbArc
 50
338.2387157147
 51
341.2432389305
  0
ARC
  5
3AD
100
AcDbEntity
  8
0
100
AcDbCircle
 62
3
  6
CONTINUOUS
 10
318.4354381181
 20
62.7637830582
 40
8.0096937122
100
AcDbArc
 50
188.6516283967
 51
188.7995155669
  0
ARC
  5
3AE
100
AcDbEntity
  8
02___PRT_ALL_AXES
100
AcDbCircle
 62
3
  6
CONTINUOUS
 10
485.1953597471
 20
216.9489688644
 40
4.5303626461
100
AcDbArc
 50
173.8104377538
 51
176.8795859303
  0
ARC
  5
3AF
100
AcDbEntity
  8
02___PRT_ALL_AXES
100
AcDbCircle
 62
3
  6
CONTINUOUS
 10
503.1347272085
 20
216.9489692104
 40
4.530359224
100
AcDbArc
 50
3.1197857113
 51
6.189556702
  0
ARC
  5
3B0
100
AcDbEntity
  8
0
100
AcDbCircle
 62
7
  6
CONTINUOUS
 10
591.2217826362
 20
202.3767426491
 40
4.4683499099
100
AcDbArc
 50
8.1223692404
 51
10.5832319338
  0
ARC
  5
3B1
100
AcDbEntity
  8
02___PRT_ALL_AXES
100
AcDbCircle
 62
7
  6
CONTINUOUS
 10
296.5385553856
 20
114.7417412135
 40
3.5102991953
100
AcDbArc
 50
295.981966917
 51
300.0541670616
  0
ARC
  5
3B2
100
AcDbEntity
  8
0
100
AcDbCircle
 62
7
  6
CONTINUOUS
 10
313.2933470498
 20
61.5875085485
 40
3.2110733022
100
AcDbArc
 50
184.6383855074
 51
185.2528014395
  0
ARC
  5
3B3
100
AcDbEntity
  8
0
100
AcDbCircle
 62
7
  6
CONTINUOUS
 10
308.6032022388
 20
36.8826342089
 40
2.7408225067
100
AcDbArc
 50
40.9861354873
 51
43.4167182986
  0
ARC
  5
3B4
100
AcDbEntity
  8
0
100
AcDbCircle
 62
7
  6
CONTINUOUS
 10
308.7312104096
 20
37.0046529429
 40
2.563977349
100
AcDbArc
 50
43.4021639568
 51
47.1181317346
  0
ARC
  5
3B5
100
AcDbEntity
  8
0
100
AcDbCircle
 62
7
  6
CONTINUOUS
 10
308.8368057052
 20
37.1169937814
 40
2.4098024096
100
AcDbArc
 50
47.1402226349
 51
48.5312762623
  0
ARC
  5
3B6
100
AcDbEntity
  8
0
100
AcDbCircle
 62
7
  6
CONTINUOUS
 10
363.0614426682
 20
120.2865592671
 40
2.4062542639
100
AcDbArc
 50
110.6672699093
 51
116.0722505541
  0
ARC
  5
3B7
100
AcDbEntity
  8
0
100
AcDbCircle
 62
3
  6
CONTINUOUS
 10
312.2645410831
 20
62.4294044938
 40
1.9528534176
100
AcDbArc
 50
199.4921509948
 51
201.1390259376
  0
ARC
  5
3B8
100
AcDbEntity
  8
0
100
AcDbCircle
 62
3
  6
CONTINUOUS
 10
312.1988004059
 20
62.4037972927
 40
1.8823017819
100
AcDbArc
 50
201.1336735096
 51
203.9056890421
  0
ARC
  5
3B9
100
AcDbEntity
  8
0
100
AcDbCircle
 62
3
  6
CONTINUOUS
 10
312.1177213568
 20
62.3677747754
 40
1.7935807143
100
AcDbArc
 50
203.9032476524
 51
206.8062467312
  0
ARC
  5
3BA
100
AcDbEntity
  8
02___PRT_ALL_AXES
100
AcDbCircle
 62
7
  6
CONTINUOUS
 10
299.0234016325
 20
114.760226278
 40
1.4289691797
100
AcDbArc
 50
125.093934167
 51
127.3411931127
  0
ARC
  5
3BB
100
AcDbEntity
  8
02___PRT_ALL_AXES
100
AcDbCircle
 62
7
  6
CONTINUOUS
 10
297.569754773
 20
115.178580261
 40
1.4289691797
100
AcDbArc
 50
305.093934167
 51
307.3411931127
  0
ARC
  5
3BC
100
AcDbEntity
  8
0
100
AcDbCircle
 62
3
  6
CONTINUOUS
 10
309.2463933015
 20
61.3717498635
 40
1.2844947712
100
AcDbArc
 50
3.8883752164
 51
7.4581705076
  0
ARC
  5
3BD
100
AcDbEntity
  8
0
100
AcDbCircle
 62
3
  6
CONTINUOUS
 10
309.3804291834
 20
61.3807559629
 40
1.1501567074
100
AcDbArc
 50
0.0378696575
 51
3.8935555274
  0
ARC
  5
3BE
100
AcDbEntity
  8
0
100
AcDbCircle
 62
7
  6
CONTINUOUS
 10
311.0113133864
 20
38.112242372
 40
0.9778592818
100
AcDbArc
 50
146.402074395
 51
148.2337312129
  0
ARC
  5
3BF
100
AcDbEntity
  8
0
100
AcDbCircle
 62
7
  6
CONTINUOUS
 10
310.053441515
 20
39.0849336933
 40
0.6738634099
100
AcDbArc
 50
332.6960995633
 51
336.8867803605
  0
ARC
  5
3C0
100
AcDbEntity
  8
0
100
AcDbCircle
 62
7
  6
CONTINUOUS
 10
310.7955993026
 20
38.9624578794
 40
0.6738622131
100
AcDbArc
 50
203.1130890854
 51
207.3037632289
  0
ARC
  5
3C1
100
AcDbEntity
  8
0
100
AcDbCircle
 62
7
  6
CONTINUOUS
 10
586.351778636
 20
258.6988095972
 40
3.5004314248
100
AcDbArc
 50
119.5780447294
 51
131.8214671357
  0
ARC
  5
3C2
100
AcDbEntity
  8
0
100
AcDbCircle
 62
3
  6
CONTINUOUS
 10
585.7495970491
 20
258.419033796
 40
3.2111562407
100
AcDbArc
 50
105.5586504221
 51
106.1988334851
  0
ARC
  5
3C3
100
AcDbEntity
  8
0
100
AcDbCircle
 62
7
  6
CONTINUOUS
 10
300.0987478575
 20
426.0341037577
 40
2.8929308897
100
AcDbArc
 50
328.6235817999
 51
329.2755426188
  0
ARC
  5
3C4
100
AcDbEntity
  8
0
100
AcDbCircle
 62
7
  6
CONTINUOUS
 10
300.7410537506
 20
425.6521890312
 40
2.1456587239
100
AcDbArc
 50
329.2794556504
 51
330.153671376
  0
ARC
  5
3C5
100
AcDbEntity
  8
0
100
AcDbCircle
 62
3
  6
CONTINUOUS
 10
583.8110532637
 20
263.0684416198
 40
1.8815936348
100
AcDbArc
 50
301.4288505596
 51
303.6354593365
  0
ARC
  5
3C6
100
AcDbEntity
  8
0
100
AcDbCircle
 62
3
  6
CONTINUOUS
 10
585.0510920692
 20
263.4512078498
 40
1.8439960522
100
AcDbArc
 50
271.1539483945
 51
273.3123535678
  0
ARC
  5
3C7
100
AcDbEntity
  8
0
100
AcDbCircle
 62
3
  6
CONTINUOUS
 10
583.8369704026
 20
262.8744684241
 40
1.6913302718
100
AcDbArc
 50
280.826222692
 51
284.3133899701
  0
ARC
  5
3C8
100
AcDbEntity
  8
0
100
AcDbCircle
 62
3
  6
CONTINUOUS
 10
583.8768976438
 20
262.6726312058
 40
1.4855864811
100
AcDbArc
 50
279.2066450931
 51
280.7758788695
  0
ARC
  5
3C9
100
AcDbEntity
  8
0
100
AcDbCircle
 62
3
  6
CONTINUOUS
 10
585.4593945404
 20
262.8009977355
 40
1.131001581
100
AcDbArc
 50
297.2084734839
 51
299.9796031424
  0
ARC
  5
3CA
100
AcDbEntity
  8
0
100
AcDbCircle
 62
7
  6
CONTINUOUS
 10
303.5410059364
 20
424.0461294639
 40
1.0822136316
100
AcDbArc
 50
147.0811931306
 51
150.1764546824
  0
ARC
  5
3CB
100
AcDbEntity
  8
0
100
AcDbCircle
 62
7
  6
CONTINUOUS
 10
303.5100648986
 20
424.0665212767
 40
1.0451585524
100
AcDbArc
 50
138.9093708771
 51
147.0977941569
  0
ARC
  5
3CC
100
AcDbEntity
  8
0
100
AcDbCircle
 62
3
  6
CONTINUOUS
 10
585.0940167278
 20
261.3100133134
 40
0.2976287586
100
AcDbArc
 50
91.1144428958
 51
96.6767154134
  0
ARC
  5
3CD
100
AcDbEntity
  8
0
100
AcDbCircle
 62
3
  6
CONTINUOUS
 10
585.0933751101
 20
261.3154502323
 40
0.2921541139
100
AcDbArc
 50
96.6757090723
 51
100.9977747831
  0
ARC
  5
3CE
100
AcDbEntity
  8
0
100
AcDbCircle
 62
3
  6
CONTINUOUS
 10
585.0912259561
 20
261.3262077944
 40
0.2811841287
100
AcDbArc
 50
100.9860675406
 51
105.9827075925
  0
ARC
  5
3CF
100
AcDbEntity
  8
0
100
AcDbCircle
 62
3
  6
CONTINUOUS
 10
585.0629588445
 20
261.3811195247
 40
0.2185799694
100
AcDbArc
 50
131.9243921679
 51
143.0467728607
  0
ARC
  5
3D0
100
AcDbEntity
  8
0
100
AcDbCircle
 62
3
  6
CONTINUOUS
 10
584.9120421173
 20
261.7287793663
 40
0.1852630657
100
AcDbArc
 50
270.3743550839
 51
275.7006933329
  0
ARC
  5
3D1
100
AcDbEntity
  8
0
100
AcDbCircle
 62
3
  6
CONTINUOUS
 10
1938.3627092522
 20
132.8286598775
 40
1682.8071206247
100
AcDbArc
 50
182.1598604604
 51
182.5512161977
  0
ARC
  5
3D2
100
AcDbEntity
  8
0
100
AcDbCircle
 62
3
  6
CONTINUOUS
 10
1638.7338631714
 20
193.3254029631
 40
1487.3150437262
100
AcDbArc
 50
182.4623184534
 51
182.9067380286
  0
ARC
  5
3D3
100
AcDbEntity
  8
0
100
AcDbCircle
 62
7
  6
CONTINUOUS
 10
2163.7903947132
 20
297.3056577517
 40
1943.0585377779
100
AcDbArc
 50
180.523733192
 51
182.3723202761
  0
ARC
  5
3D4
100
AcDbEntity
  8
0
100
AcDbCircle
 62
7
  6
CONTINUOUS
 10
1784.3314269429
 20
256.8942700919
 40
1633.2999050784
100
AcDbArc
 50
180.6168228645
 51
182.6451801441
  0
SPLINE
  5
3D5
100
AcDbEntity
  8
0
100
AcDbSpline
 62
7
  6
CONTINUOUS
 70
0
 71
3
 72
9
 73
5
 74
0
 42
0.0000001
 43
0.0000001
 44
0.0000000001
 40
0.0
 40
0.0
 40
0.0
 40
0.0
 40
0.4901074816
 40
1.0
 40
1.0
 40
1.0
 40
1.0
 10
302.5453207989
 20
384.3512855529
 30
0.0
 10
302.522027769
 20
384.223474818
 30
0.0
 10
302.4357408621
 20
383.9693639839
 30
0.0
 10
302.2944446442
 20
383.7420337238
 30
0.0
 10
302.2096701517
 20
383.6367643542
 30
0.0
  0
SPLINE
  5
3D6
100
AcDbEntity
  8
0
100
AcDbSpline
 62
7
  6
CONTINUOUS
 70
0
 71
3
 72
8
 73
4
 74
0
 42
0.0000001
 43
0.0000001
 44
0.0000000001
 40
0.0
 40
0.0
 40
0.0
 40
0.0
 40
1.0
 40
1.0
 40
1.0
 40
1.0
 10
584.9810245432
 20
221.4993334461
 30
0.0
 10
584.9829308761
 20
221.4732092957
 30
0.0
 10
584.9827380545
 20
221.4468701814
 30
0.0
 10
584.9807367445
 20
221.4207531352
 30
0.0
  0
SPLINE
  5
3D7
100
AcDbEntity
  8
0
100
AcDbSpline
 62
7
  6
CONTINUOUS
 70
0
 71
3
 72
9
 73
5
 74
0
 42
0.0000001
 43
0.0000001
 44
0.0000000001
 40
0.0
 40
0.0
 40
0.0
 40
0.0
 40
0.4828993949
 40
1.0
 40
1.0
 40
1.0
 40
1.0
 10
584.9807367445
 20
221.4207531352
 30
0.0
 10
584.96947409
 20
221.2737757761
 30
0.0
 10
584.8864464626
 20
220.9739081559
 30
0.0
 10
584.7282990381
 20
220.7083467903
 30
0.0
 10
584.6292943754
 20
220.5854069988
 30
0.0
  0
SPLINE
  5
3D8
100
AcDbEntity
  8
02___PRT_ALL_AXES
100
AcDbSpline
 62
7
  6
CONTINUOUS
 70
0
 71
3
 72
14
 73
10
 74
0
 42
0.0000001
 43
0.0000001
 44
0.0000000001
 40
0.0
 40
0.0
 40
0.0
 40
0.0
 40
0.1018639401
 40
0.2088155993
 40
0.3221826888
 40
0.4428089497
 40
0.5710870382
 40
0.707017149
 40
1.0
 40
1.0
 40
1.0
 40
1.0
 10
325.0456393168
 20
112.1554302394
 30
0.0
 10
324.8350907595
 20
112.8874940455
 30
0.0
 10
324.2657962243
 20
114.3513668039
 30
0.0
 10
323.0322782517
 20
116.4315270437
 30
0.0
 10
321.4201683938
 20
118.4173897049
 30
0.0
 10
319.4503586159
 20
120.2867631764
 30
0.0
 10
317.1460730324
 20
122.0202936959
 30
0.0
 10
313.5755903895
 20
124.1780931575
 30
0.0
 10
310.6096193672
 20
125.4502154126
 30
0.0
 10
308.5396166789
 20
126.1680352019
 30
0.0
  0
SPLINE
  5
3D9
100
AcDbEntity
  8
02___PRT_ALL_AXES
100
AcDbSpline
 62
7
  6
CONTINUOUS
 70
0
 71
3
 72
9
 73
5
 74
0
 42
0.0000001
 43
0.0000001
 44
0.0000000001
 40
0.0
 40
0.0
 40
0.0
 40
0.0
 40
0.4946841161
 40
1.0
 40
1.0
 40
1.0
 40
1.0
 10
302.8014059214
 20
127.7672530938
 30
0.0
 10
300.9834391218
 20
128.1606237333
 30
0.0
 10
297.2650921928
 20
128.7646912452
 30
0.0
 10
293.5066726996
 20
129.0085906272
 30
0.0
 10
291.6069644774
 20
129.0427133075
 30
0.0
  0
SPLINE
  5
3DA
100
AcDbEntity
  8
02___PRT_ALL_AXES
100
AcDbSpline
 62
7
  6
CONTINUOUS
 70
0
 71
3
 72
10
 73
6
 74
0
 42
0.0000001
 43
0.0000001
 44
0.0000000001
 40
0.0
 40
0.0
 40
0.0
 40
0.0
 40
0.5223034201
 40
0.7678282809
 40
1.0
 40
1.0
 40
1.0
 40
1.0
 10
281.4647834402
 20
128.3647372336
 30
0.0
 10
278.6047131069
 20
127.9225463585
 30
0.0
 10
274.4346341458
 20
126.9513628744
 30
0.0
 10
269.2545061153
 20
124.9680149432
 30
0.0
 10
266.8836304205
 20
123.7771684044
 30
0.0
 10
265.769530846
 20
123.1339465547
 30
0.0
  0
SPLINE
  5
3DB
100
AcDbEntity
  8
02___PRT_ALL_AXES
100
AcDbSpline
 62
7
  6
CONTINUOUS
 70
0
 71
3
 72
9
 73
5
 74
0
 42
0.0000001
 43
0.0000001
 44
0.0000000001
 40
0.0
 40
0.0
 40
0.0
 40
0.0
 40
0.2443909751
 40
1.0
 40
1.0
 40
1.0
 40
1.0
 10
261.1636227941
 20
119.8498811301
 30
0.0
 10
261.3356166962
 20
120.0028137511
 30
0.0
 10
262.0485693131
 20
120.6182104374
 30
0.0
 10
262.7967470224
 20
121.1925027747
 30
0.0
 10
263.3772173133
 20
121.6040979902
 30
0.0
  0
SPLINE
  5
3DC
100
AcDbEntity
  8
0
100
AcDbSpline
 62
7
  6
CONTINUOUS
 70
0
 71
3
 72
9
 73
5
 74
0
 42
0.0000001
 43
0.0000001
 44
0.0000000001
 40
0.0
 40
0.0
 40
0.0
 40
0.0
 40
0.2446023991
 40
1.0
 40
1.0
 40
1.0
 40
1.0
 10
260.8563949505
 20
119.9781309059
 30
0.0
 10
261.0394997865
 20
120.1286110771
 30
0.0
 10
261.7965190304
 20
120.7335079716
 30
0.0
 10
262.5859505339
 20
121.2975676431
 30
0.0
 10
263.1962310467
 20
121.7016580323
 30
0.0
  0
SPLINE
  5
3DD
100
AcDbEntity
  8
0
100
AcDbSpline
 62
7
  6
CONTINUOUS
 70
0
 71
3
 72
13
 73
9
 74
0
 42
0.0000001
 43
0.0000001
 44
0.0000000001
 40
0.0
 40
0.0
 40
0.0
 40
0.0
 40
0.1048226232
 40
0.2143209527
 40
0.3293928932
 40
0.450643482
 40
0.7124790437
 40
1.0
 40
1.0
 40
1.0
 40
1.0
 10
325.9863691415
 20
112.2709660411
 30
0.0
 10
325.7544789408
 20
112.9049799506
 30
0.0
 10
325.1833788377
 20
114.167540512
 30
0.0
 10
324.05394674
 20
115.9697479271
 30
0.0
 10
322.646526137
 20
117.7025512326
 30
0.0
 10
320.3576966794
 20
119.9585798056
 30
0.0
 10
316.8381926461
 20
122.5056746052
 30
0.0
 10
313.6645454599
 20
124.1004137866
 30
0.0
 10
311.9594400145
 20
124.8225613307
 30
0.0
  0
SPLINE
  5
3DE
100
AcDbEntity
  8
0
100
AcDbSpline
 62
7
  6
CONTINUOUS
 70
0
 71
3
 72
9
 73
5
 74
0
 42
0.0000001
 43
0.0000001
 44
0.0000000001
 40
0.0
 40
0.0
 40
0.0
 40
0.0
 40
0.2550889744
 40
1.0
 40
1.0
 40
1.0
 40
1.0
 10
269.0771538363
 20
124.8225260673
 30
0.0
 10
268.7854042083
 20
124.6989645346
 30
0.0
 10
267.6472174504
 20
124.2016787292
 30
0.0
 10
266.5316787059
 20
123.652123741
 30
0.0
 10
265.7180837611
 20
123.2115489027
 30
0.0
  0
SPLINE
  5
3DF
100
AcDbEntity
  8
0
100
AcDbSpline
 62
7
  6
CONTINUOUS
 70
0
 71
3
 72
12
 73
8
 74
0
 42
0.0000001
 43
0.0000001
 44
0.0000000001
 40
0.0
 40
0.0
 40
0.0
 40
0.0
 40
0.2895875111
 40
0.5486274506
 40
0.7816344217
 40
0.8918370091
 40
1.0
 40
1.0
 40
1.0
 40
1.0
 10
283.0937102802
 20
150.2828817853
 30
0.0
 10
282.5669657251
 20
150.5869910161
 30
0.0
 10
281.5193978757
 20
151.0854048718
 30
0.0
 10
279.9103687764
 20
151.4743795414
 30
0.0
 10
278.6255724343
 20
151.4402629703
 30
0.0
 10
277.7082460055
 20
151.1863574412
 30
0.0
 10
277.2904954247
 20
150.9907336288
 30
0.0
 10
277.0937534117
 20
150.8771452573
 30
0.0
  0
SPLINE
  5
3E0
100
AcDbEntity
  8
0
100
AcDbSpline
 62
7
  6
CONTINUOUS
 70
0
 71
3
 72
9
 73
5
 74
0
 42
0.0000001
 43
0.0000001
 44
0.0000000001
 40
0.0
 40
0.0
 40
0.0
 40
0.0
 40
0.4794475549
 40
1.0
 40
1.0
 40
1.0
 40
1.0
 10
284.9833069017
 20
118.0368918971
 30
0.0
 10
285.1304054066
 20
117.9520070272
 30
0.0
 10
285.4748658665
 20
117.8352225955
 30
0.0
 10
285.8354383753
 20
117.8452441806
 30
0.0
 10
286.0175710538
 20
117.8740334202
 30
0.0
  0
SPLINE
  5
3E1
100
AcDbEntity
  8
0
100
AcDbSpline
 62
7
  6
CONTINUOUS
 70
0
 71
3
 72
15
 73
11
 74
0
 42
0.0000001
 43
0.0000001
 44
0.0000000001
 40
0.0
 40
0.0
 40
0.0
 40
0.0
 40
0.1141582169
 40
0.2373256154
 40
0.3669771987
 40
0.5000010819
 40
0.6330248148
 40
0.7626759584
 40
0.8858426645
 40
1.0
 40
1.0
 40
1.0
 40
1.0
 10
308.5496603855
 20
125.788185617
 30
0.0
 10
308.5496603855
 20
126.4589541301
 30
0.0
 10
308.4268202075
 20
127.8547324895
 30
0.0
 10
307.9370095501
 20
129.9604190702
 30
0.0
 10
307.1524597789
 20
132.0933165574
 30
0.0
 10
306.1023590741
 20
134.1732226211
 30
0.0
 10
304.8261501004
 20
136.1225813386
 30
0.0
 10
303.3712771941
 20
137.8684567265
 30
0.0
 10
301.7926036542
 20
139.3454704444
 30
0.0
 10
300.6452450564
 20
140.1497277001
 30
0.0
 10
300.0643436837
 20
140.4851036768
 30
0.0
  0
SPLINE
  5
3E2
100
AcDbEntity
  8
0
100
AcDbSpline
 62
7
  6
CONTINUOUS
 70
0
 71
3
 72
9
 73
5
 74
0
 42
0.0000001
 43
0.0000001
 44
0.0000000001
 40
0.0
 40
0.0
 40
0.0
 40
0.0
 40
0.2768516339
 40
1.0
 40
1.0
 40
1.0
 40
1.0
 10
300.0643436837
 20
124.1550553342
 30
0.0
 10
300.2550947869
 20
124.0449276248
 30
0.0
 10
300.9611690015
 20
123.6823174189
 30
0.0
 10
301.7630297218
 20
123.4696425225
 30
0.0
 10
302.3382420963
 20
123.4810954337
 30
0.0
  0
SPLINE
  5
3E3
100
AcDbEntity
  8
0
100
AcDbSpline
 62
7
  6
CONTINUOUS
 70
0
 71
3
 72
13
 73
9
 74
0
 42
0.0000001
 43
0.0000001
 44
0.0000000001
 40
0.0
 40
0.0
 40
0.0
 40
0.0
 40
0.1142568031
 40
0.2375385706
 40
0.5000010844
 40
0.7624630047
 40
0.885744079
 40
1.0
 40
1.0
 40
1.0
 40
1.0
 10
278.1439422042
 20
142.5260356442
 30
0.0
 10
278.1439422042
 20
142.1347652787
 30
0.0
 10
278.2155560586
 20
141.3204909277
 30
0.0
 10
278.6048031142
 20
139.6488615735
 30
0.0
 10
279.5086953513
 20
137.5984854185
 30
0.0
 10
280.8324340125
 20
135.7905113969
 30
0.0
 10
282.0854860417
 20
134.6176118466
 30
0.0
 10
282.7548609038
 20
134.1484637956
 30
0.0
 10
283.0937102802
 20
133.9528334427
 30
0.0
  0
SPLINE
  5
3E4
100
AcDbEntity
  8
0
100
AcDbSpline
 62
7
  6
CONTINUOUS
 70
0
 71
3
 72
12
 73
8
 74
0
 42
0.0000001
 43
0.0000001
 44
0.0000000001
 40
0.0
 40
0.0
 40
0.0
 40
0.0
 40
0.2895875111
 40
0.5486274506
 40
0.7816344217
 40
0.8918370091
 40
1.0
 40
1.0
 40
1.0
 40
1.0
 10
297.9430321721
 20
118.8478107869
 30
0.0
 10
298.4697767272
 20
118.5437015561
 30
0.0
 10
299.5173445766
 20
118.0452877004
 30
0.0
 10
301.1263736759
 20
117.6563130308
 30
0.0
 10
302.411170018
 20
117.6904296019
 30
0.0
 10
303.3284964468
 20
117.944335131
 30
0.0
 10
303.7462470276
 20
118.1399589434
 30
0.0
 10
303.9429890406
 20
118.2535473149
 30
0.0
  0
SPLINE
  5
3E5
100
AcDbEntity
  8
0
100
AcDbSpline
 62
7
  6
CONTINUOUS
 70
0
 71
3
 72
15
 73
11
 74
0
 42
0.0000001
 43
0.0000001
 44
0.0000000001
 40
0.0
 40
0.0
 40
0.0
 40
0.0
 40
0.1141582169
 40
0.2373256154
 40
0.3669771987
 40
0.5000010819
 40
0.6330248148
 40
0.7626759584
 40
0.8858426645
 40
1.0
 40
1.0
 40
1.0
 40
1.0
 10
272.4870820668
 20
143.3425069552
 30
0.0
 10
272.4870820668
 20
142.6717384421
 30
0.0
 10
272.6099222448
 20
141.2759600828
 30
0.0
 10
273.0997329022
 20
139.170273502
 30
0.0
 10
273.8842826734
 20
137.0373760148
 30
0.0
 10
274.9343833782
 20
134.9574699511
 30
0.0
 10
276.2105923519
 20
133.0081112336
 30
0.0
 10
277.6654652582
 20
131.2622358457
 30
0.0
 10
279.2441387981
 20
129.7852221278
 30
0.0
 10
280.3914973959
 20
128.9809648721
 30
0.0
 10
280.9723987686
 20
128.6455888954
 30
0.0
  0
SPLINE
  5
3E6
100
AcDbEntity
  8
0
100
AcDbSpline
 62
7
  6
CONTINUOUS
 70
0
 71
3
 72
11
 73
7
 74
0
 42
0.0000001
 43
0.0000001
 44
0.0000000001
 40
0.0
 40
0.0
 40
0.0
 40
0.0
 40
0.2897978205
 40
0.5490467957
 40
0.7822264837
 40
1.0
 40
1.0
 40
1.0
 40
1.0
 10
280.9723987686
 20
144.975637238
 30
0.0
 10
280.6651401224
 20
145.1530290869
 30
0.0
 10
280.054212
 20
145.4438725738
 30
0.0
 10
279.1149761983
 20
145.6703692559
 30
0.0
 10
278.2338621928
 20
145.6483006907
 30
0.0
 10
277.7033080273
 20
145.4556128871
 30
0.0
 10
277.4724142437
 20
145.3223070792
 30
0.0
  0
SPLINE
  5
3E7
100
AcDbEntity
  8
0
100
AcDbSpline
 62
7
  6
CONTINUOUS
 70
0
 71
3
 72
13
 73
9
 74
0
 42
0.0000001
 43
0.0000001
 44
0.0000000001
 40
0.0
 40
0.0
 40
0.0
 40
0.0
 40
0.1142568031
 40
0.2375385706
 40
0.5000010844
 40
0.7624630047
 40
0.885744079
 40
1.0
 40
1.0
 40
1.0
 40
1.0
 10
302.8928002481
 20
126.604656928
 30
0.0
 10
302.8928002481
 20
126.9959272935
 30
0.0
 10
302.8211863937
 20
127.8102016445
 30
0.0
 10
302.4319393381
 20
129.4818309987
 30
0.0
 10
301.528047101
 20
131.5322071537
 30
0.0
 10
300.2043084398
 20
133.3401811753
 30
0.0
 10
298.9512564106
 20
134.5130807256
 30
0.0
 10
298.2818815485
 20
134.9822287766
 30
0.0
 10
297.9430321721
 20
135.1778591295
 30
0.0
  0
SPLINE
  5
3E8
100
AcDbEntity
  8
02___PRT_ALL_AXES
100
AcDbSpline
 62
7
  6
CONTINUOUS
 70
0
 71
3
 72
8
 73
4
 74
0
 42
0.0000001
 43
0.0000001
 44
0.0000000001
 40
0.0
 40
0.0
 40
0.0
 40
0.0
 40
1.0
 40
1.0
 40
1.0
 40
1.0
 10
297.671611519
 20
113.8869045703
 30
0.0
 10
297.6387174457
 20
113.9058934485
 30
0.0
 10
297.6082038415
 20
113.9296339197
 30
0.0
 10
297.5815044264
 20
113.9566475975
 30
0.0
  0
SPLINE
  5
3E9
100
AcDbEntity
  8
02___PRT_ALL_AXES
100
AcDbSpline
 62
7
  6
CONTINUOUS
 70
0
 71
3
 72
13
 73
9
 74
0
 42
0.0000001
 43
0.0000001
 44
0.0000000001
 40
0.0
 40
0.0
 40
0.0
 40
0.0
 40
0.0895757608
 40
0.1924835596
 40
0.3107535447
 40
0.4424864206
 40
0.7267097059
 40
1.0
 40
1.0
 40
1.0
 40
1.0
 10
297.5815044264
 20
113.9566475975
 30
0.0
 10
297.535233909
 20
114.0034627373
 30
0.0
 10
297.4584064834
 20
114.1271050744
 30
0.0
 10
297.4078711668
 20
114.3526379783
 30
0.0
 10
297.4133601868
 20
114.6139077062
 30
0.0
 10
297.4962406714
 20
114.9994895076
 30
0.0
 10
297.7196268167
 20
115.462051515
 30
0.0
 10
297.9969585786
 20
115.7745361054
 30
0.0
 10
298.1566458674
 20
115.8963105003
 30
0.0
  0
SPLINE
  5
3EA
100
AcDbEntity
  8
02___PRT_ALL_AXES
100
AcDbSpline
 62
7
  6
CONTINUOUS
 70
0
 71
3
 72
9
 73
5
 74
0
 42
0.0000001
 43
0.0000001
 44
0.0000000001
 40
0.0
 40
0.0
 40
0.0
 40
0.0
 40
0.7551424318
 40
1.0
 40
1.0
 40
1.0
 40
1.0
 10
298.2018606261
 20
115.9294239906
 30
0.0
 10
298.2250279864
 20
115.945694784
 30
0.0
 10
298.2563845395
 20
115.9663112469
 30
0.0
 10
298.2886283644
 20
115.985441477
 30
0.0
 10
298.2965782028
 20
115.9900312909
 30
0.0
  0
SPLINE
  5
3EB
100
AcDbEntity
  8
02___PRT_ALL_AXES
100
AcDbSpline
 62
7
  6
CONTINUOUS
 70
0
 71
3
 72
11
 73
7
 74
0
 42
0.0000001
 43
0.0000001
 44
0.0000000001
 40
0.0
 40
0.0
 40
0.0
 40
0.0
 40
0.2177013521
 40
0.4509080579
 40
0.7106325601
 40
1.0
 40
1.0
 40
1.0
 40
1.0
 10
297.796939427
 20
114.1032107413
 30
0.0
 10
297.829895846
 20
114.0842021931
 30
0.0
 10
297.9056467511
 20
114.0567760525
 30
0.0
 10
298.0315041878
 20
114.0536372359
 30
0.0
 10
298.165531623
 20
114.0862053431
 30
0.0
 10
298.2527834913
 20
114.1276161148
 30
0.0
 10
298.2965782028
 20
114.1529008524
 30
0.0
  0
SPLINE
  5
3EC
100
AcDbEntity
  8
0
100
AcDbSpline
 62
7
  6
CONTINUOUS
 70
0
 71
3
 72
11
 73
7
 74
0
 42
0.0000001
 43
0.0000001
 44
0.0000000001
 40
0.0
 40
0.0
 40
0.0
 40
0.0
 40
0.2513842249
 40
0.5003757494
 40
0.7497571023
 40
1.0
 40
1.0
 40
1.0
 40
1.0
 10
287.7506013493
 20
123.8457116585
 30
0.0
 10
287.5038719455
 20
123.7032632175
 30
0.0
 10
287.0386925123
 20
123.3701816876
 30
0.0
 10
286.4757870607
 20
122.7218257484
 30
0.0
 10
286.1051788844
 20
121.9464373411
 30
0.0
 10
286.0183712262
 20
121.3766610695
 30
0.0
 10
286.0183712262
 20
121.0930564035
 30
0.0
  0
SPLINE
  5
3ED
100
AcDbEntity
  8
0
100
AcDbSpline
 62
7
  6
CONTINUOUS
 70
0
 71
3
 72
9
 73
5
 74
0
 42
0.0000001
 43
0.0000001
 44
0.0000000001
 40
0.0
 40
0.0
 40
0.0
 40
0.0
 40
0.2534820158
 40
1.0
 40
1.0
 40
1.0
 40
1.0
 10
288.6148892273
 20
124.2333469597
 30
0.0
 10
288.539005095
 20
124.2076816062
 30
0.0
 10
288.2420117465
 20
124.0996384007
 30
0.0
 10
287.9549135054
 20
123.9636706356
 30
0.0
 10
287.7506013495
 20
123.8457116586
 30
0.0
  0
SPLINE
  5
3EE
100
AcDbEntity
  8
02___PRT_ALL_AXES
100
AcDbSpline
 62
7
  6
CONTINUOUS
 70
0
 71
3
 72
9
 73
5
 74
0
 42
0.0000001
 43
0.0000001
 44
0.0000000001
 40
0.0
 40
0.0
 40
0.0
 40
0.0
 40
0.4790734168
 40
1.0
 40
1.0
 40
1.0
 40
1.0
 10
266.6395977511
 20
117.7540464553
 30
0.0
 10
267.2964574555
 20
118.4726487632
 30
0.0
 10
268.8098956206
 20
119.8451854013
 30
0.0
 10
270.5096047751
 20
120.9717115501
 30
0.0
 10
271.4264086472
 20
121.5010253528
 30
0.0
  0
SPLINE
  5
3EF
100
AcDbEntity
  8
02___PRT_ALL_AXES
100
AcDbSpline
 62
7
  6
CONTINUOUS
 70
0
 71
3
 72
13
 73
9
 74
0
 42
0.0000001
 43
0.0000001
 44
0.0000000001
 40
0.0
 40
0.0
 40
0.0
 40
0.0
 40
0.1056979529
 40
0.2146326976
 40
0.4478090482
 40
0.5747093871
 40
0.7090536066
 40
1.0
 40
1.0
 40
1.0
 40
1.0
 10
317.4621086217
 20
111.4842819906
 30
0.0
 10
317.4039890487
 20
112.003310702
 30
0.0
 10
317.1941926222
 20
113.0490611416
 30
0.0
 10
316.4075218477
 20
115.1257336892
 30
0.0
 10
315.0886280227
 20
117.0740666457
 30
0.0
 10
313.3777349839
 20
118.8217763461
 30
0.0
 10
311.2644256656
 20
120.5552373832
 30
0.0
 10
309.4464354169
 20
121.6380623954
 30
0.0
 10
308.1597196964
 20
122.279240739
 30
0.0
  0
SPLINE
  5
3F0
100
AcDbEntity
  8
02___PRT_ALL_AXES
100
AcDbSpline
 62
7
  6
CONTINUOUS
 70
0
 71
3
 72
9
 73
5
 74
0
 42
0.0000001
 43
0.0000001
 44
0.0000000001
 40
0.0
 40
0.0
 40
0.0
 40
0.0
 40
0.2453210277
 40
1.0
 40
1.0
 40
1.0
 40
1.0
 10
302.7152362572
 20
124.3855941762
 30
0.0
 10
302.315678279
 20
124.5023962546
 30
0.0
 10
300.679120782
 20
124.9514206088
 30
0.0
 10
299.0138290141
 20
125.2944061054
 30
0.0
 10
297.7494076583
 20
125.4973196233
 30
0.0
  0
SPLINE
  5
3F1
100
AcDbEntity
  8
02___PRT_ALL_AXES
100
AcDbSpline
 62
7
  6
CONTINUOUS
 70
0
 71
3
 72
9
 73
5
 74
0
 42
0.0000001
 43
0.0000001
 44
0.0000000001
 40
0.0
 40
0.0
 40
0.0
 40
0.0
 40
0.5196286918
 40
1.0
 40
1.0
 40
1.0
 40
1.0
 10
280.6756440634
 20
124.9940625023
 30
0.0
 10
279.0006290523
 20
124.6154829112
 30
0.0
 10
275.8185709228
 20
123.683724384
 30
0.0
 10
272.8012495373
 20
122.2947853727
 30
0.0
 10
271.4264086472
 20
121.5010253528
 30
0.0
  0
SPLINE
  5
3F2
100
AcDbEntity
  8
02___PRT_ALL_AXES
100
AcDbSpline
 62
7
  6
CONTINUOUS
 70
0
 71
3
 72
15
 73
11
 74
0
 42
0.0000001
 43
0.0000001
 44
0.0000000001
 40
0.0
 40
0.0
 40
0.0
 40
0.0
 40
0.1288010116
 40
0.2706178926
 40
0.4179175461
 40
0.5624297108
 40
0.6962380549
 40
0.8136186329
 40
0.9130713826
 40
1.0
 40
1.0
 40
1.0
 40
1.0
 10
298.2965782028
 20
114.1529008524
 30
0.0
 10
298.3706002868
 20
114.1956372674
 30
0.0
 10
298.5143105021
 20
114.3062848126
 30
0.0
 10
298.6983099036
 20
114.5155342944
 30
0.0
 10
298.8496539388
 20
114.7619101506
 30
0.0
 10
298.9559980725
 20
115.0250614397
 30
0.0
 10
299.0087489027
 20
115.2841138022
 30
0.0
 10
299.0031135643
 20
115.5192036272
 30
0.0
 10
298.9370429852
 20
115.7143943514
 30
0.0
 10
298.8461872477
 20
115.8067740296
 30
0.0
 10
298.7962169786
 20
115.8355957977
 30
0.0
  0
SPLINE
  5
3F3
100
AcDbEntity
  8
02___PRT_ALL_AXES
100
AcDbSpline
 62
7
  6
CONTINUOUS
 70
0
 71
3
 72
11
 73
7
 74
0
 42
0.0000001
 43
0.0000001
 44
0.0000000001
 40
0.0
 40
0.0
 40
0.0
 40
0.0
 40
0.2895390655
 40
0.5491116436
 40
0.782256582
 40
1.0
 40
1.0
 40
1.0
 40
1.0
 10
298.2965782028
 20
115.9900312909
 30
0.0
 10
298.3513945747
 20
116.021679349
 30
0.0
 10
298.4605296922
 20
116.0735350653
 30
0.0
 10
298.628212174
 20
116.1141205548
 30
0.0
 10
298.7856238647
 20
116.1101659101
 30
0.0
 10
298.8803197658
 20
116.07570014
 30
0.0
 10
298.9215448865
 20
116.0519019686
 30
0.0
  0
SPLINE
  5
3F4
100
AcDbEntity
  8
02___PRT_ALL_AXES
100
AcDbSpline
 62
7
  6
CONTINUOUS
 70
0
 71
3
 72
15
 73
11
 74
0
 42
0.0000001
 43
0.0000001
 44
0.0000000001
 40
0.0
 40
0.0
 40
0.0
 40
0.0
 40
0.1208429031
 40
0.2527720738
 40
0.3911763219
 40
0.5305737346
 40
0.6653647281
 40
0.7905397476
 40
0.9024846524
 40
1.0
 40
1.0
 40
1.0
 40
1.0
 10
298.2965782028
 20
111.703393601
 30
0.0
 10
298.5429925643
 20
111.8456601497
 30
0.0
 10
299.0258145754
 20
112.201054657
 30
0.0
 10
299.667246255
 20
112.8667518296
 30
0.0
 10
300.2287946514
 20
113.655407792
 30
0.0
 10
300.6772378112
 20
114.5208213087
 30
0.0
 10
300.9866567564
 20
115.4125046379
 30
0.0
 10
301.1387242198
 20
116.2795581467
 30
0.0
 10
301.1246198514
 20
117.0726934
 30
0.0
 10
300.9919517468
 20
117.5565591592
 30
0.0
 10
300.8930251548
 20
117.7637625669
 30
0.0
  0
SPLINE
  5
3F5
100
AcDbEntity
  8
0
100
AcDbSpline
 62
7
  6
CONTINUOUS
 70
0
 71
3
 72
11
 73
7
 74
0
 42
0.0000001
 43
0.0000001
 44
0.0000000001
 40
0.0
 40
0.0
 40
0.0
 40
0.0
 40
0.2177725599
 40
0.4509518516
 40
0.7102011905
 40
1.0
 40
1.0
 40
1.0
 40
1.0
 10
301.4430166969
 20
122.5836530314
 30
0.0
 10
301.673915611
 20
122.7169618015
 30
0.0
 10
302.1060761464
 20
123.0800998301
 30
0.0
 10
302.5657528774
 20
123.8321543712
 30
0.0
 10
302.8392188988
 20
124.7588329594
 30
0.0
 10
302.8928002481
 20
125.4333541407
 30
0.0
 10
302.8928002481
 20
125.7881545108
 30
0.0
  0
SPLINE
  5
3F6
100
AcDbEntity
  8
02___PRT_ALL_AXES
100
AcDbSpline
 62
7
  6
CONTINUOUS
 70
0
 71
3
 72
16
 73
12
 74
0
 42
0.0000001
 43
0.0000001
 44
0.0000000001
 40
0.0
 40
0.0
 40
0.0
 40
0.0
 40
0.1346591643
 40
0.2791172767
 40
0.4263560843
 40
0.5688380514
 40
0.6998131472
 40
0.8146745592
 40
0.9127442296
 40
0.95716762
 40
1.0
 40
1.0
 40
1.0
 40
1.0
 10
293.700278582
 20
120.4549879133
 30
0.0
 10
293.4257027649
 20
120.2565009087
 30
0.0
 10
292.9015564175
 20
119.7813122136
 30
0.0
 10
292.2402319904
 20
118.9311869572
 30
0.0
 10
291.7116858384
 20
117.969816023
 30
0.0
 10
291.3550650361
 20
116.967986283
 30
0.0
 10
291.1968384497
 20
115.9972680921
 30
0.0
 10
291.2485450727
 20
115.1250451049
 30
0.0
 10
291.484888379
 20
114.5047084613
 30
0.0
 10
291.7837042759
 20
114.1419563517
 30
0.0
 10
291.961063396
 20
114.0083477003
 30
0.0
 10
292.0544041532
 20
113.9544843519
 30
0.0
  0
SPLINE
  5
3F7
100
AcDbEntity
  8
0
100
AcDbSpline
 62
7
  6
CONTINUOUS
 70
0
 71
3
 72
9
 73
5
 74
0
 42
0.0000001
 43
0.0000001
 44
0.0000000001
 40
0.0
 40
0.0
 40
0.0
 40
0.0
 40
0.2263071789
 40
1.0
 40
1.0
 40
1.0
 40
1.0
 10
278.6972330257
 20
145.6488612286
 30
0.0
 10
278.6040324658
 20
145.4946093537
 30
0.0
 10
278.2536477623
 20
144.7754745397
 30
0.0
 10
278.1439422042
 20
143.9586762793
 30
0.0
 10
278.1439422042
 20
143.3425380614
 30
0.0
  0
SPLINE
  5
3F8
100
AcDbEntity
  8
0
100
AcDbSpline
 62
7
  6
CONTINUOUS
 70
0
 71
3
 72
16
 73
12
 74
0
 42
0.0000001
 43
0.0000001
 44
0.0000000001
 40
0.0
 40
0.0
 40
0.0
 40
0.0
 40
0.1346591643
 40
0.2791172767
 40
0.4263560843
 40
0.5688380514
 40
0.6998131472
 40
0.8146745592
 40
0.9127442296
 40
0.95716762
 40
1.0
 40
1.0
 40
1.0
 40
1.0
 10
282.3865229797
 20
126.9868399856
 30
0.0
 10
282.1119471625
 20
126.788352981
 30
0.0
 10
281.5878008152
 20
126.313164286
 30
0.0
 10
280.9264763881
 20
125.4630390295
 30
0.0
 10
280.3979302361
 20
124.5016680953
 30
0.0
 10
280.0413094337
 20
123.4998383553
 30
0.0
 10
279.8830828473
 20
122.5291201645
 30
0.0
 10
279.9347894703
 20
121.6568971772
 30
0.0
 10
280.1711327766
 20
121.0365605336
 30
0.0
 10
280.4699486736
 20
120.673808424
 30
0.0
 10
280.6473077937
 20
120.5401997727
 30
0.0
 10
280.7406485508
 20
120.4863364242
 30
0.0
  0
SPLINE
  5
3F9
100
AcDbEntity
  8
0
100
AcDbSpline
 62
7
  6
CONTINUOUS
 70
0
 71
3
 72
12
 73
8
 74
0
 42
0.0000001
 43
0.0000001
 44
0.0000000001
 40
0.0
 40
0.0
 40
0.0
 40
0.0
 40
0.1081624863
 40
0.2183646465
 40
0.451371209
 40
0.7104115058
 40
1.0
 40
1.0
 40
1.0
 40
1.0
 10
306.0643005523
 20
119.4782797765
 30
0.0
 10
306.2610469221
 20
119.5918706633
 30
0.0
 10
306.6393469129
 20
119.8558461134
 30
0.0
 10
307.3179148539
 20
120.523337588
 30
0.0
 10
307.9898711123
 20
121.6189780378
 30
0.0
 10
308.4575237966
 20
123.2069739686
 30
0.0
 10
308.5496603855
 20
124.3634360473
 30
0.0
 10
308.5496603855
 20
124.9716831999
 30
0.0
  0
SPLINE
  5
3FA
100
AcDbEntity
  8
0
100
AcDbSpline
 62
7
  6
CONTINUOUS
 70
0
 71
3
 72
12
 73
8
 74
0
 42
0.0000001
 43
0.0000001
 44
0.0000000001
 40
0.0
 40
0.0
 40
0.0
 40
0.0
 40
0.1081624863
 40
0.2183646465
 40
0.451371209
 40
0.7104115058
 40
1.0
 40
1.0
 40
1.0
 40
1.0
 10
274.9724419
 20
149.6524127957
 30
0.0
 10
274.7756955302
 20
149.5388219089
 30
0.0
 10
274.3973955394
 20
149.2748464588
 30
0.0
 10
273.7188275984
 20
148.6073549842
 30
0.0
 10
273.04687134
 20
147.5117145344
 30
0.0
 10
272.5792186557
 20
145.9237186036
 30
0.0
 10
272.4870820668
 20
144.7672565249
 30
0.0
 10
272.4870820668
 20
144.1590093723
 30
0.0
  0
SPLINE
  5
3FB
100
AcDbEntity
  8
0
100
AcDbSpline
 62
7
  6
CONTINUOUS
 70
0
 71
3
 72
9
 73
5
 74
0
 42
0.0000001
 43
0.0000001
 44
0.0000000001
 40
0.0
 40
0.0
 40
0.0
 40
0.0
 40
0.2640594741
 40
1.0
 40
1.0
 40
1.0
 40
1.0
 10
293.9219135946
 20
111.9561699507
 30
0.0
 10
293.9837330731
 20
111.9974464682
 30
0.0
 10
294.2131358273
 20
112.160496048
 30
0.0
 10
294.4230983957
 20
112.3524222621
 30
0.0
 10
294.5573492006
 20
112.5102047792
 30
0.0
  0
SPLINE
  5
3FC
100
AcDbEntity
  8
0
100
AcDbSpline
 62
7
  6
CONTINUOUS
 70
0
 71
3
 72
13
 73
9
 74
0
 42
0.0000001
 43
0.0000001
 44
0.0000000001
 40
0.0
 40
0.0
 40
0.0
 40
0.0
 40
0.1142568031
 40
0.2375385706
 40
0.5000010844
 40
0.7624630047
 40
0.885744079
 40
1.0
 40
1.0
 40
1.0
 40
1.0
 10
276.0226306925
 20
141.3013031826
 30
0.0
 10
276.0226306925
 20
140.9100328171
 30
0.0
 10
276.0942445469
 20
140.0957584661
 30
0.0
 10
276.4834916026
 20
138.4241291119
 30
0.0
 10
277.3873838397
 20
136.3737529569
 30
0.0
 10
278.7111225009
 20
134.5657789353
 30
0.0
 10
279.9641745301
 20
133.392879385
 30
0.0
 10
280.6335493921
 20
132.923731334
 30
0.0
 10
280.9723987686
 20
132.7281009811
 30
0.0
  0
SPLINE
  5
3FD
100
AcDbEntity
  8
0
100
AcDbSpline
 62
7
  6
CONTINUOUS
 70
0
 71
3
 72
9
 73
5
 74
0
 42
0.0000001
 43
0.0000001
 44
0.0000000001
 40
0.0
 40
0.0
 40
0.0
 40
0.0
 40
0.2600799114
 40
1.0
 40
1.0
 40
1.0
 40
1.0
 10
292.286145539
 20
121.7054593514
 30
0.0
 10
292.3154097008
 20
121.7223549222
 30
0.0
 10
292.4264913184
 20
121.7897387174
 30
0.0
 10
292.5317124865
 20
121.867078561
 30
0.0
 10
292.6041175011
 20
121.9303202158
 30
0.0
  0
SPLINE
  5
3FE
100
AcDbEntity
  8
0
100
AcDbSpline
 62
7
  6
CONTINUOUS
 70
0
 71
3
 72
9
 73
5
 74
0
 42
0.0000001
 43
0.0000001
 44
0.0000000001
 40
0.0
 40
0.0
 40
0.0
 40
0.0
 40
0.2585254872
 40
1.0
 40
1.0
 40
1.0
 40
1.0
 10
289.1400696954
 20
123.9302433898
 30
0.0
 10
289.1053838405
 20
123.9170063987
 30
0.0
 10
288.97216803
 20
123.8633776258
 30
0.0
 10
288.8428116199
 20
123.7999029919
 30
0.0
 10
288.7505969133
 20
123.746663124
 30
0.0
  0
SPLINE
  5
3FF
100
AcDbEntity
  8
0
100
AcDbSpline
 62
7
  6
CONTINUOUS
 70
0
 71
3
 72
19
 73
15
 74
0
 42
0.0000001
 43
0.0000001
 44
0.0000000001
 40
0.0
 40
0.0
 40
0.0
 40
0.0
 40
0.0604513543
 40
0.1145347671
 40
0.163175166
 40
0.2086034764
 40
0.2540313514
 40
0.3026733876
 40
0.3567539856
 40
0.4172074998
 40
0.5554562939
 40
0.7086032737
 40
0.8617495808
 40
1.0
 40
1.0
 40
1.0
 40
1.0
 10
288.7505969133
 20
123.746663124
 30
0.0
 10
288.6408656368
 20
123.6833101202
 30
0.0
 10
288.4418130114
 20
123.5462711644
 30
0.0
 10
288.204031841
 20
123.2963004407
 30
0.0
 10
288.0535247113
 20
123.0195875018
 30
0.0
 10
288.0014022869
 20
122.7260567161
 30
0.0
 10
288.0535325861
 20
122.4325160951
 30
0.0
 10
288.2040382099
 20
122.1558349776
 30
0.0
 10
288.4418792643
 20
121.9057710326
 30
0.0
 10
288.8808390808
 20
121.6038942194
 30
0.0
 10
289.5850594418
 20
121.3493356007
 30
0.0
 10
290.5184176745
 20
121.2477476208
 30
0.0
 10
291.4515548322
 20
121.3491356149
 30
0.0
 10
292.0351934283
 20
121.5605729476
 30
0.0
 10
292.286145539
 20
121.7054593514
 30
0.0
  0
SPLINE
  5
400
100
AcDbEntity
  8
0
100
AcDbSpline
 62
7
  6
CONTINUOUS
 70
0
 71
3
 72
11
 73
7
 74
0
 42
0.0000001
 43
0.0000001
 44
0.0000000001
 40
0.0
 40
0.0
 40
0.0
 40
0.0
 40
0.2897978205
 40
0.5490467957
 40
0.7822264837
 40
1.0
 40
1.0
 40
1.0
 40
1.0
 10
297.9430321721
 20
122.9303228726
 30
0.0
 10
298.2502908182
 20
122.7529310237
 30
0.0
 10
298.8612189406
 20
122.4620875368
 30
0.0
 10
299.8004547424
 20
122.2355908547
 30
0.0
 10
300.6815687479
 20
122.2576594199
 30
0.0
 10
301.2121229133
 20
122.4503472235
 30
0.0
 10
301.4430166969
 20
122.5836530314
 30
0.0
  0
SPLINE
  5
401
100
AcDbEntity
  8
0
100
AcDbSpline
 62
7
  6
CONTINUOUS
 70
0
 71
3
 72
16
 73
12
 74
0
 42
0.0000001
 43
0.0000001
 44
0.0000000001
 40
0.0
 40
0.0
 40
0.0
 40
0.0
 40
0.0433061228
 40
0.0878346291
 40
0.1841956117
 40
0.2946808784
 40
0.4201061519
 40
0.5581354381
 40
0.7044527582
 40
0.8536564199
 40
1.0
 40
1.0
 40
1.0
 40
1.0
 10
286.0183820698
 20
121.0930564031
 30
0.0
 10
286.0183704263
 20
120.9881359005
 30
0.0
 10
286.0410871384
 20
120.7746974971
 30
0.0
 10
286.1784954094
 20
120.3472891222
 30
0.0
 10
286.5306666731
 20
119.8346036026
 30
0.0
 10
287.1634201257
 20
119.3246354627
 30
0.0
 10
287.9793819841
 20
118.918073731
 30
0.0
 10
288.9352244359
 20
118.6347221465
 30
0.0
 10
289.9790945814
 20
118.4888400311
 30
0.0
 10
291.0527898772
 20
118.4884639377
 30
0.0
 10
291.764938
 20
118.5875647324
 30
0.0
 10
292.1113232835
 20
118.663242559
 30
0.0
  0
SPLINE
  5
402
100
AcDbEntity
  8
02___PRT_ALL_AXES
100
AcDbSpline
 62
7
  6
CONTINUOUS
 70
0
 71
3
 72
15
 73
11
 74
0
 42
0.0000001
 43
0.0000001
 44
0.0000000001
 40
0.0
 40
0.0
 40
0.0
 40
0.0
 40
0.1288010116
 40
0.2706178926
 40
0.4179175461
 40
0.5624297108
 40
0.6962380549
 40
0.8136186329
 40
0.9130713826
 40
1.0
 40
1.0
 40
1.0
 40
1.0
 10
298.2965782028
 20
115.7859056866
 30
0.0
 10
298.2225561188
 20
115.7431692716
 30
0.0
 10
298.0788459034
 20
115.6325217264
 30
0.0
 10
297.8948465019
 20
115.4232722446
 30
0.0
 10
297.7435024668
 20
115.1768963883
 30
0.0
 10
297.6371583331
 20
114.9137450993
 30
0.0
 10
297.5844075029
 20
114.6546927368
 30
0.0
 10
297.5900428413
 20
114.4196029118
 30
0.0
 10
297.6561134203
 20
114.2244121875
 30
0.0
 10
297.7469691578
 20
114.1320325094
 30
0.0
 10
297.796939427
 20
114.1032107413
 30
0.0
  0
SPLINE
  5
403
100
AcDbEntity
  8
02___PRT_ALL_AXES
100
AcDbSpline
 62
7
  6
CONTINUOUS
 70
0
 71
3
 72
11
 73
7
 74
0
 42
0.0000001
 43
0.0000001
 44
0.0000000001
 40
0.0
 40
0.0
 40
0.0
 40
0.0
 40
0.2895390655
 40
0.5491116436
 40
0.782256582
 40
1.0
 40
1.0
 40
1.0
 40
1.0
 10
298.2965782028
 20
113.9487752481
 30
0.0
 10
298.2417618309
 20
113.9171271899
 30
0.0
 10
298.1326267134
 20
113.8652714736
 30
0.0
 10
297.9649442316
 20
113.8246859842
 30
0.0
 10
297.8075325408
 20
113.8286406288
 30
0.0
 10
297.7128366397
 20
113.8631063989
 30
0.0
 10
297.671611519
 20
113.8869045703
 30
0.0
  0
SPLINE
  5
404
100
AcDbEntity
  8
02___PRT_ALL_AXES
100
AcDbSpline
 62
7
  6
CONTINUOUS
 70
0
 71
3
 72
15
 73
11
 74
0
 42
0.0000001
 43
0.0000001
 44
0.0000000001
 40
0.0
 40
0.0
 40
0.0
 40
0.0
 40
0.1250633162
 40
0.2622113452
 40
0.4054875729
 40
0.5479199148
 40
0.6826862582
 40
0.8042072884
 40
0.9095048923
 40
1.0
 40
1.0
 40
1.0
 40
1.0
 10
298.2965782028
 20
118.235412938
 30
0.0
 10
298.0236653921
 20
118.0778475938
 30
0.0
 10
297.4914822851
 20
117.6766662336
 30
0.0
 10
296.7980633597
 20
116.9203882578
 30
0.0
 10
296.2095698866
 20
116.026806056
 30
0.0
 10
295.7680872426
 20
115.058893976
 30
0.0
 10
295.5040403312
 20
114.084248023
 30
0.0
 10
295.4370813209
 20
113.1685670288
 30
0.0
 10
295.5733599286
 20
112.370758618
 30
0.0
 10
295.8227735119
 20
111.9271373197
 30
0.0
 10
295.9780699171
 20
111.7601651498
 30
0.0
  0
SPLINE
  5
405
100
AcDbEntity
  8
02___PRT_ALL_AXES
100
AcDbSpline
 62
7
  6
CONTINUOUS
 70
0
 71
3
 72
8
 73
4
 74
0
 42
0.0000001
 43
0.0000001
 44
0.0000000001
 40
0.0
 40
0.0
 40
0.0
 40
0.0
 40
1.0
 40
1.0
 40
1.0
 40
1.0
 10
298.9215448865
 20
116.0519019686
 30
0.0
 10
298.9544389598
 20
116.0329130905
 30
0.0
 10
298.9849525641
 20
116.0091726193
 30
0.0
 10
299.0116519791
 20
115.9821589415
 30
0.0
  0
SPLINE
  5
406
100
AcDbEntity
  8
02___PRT_ALL_AXES
100
AcDbSpline
 62
7
  6
CONTINUOUS
 70
0
 71
3
 72
13
 73
9
 74
0
 42
0.0000001
 43
0.0000001
 44
0.0000000001
 40
0.0
 40
0.0
 40
0.0
 40
0.0
 40
0.0895757608
 40
0.1924835596
 40
0.3107535447
 40
0.4424864206
 40
0.7267097059
 40
1.0
 40
1.0
 40
1.0
 40
1.0
 10
299.0116519791
 20
115.9821589415
 30
0.0
 10
299.0579224965
 20
115.9353438017
 30
0.0
 10
299.1347499222
 20
115.8117014645
 30
0.0
 10
299.1852852388
 20
115.5861685607
 30
0.0
 10
299.1797962187
 20
115.3248988328
 30
0.0
 10
299.0969157341
 20
114.9393170314
 30
0.0
 10
298.8735295888
 20
114.476755024
 30
0.0
 10
298.5961978269
 20
114.1642704335
 30
0.0
 10
298.4365105381
 20
114.0424960387
 30
0.0
  0
SPLINE
  5
407
100
AcDbEntity
  8
02___PRT_ALL_AXES
100
AcDbSpline
 62
7
  6
CONTINUOUS
 70
0
 71
3
 72
9
 73
5
 74
0
 42
0.0000001
 43
0.0000001
 44
0.0000000001
 40
0.0
 40
0.0
 40
0.0
 40
0.0
 40
0.7551424318
 40
1.0
 40
1.0
 40
1.0
 40
1.0
 10
298.3912957794
 20
114.0093825483
 30
0.0
 10
298.3681284192
 20
113.993111755
 30
0.0
 10
298.336771866
 20
113.9724952921
 30
0.0
 10
298.3045280411
 20
113.953365062
 30
0.0
 10
298.2965782028
 20
113.9487752481
 30
0.0
  0
SPLINE
  5
408
100
AcDbEntity
  8
0
100
AcDbSpline
 62
7
  6
CONTINUOUS
 70
0
 71
3
 72
12
 73
8
 74
0
 42
0.0000001
 43
0.0000001
 44
0.0000000001
 40
0.0
 40
0.0
 40
0.0
 40
0.0
 40
0.2895875111
 40
0.5486274506
 40
0.7816344217
 40
0.8918370091
 40
1.0
 40
1.0
 40
1.0
 40
1.0
 10
280.9723987686
 20
149.0581493237
 30
0.0
 10
280.4456542134
 20
149.3622585545
 30
0.0
 10
279.398086364
 20
149.8606724102
 30
0.0
 10
277.7890572648
 20
150.2496470798
 30
0.0
 10
276.5042609227
 20
150.2155305087
 30
0.0
 10
275.5869344938
 20
149.9616249796
 30
0.0
 10
275.1691839131
 20
149.7660011672
 30
0.0
 10
274.9724419
 20
149.6524127957
 30
0.0
  0
SPLINE
  5
409
100
AcDbEntity
  8
0
100
AcDbSpline
 62
7
  6
CONTINUOUS
 70
0
 71
3
 72
11
 73
7
 74
0
 42
0.0000001
 43
0.0000001
 44
0.0000000001
 40
0.0
 40
0.0
 40
0.0
 40
0.0
 40
0.2177725599
 40
0.4509518516
 40
0.7102011905
 40
1.0
 40
1.0
 40
1.0
 40
1.0
 10
277.4724142437
 20
145.3223070792
 30
0.0
 10
277.2415153296
 20
145.1889983091
 30
0.0
 10
276.8093547943
 20
144.8258602805
 30
0.0
 10
276.3496780632
 20
144.0738057394
 30
0.0
 10
276.0762120419
 20
143.1471271512
 30
0.0
 10
276.0226306925
 20
142.4726059699
 30
0.0
 10
276.0226306925
 20
142.1178055997
 30
0.0
  0
SPLINE
  5
40A
100
AcDbEntity
  8
0
100
AcDbSpline
 62
7
  6
CONTINUOUS
 70
0
 71
3
 72
9
 73
5
 74
0
 42
0.0000001
 43
0.0000001
 44
0.0000000001
 40
0.0
 40
0.0
 40
0.0
 40
0.0
 40
0.4917570591
 40
1.0
 40
1.0
 40
1.0
 40
1.0
 10
286.0183820703
 20
113.6557086775
 30
0.0
 10
286.0183693309
 20
113.5409156526
 30
0.0
 10
286.0456580727
 20
113.3067498637
 30
0.0
 10
286.1241263679
 20
113.0848156948
 30
0.0
 10
286.1744591966
 20
112.9773801902
 30
0.0
  0
SPLINE
  5
40B
100
AcDbEntity
  8
0
100
AcDbSpline
 62
7
  6
CONTINUOUS
 70
0
 71
3
 72
12
 73
8
 74
0
 42
0.0000001
 43
0.0000001
 44
0.0000000001
 40
0.0
 40
0.0
 40
0.0
 40
0.0
 40
0.1081624863
 40
0.2183646465
 40
0.451371209
 40
0.7104115058
 40
1.0
 40
1.0
 40
1.0
 40
1.0
 10
303.9429890406
 20
118.2535473149
 30
0.0
 10
304.1397354104
 20
118.3671382017
 30
0.0
 10
304.5180354013
 20
118.6311136518
 30
0.0
 10
305.1966033423
 20
119.2986051264
 30
0.0
 10
305.8685596007
 20
120.3942455762
 30
0.0
 10
306.3362122849
 20
121.982241507
 30
0.0
 10
306.4283488739
 20
123.1387035857
 30
0.0
 10
306.4283488739
 20
123.7469507382
 30
0.0
  0
SPLINE
  5
40C
100
AcDbEntity
  8
0
100
AcDbSpline
 62
7
  6
CONTINUOUS
 70
0
 71
3
 72
15
 73
11
 74
0
 42
0.0000001
 43
0.0000001
 44
0.0000000001
 40
0.0
 40
0.0
 40
0.0
 40
0.0
 40
0.1141582169
 40
0.2373256154
 40
0.3669771987
 40
0.5000010819
 40
0.6330248148
 40
0.7626759584
 40
0.8858426645
 40
1.0
 40
1.0
 40
1.0
 40
1.0
 10
306.4283488739
 20
124.5634531554
 30
0.0
 10
306.4283488739
 20
125.2342216685
 30
0.0
 10
306.3055086959
 20
126.6300000278
 30
0.0
 10
305.8156980385
 20
128.7356866086
 30
0.0
 10
305.0311482673
 20
130.8685840958
 30
0.0
 10
303.9810475625
 20
132.9484901595
 30
0.0
 10
302.7048385888
 20
134.897848877
 30
0.0
 10
301.2499656824
 20
136.6437242649
 30
0.0
 10
299.6712921426
 20
138.1207379827
 30
0.0
 10
298.5239335447
 20
138.9249952385
 30
0.0
 10
297.9430321721
 20
139.2603712152
 30
0.0
  0
SPLINE
  5
40D
100
AcDbEntity
  8
0
100
AcDbSpline
 62
7
  6
CONTINUOUS
 70
0
 71
3
 72
17
 73
13
 74
0
 42
0.0000001
 43
0.0000001
 44
0.0000000001
 40
0.0
 40
0.0
 40
0.0
 40
0.0
 40
0.1286935796
 40
0.2702805461
 40
0.4174437781
 40
0.5617924483
 40
0.6954617241
 40
0.8127201421
 40
0.8646829178
 40
0.9125120263
 40
0.9571399109
 40
1.0
 40
1.0
 40
1.0
 40
1.0
 10
286.9828226004
 20
124.7672650103
 30
0.0
 10
286.6866946985
 20
124.596296507
 30
0.0
 10
286.111888529
 20
124.1539759913
 30
0.0
 10
285.3762337998
 20
123.3169110636
 30
0.0
 10
284.7706595865
 20
122.3319709415
 30
0.0
 10
284.3453152859
 20
121.2791241901
 30
0.0
 10
284.1342329365
 20
120.2440084289
 30
0.0
 10
284.1533548414
 20
119.4284348691
 30
0.0
 10
284.3043436202
 20
118.8690555936
 30
0.0
 10
284.472645104
 20
118.5212384138
 30
0.0
 10
284.6976344812
 20
118.236784855
 30
0.0
 10
284.8846723248
 20
118.0938101046
 30
0.0
 10
284.9833069017
 20
118.0368918971
 30
0.0
  0
SPLINE
  5
40E
100
AcDbEntity
  8
02___PRT_ALL_AXES
100
AcDbSpline
 62
7
  6
CONTINUOUS
 70
0
 71
3
 72
9
 73
5
 74
0
 42
0.0000001
 43
0.0000001
 44
0.0000000001
 40
0.0
 40
0.0
 40
0.0
 40
0.0
 40
0.2427167283
 40
1.0
 40
1.0
 40
1.0
 40
1.0
 10
298.7253297717
 20
118.445146359
 30
0.0
 10
298.6894629021
 20
118.4307855703
 30
0.0
 10
298.5428516317
 20
118.3687371415
 30
0.0
 10
298.4009711236
 20
118.2956838592
 30
0.0
 10
298.2965782028
 20
118.235412938
 30
0.0
  0
SPLINE
  5
40F
100
AcDbEntity
  8
0
100
AcDbSpline
 62
7
  6
CONTINUOUS
 70
0
 71
3
 72
9
 73
5
 74
0
 42
0.0000001
 43
0.0000001
 44
0.0000000001
 40
0.0
 40
0.0
 40
0.0
 40
0.0
 40
0.2435673628
 40
1.0
 40
1.0
 40
1.0
 40
1.0
 10
287.3648832084
 20
124.9578462786
 30
0.0
 10
287.3329109696
 20
124.9444191174
 30
0.0
 10
287.202588129
 20
124.8870586732
 30
0.0
 10
287.0760894447
 20
124.8211123265
 30
0.0
 10
286.9828226004
 20
124.7672650103
 30
0.0
  0
SPLINE
  5
410
100
AcDbEntity
  8
02___PRT_ALL_AXES
100
AcDbSpline
 62
7
  6
CONTINUOUS
 70
0
 71
3
 72
11
 73
7
 74
0
 42
0.0000001
 43
0.0000001
 44
0.0000000001
 40
0.0
 40
0.0
 40
0.0
 40
0.0
 40
0.2177013521
 40
0.4509080579
 40
0.7106325601
 40
1.0
 40
1.0
 40
1.0
 40
1.0
 10
298.7962169786
 20
115.8355957977
 30
0.0
 10
298.7632605595
 20
115.8546043459
 30
0.0
 10
298.6875096544
 20
115.8820304865
 30
0.0
 10
298.5616522177
 20
115.8851693031
 30
0.0
 10
298.4276247825
 20
115.8526011958
 30
0.0
 10
298.3403729143
 20
115.8111904242
 30
0.0
 10
298.2965782028
 20
115.7859056866
 30
0.0
  0
SPLINE
  5
411
100
AcDbEntity
  8
0
100
AcDbSpline
 62
7
  6
CONTINUOUS
 70
0
 71
3
 72
9
 73
5
 74
0
 42
0.0000001
 43
0.0000001
 44
0.0000000001
 40
0.0
 40
0.0
 40
0.0
 40
0.0
 40
0.2654128138
 40
1.0
 40
1.0
 40
1.0
 40
1.0
 10
38.1956125586
 20
195.5873930816
 30
0.0
 10
38.0869575232
 20
195.6082467224
 30
0.0
 10
37.6807888221
 20
195.701222864
 30
0.0
 10
37.2857299659
 20
195.8531648998
 30
0.0
 10
37.0205386536
 20
196.0062697117
 30
0.0
  0
SPLINE
  5
412
100
AcDbEntity
  8
0
100
AcDbSpline
 62
7
  6
CONTINUOUS
 70
0
 71
3
 72
9
 73
5
 74
0
 42
0.0000001
 43
0.0000001
 44
0.0000000001
 40
0.0
 40
0.0
 40
0.0
 40
0.0
 40
0.4873545934
 40
1.0
 40
1.0
 40
1.0
 40
1.0
 10
30.0708665057
 20
197.4420895957
 30
0.0
 10
30.1822440597
 20
197.3777874073
 30
0.0
 10
30.4314798923
 20
197.2791999505
 30
0.0
 10
30.6973143846
 20
197.2529174564
 30
0.0
 10
30.83257973
 20
197.2549635771
 30
0.0
  0
SPLINE
  5
413
100
AcDbEntity
  8
0
100
AcDbSpline
 62
7
  6
CONTINUOUS
 70
0
 71
3
 72
9
 73
5
 74
0
 42
0.0000001
 43
0.0000001
 44
0.0000000001
 40
0.0
 40
0.0
 40
0.0
 40
0.0
 40
0.4492165887
 40
1.0
 40
1.0
 40
1.0
 40
1.0
 10
29.4080212085
 20
200.2099448083
 30
0.0
 10
29.4619848031
 20
200.2411005234
 30
0.0
 10
29.6096399711
 20
200.2634483371
 30
0.0
 10
29.7418545413
 20
200.2085248755
 30
0.0
 10
29.8080194571
 20
200.1703254078
 30
0.0
  0
SPLINE
  5
414
100
AcDbEntity
  8
0
100
AcDbSpline
 62
7
  6
CONTINUOUS
 70
0
 71
3
 72
9
 73
5
 74
0
 42
0.0000001
 43
0.0000001
 44
0.0000000001
 40
0.0
 40
0.0
 40
0.0
 40
0.0
 40
0.5507848543
 40
1.0
 40
1.0
 40
1.0
 40
1.0
 10
29.2423316769
 20
199.8437160777
 30
0.0
 10
29.2423316769
 20
199.9201185173
 30
0.0
 10
29.2608728297
 20
200.0620853863
 30
0.0
 10
29.3540563691
 20
200.1787883745
 30
0.0
 10
29.4080212085
 20
200.2099448083
 30
0.0
  0
SPLINE
  5
415
100
AcDbEntity
  8
0
100
AcDbSpline
 62
7
  6
CONTINUOUS
 70
0
 71
3
 72
9
 73
5
 74
0
 42
0.0000001
 43
0.0000001
 44
0.0000000001
 40
0.0
 40
0.0
 40
0.0
 40
0.0
 40
0.2769523686
 40
1.0
 40
1.0
 40
1.0
 40
1.0
 10
29.2423316769
 20
199.273281533
 30
0.0
 10
29.2423316769
 20
199.1472346909
 30
0.0
 10
29.2646278422
 20
198.6937187343
 30
0.0
 10
29.3888377907
 20
198.2356280861
 30
0.0
 10
29.5592421379
 20
197.9541104713
 30
0.0
  0
SPLINE
  5
416
100
AcDbEntity
  8
0
100
AcDbSpline
 62
7
  6
CONTINUOUS
 70
0
 71
3
 72
9
 73
5
 74
0
 42
0.0000001
 43
0.0000001
 44
0.0000000001
 40
0.0
 40
0.0
 40
0.0
 40
0.0
 40
0.5109551197
 40
1.0
 40
1.0
 40
1.0
 40
1.0
 10
29.5592421379
 20
197.9541104713
 30
0.0
 10
29.6235973613
 20
197.847792004
 30
0.0
 10
29.7729618884
 20
197.6524872615
 30
0.0
 10
29.9678524837
 20
197.5015632224
 30
0.0
 10
30.0708665057
 20
197.4420895957
 30
0.0
  0
SPLINE
  5
417
100
AcDbEntity
  8
0
100
AcDbSpline
 62
7
  6
CONTINUOUS
 70
0
 71
3
 72
9
 73
5
 74
0
 42
0.0000001
 43
0.0000001
 44
0.0000000001
 40
0.0
 40
0.0
 40
0.0
 40
0.0
 40
0.4873545934
 40
1.0
 40
1.0
 40
1.0
 40
1.0
 10
312.2076468394
 20
34.5540285421
 30
0.0
 10
312.3190243934
 20
34.4897263537
 30
0.0
 10
312.568260226
 20
34.3911388969
 30
0.0
 10
312.8340947183
 20
34.3648564028
 30
0.0
 10
312.9693600637
 20
34.3669025235
 30
0.0
  0
SPLINE
  5
418
100
AcDbEntity
  8
0
100
AcDbSpline
 62
7
  6
CONTINUOUS
 70
0
 71
3
 72
9
 73
5
 74
0
 42
0.0000001
 43
0.0000001
 44
0.0000000001
 40
0.0
 40
0.0
 40
0.0
 40
0.0
 40
0.2273265364
 40
1.0
 40
1.0
 40
1.0
 40
1.0
 10
593.9880101515
 20
38.6177924638
 30
0.0
 10
594.0868846217
 20
38.6192881101
 30
0.0
 10
594.5214108452
 20
38.6622977672
 30
0.0
 10
594.9350983675
 20
38.8350237848
 30
0.0
 10
595.2261774472
 20
39.0030773666
 30
0.0
  0
SPLINE
  5
419
100
AcDbEntity
  8
0
100
AcDbSpline
 62
7
  6
CONTINUOUS
 70
0
 71
3
 72
9
 73
5
 74
0
 42
0.0000001
 43
0.0000001
 44
0.0000000001
 40
0.0
 40
0.0
 40
0.0
 40
0.0
 40
0.2387268296
 40
1.0
 40
1.0
 40
1.0
 40
1.0
 10
595.6453086158
 20
203.0080657235
 30
0.0
 10
595.6687639674
 20
202.8438156188
 30
0.0
 10
595.7295766298
 20
202.1522638238
 30
0.0
 10
595.6268591375
 20
201.4354541665
 30
0.0
 10
595.4227234194
 20
200.9473316343
 30
0.0
  0
SPLINE
  5
41A
100
AcDbEntity
  8
0
100
AcDbSpline
 62
7
  6
CONTINUOUS
 70
0
 71
3
 72
11
 73
7
 74
0
 42
0.0000001
 43
0.0000001
 44
0.0000000001
 40
0.0
 40
0.0
 40
0.0
 40
0.0
 40
0.2897988999
 40
0.5490523412
 40
0.7822268629
 40
1.0
 40
1.0
 40
1.0
 40
1.0
 10
595.4227234194
 20
39.1165525592
 30
0.0
 10
595.5017320228
 20
39.1621679254
 30
0.0
 10
595.6450500089
 20
39.2608207224
 30
0.0
 10
595.8162490788
 20
39.4408563567
 30
0.0
 10
595.9246216874
 20
39.6399076346
 30
0.0
 10
595.9499259158
 20
39.7828291228
 30
0.0
 10
595.9499259141
 20
39.8513859452
 30
0.0
  0
SPLINE
  5
41B
100
AcDbEntity
  8
0
100
AcDbSpline
 62
7
  6
CONTINUOUS
 70
0
 71
3
 72
9
 73
5
 74
0
 42
0.0000001
 43
0.0000001
 44
0.0000000001
 40
0.0
 40
0.0
 40
0.0
 40
0.0
 40
0.5139322487
 40
1.0
 40
1.0
 40
1.0
 40
1.0
 10
595.6703142963
 20
202.7999539493
 30
0.0
 10
595.7573212576
 20
202.6831438898
 30
0.0
 10
595.8982583385
 20
202.4318005029
 30
0.0
 10
595.9499138534
 20
202.146520183
 30
0.0
 10
595.9499138534
 20
202.008764215
 30
0.0
  0
SPLINE
  5
41C
100
AcDbEntity
  8
0
100
AcDbSpline
 62
7
  6
CONTINUOUS
 70
0
 71
3
 72
9
 73
5
 74
0
 42
0.0000001
 43
0.0000001
 44
0.0000000001
 40
0.0
 40
0.0
 40
0.0
 40
0.0
 40
0.4787490488
 40
1.0
 40
1.0
 40
1.0
 40
1.0
 10
311.3791120106
 20
36.9556550241
 30
0.0
 10
311.3791120106
 20
37.2573956787
 30
0.0
 10
311.2219414742
 20
37.8861139664
 30
0.0
 10
310.8876816542
 20
38.4323188382
 30
0.0
 10
310.6721622985
 20
38.6802749641
 30
0.0
  0
SPLINE
  5
41D
100
AcDbEntity
  8
0
100
AcDbSpline
 62
7
  6
CONTINUOUS
 70
0
 71
3
 72
9
 73
5
 74
0
 42
0.0000001
 43
0.0000001
 44
0.0000000001
 40
0.0
 40
0.0
 40
0.0
 40
0.0
 40
0.4764441023
 40
1.0
 40
1.0
 40
1.0
 40
1.0
 10
595.9499138534
 20
202.008764215
 30
0.0
 10
595.9499138534
 20
201.8162725916
 30
0.0
 10
595.8437668646
 20
201.4084735611
 30
0.0
 10
595.5796316939
 20
201.0891867468
 30
0.0
 10
595.4227234194
 20
200.9473316343
 30
0.0
  0
SPLINE
  5
41E
100
AcDbEntity
  8
0
100
AcDbSpline
 62
7
  6
CONTINUOUS
 70
0
 71
3
 72
9
 73
5
 74
0
 42
0.0000001
 43
0.0000001
 44
0.0000000001
 40
0.0
 40
0.0
 40
0.0
 40
0.0
 40
0.2769523686
 40
1.0
 40
1.0
 40
1.0
 40
1.0
 10
311.3791120106
 20
36.3852204794
 30
0.0
 10
311.3791120106
 20
36.2591736373
 30
0.0
 10
311.4014081758
 20
35.8056576807
 30
0.0
 10
311.5256181244
 20
35.3475670325
 30
0.0
 10
311.6960224715
 20
35.0660494177
 30
0.0
  0
SPLINE
  5
41F
100
AcDbEntity
  8
0
100
AcDbSpline
 62
7
  6
CONTINUOUS
 70
0
 71
3
 72
9
 73
5
 74
0
 42
0.0000001
 43
0.0000001
 44
0.0000000001
 40
0.0
 40
0.0
 40
0.0
 40
0.0
 40
0.5109551197
 40
1.0
 40
1.0
 40
1.0
 40
1.0
 10
311.6960224715
 20
35.0660494177
 30
0.0
 10
311.760377695
 20
34.9597309504
 30
0.0
 10
311.909742222
 20
34.7644262079
 30
0.0
 10
312.1046328174
 20
34.6135021688
 30
0.0
 10
312.2076468394
 20
34.5540285421
 30
0.0
  0
SPLINE
  5
420
100
AcDbEntity
  8
0
100
AcDbSpline
 62
7
  6
CONTINUOUS
 70
0
 71
3
 72
9
 73
5
 74
0
 42
0.0000001
 43
0.0000001
 44
0.0000000001
 40
0.0
 40
0.0
 40
0.0
 40
0.0
 40
0.2440524786
 40
1.0
 40
1.0
 40
1.0
 40
1.0
 10
27.6926542764
 20
224.2979176953
 30
0.0
 10
27.6916546973
 20
224.2890100055
 30
0.0
 10
27.6881070287
 20
224.2524505073
 30
0.0
 10
27.6866991135
 20
224.2156915834
 30
0.0
 10
27.6866991135
 20
224.1879270223
 30
0.0
  0
SPLINE
  5
421
100
AcDbEntity
  8
0
100
AcDbSpline
 62
7
  6
CONTINUOUS
 70
0
 71
3
 72
9
 73
5
 74
0
 42
0.0000001
 43
0.0000001
 44
0.0000000001
 40
0.0
 40
0.0
 40
0.0
 40
0.0
 40
0.2757661515
 40
1.0
 40
1.0
 40
1.0
 40
1.0
 10
303.1806565503
 20
425.6075236412
 30
0.0
 10
303.1505095471
 20
425.5901183647
 30
0.0
 10
303.0445067486
 20
425.5220365023
 30
0.0
 10
302.9510650706
 20
425.4301166481
 30
0.0
 10
302.9047599526
 20
425.3512888706
 30
0.0
  0
SPLINE
  5
422
100
AcDbEntity
  8
0
100
AcDbSpline
 62
7
  6
CONTINUOUS
 70
0
 71
3
 72
9
 73
5
 74
0
 42
0.0000001
 43
0.0000001
 44
0.0000000001
 40
0.0
 40
0.0
 40
0.0
 40
0.0
 40
0.2662084697
 40
1.0
 40
1.0
 40
1.0
 40
1.0
 10
596.2358928322
 20
266.7370057816
 30
0.0
 10
596.2358416753
 20
266.7584112017
 30
0.0
 10
596.2334647424
 20
266.8387667579
 30
0.0
 10
596.2218224834
 20
266.9190946417
 30
0.0
 10
596.2064235755
 20
266.9760530067
 30
0.0
  0
SPLINE
  5
423
100
AcDbEntity
  8
0
100
AcDbSpline
 62
7
  6
CONTINUOUS
 70
0
 71
3
 72
9
 73
5
 74
0
 42
0.0000001
 43
0.0000001
 44
0.0000000001
 40
0.0
 40
0.0
 40
0.0
 40
0.0
 40
0.2578482574
 40
1.0
 40
1.0
 40
1.0
 40
1.0
 10
596.2064235755
 20
266.9760530067
 30
0.0
 10
596.2040350255
 20
266.9848879125
 30
0.0
 10
596.1941211001
 20
267.018970373
 30
0.0
 10
596.1815379828
 20
267.052294409
 30
0.0
 10
596.1705966653
 20
267.0762566403
 30
0.0
  0
SPLINE
  5
424
100
AcDbEntity
  8
0
100
AcDbSpline
 62
7
  6
CONTINUOUS
 70
0
 71
3
 72
9
 73
5
 74
0
 42
0.0000001
 43
0.0000001
 44
0.0000000001
 40
0.0
 40
0.0
 40
0.0
 40
0.0
 40
0.516386663
 40
1.0
 40
1.0
 40
1.0
 40
1.0
 10
596.1705966653
 20
267.0762566403
 30
0.0
 10
596.1504193976
 20
267.120446232
 30
0.0
 10
596.1003940299
 20
267.2018415369
 30
0.0
 10
596.0267570056
 20
267.2635998931
 30
0.0
 10
595.9873568609
 20
267.2863470626
 30
0.0
  0
SPLINE
  5
425
100
AcDbEntity
  8
02___PRT_ALL_AXES
100
AcDbSpline
 62
7
  6
CONTINUOUS
 70
0
 71
3
 72
14
 73
10
 74
0
 42
0.0000001
 43
0.0000001
 44
0.0000000001
 40
0.0
 40
0.0
 40
0.0
 40
0.0
 40
0.2892717954
 40
0.422538264
 40
0.5484985901
 40
0.6678949924
 40
0.7818691022
 40
0.8919530715
 40
1.0
 40
1.0
 40
1.0
 40
1.0
 10
503.7110230645
 20
211.9292148947
 30
0.0
 10
504.303589287
 20
212.2713311206
 30
0.0
 10
505.13346074
 20
212.8426989586
 30
0.0
 10
506.072356615
 20
213.7412989333
 30
0.0
 10
506.6438247823
 20
214.4339559199
 30
0.0
 10
507.0955615603
 20
215.1570933636
 30
0.0
 10
507.4225580087
 20
215.9042721766
 30
0.0
 10
507.6206533419
 20
216.6678957237
 30
0.0
 10
507.6650401297
 20
217.1848938419
 30
0.0
 10
507.6650401301
 20
217.4404650622
 30
0.0
  0
SPLINE
  5
426
100
AcDbEntity
  8
0
100
AcDbSpline
 62
7
  6
CONTINUOUS
 70
0
 71
3
 72
9
 73
5
 74
0
 42
0.0000001
 43
0.0000001
 44
0.0000000001
 40
0.0
 40
0.0
 40
0.0
 40
0.0
 40
0.4463122411
 40
1.0
 40
1.0
 40
1.0
 40
1.0
 10
584.6026482319
 20
219.5220690821
 30
0.0
 10
584.5241154493
 20
219.6540011691
 30
0.0
 10
584.3220952962
 20
219.9342610965
 30
0.0
 10
584.0844444366
 20
220.1842461123
 30
0.0
 10
583.9465938998
 20
220.3156917044
 30
0.0
  0
SPLINE
  5
427
100
AcDbEntity
  8
0
100
AcDbSpline
 62
7
  6
CONTINUOUS
 70
0
 71
3
 72
9
 73
5
 74
0
 42
0.0000001
 43
0.0000001
 44
0.0000000001
 40
0.0
 40
0.0
 40
0.0
 40
0.0
 40
0.5214320412
 40
1.0
 40
1.0
 40
1.0
 40
1.0
 10
583.9465938998
 20
220.3156917044
 30
0.0
 10
583.8150843886
 20
220.4410908937
 30
0.0
 10
583.5515103314
 20
220.6699564605
 30
0.0
 10
583.2636285692
 20
220.8685043354
 30
0.0
 10
583.1191084088
 20
220.9517390934
 30
0.0
  0
SPLINE
  5
428
100
AcDbEntity
  8
0
100
AcDbSpline
 62
7
  6
CONTINUOUS
 70
0
 71
3
 72
10
 73
6
 74
0
 42
0.0000001
 43
0.0000001
 44
0.0000000001
 40
0.0
 40
0.0
 40
0.0
 40
0.0
 40
0.5395455663
 40
0.791811963
 40
1.0
 40
1.0
 40
1.0
 40
1.0
 10
29.4544651833
 20
225.6043722252
 30
0.0
 10
29.0670643322
 20
225.5298569333
 30
0.0
 10
28.5256149313
 20
225.2571196124
 30
0.0
 10
27.9866742839
 20
224.7624621783
 30
0.0
 10
27.7792572688
 20
224.4936930241
 30
0.0
 10
27.7010149422
 20
224.3631187831
 30
0.0
  0
SPLINE
  5
429
100
AcDbEntity
  8
0
100
AcDbSpline
 62
7
  6
CONTINUOUS
 70
0
 71
3
 72
9
 73
5
 74
0
 42
0.0000001
 43
0.0000001
 44
0.0000000001
 40
0.0
 40
0.0
 40
0.0
 40
0.0
 40
0.3503596499
 40
1.0
 40
1.0
 40
1.0
 40
1.0
 10
28.4107546289
 20
225.472491564
 30
0.0
 10
28.3815054404
 20
225.4421814642
 30
0.0
 10
28.3068186017
 20
225.3475362133
 30
0.0
 10
28.2380215232
 20
225.2490152363
 30
0.0
 10
28.1898673026
 20
225.1875246073
 30
0.0
  0
SPLINE
  5
42A
100
AcDbEntity
  8
0
100
AcDbSpline
 62
7
  6
CONTINUOUS
 70
0
 71
3
 72
9
 73
5
 74
0
 42
0.0000001
 43
0.0000001
 44
0.0000000001
 40
0.0
 40
0.0
 40
0.0
 40
0.0
 40
0.4956272216
 40
1.0
 40
1.0
 40
1.0
 40
1.0
 10
27.974607455
 20
224.7499613144
 30
0.0
 10
27.9934575222
 20
224.8287751578
 30
0.0
 10
28.050109675
 20
224.9838618791
 30
0.0
 10
28.1390220626
 20
225.1225976756
 30
0.0
 10
28.1898673026
 20
225.1875246073
 30
0.0
  0
SPLINE
  5
42B
100
AcDbEntity
  8
0
100
AcDbSpline
 62
7
  6
CONTINUOUS
 70
0
 71
3
 72
11
 73
7
 74
0
 42
0.0000001
 43
0.0000001
 44
0.0000000001
 40
0.0
 40
0.0
 40
0.0
 40
0.0
 40
0.3554315862
 40
0.6400072762
 40
0.8512945669
 40
1.0
 40
1.0
 40
1.0
 40
1.0
 10
302.2551255804
 20
383.1049667889
 30
0.0
 10
302.1941977422
 20
383.139867808
 30
0.0
 10
302.0822949436
 20
383.1990766763
 30
0.0
 10
301.9247035561
 20
383.2598407955
 30
0.0
 10
301.7991551983
 20
383.2842265116
 30
0.0
 10
301.7253040314
 20
383.2725259055
 30
0.0
 10
301.6998521586
 20
383.2578559553
 30
0.0
  0
SPLINE
  5
42C
100
AcDbEntity
  8
0
100
AcDbSpline
 62
7
  6
CONTINUOUS
 70
0
 71
3
 72
9
 73
5
 74
0
 42
0.0000001
 43
0.0000001
 44
0.0000000001
 40
0.0
 40
0.0
 40
0.0
 40
0.0
 40
0.2520230615
 40
1.0
 40
1.0
 40
1.0
 40
1.0
 10
27.777189805
 20
201.7047093017
 30
0.0
 10
27.8094468837
 20
201.6695678654
 30
0.0
 10
27.9424360274
 20
201.5348150688
 30
0.0
 10
28.0959172581
 20
201.4201719346
 30
0.0
 10
28.2185247857
 20
201.3493883022
 30
0.0
  0
SPLINE
  5
42D
100
AcDbEntity
  8
0
100
AcDbSpline
 62
7
  6
CONTINUOUS
 70
0
 71
3
 72
9
 73
5
 74
0
 42
0.0000001
 43
0.0000001
 44
0.0000000001
 40
0.0
 40
0.0
 40
0.0
 40
0.0
 40
0.2740458013
 40
1.0
 40
1.0
 40
1.0
 40
1.0
 10
27.6866991135
 20
202.1299261099
 30
0.0
 10
27.6866991135
 20
202.090017008
 30
0.0
 10
27.6932046162
 20
201.9447589553
 30
0.0
 10
27.7286422296
 20
201.7986236035
 30
0.0
 10
27.777189805
 20
201.7047093017
 30
0.0
  0
SPLINE
  5
42E
100
AcDbEntity
  8
0
100
AcDbSpline
 62
7
  6
CONTINUOUS
 70
0
 71
3
 72
12
 73
8
 74
0
 42
0.0000001
 43
0.0000001
 44
0.0000000001
 40
0.0
 40
0.0
 40
0.0
 40
0.0
 40
0.433031164
 40
0.7441509883
 40
0.9323319867
 40
0.9805071602
 40
1.0
 40
1.0
 40
1.0
 40
1.0
 10
310.1902388328
 20
38.6350093853
 30
0.0
 10
310.1856960945
 20
38.6262614324
 30
0.0
 10
310.1776074282
 20
38.6112185371
 30
0.0
 10
310.1670392662
 20
38.5932879481
 30
0.0
 10
310.159745522
 20
38.5823179459
 30
0.0
 10
310.1563654783
 20
38.5784259408
 30
0.0
 10
310.1548193723
 20
38.5770756787
 30
0.0
 10
310.154434862
 20
38.5772971222
 30
0.0
  0
SPLINE
  5
42F
100
AcDbEntity
  8
0
100
AcDbSpline
 62
7
  6
CONTINUOUS
 70
0
 71
3
 72
11
 73
7
 74
0
 42
0.0000001
 43
0.0000001
 44
0.0000000001
 40
0.0
 40
0.0
 40
0.0
 40
0.0
 40
0.2372196566
 40
0.500001618
 40
0.7627826987
 40
1.0
 40
1.0
 40
1.0
 40
1.0
 10
302.8208086502
 20
384.0847640457
 30
0.0
 10
302.8208086502
 20
383.9920364139
 30
0.0
 10
302.7860273916
 20
383.7964633157
 30
0.0
 10
302.6647977007
 20
383.5216382429
 30
0.0
 10
302.487408864
 20
383.2792375347
 30
0.0
 10
302.3354293876
 20
383.1513299368
 30
0.0
 10
302.2551255804
 20
383.1049667889
 30
0.0
  0
SPLINE
  5
430
100
AcDbEntity
  8
0
100
AcDbSpline
 62
7
  6
CONTINUOUS
 70
0
 71
3
 72
9
 73
5
 74
0
 42
0.0000001
 43
0.0000001
 44
0.0000000001
 40
0.0
 40
0.0
 40
0.0
 40
0.0
 40
0.2892573643
 40
1.0
 40
1.0
 40
1.0
 40
1.0
 10
302.5686314676
 20
424.5278753272
 30
0.0
 10
302.5597748837
 20
424.5133405242
 30
0.0
 10
302.5287497968
 20
424.4633415344
 30
0.0
 10
302.4973051821
 20
424.4135991128
 30
0.0
 10
302.4744215642
 20
424.3785934538
 30
0.0
  0
SPLINE
  5
431
100
AcDbEntity
  8
0
100
AcDbSpline
 62
7
  6
CONTINUOUS
 70
0
 71
3
 72
9
 73
5
 74
0
 42
0.0000001
 43
0.0000001
 44
0.0000000001
 40
0.0
 40
0.0
 40
0.0
 40
0.0
 40
0.5283789159
 40
1.0
 40
1.0
 40
1.0
 40
1.0
 10
302.6279203698
 20
424.5498713067
 30
0.0
 10
302.6583972466
 20
424.5987656709
 30
0.0
 10
302.7092458605
 20
424.6950702925
 30
0.0
 10
302.738877875
 20
424.8036742933
 30
0.0
 10
302.737329518
 20
424.8550771268
 30
0.0
  0
SPLINE
  5
432
100
AcDbEntity
  8
0
100
AcDbSpline
 62
7
  6
CONTINUOUS
 70
0
 71
3
 72
9
 73
5
 74
0
 42
0.0000001
 43
0.0000001
 44
0.0000000001
 40
0.0
 40
0.0
 40
0.0
 40
0.0
 40
0.4793238699
 40
1.0
 40
1.0
 40
1.0
 40
1.0
 10
302.9047599526
 20
425.3512888706
 30
0.0
 10
302.84956608
 20
425.2865685808
 30
0.0
 10
302.7617791314
 20
425.1271334836
 30
0.0
 10
302.7345475806
 20
424.9474327467
 30
0.0
 10
302.737329518
 20
424.8550771268
 30
0.0
  0
SPLINE
  5
433
100
AcDbEntity
  8
0
100
AcDbSpline
 62
7
  6
CONTINUOUS
 70
0
 71
3
 72
9
 73
5
 74
0
 42
0.0000001
 43
0.0000001
 44
0.0000000001
 40
0.0
 40
0.0
 40
0.0
 40
0.0
 40
0.2428141747
 40
1.0
 40
1.0
 40
1.0
 40
1.0
 10
302.6279203698
 20
424.5498713067
 30
0.0
 10
302.6168173223
 20
424.4325109693
 30
0.0
 10
302.5951518645
 20
423.9479180112
 30
0.0
 10
302.6789751185
 20
423.4527236969
 30
0.0
 10
302.8208086502
 20
423.1135795845
 30
0.0
  0
SPLINE
  5
434
100
AcDbEntity
  8
0
100
AcDbSpline
 62
7
  6
CONTINUOUS
 70
0
 71
3
 72
13
 73
9
 74
0
 42
0.0000001
 43
0.0000001
 44
0.0000000001
 40
0.0
 40
0.0
 40
0.0
 40
0.0
 40
0.1105485191
 40
0.2271684595
 40
0.3499071308
 40
0.4773825888
 40
0.7389289039
 40
1.0
 40
1.0
 40
1.0
 40
1.0
 10
583.6847914785
 20
221.9315363502
 30
0.0
 10
583.755979383
 20
221.8892644536
 30
0.0
 10
583.9165393996
 20
221.8251787345
 30
0.0
 10
584.1789308096
 20
221.7936676904
 30
0.0
 10
584.4542670437
 20
221.8192911117
 30
0.0
 10
584.8249182294
 20
221.9234069258
 30
0.0
 10
585.2557055163
 20
222.1642135059
 30
0.0
 10
585.5431267324
 20
222.4370209768
 30
0.0
 10
585.6646904658
 20
222.5901598395
 30
0.0
  0
SPLINE
  5
435
100
AcDbEntity
  8
0
100
AcDbSpline
 62
7
  6
CONTINUOUS
 70
0
 71
3
 72
11
 73
7
 74
0
 42
0.0000001
 43
0.0000001
 44
0.0000000001
 40
0.0
 40
0.0
 40
0.0
 40
0.0
 40
0.2177725896
 40
0.4509493564
 40
0.7101955351
 40
1.0
 40
1.0
 40
1.0
 40
1.0
 10
596.4055531031
 20
267.9698660405
 30
0.0
 10
596.4517331202
 20
267.9432045965
 30
0.0
 10
596.5381638459
 20
267.8705762102
 30
0.0
 10
596.6301006888
 20
267.7201680025
 30
0.0
 10
596.6847936669
 20
267.5348318184
 30
0.0
 10
596.6955103264
 20
267.3999269613
 30
0.0
 10
596.6955103264
 20
267.3289654485
 30
0.0
  0
SPLINE
  5
436
100
AcDbEntity
  8
0
100
AcDbSpline
 62
7
  6
CONTINUOUS
 70
0
 71
3
 72
11
 73
7
 74
0
 42
0.0000001
 43
0.0000001
 44
0.0000000001
 40
0.0
 40
0.0
 40
0.0
 40
0.0
 40
0.2177740056
 40
0.4509513652
 40
0.7101969988
 40
1.0
 40
1.0
 40
1.0
 40
1.0
 10
313.5616630443
 20
431.2661678487
 30
0.0
 10
313.5154845527
 20
431.2928284121
 30
0.0
 10
313.4093745161
 20
431.3313625986
 30
0.0
 10
313.2331554596
 20
431.3357772358
 30
0.0
 10
313.0453109203
 20
431.2904765875
 30
0.0
 10
312.9231267201
 20
431.2323078409
 30
0.0
 10
312.8616748955
 20
431.1968288252
 30
0.0
  0
SPLINE
  5
437
100
AcDbEntity
  8
0
100
AcDbSpline
 62
7
  6
CONTINUOUS
 70
0
 71
3
 72
9
 73
5
 74
0
 42
0.0000001
 43
0.0000001
 44
0.0000000001
 40
0.0
 40
0.0
 40
0.0
 40
0.0
 40
0.2482060057
 40
1.0
 40
1.0
 40
1.0
 40
1.0
 10
302.4107549466
 20
424.0116878767
 30
0.0
 10
302.4107530356
 20
424.0425816974
 30
0.0
 10
302.4161004029
 20
424.1670170683
 30
0.0
 10
302.4433891698
 20
424.2903143242
 30
0.0
 10
302.4744215642
 20
424.3785934538
 30
0.0
  0
SPLINE
  5
438
100
AcDbEntity
  8
0
100
AcDbSpline
 62
7
  6
CONTINUOUS
 70
0
 71
3
 72
11
 73
7
 74
0
 42
0.0000001
 43
0.0000001
 44
0.0000000001
 40
0.0
 40
0.0
 40
0.0
 40
0.0
 40
0.2569477829
 40
0.5054271688
 40
0.7508395466
 40
1.0
 40
1.0
 40
1.0
 40
1.0
 10
302.4107544507
 20
384.8488040525
 30
0.0
 10
302.4107815248
 20
384.7710801946
 30
0.0
 10
302.4262537136
 20
384.6175043772
 30
0.0
 10
302.5034552554
 20
384.4012343985
 30
0.0
 10
302.6353389683
 20
384.2155720355
 30
0.0
 10
302.7554241483
 20
384.1222506403
 30
0.0
 10
302.8208086502
 20
384.0847640457
 30
0.0
  0
SPLINE
  5
439
100
AcDbEntity
  8
0
100
AcDbSpline
 62
7
  6
CONTINUOUS
 70
0
 71
3
 72
12
 73
8
 74
0
 42
0.0000001
 43
0.0000001
 44
0.0000000001
 40
0.0
 40
0.0
 40
0.0
 40
0.0
 40
0.0194946682
 40
0.0676705174
 40
0.2558518193
 40
0.566970992
 40
1.0
 40
1.0
 40
1.0
 40
1.0
 10
310.6946026781
 20
38.6997711995
 30
0.0
 10
310.6942179592
 20
38.6995496323
 30
0.0
 10
310.692670954
 20
38.7009002328
 30
0.0
 10
310.6892891194
 20
38.7047941151
 30
0.0
 10
310.6819917695
 20
38.7157686437
 30
0.0
 10
310.6714186316
 20
38.7337073286
 30
0.0
 10
310.6633262877
 20
38.7487569051
 30
0.0
 10
310.6587815219
 20
38.7575087783
 30
0.0
  0
SPLINE
  5
43A
100
AcDbEntity
  8
0
100
AcDbSpline
 62
7
  6
CONTINUOUS
 70
0
 71
3
 72
11
 73
7
 74
0
 42
0.0000001
 43
0.0000001
 44
0.0000000001
 40
0.0
 40
0.0
 40
0.0
 40
0.0
 40
0.2177734397
 40
0.4509506014
 40
0.7101964942
 40
1.0
 40
1.0
 40
1.0
 40
1.0
 10
596.4055535948
 20
203.6540785378
 30
0.0
 10
596.4517335455
 20
203.680740387
 30
0.0
 10
596.5381640237
 20
203.7533692443
 30
0.0
 10
596.6301007288
 20
203.9037775248
 30
0.0
 10
596.6847936562
 20
204.0891132601
 30
0.0
 10
596.6955103264
 20
204.224017652
 30
0.0
 10
596.6955103264
 20
204.2949788461
 30
0.0
  0
SPLINE
  5
43B
100
AcDbEntity
  8
0
100
AcDbSpline
 62
7
  6
CONTINUOUS
 70
0
 71
3
 72
15
 73
11
 74
0
 42
0.0000001
 43
0.0000001
 44
0.0000000001
 40
0.0
 40
0.0
 40
0.0
 40
0.0
 40
0.0993850225
 40
0.202240858
 40
0.3113337434
 40
0.4287377323
 40
0.555816039
 40
0.6932956531
 40
0.8414041961
 40
1.0
 40
1.0
 40
1.0
 40
1.0
 10
448.8553778119
 20
188.2714940884
 30
0.0
 10
448.8404182103
 20
187.2095207648
 30
0.0
 10
448.6437210273
 20
185.047432971
 30
0.0
 10
447.8468062974
 20
181.805529506
 30
0.0
 10
446.5251621037
 20
178.5313031305
 30
0.0
 10
444.6556162105
 20
175.2361832617
 30
0.0
 10
442.2226998173
 20
171.9474448781
 30
0.0
 10
439.2233926847
 20
168.7036367943
 30
0.0
 10
435.6685370839
 20
165.5479615344
 30
0.0
 10
433.0300065607
 20
163.5958016097
 30
0.0
 10
431.6291984602
 20
162.6417562148
 30
0.0
  0
SPLINE
  5
43C
100
AcDbEntity
  8
0
100
AcDbSpline
 62
7
  6
CONTINUOUS
 70
0
 71
3
 72
11
 73
7
 74
0
 42
0.0000001
 43
0.0000001
 44
0.0000000001
 40
0.0
 40
0.0
 40
0.0
 40
0.0
 40
0.2965971719
 40
0.5625481745
 40
0.7965595617
 40
1.0
 40
1.0
 40
1.0
 40
1.0
 10
524.7982232122
 20
212.6138738606
 30
0.0
 10
525.6302477538
 20
213.0942405863
 30
0.0
 10
527.161998097
 20
214.0904619988
 30
0.0
 10
529.1333367006
 20
215.7678680155
 30
0.0
 10
530.6353964082
 20
217.4934241245
 30
0.0
 10
531.3695284228
 20
218.7173150075
 30
0.0
 10
531.6455667226
 20
219.3156989117
 30
0.0
  0
SPLINE
  5
43D
100
AcDbEntity
  8
0
100
AcDbSpline
 62
7
  6
CONTINUOUS
 70
0
 71
3
 72
13
 73
9
 74
0
 42
0.0000001
 43
0.0000001
 44
0.0000000001
 40
0.0
 40
0.0
 40
0.0
 40
0.0
 40
0.290229726
 40
0.548808348
 40
0.6680416557
 40
0.7819575856
 40
0.8920345892
 40
1.0
 40
1.0
 40
1.0
 40
1.0
 10
141.2415951032
 20
190.2234064942
 30
0.0
 10
139.7865034375
 20
191.703627686
 30
0.0
 10
137.2216415673
 20
194.6982719157
 30
0.0
 10
134.7567200069
 20
198.8246963358
 30
0.0
 10
133.420926878
 20
202.0837128813
 30
0.0
 10
132.7259547376
 20
204.4427747004
 30
0.0
 10
132.3010625338
 20
206.7830160815
 30
0.0
 10
132.1922404451
 20
208.3423622316
 30
0.0
 10
132.1813646404
 20
209.1144292116
 30
0.0
  0
SPLINE
  5
43E
100
AcDbEntity
  8
0
100
AcDbSpline
 62
7
  6
CONTINUOUS
 70
0
 71
3
 72
15
 73
11
 74
0
 42
0.0000001
 43
0.0000001
 44
0.0000000001
 40
0.0
 40
0.0
 40
0.0
 40
0.0
 40
0.112783141
 40
0.2332645663
 40
0.3594861603
 40
0.4893193994
 40
0.6205354519
 40
0.7508681508
 40
0.8780751127
 40
1.0
 40
1.0
 40
1.0
 40
1.0
 10
362.0038837791
 20
122.4479545366
 30
0.0
 10
358.7401295714
 20
120.8506022451
 30
0.0
 10
351.7760284969
 20
117.9732512843
 30
0.0
 10
340.64352769
 20
114.7121010887
 30
0.0
 10
328.7082743073
 20
112.4407508979
 30
0.0
 10
316.2737892714
 20
111.227236504
 30
0.0
 10
303.6487588591
 20
111.1058161754
 30
0.0
 10
291.1450152452
 20
112.0801370007
 30
0.0
 10
279.0746378081
 20
114.1219956278
 30
0.0
 10
271.3083170522
 20
116.2119299593
 30
0.0
 10
267.5753829032
 20
117.4350581229
 30
0.0
  0
SPLINE
  5
43F
100
AcDbEntity
  8
0
100
AcDbSpline
 62
7
  6
CONTINUOUS
 70
0
 71
3
 72
17
 73
13
 74
0
 42
0.0000001
 43
0.0000001
 44
0.0000000001
 40
0.0
 40
0.0
 40
0.0
 40
0.0
 40
0.054216864
 40
0.1116688088
 40
0.2345865642
 40
0.3653074139
 40
0.5000004104
 40
0.6346933626
 40
0.7654140791
 40
0.8883316096
 40
0.9457833731
 40
1.0
 40
1.0
 40
1.0
 40
1.0
 10
289.443138918
 20
101.2039473122
 30
0.0
 10
290.1318296138
 20
100.8063405487
 30
0.0
 10
291.5870215089
 20
100.0497482391
 30
0.0
 10
294.7561335775
 20
98.702865893
 30
0.0
 10
299.1384045016
 20
97.3784627415
 30
0.0
 10
304.7644421849
 20
96.4121665491
 30
0.0
 10
310.6363930702
 20
96.0845341107
 30
0.0
 10
316.5083406173
 20
96.4121918527
 30
0.0
 10
322.1343680984
 20
97.3785129949
 30
0.0
 10
326.5166246823
 20
98.7029368812
 30
0.0
 10
329.6857198757
 20
100.0498349124
 30
0.0
 10
331.1409012193
 20
100.8064342779
 30
0.0
 10
331.8295860365
 20
101.2040442691
 30
0.0
  0
LINE
  5
440
100
AcDbEntity
  8
0
100
AcDbLine
 62
7
  6
CONTINUOUS
 10
431.6291984602
 20
162.6417562148
 11
431.3618871977
 21
162.4598265491
  0
LINE
  5
441
100
AcDbEntity
  8
0
100
AcDbLine
 62
7
  6
CONTINUOUS
 10
362.3201843558
 20
122.6028673626
 11
362.0038837791
 21
122.4479545366
  0
SPLINE
  5
442
100
AcDbEntity
  8
0
100
AcDbSpline
 62
7
  6
CONTINUOUS
 70
0
 71
3
 72
11
 73
7
 74
0
 42
0.0000001
 43
0.0000001
 44
0.0000000001
 40
0.0
 40
0.0
 40
0.0
 40
0.0
 40
0.203439897
 40
0.4374511344
 40
0.703402332
 40
1.0
 40
1.0
 40
1.0
 40
1.0
 10
89.6960944509
 20
219.2739471533
 30
0.0
 10
89.972137513
 20
218.6755529255
 30
0.0
 10
90.7062854581
 20
217.4516407307
 30
0.0
 10
92.2083813432
 20
215.7260575815
 30
0.0
 10
94.1797703325
 20
214.048628283
 30
0.0
 10
95.7115599326
 20
213.05239624
 30
0.0
 10
96.5436058979
 20
212.5720251454
 30
0.0
  0
SPLINE
  5
443
100
AcDbEntity
  8
02___PRT_ALL_AXES
100
AcDbSpline
 62
7
  6
CONTINUOUS
 70
0
 71
3
 72
22
 73
18
 74
0
 42
0.0000001
 43
0.0000001
 44
0.0000000001
 40
0.0
 40
0.0
 40
0.0
 40
0.0
 40
0.0428194547
 40
0.0874068
 40
0.1351956786
 40
0.1871116745
 40
0.243565842
 40
0.3045316758
 40
0.3696387421
 40
0.4382565221
 40
0.5095643549
 40
0.5826105024
 40
0.7296293597
 40
0.8016272292
 40
0.8712403329
 40
0.9375981095
 40
1.0
 40
1.0
 40
1.0
 40
1.0
 10
480.66504342
 20
217.4404650992
 30
0.0
 10
480.6650434193
 20
217.0561541105
 30
0.0
 10
480.7677921967
 20
216.2683239224
 30
0.0
 10
481.2196222925
 20
215.1307695782
 30
0.0
 10
481.9527887668
 20
214.0523839714
 30
0.0
 10
482.9465036903
 20
213.0544998151
 30
0.0
 10
484.1778478025
 20
212.154744613
 30
0.0
 10
485.6206014721
 20
211.3700454259
 30
0.0
 10
487.2445655529
 20
210.7158116598
 30
0.0
 10
489.0155566335
 20
210.2054197571
 30
0.0
 10
490.8963932519
 20
209.8494296749
 30
0.0
 10
493.5010442175
 20
209.5906013152
 30
0.0
 10
496.1366874629
 20
209.6632079558
 30
0.0
 10
498.6977967864
 20
210.0691201313
 30
0.0
 10
500.5098785571
 20
210.5291736135
 30
0.0
 10
502.1865657346
 20
211.1366860303
 30
0.0
 10
503.2259907245
 20
211.6491830142
 30
0.0
 10
503.7110230645
 20
211.9292148947
 30
0.0
  0
SPLINE
  5
444
100
AcDbEntity
  8
0
100
AcDbSpline
 62
7
  6
CONTINUOUS
 70
0
 71
3
 72
11
 73
7
 74
0
 42
0.0000001
 43
0.0000001
 44
0.0000000001
 40
0.0
 40
0.0
 40
0.0
 40
0.0
 40
0.2372173013
 40
0.499998382
 40
0.7627803434
 40
1.0
 40
1.0
 40
1.0
 40
1.0
 10
583.1191084088
 20
220.9517390934
 30
0.0
 10
583.199412216
 20
220.9981022414
 30
0.0
 10
583.3513916924
 20
221.1260098392
 30
0.0
 10
583.5287805291
 20
221.3684105475
 30
0.0
 10
583.6500102199
 20
221.6432356203
 30
0.0
 10
583.6847914785
 20
221.8388087184
 30
0.0
 10
583.6847914785
 20
221.9315363502
 30
0.0
  0
SPLINE
  5
445
100
AcDbEntity
  8
0
100
AcDbSpline
 62
7
  6
CONTINUOUS
 70
0
 71
3
 72
15
 73
11
 74
0
 42
0.0000001
 43
0.0000001
 44
0.0000000001
 40
0.0
 40
0.0
 40
0.0
 40
0.0
 40
0.1519126807
 40
0.2932246323
 40
0.4243020799
 40
0.5463819334
 40
0.6616661408
 40
0.7732537082
 40
0.8848085871
 40
1.0
 40
1.0
 40
1.0
 40
1.0
 10
524.1237334356
 20
235.4738267426
 30
0.0
 10
524.9875183404
 20
234.9751315773
 30
0.0
 10
526.6046335899
 20
233.9204930266
 30
0.0
 10
528.7291890454
 20
232.1051756607
 30
0.0
 10
530.4319804055
 20
230.138619719
 30
0.0
 10
531.6804752432
 20
228.0500901901
 30
0.0
 10
532.4464406591
 20
225.8726612771
 30
0.0
 10
532.7076325106
 20
223.6465892094
 30
0.0
 10
532.4555026647
 20
221.4209312881
 30
0.0
 10
531.962373382
 20
220.0024554853
 30
0.0
 10
531.6455655554
 20
219.3156990921
 30
0.0
  0
SPLINE
  5
446
100
AcDbEntity
  8
0
100
AcDbSpline
 62
7
  6
CONTINUOUS
 70
0
 71
3
 72
10
 73
6
 74
0
 42
0.0000001
 43
0.0000001
 44
0.0000000001
 40
0.0
 40
0.0
 40
0.0
 40
0.0
 40
0.5174782146
 40
0.7615422022
 40
1.0
 40
1.0
 40
1.0
 40
1.0
 10
302.8208086502
 20
423.1135795845
 30
0.0
 10
302.6974602434
 20
423.2366071093
 30
0.0
 10
302.5401072911
 20
423.4482742331
 30
0.0
 10
302.4293761347
 20
423.7683652083
 30
0.0
 10
302.4107599124
 20
423.9314086636
 30
0.0
 10
302.4107549466
 20
424.0116878767
 30
0.0
  0
SPLINE
  5
447
100
AcDbEntity
  8
0
100
AcDbSpline
 62
7
  6
CONTINUOUS
 70
0
 71
3
 72
15
 73
11
 74
0
 42
0.0000001
 43
0.0000001
 44
0.0000000001
 40
0.0
 40
0.0
 40
0.0
 40
0.0
 40
0.1141538845
 40
0.237325142
 40
0.36697496
 40
0.4999994786
 40
0.6330240698
 40
0.7626740996
 40
0.8858456908
 40
1.0
 40
1.0
 40
1.0
 40
1.0
 10
290.1863940569
 20
346.841805933
 30
0.0
 10
291.5910654695
 20
347.6527885103
 30
0.0
 10
294.6626346974
 20
349.0831114255
 30
0.0
 10
299.6645235214
 20
350.6034007846
 30
0.0
 10
305.0798725681
 20
351.5392054467
 30
0.0
 10
310.7052626316
 20
351.8549431497
 30
0.0
 10
316.3306571913
 20
351.5392321458
 30
0.0
 10
321.746019525
 20
350.6034531971
 30
0.0
 10
326.7479298817
 20
349.0831876148
 30
0.0
 10
329.8195179286
 20
347.652880041
 30
0.0
 10
331.2242004155
 20
346.8419045758
 30
0.0
  0
SPLINE
  5
448
100
AcDbEntity
  8
0
100
AcDbSpline
 62
7
  6
CONTINUOUS
 70
0
 71
3
 72
9
 73
5
 74
0
 42
0.0000001
 43
0.0000001
 44
0.0000000001
 40
0.0
 40
0.0
 40
0.0
 40
0.0
 40
0.5061161144
 40
1.0
 40
1.0
 40
1.0
 40
1.0
 10
584.9082461832
 20
261.9473078988
 30
0.0
 10
585.023322621
 20
261.9759619814
 30
0.0
 10
585.2467256827
 20
262.047419905
 30
0.0
 10
585.4694170122
 20
262.1202901732
 30
0.0
 10
585.5807309203
 20
262.1519330017
 30
0.0
  0
SPLINE
  5
449
100
AcDbEntity
  8
0
100
AcDbSpline
 62
7
  6
CONTINUOUS
 70
0
 71
3
 72
9
 73
5
 74
0
 42
0.0000001
 43
0.0000001
 44
0.0000000001
 40
0.0
 40
0.0
 40
0.0
 40
0.0
 40
0.2498939134
 40
1.0
 40
1.0
 40
1.0
 40
1.0
 10
584.9082461832
 20
261.9473078988
 30
0.0
 10
584.8796083201
 20
261.9401770585
 30
0.0
 10
584.7684543017
 20
261.8982446407
 30
0.0
 10
584.6754220523
 20
261.8151680396
 30
0.0
 10
584.6239354164
 20
261.7430792909
 30
0.0
  0
SPLINE
  5
44A
100
AcDbEntity
  8
0
100
AcDbSpline
 62
7
  6
CONTINUOUS
 70
0
 71
3
 72
9
 73
5
 74
0
 42
0.0000001
 43
0.0000001
 44
0.0000000001
 40
0.0
 40
0.0
 40
0.0
 40
0.0
 40
0.2205645114
 40
1.0
 40
1.0
 40
1.0
 40
1.0
 10
583.6847914785
 20
260.960351889
 30
0.0
 10
583.7070371669
 20
260.9878579612
 30
0.0
 10
583.8105930329
 20
261.1103684529
 30
0.0
 10
583.9245200697
 20
261.2240270315
 30
0.0
 10
584.0176498929
 20
261.3074228629
 30
0.0
  0
SPLINE
  5
44B
100
AcDbEntity
  8
0
100
AcDbSpline
 62
7
  6
CONTINUOUS
 70
0
 71
3
 72
9
 73
5
 74
0
 42
0.0000001
 43
0.0000001
 44
0.0000000001
 40
0.0
 40
0.0
 40
0.0
 40
0.0
 40
0.5032924243
 40
1.0
 40
1.0
 40
1.0
 40
1.0
 10
264.8975981898
 20
116.2844964827
 30
0.0
 10
263.3925387054
 20
116.9385729274
 30
0.0
 10
260.426075434
 20
118.2937412067
 30
0.0
 10
257.502614412
 20
119.7386886613
 30
0.0
 10
256.0602142321
 20
120.4752307615
 30
0.0
  0
SPLINE
  5
44C
100
AcDbEntity
  8
0
100
AcDbSpline
 62
7
  6
CONTINUOUS
 70
0
 71
3
 72
9
 73
5
 74
0
 42
0.0000001
 43
0.0000001
 44
0.0000000001
 40
0.0
 40
0.0
 40
0.0
 40
0.0
 40
0.5040472929
 40
1.0
 40
1.0
 40
1.0
 40
1.0
 10
142.2454367904
 20
186.1854362835
 30
0.0
 10
141.0176316516
 20
186.9889245819
 30
0.0
 10
138.6052614684
 20
188.6193534602
 30
0.0
 10
136.254261089
 20
190.3378252551
 30
0.0
 10
135.1086404289
 20
191.2164909955
 30
0.0
  0
SPLINE
  5
44D
100
AcDbEntity
  8
0
100
AcDbSpline
 62
7
  6
CONTINUOUS
 70
0
 71
3
 72
9
 73
5
 74
0
 42
0.0000001
 43
0.0000001
 44
0.0000000001
 40
0.0
 40
0.0
 40
0.0
 40
0.0
 40
0.2475720095
 40
1.0
 40
1.0
 40
1.0
 40
1.0
 10
585.0921393548
 20
261.2128693115
 30
0.0
 10
585.1178581859
 20
261.214947048
 30
0.0
 10
585.2209434712
 20
261.2312035081
 30
0.0
 10
585.3194458919
 20
261.2771917471
 30
0.0
 10
585.3812895008
 20
261.3254107836
 30
0.0
  0
SPLINE
  5
44E
100
AcDbEntity
  8
0
100
AcDbSpline
 62
7
  6
CONTINUOUS
 70
0
 71
3
 72
9
 73
5
 74
0
 42
0.0000001
 43
0.0000001
 44
0.0000000001
 40
0.0
 40
0.0
 40
0.0
 40
0.0
 40
0.2411691814
 40
1.0
 40
1.0
 40
1.0
 40
1.0
 10
585.6646904658
 20
261.555495121
 30
0.0
 10
585.6425605237
 20
261.5362187523
 30
0.0
 10
585.5498386758
 20
261.4573877082
 30
0.0
 10
585.4541129394
 20
261.3821907176
 30
0.0
 10
585.3812895008
 20
261.3254107836
 30
0.0
  0
SPLINE
  5
44F
100
AcDbEntity
  8
0
100
AcDbSpline
 62
7
  6
CONTINUOUS
 70
0
 71
3
 72
21
 73
17
 74
0
 42
0.0000001
 43
0.0000001
 44
0.0000000001
 40
0.0
 40
0.0
 40
0.0
 40
0.0
 40
0.1446357982
 40
0.2112687939
 40
0.2742488379
 40
0.3339468559
 40
0.3909337947
 40
0.4459756701
 40
0.49999905
 40
0.5540224738
 40
0.6090644767
 40
0.6660516156
 40
0.7257498907
 40
0.7887302316
 40
0.8553635473
 40
1.0
 40
1.0
 40
1.0
 40
1.0
 10
103.5532346966
 20
225.8119378844
 30
0.0
 10
102.6727889854
 20
225.3036153503
 30
0.0
 10
101.4397520169
 20
224.4546680604
 30
0.0
 10
100.0447257093
 20
223.119509743
 30
0.0
 10
99.195632731
 20
222.0903530005
 30
0.0
 10
98.5244413945
 20
221.0158785733
 30
0.0
 10
98.0385873646
 20
219.9057827245
 30
0.0
 10
97.7442592098
 20
218.7709095702
 30
0.0
 10
97.6456501358
 20
217.6232205996
 30
0.0
 10
97.7442759166
 20
216.4755321796
 30
0.0
 10
98.0386205264
 20
215.3406606358
 30
0.0
 10
98.5244905616
 20
214.2305673635
 30
0.0
 10
99.1956973171
 20
213.1560963837
 30
0.0
 10
100.0448050213
 20
212.1269438924
 30
0.0
 10
101.4398503023
 20
210.7917925485
 30
0.0
 10
102.6728994385
 20
209.9428511408
 30
0.0
 10
103.5533527993
 20
209.4345326556
 30
0.0
  0
SPLINE
  5
450
100
AcDbEntity
  8
0
100
AcDbSpline
 62
7
  6
CONTINUOUS
 70
0
 71
3
 72
10
 73
6
 74
0
 42
0.0000001
 43
0.0000001
 44
0.0000000001
 40
0.0
 40
0.0
 40
0.0
 40
0.0
 40
0.5455391954
 40
0.7905410435
 40
1.0
 40
1.0
 40
1.0
 40
1.0
 10
585.0921393548
 20
261.2128693115
 30
0.0
 10
584.8560413617
 20
261.0968222252
 30
0.0
 10
584.4855796876
 20
260.9794945287
 30
0.0
 10
584.0047718968
 20
260.9330709415
 30
0.0
 10
583.7845727248
 20
260.9446587093
 30
0.0
 10
583.6847914785
 20
260.960351889
 30
0.0
  0
SPLINE
  5
451
100
AcDbEntity
  8
0
100
AcDbSpline
 62
7
  6
CONTINUOUS
 70
0
 71
3
 72
9
 73
5
 74
0
 42
0.0000001
 43
0.0000001
 44
0.0000000001
 40
0.0
 40
0.0
 40
0.0
 40
0.0
 40
0.2566393892
 40
1.0
 40
1.0
 40
1.0
 40
1.0
 10
103.5533527993
 20
209.4345326556
 30
0.0
 10
103.4832982865
 20
209.3940869052
 30
0.0
 10
103.2080992887
 20
209.2404095555
 30
0.0
 10
102.9238193728
 20
209.1027950631
 30
0.0
 10
102.7079946108
 20
209.0115898985
 30
0.0
  0
SPLINE
  5
452
100
AcDbEntity
  8
0
100
AcDbSpline
 62
7
  6
CONTINUOUS
 70
0
 71
3
 72
15
 73
11
 74
0
 42
0.0000001
 43
0.0000001
 44
0.0000000001
 40
0.0
 40
0.0
 40
0.0
 40
0.0
 40
0.1515316933
 40
0.2931858459
 40
0.4252148622
 40
0.5485672306
 40
0.6649734579
 40
0.7769320038
 40
0.8875179489
 40
1.0
 40
1.0
 40
1.0
 40
1.0
 10
97.5730425793
 20
234.0997045957
 30
0.0
 10
96.7766536704
 20
233.6399119893
 30
0.0
 10
95.2794881486
 20
232.6705332031
 30
0.0
 10
93.2914530184
 20
231.014677779
 30
0.0
 10
91.6635991964
 20
229.2263138078
 30
0.0
 10
90.4223723146
 20
227.3291560819
 30
0.0
 10
89.5905935364
 20
225.3492255758
 30
0.0
 10
89.1871531788
 20
223.3167877656
 30
0.0
 10
89.2227239654
 20
221.2689396896
 30
0.0
 10
89.5336497529
 20
219.9398739769
 30
0.0
 10
89.7529878538
 20
219.2934612482
 30
0.0
  0
SPLINE
  5
453
100
AcDbEntity
  8
0
100
AcDbSpline
 62
7
  6
CONTINUOUS
 70
0
 71
3
 72
11
 73
7
 74
0
 42
0.0000001
 43
0.0000001
 44
0.0000000001
 40
0.0
 40
0.0
 40
0.0
 40
0.0
 40
0.246246167
 40
0.4950847125
 40
0.7462674579
 40
1.0
 40
1.0
 40
1.0
 40
1.0
 10
144.8384312714
 20
249.6478149594
 30
0.0
 10
150.4664713701
 20
253.1805807359
 30
0.0
 10
161.8358202476
 20
260.1979705005
 30
0.0
 10
179.1738478326
 20
270.4442677037
 30
0.0
 10
196.8933711966
 20
280.4337075565
 30
0.0
 10
208.8845357598
 20
286.9047404751
 30
0.0
 10
214.9317565763
 20
290.1159736302
 30
0.0
  0
SPLINE
  5
454
100
AcDbEntity
  8
0
100
AcDbSpline
 62
7
  6
CONTINUOUS
 70
0
 71
3
 72
11
 73
7
 74
0
 42
0.0000001
 43
0.0000001
 44
0.0000000001
 40
0.0
 40
0.0
 40
0.0
 40
0.0
 40
0.2898030012
 40
0.5490486348
 40
0.7822259944
 40
1.0
 40
1.0
 40
1.0
 40
1.0
 10
595.7055649543
 20
267.900527017
 30
0.0
 10
595.7670167789
 20
267.9360060328
 30
0.0
 10
595.8892009791
 20
267.9941747794
 30
0.0
 10
596.0770455184
 20
268.0394754277
 30
0.0
 10
596.2532645749
 20
268.0350607905
 30
0.0
 10
596.3593746115
 20
267.9965266039
 30
0.0
 10
596.4055531031
 20
267.9698660405
 30
0.0
  0
SPLINE
  5
455
100
AcDbEntity
  8
0
100
AcDbSpline
 62
7
  6
CONTINUOUS
 70
0
 71
3
 72
12
 73
8
 74
0
 42
0.0000001
 43
0.0000001
 44
0.0000000001
 40
0.0
 40
0.0
 40
0.0
 40
0.0
 40
0.2551557265
 40
0.5172018984
 40
0.7701016776
 40
0.8886843299
 40
1.0
 40
1.0
 40
1.0
 40
1.0
 10
97.5730425793
 20
234.0997045957
 30
0.0
 10
97.8020092922
 20
233.2411114018
 30
0.0
 10
98.4444652538
 20
231.5450339052
 30
0.0
 10
99.8197584747
 20
229.2291222595
 30
0.0
 10
101.2690255846
 20
227.5457989112
 30
0.0
 10
102.550860976
 20
226.4536121489
 30
0.0
 10
103.217504928
 20
226.0057671716
 30
0.0
 10
103.5532346966
 20
225.8119378844
 30
0.0
  0
SPLINE
  5
456
100
AcDbEntity
  8
0
100
AcDbSpline
 62
7
  6
CONTINUOUS
 70
0
 71
3
 72
15
 73
11
 74
0
 42
0.0000001
 43
0.0000001
 44
0.0000000001
 40
0.0
 40
0.0
 40
0.0
 40
0.0
 40
0.1141542548
 40
0.2373258977
 40
0.3669759256
 40
0.5000005214
 40
0.6330250447
 40
0.7626748607
 40
0.8858461699
 40
1.0
 40
1.0
 40
1.0
 40
1.0
 10
324.8887753541
 20
337.2218356615
 30
0.0
 10
323.9178054932
 20
337.7824126902
 30
0.0
 10
321.7946054941
 20
338.7710943843
 30
0.0
 10
318.337094319
 20
339.8219621168
 30
0.0
 10
314.5937879336
 20
340.4688091655
 30
0.0
 10
310.7052996932
 20
340.6870390914
 30
0.0
 10
306.8168145608
 20
340.4687907101
 30
0.0
 10
303.0735173599
 20
339.8219258873
 30
0.0
 10
299.6160210689
 20
338.7710417194
 30
0.0
 10
297.4928340782
 20
337.7823494206
 30
0.0
 10
296.5218718723
 20
337.2217674759
 30
0.0
  0
SPLINE
  5
457
100
AcDbEntity
  8
0
100
AcDbSpline
 62
7
  6
CONTINUOUS
 70
0
 71
3
 72
12
 73
8
 74
0
 42
0.0000001
 43
0.0000001
 44
0.0000000001
 40
0.0
 40
0.0
 40
0.0
 40
0.0
 40
0.1113156701
 40
0.2298983224
 40
0.4827981016
 40
0.7448442735
 40
1.0
 40
1.0
 40
1.0
 40
1.0
 10
296.5218718723
 20
337.2217674759
 30
0.0
 10
296.1861421037
 20
337.4155967631
 30
0.0
 10
295.5194981517
 20
337.8634417404
 30
0.0
 10
294.2376627602
 20
338.9556285027
 30
0.0
 10
292.7883956504
 20
340.638951851
 30
0.0
 10
291.4131024295
 20
342.9548634967
 30
0.0
 10
290.7706464679
 20
344.6509409933
 30
0.0
 10
290.541679755
 20
345.5095341872
 30
0.0
  0
SPLINE
  5
458
100
AcDbEntity
  8
0
100
AcDbSpline
 62
7
  6
CONTINUOUS
 70
0
 71
3
 72
15
 73
11
 74
0
 42
0.0000001
 43
0.0000001
 44
0.0000000001
 40
0.0
 40
0.0
 40
0.0
 40
0.0
 40
0.1141543092
 40
0.2373259004
 40
0.3669759302
 40
0.5000005214
 40
0.63302504
 40
0.762674858
 40
0.8858461155
 40
1.0
 40
1.0
 40
1.0
 40
1.0
 10
330.8689176757
 20
345.509631122
 30
0.0
 10
329.4885572257
 20
346.3065645704
 30
0.0
 10
326.4701536375
 20
347.7121064096
 30
0.0
 10
321.5548512149
 20
349.206048637
 30
0.0
 10
316.2332557245
 20
350.1256246001
 30
0.0
 10
310.70526471
 20
350.435869077
 30
0.0
 10
305.177278114
 20
350.1255983633
 30
0.0
 10
299.8556956805
 20
349.2059971321
 30
0.0
 10
294.9404144176
 20
347.7120315396
 30
0.0
 10
291.9220293225
 20
346.3064746245
 30
0.0
 10
290.541679755
 20
345.5095341872
 30
0.0
  0
SPLINE
  5
459
100
AcDbEntity
  8
0
100
AcDbSpline
 62
7
  6
CONTINUOUS
 70
0
 71
3
 72
12
 73
8
 74
0
 42
0.0000001
 43
0.0000001
 44
0.0000000001
 40
0.0
 40
0.0
 40
0.0
 40
0.0
 40
0.2551560909
 40
0.5172024748
 40
0.7701021669
 40
0.8886846283
 40
1.0
 40
1.0
 40
1.0
 40
1.0
 10
330.8689176757
 20
345.509631122
 30
0.0
 10
330.6399528893
 20
344.6510369017
 30
0.0
 10
329.9975026062
 20
342.9549570326
 30
0.0
 10
328.6222213583
 20
340.6390392549
 30
0.0
 10
327.1729663773
 20
338.9557085442
 30
0.0
 10
325.8911412388
 20
337.8635151361
 30
0.0
 10
325.2245025323
 20
337.4156666812
 30
0.0
 10
324.8887753541
 20
337.2218356615
 30
0.0
  0
SPLINE
  5
45A
100
AcDbEntity
  8
0
100
AcDbSpline
 62
7
  6
CONTINUOUS
 70
0
 71
3
 72
21
 73
17
 74
0
 42
0.0000001
 43
0.0000001
 44
0.0000000001
 40
0.0
 40
0.0
 40
0.0
 40
0.0
 40
0.1446357982
 40
0.2112687939
 40
0.2742488379
 40
0.3339468559
 40
0.3909337947
 40
0.4459756701
 40
0.49999905
 40
0.5540224738
 40
0.6090644767
 40
0.6660516156
 40
0.7257498907
 40
0.7887302316
 40
0.8553635473
 40
1.0
 40
1.0
 40
1.0
 40
1.0
 10
517.7884264769
 20
209.4763525997
 30
0.0
 10
518.6688721881
 20
209.9846751338
 30
0.0
 10
519.9019091566
 20
210.8336224236
 30
0.0
 10
521.2969354642
 20
212.1687807411
 30
0.0
 10
522.1460284425
 20
213.1979374835
 30
0.0
 10
522.817219779
 20
214.2724119107
 30
0.0
 10
523.3030738089
 20
215.3825077596
 30
0.0
 10
523.5974019637
 20
216.5173809139
 30
0.0
 10
523.6960110377
 20
217.6650698844
 30
0.0
 10
523.5973852569
 20
218.8127583045
 30
0.0
 10
523.3030406471
 20
219.9476298483
 30
0.0
 10
522.8171706119
 20
221.0577231206
 30
0.0
 10
522.1459638564
 20
222.1321941004
 30
0.0
 10
521.2968561522
 20
223.1613465916
 30
0.0
 10
519.9018108712
 20
224.4964979356
 30
0.0
 10
518.6687617349
 20
225.3454393433
 30
0.0
 10
517.7883083742
 20
225.8537578284
 30
0.0
  0
SPLINE
  5
45B
100
AcDbEntity
  8
0
100
AcDbSpline
 62
7
  6
CONTINUOUS
 70
0
 71
3
 72
12
 73
8
 74
0
 42
0.0000001
 43
0.0000001
 44
0.0000000001
 40
0.0
 40
0.0
 40
0.0
 40
0.0
 40
0.1113153717
 40
0.2298978331
 40
0.4827975252
 40
0.7448439091
 40
1.0
 40
1.0
 40
1.0
 40
1.0
 10
517.7883083742
 20
225.8537578284
 30
0.0
 10
518.1240355524
 20
226.0475888481
 30
0.0
 10
518.7906742589
 20
226.495437303
 30
0.0
 10
520.0724993974
 20
227.587630711
 30
0.0
 10
521.5217543784
 20
229.2709614218
 30
0.0
 10
522.8970356263
 20
231.5868791995
 30
0.0
 10
523.5394859094
 20
233.2829590686
 30
0.0
 10
523.7684506958
 20
234.1415532888
 30
0.0
  0
SPLINE
  5
45C
100
AcDbEntity
  8
0
100
AcDbSpline
 62
7
  6
CONTINUOUS
 70
0
 71
3
 72
11
 73
7
 74
0
 42
0.0000001
 43
0.0000001
 44
0.0000000001
 40
0.0
 40
0.0
 40
0.0
 40
0.0
 40
0.2459019105
 40
0.4944825519
 40
0.7459349581
 40
1.0
 40
1.0
 40
1.0
 40
1.0
 10
436.1983111809
 20
162.370558754
 30
0.0
 10
430.5783638829
 20
158.8428732607
 30
0.0
 10
419.1958037268
 20
151.8784246432
 30
0.0
 10
401.842627155
 20
141.6781926852
 30
0.0
 10
384.1397958305
 20
131.6431046312
 30
0.0
 10
372.1598886296
 20
125.117713217
 30
0.0
 10
366.104985876
 20
121.9024000832
 30
0.0
  0
SPLINE
  5
45D
100
AcDbEntity
  8
0
100
AcDbSpline
 62
7
  6
CONTINUOUS
 70
0
 71
3
 72
11
 73
7
 74
0
 42
0.0000001
 43
0.0000001
 44
0.0000000001
 40
0.0
 40
0.0
 40
0.0
 40
0.0
 40
0.2296043194
 40
0.4826005432
 40
0.7447469488
 40
1.0
 40
1.0
 40
1.0
 40
1.0
 10
333.9484874731
 20
350.6174558411
 30
0.0
 10
333.6331414808
 20
350.4353918343
 30
0.0
 10
333.0224800661
 20
349.9606888387
 30
0.0
 10
332.2479993007
 20
349.0610707044
 30
0.0
 10
331.6210936756
 20
348.0056033713
 30
0.0
 10
331.3285064897
 20
347.2330415441
 30
0.0
 10
331.2242004155
 20
346.8419045758
 30
0.0
  0
SPLINE
  5
45E
100
AcDbEntity
  8
0
100
AcDbSpline
 62
7
  6
CONTINUOUS
 70
0
 71
3
 72
11
 73
7
 74
0
 42
0.0000001
 43
0.0000001
 44
0.0000000001
 40
0.0
 40
0.0
 40
0.0
 40
0.0
 40
0.2296043194
 40
0.4826005432
 40
0.7447469488
 40
1.0
 40
1.0
 40
1.0
 40
1.0
 10
526.8480204932
 20
239.2493780079
 30
0.0
 10
526.5326745009
 20
239.0673140012
 30
0.0
 10
525.9220130862
 20
238.5926110056
 30
0.0
 10
525.1475323208
 20
237.6929928712
 30
0.0
 10
524.5206266957
 20
236.6375255382
 30
0.0
 10
524.2280395098
 20
235.864963711
 30
0.0
 10
524.1237334356
 20
235.4738267426
 30
0.0
  0
SPLINE
  5
45F
100
AcDbEntity
  8
0
100
AcDbSpline
 62
7
  6
CONTINUOUS
 70
0
 71
3
 72
15
 73
11
 74
0
 42
0.0000001
 43
0.0000001
 44
0.0000000001
 40
0.0
 40
0.0
 40
0.0
 40
0.0
 40
0.1141538922
 40
0.2373251277
 40
0.3669749511
 40
0.4999994786
 40
0.6330240787
 40
0.7626741138
 40
0.8858456831
 40
1.0
 40
1.0
 40
1.0
 40
1.0
 10
287.4620843146
 20
350.6173441015
 30
0.0
 10
289.0532543256
 20
351.5360010521
 30
0.0
 10
292.5326359621
 20
353.1562285639
 30
0.0
 10
298.1986263779
 20
354.8783670518
 30
0.0
 10
304.3329721325
 20
355.9384191755
 30
0.0
 10
310.705246694
 20
356.2960775501
 30
0.0
 10
317.0775263488
 20
355.9384494197
 30
0.0
 10
323.2118871546
 20
354.8784264234
 30
0.0
 10
328.8779019625
 20
353.1563148691
 30
0.0
 10
332.3573049171
 20
351.5361047355
 30
0.0
 10
333.9484874731
 20
350.6174558411
 30
0.0
  0
SPLINE
  5
460
100
AcDbEntity
  8
0
100
AcDbSpline
 62
7
  6
CONTINUOUS
 70
0
 71
3
 72
23
 73
19
 74
0
 42
0.0000001
 43
0.0000001
 44
0.0000000001
 40
0.0
 40
0.0
 40
0.0
 40
0.0
 40
0.0743036052
 40
0.1447508065
 40
0.2113625303
 40
0.274322671
 40
0.3340017572
 40
0.3909705756
 40
0.4459948832
 40
0.5000009486
 40
0.5540069701
 40
0.6090311502
 40
0.6659997685
 40
0.7256785978
 40
0.7886384418
 40
0.8552498455
 40
0.9256967185
 40
1.0
 40
1.0
 40
1.0
 40
1.0
 10
94.4936406803
 20
212.3689608187
 30
0.0
 10
93.7521731832
 20
212.7970375934
 30
0.0
 10
92.3411911949
 20
213.6912596281
 30
0.0
 10
90.4122944636
 20
215.1843787035
 30
0.0
 10
88.7438889367
 20
216.7812903942
 30
0.0
 10
87.3525348183
 20
218.4676594068
 30
0.0
 10
86.2525609539
 20
220.228493893
 30
0.0
 10
85.456346336
 20
222.0476550194
 30
0.0
 10
84.9739892619
 20
223.9074343151
 30
0.0
 10
84.8123587551
 20
225.7882136227
 30
0.0
 10
84.9739618833
 20
227.6689938324
 30
0.0
 10
85.4562919917
 20
229.5287757673
 30
0.0
 10
86.2524803805
 20
231.3479411159
 30
0.0
 10
87.3524289769
 20
233.108781252
 30
0.0
 10
88.7437589624
 20
234.7951572295
 30
0.0
 10
90.4121416587
 20
236.3920771235
 30
0.0
 10
92.3410170365
 20
237.8852055753
 30
0.0
 10
93.7519859587
 20
238.7794342533
 30
0.0
 10
94.4934471389
 20
239.20751451
 30
0.0
  0
SPLINE
  5
461
100
AcDbEntity
  8
0
100
AcDbSpline
 62
7
  6
CONTINUOUS
 70
0
 71
3
 72
15
 73
11
 74
0
 42
0.0000001
 43
0.0000001
 44
0.0000000001
 40
0.0
 40
0.0
 40
0.0
 40
0.0
 40
0.1141538922
 40
0.2373251277
 40
0.3669749511
 40
0.4999994786
 40
0.6330240787
 40
0.7626741138
 40
0.8858456831
 40
1.0
 40
1.0
 40
1.0
 40
1.0
 10
333.8795768589
 20
101.0009947251
 30
0.0
 10
332.2884068479
 20
100.0823377746
 30
0.0
 10
328.8090252114
 20
98.4621102628
 30
0.0
 10
323.1430347956
 20
96.7399717748
 30
0.0
 10
317.008689041
 20
95.6799196511
 30
0.0
 10
310.6364144795
 20
95.3222612766
 30
0.0
 10
304.2641348247
 20
95.6798894069
 30
0.0
 10
298.1297740189
 20
96.7399124032
 30
0.0
 10
292.463759211
 20
98.4620239575
 30
0.0
 10
288.9843562564
 20
100.0822340911
 30
0.0
 10
287.3931737004
 20
101.0008829856
 30
0.0
  0
SPLINE
  5
462
100
AcDbEntity
  8
0
100
AcDbSpline
 62
7
  6
CONTINUOUS
 70
0
 71
3
 72
23
 73
19
 74
0
 42
0.0000001
 43
0.0000001
 44
0.0000000001
 40
0.0
 40
0.0
 40
0.0
 40
0.0
 40
0.0743036052
 40
0.1447508065
 40
0.2113625303
 40
0.274322671
 40
0.3340017572
 40
0.3909705756
 40
0.4459948832
 40
0.5000009486
 40
0.5540069701
 40
0.6090311502
 40
0.6659997685
 40
0.7256785978
 40
0.7886384418
 40
0.8552498455
 40
0.9256967185
 40
1.0
 40
1.0
 40
1.0
 40
1.0
 10
526.8480204932
 20
239.2493780079
 30
0.0
 10
527.5894879903
 20
238.8213012333
 30
0.0
 10
529.0004699786
 20
237.9270791985
 30
0.0
 10
530.9293667099
 20
236.4339601232
 30
0.0
 10
532.5977722368
 20
234.8370484325
 30
0.0
 10
533.9891263552
 20
233.1506794198
 30
0.0
 10
535.0891002196
 20
231.3898449336
 30
0.0
 10
535.8853148375
 20
229.5706838073
 30
0.0
 10
536.3676719115
 20
227.7109045115
 30
0.0
 10
536.5293024184
 20
225.830125204
 30
0.0
 10
536.3676992902
 20
223.9493449942
 30
0.0
 10
535.8853691818
 20
222.0895630593
 30
0.0
 10
535.089180793
 20
220.2703977107
 30
0.0
 10
533.9892321966
 20
218.5095575746
 30
0.0
 10
532.5979022111
 20
216.8231815971
 30
0.0
 10
530.9295195148
 20
215.2262617031
 30
0.0
 10
529.000644137
 20
213.7331332514
 30
0.0
 10
527.5896752148
 20
212.8389045733
 30
0.0
 10
526.8482140346
 20
212.4108243167
 30
0.0
  0
SPLINE
  5
463
100
AcDbEntity
  8
0
100
AcDbSpline
 62
7
  6
CONTINUOUS
 70
0
 71
3
 72
11
 73
7
 74
0
 42
0.0000001
 43
0.0000001
 44
0.0000000001
 40
0.0
 40
0.0
 40
0.0
 40
0.0
 40
0.2897995911
 40
0.5490468855
 40
0.7822264108
 40
1.0
 40
1.0
 40
1.0
 40
1.0
 10
526.8482140346
 20
212.4108243167
 30
0.0
 10
526.6682472206
 20
212.5147258546
 30
0.0
 10
526.3104180761
 20
212.685077463
 30
0.0
 10
525.7602937212
 20
212.8177373878
 30
0.0
 10
525.2442149289
 20
212.8048109483
 30
0.0
 10
524.9334603411
 20
212.6919541107
 30
0.0
 10
524.7982232487
 20
212.6138737973
 30
0.0
  0
SPLINE
  5
464
100
AcDbEntity
  8
0
100
AcDbSpline
 62
7
  6
CONTINUOUS
 70
0
 71
3
 72
11
 73
7
 74
0
 42
0.0000001
 43
0.0000001
 44
0.0000000001
 40
0.0
 40
0.0
 40
0.0
 40
0.0
 40
0.2897995911
 40
0.5490468855
 40
0.7822264108
 40
1.0
 40
1.0
 40
1.0
 40
1.0
 10
333.8795768589
 20
101.0009947251
 30
0.0
 10
333.699610045
 20
101.104896263
 30
0.0
 10
333.3417809004
 20
101.2752478714
 30
0.0
 10
332.7916565455
 20
101.4079077963
 30
0.0
 10
332.2755777532
 20
101.3949813568
 30
0.0
 10
331.9648231655
 20
101.2821245191
 30
0.0
 10
331.8295860731
 20
101.2040442058
 30
0.0
  0
SPLINE
  5
465
100
AcDbEntity
  8
0
100
AcDbSpline
 62
7
  6
CONTINUOUS
 70
0
 71
3
 72
11
 73
7
 74
0
 42
0.0000001
 43
0.0000001
 44
0.0000000001
 40
0.0
 40
0.0
 40
0.0
 40
0.0
 40
0.2898000738
 40
0.549047477
 40
0.7822268004
 40
1.0
 40
1.0
 40
1.0
 40
1.0
 10
287.3931737004
 20
101.0008829856
 30
0.0
 10
287.5731379618
 20
101.1047847801
 30
0.0
 10
287.9309619771
 20
101.2751373262
 30
0.0
 10
288.4810790468
 20
101.4078003671
 30
0.0
 10
288.9971515789
 20
101.3948784895
 30
0.0
 10
289.307903048
 20
101.2820255345
 30
0.0
 10
289.4431388815
 20
101.203947249
 30
0.0
  0
SPLINE
  5
466
100
AcDbEntity
  8
0
100
AcDbSpline
 62
7
  6
CONTINUOUS
 70
0
 71
3
 72
11
 73
7
 74
0
 42
0.0000001
 43
0.0000001
 44
0.0000000001
 40
0.0
 40
0.0
 40
0.0
 40
0.0
 40
0.2898000738
 40
0.549047477
 40
0.7822268004
 40
1.0
 40
1.0
 40
1.0
 40
1.0
 10
94.4936406803
 20
212.3689608187
 30
0.0
 10
94.6736049417
 20
212.4728626133
 30
0.0
 10
95.031428957
 20
212.6432151594
 30
0.0
 10
95.5815460267
 20
212.7758782003
 30
0.0
 10
96.0976185588
 20
212.7629563227
 30
0.0
 10
96.4083700279
 20
212.6501033676
 30
0.0
 10
96.5436058614
 20
212.5720250822
 30
0.0
  0
SPLINE
  5
467
100
AcDbEntity
  8
0
100
AcDbSpline
 62
7
  6
CONTINUOUS
 70
0
 71
3
 72
11
 73
7
 74
0
 42
0.0000001
 43
0.0000001
 44
0.0000000001
 40
0.0
 40
0.0
 40
0.0
 40
0.0
 40
0.2296048069
 40
0.4826011185
 40
0.7447473127
 40
1.0
 40
1.0
 40
1.0
 40
1.0
 10
94.4934471389
 20
239.20751451
 30
0.0
 10
94.8087953874
 20
239.0254522326
 30
0.0
 10
95.4194615391
 20
238.5507526783
 30
0.0
 10
96.1939490729
 20
237.6511381239
 30
0.0
 10
96.8208601577
 20
236.59567359
 30
0.0
 10
97.1134499294
 20
235.8231128423
 30
0.0
 10
97.2177568812
 20
235.4319763415
 30
0.0
  0
SPLINE
  5
468
100
AcDbEntity
  8
0
100
AcDbSpline
 62
7
  6
CONTINUOUS
 70
0
 71
3
 72
11
 73
7
 74
0
 42
0.0000001
 43
0.0000001
 44
0.0000000001
 40
0.0
 40
0.0
 40
0.0
 40
0.0
 40
0.2296048069
 40
0.4826011185
 40
0.7447473127
 40
1.0
 40
1.0
 40
1.0
 40
1.0
 10
287.4620843146
 20
350.6173441015
 30
0.0
 10
287.777432563
 20
350.4352818242
 30
0.0
 10
288.3880987148
 20
349.9605822698
 30
0.0
 10
289.1625862485
 20
349.0609677154
 30
0.0
 10
289.7894973334
 20
348.0055031816
 30
0.0
 10
290.0820871051
 20
347.2329424338
 30
0.0
 10
290.1863940569
 20
346.841805933
 30
0.0
  0
SPLINE
  5
469
100
AcDbEntity
  8
0
100
AcDbSpline
 62
7
  6
CONTINUOUS
 70
0
 71
3
 72
11
 73
7
 74
0
 42
0.0000001
 43
0.0000001
 44
0.0000000001
 40
0.0
 40
0.0
 40
0.0
 40
0.0
 40
0.2426584617
 40
0.4904080325
 40
0.742739135
 40
1.0
 40
1.0
 40
1.0
 40
1.0
 10
151.3942683273
 20
239.4936388223
 30
0.0
 10
156.7356732236
 20
243.126407258
 30
0.0
 10
167.6458947612
 20
250.3011796983
 30
0.0
 10
184.5742665333
 20
260.527219738
 30
0.0
 10
202.2383160573
 20
270.2555496186
 30
0.0
 10
214.3474415514
 20
276.3759355578
 30
0.0
 10
220.4969902505
 20
279.389875778
 30
0.0
  0
LINE
  5
46A
100
AcDbEntity
  8
0
100
AcDbLine
 62
7
  6
CONTINUOUS
 10
220.4969902505
 20
279.389875778
 11
220.8130329632
 21
279.5446623115
  0
LINE
  5
46B
100
AcDbEntity
  8
0
100
AcDbLine
 62
7
  6
CONTINUOUS
 10
151.1261689859
 20
239.3111727967
 11
151.3942683273
 21
239.4936388223
  0
SPLINE
  5
46C
100
AcDbEntity
  8
0
100
AcDbSpline
 62
7
  6
CONTINUOUS
 70
0
 71
3
 72
19
 73
15
 74
0
 42
0.0000001
 43
0.0000001
 44
0.0000000001
 40
0.0
 40
0.0
 40
0.0
 40
0.0
 40
0.0571777607
 40
0.1164410985
 40
0.1775629806
 40
0.2402803058
 40
0.3692643542
 40
0.5008730397
 40
0.6323627139
 40
0.7609973254
 40
0.8234604631
 40
0.8842806878
 40
0.9432005622
 40
1.0
 40
1.0
 40
1.0
 40
1.0
 10
220.8130329632
 20
279.5446623115
 30
0.0
 10
222.6529498429
 20
280.4451576481
 30
0.0
 10
226.4672977791
 20
282.1439028861
 30
0.0
 10
232.4395391929
 20
284.3462158177
 30
0.0
 10
238.7259435414
 20
286.2347731947
 30
0.0
 10
247.5413991108
 20
288.3335420779
 30
0.0
 10
259.0182569032
 20
290.0691531254
 30
0.0
 10
273.0737354429
 20
290.7226896383
 30
0.0
 10
287.11048218
 20
289.9465860338
 30
0.0
 10
298.5456651336
 20
288.1102243624
 30
0.0
 10
307.3087642875
 20
285.9331717181
 30
0.0
 10
313.5446764429
 20
283.989522142
 30
0.0
 10
319.4582150787
 20
281.734896167
 30
0.0
 10
323.2288516458
 20
280.0020739187
 30
0.0
 10
325.0454426834
 20
279.0851019233
 30
0.0
  0
SPLINE
  5
46D
100
AcDbEntity
  8
02___PRT_ALL_AXES
100
AcDbSpline
 62
7
  6
CONTINUOUS
 70
0
 71
3
 72
19
 73
15
 74
0
 42
0.0000001
 43
0.0000001
 44
0.0000000001
 40
0.0
 40
0.0
 40
0.0
 40
0.0
 40
0.0570180731
 40
0.116087914
 40
0.1769985895
 40
0.2395017922
 40
0.3680976838
 40
0.4994468944
 40
0.6308754087
 40
0.7597013331
 40
0.8223689083
 40
0.8834711878
 40
0.9427541894
 40
1.0
 40
1.0
 40
1.0
 40
1.0
 10
323.4188502938
 20
216.0954936515
 30
0.0
 10
321.6606119264
 20
217.0118249697
 30
0.0
 10
318.0102558858
 20
218.7445573745
 30
0.0
 10
312.2803032669
 20
221.0027043051
 30
0.0
 10
306.2371777872
 20
222.9519692852
 30
0.0
 10
297.74692971
 20
225.1390733077
 30
0.0
 10
286.6639023008
 20
226.9958810181
 30
0.0
 10
273.0545626828
 20
227.8076101813
 30
0.0
 10
259.4265962481
 20
227.2007758773
 30
0.0
 10
248.3001515443
 20
225.5130679367
 30
0.0
 10
239.7560844744
 20
223.4580195905
 30
0.0
 10
233.6625563353
 20
221.6036123126
 30
0.0
 10
227.8740040679
 20
219.4368781681
 30
0.0
 10
224.1791236935
 20
217.7639150185
 30
0.0
 10
222.3971674343
 20
216.8766933958
 30
0.0
  0
SPLINE
  5
46E
100
AcDbEntity
  8
0
100
AcDbSpline
 62
7
  6
CONTINUOUS
 70
0
 71
3
 72
9
 73
5
 74
0
 42
0.0000001
 43
0.0000001
 44
0.0000000001
 40
0.0
 40
0.0
 40
0.0
 40
0.0
 40
0.5083655573
 40
1.0
 40
1.0
 40
1.0
 40
1.0
 10
325.0454426834
 20
279.0851019233
 30
0.0
 10
343.2313782075
 20
269.9052737504
 30
0.0
 10
378.5302139811
 20
250.888288753
 30
0.0
 10
412.6735319572
 20
229.8585393851
 30
0.0
 10
429.1137122236
 20
219.0026177375
 30
0.0
  0
SPLINE
  5
46F
100
AcDbEntity
  8
02___PRT_ALL_AXES
100
AcDbSpline
 62
7
  6
CONTINUOUS
 70
0
 71
3
 72
13
 73
9
 74
0
 42
0.0000001
 43
0.0000001
 44
0.0000000001
 40
0.0
 40
0.0
 40
0.0
 40
0.0
 40
0.2414116801
 40
0.3642764441
 40
0.4886256331
 40
0.6144452375
 40
0.7416752622
 40
1.0
 40
1.0
 40
1.0
 40
1.0
 10
424.4773848706
 20
157.8834165343
 30
0.0
 10
416.5117398545
 20
162.8485626628
 30
0.0
 10
404.4068622399
 20
170.2045825087
 30
0.0
 10
388.0484827707
 20
179.8660247458
 30
0.0
 10
375.50626364
 20
187.1504514091
 30
0.0
 10
362.7671208899
 20
194.4330576077
 30
0.0
 10
345.4355739005
 20
204.1772415787
 30
0.0
 10
332.2796073
 20
211.3659504493
 30
0.0
 10
323.4188502938
 20
216.0954936515
 30
0.0
  0
SPLINE
  5
470
100
AcDbEntity
  8
0
100
AcDbSpline
 62
7
  6
CONTINUOUS
 70
0
 71
3
 72
16
 73
12
 74
0
 42
0.0000001
 43
0.0000001
 44
0.0000000001
 40
0.0
 40
0.0
 40
0.0
 40
0.0
 40
0.1465403877
 40
0.2857896741
 40
0.4179405031
 40
0.4815188112
 40
0.5435279373
 40
0.6632299737
 40
0.778221309
 40
0.8899241876
 40
1.0
 40
1.0
 40
1.0
 40
1.0
 10
429.1137122236
 20
219.0026177375
 30
0.0
 10
430.6664034317
 20
217.9773312854
 30
0.0
 10
433.6146091864
 20
215.852139616
 30
0.0
 10
437.6192161893
 20
212.3582827871
 30
0.0
 10
440.5259449045
 20
209.2403860782
 30
0.0
 10
442.5421914668
 20
206.6604290009
 30
0.0
 10
444.3095624688
 20
204.0940858352
 30
0.0
 10
446.1517192017
 20
200.794405703
 30
0.0
 10
447.7492358483
 20
196.6801431124
 30
0.0
 10
448.6912812785
 20
192.492778351
 30
0.0
 10
448.8750649332
 20
189.6690169202
 30
0.0
 10
448.8553769836
 20
188.2714940923
 30
0.0
  0
SPLINE
  5
471
100
AcDbEntity
  8
0
100
AcDbSpline
 62
7
  6
CONTINUOUS
 70
0
 71
3
 72
12
 73
8
 74
0
 42
0.0000001
 43
0.0000001
 44
0.0000000001
 40
0.0
 40
0.0
 40
0.0
 40
0.0
 40
0.2853877722
 40
0.5435431846
 40
0.778311085
 40
0.8900701409
 40
1.0
 40
1.0
 40
1.0
 40
1.0
 10
436.1983111809
 20
162.370558754
 30
0.0
 10
435.7662100472
 20
162.5823312542
 30
0.0
 10
434.9058701415
 20
162.9173332121
 30
0.0
 10
433.5984205832
 20
163.124975798
 30
0.0
 10
432.5686755763
 20
163.0126531793
 30
0.0
 10
431.8425930553
 20
162.7486420457
 30
0.0
 10
431.5151574095
 20
162.564065684
 30
0.0
 10
431.3618878754
 20
162.4598255528
 30
0.0
  0
SPLINE
  5
472
100
AcDbEntity
  8
0
100
AcDbSpline
 62
7
  6
CONTINUOUS
 70
0
 71
3
 72
13
 73
9
 74
0
 42
0.0000001
 43
0.0000001
 44
0.0000000001
 40
0.0
 40
0.0
 40
0.0
 40
0.0
 40
0.3134255391
 40
0.5785773366
 40
0.6948756594
 40
0.8021694605
 40
0.902848761
 40
1.0
 40
1.0
 40
1.0
 40
1.0
 10
264.8975981898
 20
116.2844964827
 30
0.0
 10
265.1215238737
 20
116.5122937731
 30
0.0
 10
265.5619087759
 20
116.9078555557
 30
0.0
 10
266.172034991
 20
117.2805906337
 30
0.0
 10
266.6428523863
 20
117.4484005122
 30
0.0
 10
266.9694562852
 20
117.50882162
 30
0.0
 10
267.2823310663
 20
117.5081300237
 30
0.0
 10
267.4812914373
 20
117.4658865503
 30
0.0
 10
267.5753816187
 20
117.4350583075
 30
0.0
  0
SPLINE
  5
473
100
AcDbEntity
  8
0
100
AcDbSpline
 62
7
  6
CONTINUOUS
 70
0
 71
3
 72
11
 73
7
 74
0
 42
0.0000001
 43
0.0000001
 44
0.0000000001
 40
0.0
 40
0.0
 40
0.0
 40
0.0
 40
0.2800264835
 40
0.5358924924
 40
0.7730945777
 40
1.0
 40
1.0
 40
1.0
 40
1.0
 10
251.5954059619
 20
123.0550954894
 30
0.0
 10
251.8353264988
 20
123.1499950816
 30
0.0
 10
252.3088300619
 20
123.2989055373
 30
0.0
 10
253.0204809686
 20
123.3861626124
 30
0.0
 10
253.6866099469
 20
123.3221283324
 30
0.0
 10
254.0941016625
 20
123.1751983373
 30
0.0
 10
254.2798011011
 20
123.0791608789
 30
0.0
  0
SPLINE
  5
474
100
AcDbEntity
  8
0
100
AcDbSpline
 62
7
  6
CONTINUOUS
 70
0
 71
3
 72
11
 73
7
 74
0
 42
0.0000001
 43
0.0000001
 44
0.0000000001
 40
0.0
 40
0.0
 40
0.0
 40
0.0
 40
0.2735014964
 40
0.5280593561
 40
0.7680309489
 40
1.0
 40
1.0
 40
1.0
 40
1.0
 10
146.7479376521
 20
183.5874401173
 30
0.0
 10
147.0545963725
 20
183.6698627313
 30
0.0
 10
147.6605748498
 20
183.7837956371
 30
0.0
 10
148.5581057966
 20
183.7837496796
 30
0.0
 10
149.3891863987
 20
183.6036045394
 30
0.0
 10
149.8880810451
 20
183.3621397408
 30
0.0
 10
150.1142892924
 20
183.2159748986
 30
0.0
  0
SPLINE
  5
475
100
AcDbEntity
  8
0
100
AcDbSpline
 62
7
  6
CONTINUOUS
 70
0
 71
3
 72
15
 73
11
 74
0
 42
0.0000001
 43
0.0000001
 44
0.0000000001
 40
0.0
 40
0.0
 40
0.0
 40
0.0
 40
0.1170800119
 40
0.2418208771
 40
0.3718546193
 40
0.5043348561
 40
0.6362082575
 40
0.7644720036
 40
0.8864348251
 40
1.0
 40
1.0
 40
1.0
 40
1.0
 10
144.8384312714
 20
249.6478149594
 30
0.0
 10
145.2806646715
 20
249.4310766417
 30
0.0
 10
146.1561829182
 20
248.9036211166
 30
0.0
 10
147.3699930555
 20
247.9100722381
 30
0.0
 10
148.4899161066
 20
246.7211735401
 30
0.0
 10
149.4744179749
 20
245.3809450609
 30
0.0
 10
150.2874212375
 20
243.9387462215
 30
0.0
 10
150.8989001287
 20
242.4474240013
 30
0.0
 10
151.286224691
 20
240.9621400863
 30
0.0
 10
151.3891655645
 20
239.9713161048
 30
0.0
 10
151.3942683273
 20
239.4936388223
 30
0.0
  0
SPLINE
  5
476
100
AcDbEntity
  8
0
100
AcDbSpline
 62
7
  6
CONTINUOUS
 70
0
 71
3
 72
9
 73
5
 74
0
 42
0.0000001
 43
0.0000001
 44
0.0000000001
 40
0.0
 40
0.0
 40
0.0
 40
0.0
 40
0.2653074016
 40
1.0
 40
1.0
 40
1.0
 40
1.0
 10
585.5807309203
 20
262.1519330017
 30
0.0
 10
585.6217525272
 20
262.1599653142
 30
0.0
 10
585.7751504692
 20
262.1956354317
 30
0.0
 10
585.9242999036
 20
262.2533447162
 30
0.0
 10
586.0245466091
 20
262.3112218331
 30
0.0
  0
SPLINE
  5
477
100
AcDbEntity
  8
02___PRT_ALL_AXES
100
AcDbSpline
 62
7
  6
CONTINUOUS
 70
0
 71
3
 72
15
 73
11
 74
0
 42
0.0000001
 43
0.0000001
 44
0.0000000001
 40
0.0
 40
0.0
 40
0.0
 40
0.0
 40
0.1165224828
 40
0.2401049762
 40
0.3686991853
 40
0.4998945637
 40
0.6311050439
 40
0.7597434462
 40
0.8833947098
 40
1.0
 40
1.0
 40
1.0
 40
1.0
 10
300.5509064859
 20
174.7649780252
 30
0.0
 10
298.5585269889
 20
175.815168316
 30
0.0
 10
294.2855442181
 20
177.6700337755
 30
0.0
 10
287.4271683609
 20
179.6631543064
 30
0.0
 10
280.1069932215
 20
180.9090282705
 30
0.0
 10
272.5496298735
 20
181.3716631568
 30
0.0
 10
264.9846036129
 20
181.0394498623
 30
0.0
 10
257.641296045
 20
179.9226426392
 30
0.0
 10
250.7438490326
 20
178.0557133444
 30
0.0
 10
246.4325665093
 20
176.2850888232
 30
0.0
 10
244.4172480877
 20
175.2760400166
 30
0.0
  0
SPLINE
  5
478
100
AcDbEntity
  8
02___PRT_ALL_AXES
100
AcDbSpline
 62
7
  6
CONTINUOUS
 70
0
 71
3
 72
11
 73
7
 74
0
 42
0.0000001
 43
0.0000001
 44
0.0000000001
 40
0.0
 40
0.0
 40
0.0
 40
0.0
 40
0.2428072005
 40
0.4906631826
 40
0.7432868495
 40
1.0
 40
1.0
 40
1.0
 40
1.0
 10
378.4155067331
 20
130.8265210459
 30
0.0
 10
372.2227642222
 20
134.5716364992
 30
0.0
 10
359.6485921865
 20
142.0410976214
 30
0.0
 10
340.4325079023
 20
153.0681280829
 30
0.0
 10
320.6974131445
 20
164.018694081
 30
0.0
 10
307.3196768684
 20
171.1969536692
 30
0.0
 10
300.5509064859
 20
174.7649780252
 30
0.0
  0
SPLINE
  5
479
100
AcDbEntity
  8
02___PRT_ALL_AXES
100
AcDbSpline
 62
7
  6
CONTINUOUS
 70
0
 71
3
 72
15
 73
11
 74
0
 42
0.0000001
 43
0.0000001
 44
0.0000000001
 40
0.0
 40
0.0
 40
0.0
 40
0.0
 40
0.1163716303
 40
0.2412004491
 40
0.3717569678
 40
0.5049252113
 40
0.6374237211
 40
0.7660128931
 40
0.8877056352
 40
1.0
 40
1.0
 40
1.0
 40
1.0
 10
222.3971674343
 20
216.8766933958
 30
0.0
 10
222.4979236923
 20
215.003288716
 30
0.0
 10
222.9831448157
 20
211.1326647019
 30
0.0
 10
224.409160885
 20
205.3004674655
 30
0.0
 10
226.5170014628
 20
199.390407288
 30
0.0
 10
229.2369245285
 20
193.5999639132
 30
0.0
 10
232.4785135621
 20
188.1212718606
 30
0.0
 10
236.134400065
 20
183.1359699455
 30
0.0
 10
240.082168217
 20
178.8097400273
 30
0.0
 10
242.9561631659
 20
176.3450138958
 30
0.0
 10
244.4172480877
 20
175.2760400166
 30
0.0
  0
SPLINE
  5
47A
100
AcDbEntity
  8
02___PRT_ALL_AXES
100
AcDbSpline
 62
7
  6
CONTINUOUS
 70
0
 71
3
 72
15
 73
11
 74
0
 42
0.0000001
 43
0.0000001
 44
0.0000000001
 40
0.0
 40
0.0
 40
0.0
 40
0.0
 40
0.1158261468
 40
0.2402593885
 40
0.3705922765
 40
0.5037119454
 40
0.6363262991
 40
0.7651752151
 40
0.8872442996
 40
1.0
 40
1.0
 40
1.0
 40
1.0
 10
323.4188502941
 20
216.0954936513
 30
0.0
 10
323.295381042
 20
214.2247392044
 30
0.0
 10
322.7572305216
 20
210.3602366448
 30
0.0
 10
321.2388638194
 20
204.545640841
 30
0.0
 10
319.0253066804
 20
198.6586828149
 30
0.0
 10
316.190387705
 20
192.8976012564
 30
0.0
 10
312.829064468
 20
187.455023037
 30
0.0
 10
309.053551808
 20
182.5128506319
 30
0.0
 10
304.9912549343
 20
178.2366567662
 30
0.0
 10
302.0454723639
 20
175.8125240106
 30
0.0
 10
300.5509064859
 20
174.7649780252
 30
0.0
  0
SPLINE
  5
47B
100
AcDbEntity
  8
0
100
AcDbSpline
 62
7
  6
CONTINUOUS
 70
0
 71
3
 72
15
 73
11
 74
0
 42
0.0000001
 43
0.0000001
 44
0.0000000001
 40
0.0
 40
0.0
 40
0.0
 40
0.0
 40
0.1018776066
 40
0.209377626
 40
0.3234770017
 40
0.4447257512
 40
0.5732916193
 40
0.7090160293
 40
0.8514692919
 40
1.0
 40
1.0
 40
1.0
 40
1.0
 10
327.3404285609
 20
112.4432151801
 30
0.0
 10
327.0305711905
 20
113.2088472029
 30
0.0
 10
326.2587465017
 20
114.7302749427
 30
0.0
 10
324.7296590345
 20
116.8710530838
 30
0.0
 10
322.8216234676
 20
118.9025963465
 30
0.0
 10
320.5572075053
 20
120.8033382257
 30
0.0
 10
317.9616557256
 20
122.5540472138
 30
0.0
 10
315.0635091837
 20
124.1363723183
 30
0.0
 10
311.8947487319
 20
125.5334484505
 30
0.0
 10
309.6667283263
 20
126.3165948779
 30
0.0
 10
308.517346932
 20
126.6757514982
 30
0.0
  0
SPLINE
  5
47C
100
AcDbEntity
  8
0
100
AcDbSpline
 62
7
  6
CONTINUOUS
 70
0
 71
3
 72
9
 73
5
 74
0
 42
0.0000001
 43
0.0000001
 44
0.0000000001
 40
0.0
 40
0.0
 40
0.0
 40
0.0
 40
0.4955071182
 40
1.0
 40
1.0
 40
1.0
 40
1.0
 10
302.7295605671
 20
128.1378524549
 30
0.0
 10
300.8415110852
 20
128.5097864254
 30
0.0
 10
296.9926545721
 20
129.0743599244
 30
0.0
 10
293.1089526366
 20
129.2855845832
 30
0.0
 10
291.1498117313
 20
129.3044727531
 30
0.0
  0
LINE
  5
47D
100
AcDbEntity
  8
0
100
AcDbLine
 62
7
  6
CONTINUOUS
 10
281.0351830971
 20
128.6098354992
 11
280.9790585344
 21
128.6014144851
  0
SPLINE
  5
47E
100
AcDbEntity
  8
0
100
AcDbSpline
 62
7
  6
CONTINUOUS
 70
0
 71
3
 72
11
 73
7
 74
0
 42
0.0000001
 43
0.0000001
 44
0.0000000001
 40
0.0
 40
0.0
 40
0.0
 40
0.0
 40
0.2657986403
 40
0.5226650593
 40
0.7680755879
 40
1.0
 40
1.0
 40
1.0
 40
1.0
 10
280.9790585344
 20
128.6014144851
 30
0.0
 10
279.3834407936
 20
128.3612514952
 30
0.0
 10
276.2627534662
 20
127.7653263396
 30
0.0
 10
271.7668491925
 20
126.5073034641
 30
0.0
 10
267.5956116549
 20
124.9188140189
 30
0.0
 10
264.9991676679
 20
123.6171228166
 30
0.0
 10
263.7798459421
 20
122.9131512922
 30
0.0
  0
SPLINE
  5
47F
100
AcDbEntity
  8
0
100
AcDbSpline
 62
7
  6
CONTINUOUS
 70
0
 71
3
 72
15
 73
11
 74
0
 42
0.0000001
 43
0.0000001
 44
0.0000000001
 40
0.0
 40
0.0
 40
0.0
 40
0.0
 40
0.1021172063
 40
0.2098155264
 40
0.3240400793
 40
0.4453255515
 40
0.573838708
 40
0.7094315373
 40
0.8516937893
 40
1.0
 40
1.0
 40
1.0
 40
1.0
 10
326.8482153617
 20
112.3766812507
 30
0.0
 10
326.541324775
 20
113.1220832617
 30
0.0
 10
325.781532687
 20
114.6028368128
 30
0.0
 10
324.2855815939
 20
116.6873560143
 30
0.0
 10
322.4253140231
 20
118.6667549919
 30
0.0
 10
320.2221333552
 20
120.520525593
 30
0.0
 10
317.6999632939
 20
122.2303602949
 30
0.0
 10
314.8858280966
 20
123.7787833881
 30
0.0
 10
311.8099854779
 20
125.1497058429
 30
0.0
 10
309.6473364439
 20
125.9212572758
 30
0.0
 10
308.5316509433
 20
126.2759773496
 30
0.0
  0
SPLINE
  5
480
100
AcDbEntity
  8
0
100
AcDbSpline
 62
7
  6
CONTINUOUS
 70
0
 71
3
 72
10
 73
6
 74
0
 42
0.0000001
 43
0.0000001
 44
0.0000000001
 40
0.0
 40
0.0
 40
0.0
 40
0.0
 40
0.5198028533
 40
0.7655349865
 40
1.0
 40
1.0
 40
1.0
 40
1.0
 10
277.346693906
 20
127.5644850265
 30
0.0
 10
274.9478789255
 20
127.042416889
 30
0.0
 10
271.4556371578
 20
126.0444909422
 30
0.0
 10
267.0908211206
 20
124.2313878603
 30
0.0
 10
265.0724377354
 20
123.1892838067
 30
0.0
 10
264.1134423354
 20
122.6356108593
 30
0.0
  0
SPLINE
  5
481
100
AcDbEntity
  8
0
100
AcDbSpline
 62
7
  6
CONTINUOUS
 70
0
 71
3
 72
9
 73
5
 74
0
 42
0.0000001
 43
0.0000001
 44
0.0000000001
 40
0.0
 40
0.0
 40
0.0
 40
0.0
 40
0.2423254169
 40
1.0
 40
1.0
 40
1.0
 40
1.0
 10
259.9878642575
 20
120.3569905305
 30
0.0
 10
260.2778581975
 20
120.5860986701
 30
0.0
 10
261.4933449606
 20
121.5076915241
 30
0.0
 10
262.7791094134
 20
122.3353792368
 30
0.0
 10
263.7798459421
 20
122.9131512922
 30
0.0
  0
SPLINE
  5
482
100
AcDbEntity
  8
0
100
AcDbSpline
 62
7
  6
CONTINUOUS
 70
0
 71
3
 72
9
 73
5
 74
0
 42
0.0000001
 43
0.0000001
 44
0.0000000001
 40
0.0
 40
0.0
 40
0.0
 40
0.0
 40
0.2424741302
 40
1.0
 40
1.0
 40
1.0
 40
1.0
 10
260.4322152687
 20
120.1613148322
 30
0.0
 10
260.7143010772
 20
120.382836214
 30
0.0
 10
261.8954082377
 20
121.2737347754
 30
0.0
 10
263.1430255079
 20
122.0753437871
 30
0.0
 10
264.1134423354
 20
122.6356108593
 30
0.0
  0
SPLINE
  5
483
100
AcDbEntity
  8
0
100
AcDbSpline
 62
7
  6
CONTINUOUS
 70
0
 71
3
 72
12
 73
8
 74
0
 42
0.0000001
 43
0.0000001
 44
0.0000000001
 40
0.0
 40
0.0
 40
0.0
 40
0.0
 40
0.2949167063
 40
0.5552226411
 40
0.7859873917
 40
0.8941592388
 40
1.0
 40
1.0
 40
1.0
 40
1.0
 10
366.104985876
 20
121.9024000832
 30
0.0
 10
365.7779438984
 20
122.1248223901
 30
0.0
 10
365.1286865232
 20
122.4987045199
 30
0.0
 10
364.1208836129
 20
122.8351417565
 30
0.0
 10
363.3053143062
 20
122.8832093902
 30
0.0
 10
362.7172737537
 20
122.7687927454
 30
0.0
 10
362.4476461372
 20
122.6653348722
 30
0.0
 10
362.3201884903
 20
122.602868172
 30
0.0
  0
SPLINE
  5
484
100
AcDbEntity
  8
0
100
AcDbSpline
 62
7
  6
CONTINUOUS
 70
0
 71
3
 72
12
 73
8
 74
0
 42
0.0000001
 43
0.0000001
 44
0.0000000001
 40
0.0
 40
0.0
 40
0.0
 40
0.0
 40
0.2853565031
 40
0.5435054901
 40
0.7782865594
 40
0.8900571512
 40
1.0
 40
1.0
 40
1.0
 40
1.0
 10
436.470253788
 20
162.555640472
 30
0.0
 10
436.0376703003
 20
162.767352665
 30
0.0
 10
435.176364489
 20
163.1021401812
 30
0.0
 10
433.8675661492
 20
163.3091150024
 30
0.0
 10
432.8368840769
 20
163.1959701163
 30
0.0
 10
432.110227126
 20
162.9311967634
 30
0.0
 10
431.7825635979
 20
162.746209379
 30
0.0
 10
431.6291985537
 20
162.6417560776
 30
0.0
  0
SPLINE
  5
485
100
AcDbEntity
  8
0
100
AcDbSpline
 62
7
  6
CONTINUOUS
 70
0
 71
3
 72
11
 73
7
 74
0
 42
0.0000001
 43
0.0000001
 44
0.0000000001
 40
0.0
 40
0.0
 40
0.0
 40
0.0
 40
0.2930073278
 40
0.5538842048
 40
0.7864370703
 40
1.0
 40
1.0
 40
1.0
 40
1.0
 10
365.7844126184
 20
121.7453946492
 30
0.0
 10
365.4783307163
 20
121.9538536804
 30
0.0
 10
364.8704610001
 20
122.3083422746
 30
0.0
 10
363.9277190788
 20
122.6449342141
 30
0.0
 10
363.029422344
 20
122.742036997
 30
0.0
 10
362.4647203345
 20
122.6332401869
 30
0.0
 10
362.2121782879
 20
122.5379609628
 30
0.0
  0
SPLINE
  5
486
100
AcDbEntity
  8
0
100
AcDbSpline
 62
7
  6
CONTINUOUS
 70
0
 71
3
 72
13
 73
9
 74
0
 42
0.0000001
 43
0.0000001
 44
0.0000000001
 40
0.0
 40
0.0
 40
0.0
 40
0.0
 40
0.2786338779
 40
0.5355085519
 40
0.6565958359
 40
0.7735657255
 40
0.8875632691
 40
1.0
 40
1.0
 40
1.0
 40
1.0
 10
135.1086404289
 20
191.2164909955
 30
0.0
 10
135.6853986979
 20
191.4054744979
 30
0.0
 10
136.8336406219
 20
191.6621292017
 30
0.0
 10
138.2809866811
 20
191.63923098
 30
0.0
 10
139.334351433
 20
191.3935871556
 30
0.0
 10
140.0494456232
 20
191.1078529717
 30
0.0
 10
140.693390264
 20
190.7209678461
 30
0.0
 10
141.0699045868
 20
190.3980637959
 30
0.0
 10
141.2415949899
 20
190.2234063828
 30
0.0
  0
SPLINE
  5
487
100
AcDbEntity
  8
0
100
AcDbSpline
 62
7
  6
CONTINUOUS
 70
0
 71
3
 72
15
 73
11
 74
0
 42
0.0000001
 43
0.0000001
 44
0.0000000001
 40
0.0
 40
0.0
 40
0.0
 40
0.0
 40
0.1108653484
 40
0.2320317562
 40
0.360858906
 40
0.4940854458
 40
0.6281261253
 40
0.7593380219
 40
0.8842816625
 40
1.0
 40
1.0
 40
1.0
 40
1.0
 10
214.9317565763
 20
290.1159736302
 30
0.0
 10
215.3128880026
 20
289.8567649143
 30
0.0
 10
216.0637201828
 20
289.2440956004
 30
0.0
 10
217.0905078707
 20
288.1454968008
 30
0.0
 10
218.0381232367
 20
286.8605468025
 30
0.0
 10
218.8712721934
 20
285.4367175964
 30
0.0
 10
219.5592866907
 20
283.9265095702
 30
0.0
 10
220.0767066029
 20
282.3856656219
 30
0.0
 10
220.404508349
 20
280.8714765975
 30
0.0
 10
220.4926317337
 20
279.8709557024
 30
0.0
 10
220.4969902505
 20
279.389875778
 30
0.0
  0
SPLINE
  5
488
100
AcDbEntity
  8
0
100
AcDbSpline
 62
7
  6
CONTINUOUS
 70
0
 71
3
 72
15
 73
11
 74
0
 42
0.0000001
 43
0.0000001
 44
0.0000000001
 40
0.0
 40
0.0
 40
0.0
 40
0.0
 40
0.1171055423
 40
0.2418611188
 40
0.3718997632
 40
0.5043767509
 40
0.636241
 40
0.764492447
 40
0.8864430877
 40
1.0
 40
1.0
 40
1.0
 40
1.0
 10
144.5664886643
 20
249.4627332414
 30
0.0
 10
145.0089560273
 20
249.2461837465
 30
0.0
 10
145.8849506451
 20
248.7191093927
 30
0.0
 10
147.0994881617
 20
247.7260454284
 30
0.0
 10
148.2200818931
 20
246.5375890351
 30
0.0
 10
149.2051720001
 20
245.1977441152
 30
0.0
 10
150.018664398
 20
243.755858817
 30
0.0
 10
150.6305104446
 20
242.2647639781
 30
0.0
 10
151.0180660684
 20
240.7796126222
 30
0.0
 10
151.121063378
 20
239.7888343688
 30
0.0
 10
151.1261689859
 20
239.3111727967
 30
0.0
  0
SPLINE
  5
489
100
AcDbEntity
  8
0
100
AcDbSpline
 62
7
  6
CONTINUOUS
 70
0
 71
3
 72
15
 73
11
 74
0
 42
0.0000001
 43
0.0000001
 44
0.0000000001
 40
0.0
 40
0.0
 40
0.0
 40
0.0
 40
0.111432086
 40
0.2329226604
 40
0.361859838
 40
0.4950211231
 40
0.628868775
 40
0.7598157042
 40
0.8844869887
 40
1.0
 40
1.0
 40
1.0
 40
1.0
 10
330.7056795393
 20
289.7639455846
 30
0.0
 10
330.3186182443
 20
289.5083536365
 30
0.0
 10
329.5556750608
 20
288.9028779062
 30
0.0
 10
328.5109813645
 20
287.8128827575
 30
0.0
 10
327.5468881654
 20
286.5358085219
 30
0.0
 10
326.6992785375
 20
285.1188422042
 30
0.0
 10
325.9993270288
 20
283.6142254206
 30
0.0
 10
325.4729292756
 20
282.0774557265
 30
0.0
 10
325.1394437337
 20
280.5656450158
 30
0.0
 10
325.0498733861
 20
279.5659041966
 30
0.0
 10
325.0454426834
 20
279.0851019233
 30
0.0
  0
SPLINE
  5
48A
100
AcDbEntity
  8
0
100
AcDbSpline
 62
7
  6
CONTINUOUS
 70
0
 71
3
 72
15
 73
11
 74
0
 42
0.0000001
 43
0.0000001
 44
0.0000000001
 40
0.0
 40
0.0
 40
0.0
 40
0.0
 40
0.1108384866
 40
0.2319895094
 40
0.3608114456
 40
0.4940410826
 40
0.6280909003
 40
0.759315342
 40
0.884271876
 40
1.0
 40
1.0
 40
1.0
 40
1.0
 10
215.2523298339
 20
290.2729790642
 30
0.0
 10
215.6331781509
 20
290.0135998893
 30
0.0
 10
216.38343174
 20
289.4005917883
 30
0.0
 10
217.409366356
 20
288.3015901142
 30
0.0
 10
218.3561961649
 20
287.0162705438
 30
0.0
 10
219.1886543442
 20
285.5921184364
 30
0.0
 10
219.8761013711
 20
284.0816486877
 30
0.0
 10
220.3930933753
 20
282.5406134924
 30
0.0
 10
220.7206232944
 20
281.0263126977
 30
0.0
 10
220.8086778919
 20
280.0257553247
 30
0.0
 10
220.8130329632
 20
279.5446623115
 30
0.0
  0
SPLINE
  5
48B
100
AcDbEntity
  8
0
100
AcDbSpline
 62
7
  6
CONTINUOUS
 70
0
 71
3
 72
15
 73
11
 74
0
 42
0.0000001
 43
0.0000001
 44
0.0000000001
 40
0.0
 40
0.0
 40
0.0
 40
0.0
 40
0.1165388292
 40
0.240967328
 40
0.3708968475
 40
0.5034455924
 40
0.6355127219
 40
0.7640369267
 40
0.8862579348
 40
1.0
 40
1.0
 40
1.0
 40
1.0
 10
435.5876079777
 20
229.2117058422
 30
0.0
 10
435.1503675819
 20
228.99099357
 30
0.0
 10
434.2850244743
 20
228.4555140138
 30
0.0
 10
433.0867074638
 20
227.4518089748
 30
0.0
 10
431.9810789795
 20
226.2536289564
 30
0.0
 10
431.0091480083
 20
224.9053281328
 30
0.0
 10
430.2065314943
 20
223.4565706589
 30
0.0
 10
429.6028745962
 20
221.9604753111
 30
0.0
 10
429.2204968374
 20
220.4724052599
 30
0.0
 10
429.1187542443
 20
219.4806257233
 30
0.0
 10
429.1137122236
 20
219.0026177375
 30
0.0
  0
SPLINE
  5
48C
100
AcDbEntity
  8
0
100
AcDbSpline
 62
7
  6
CONTINUOUS
 70
0
 71
3
 72
9
 73
5
 74
0
 42
0.0000001
 43
0.0000001
 44
0.0000000001
 40
0.0
 40
0.0
 40
0.0
 40
0.0
 40
0.2555741713
 40
1.0
 40
1.0
 40
1.0
 40
1.0
 10
310.9227572057
 20
61.9553073191
 30
0.0
 10
310.9137588766
 20
61.9125953986
 30
0.0
 10
310.8803006351
 20
61.7451229445
 30
0.0
 10
310.8480718365
 20
61.577312436
 30
0.0
 10
310.8184975138
 20
61.4536595063
 30
0.0
  0
SPLINE
  5
48D
100
AcDbEntity
  8
0
100
AcDbSpline
 62
7
  6
CONTINUOUS
 70
0
 71
3
 72
9
 73
5
 74
0
 42
0.0000001
 43
0.0000001
 44
0.0000000001
 40
0.0
 40
0.0
 40
0.0
 40
0.0
 40
0.5050183885
 40
1.0
 40
1.0
 40
1.0
 40
1.0
 10
310.9227572057
 20
61.9553073191
 30
0.0
 10
310.9420095806
 20
62.0466916086
 30
0.0
 10
310.9266146582
 20
62.2404106919
 30
0.0
 10
310.8231006855
 20
62.4046978631
 30
0.0
 10
310.7542917482
 20
62.465062125
 30
0.0
  0
SPLINE
  5
48E
100
AcDbEntity
  8
0
100
AcDbSpline
 62
7
  6
CONTINUOUS
 70
0
 71
3
 72
10
 73
6
 74
0
 42
0.0000001
 43
0.0000001
 44
0.0000000001
 40
0.0
 40
0.0
 40
0.0
 40
0.0
 40
0.211861256
 40
0.4542331863
 40
1.0
 40
1.0
 40
1.0
 40
1.0
 10
310.3184480117
 20
63.4511445298
 30
0.0
 10
310.3666525493
 20
63.3914882597
 30
0.0
 10
310.4598378017
 20
63.2552316753
 30
0.0
 10
310.6267164522
 20
62.9334177504
 30
0.0
 10
310.7143449918
 20
62.6585596066
 30
0.0
 10
310.7542917482
 20
62.465062125
 30
0.0
  0
SPLINE
  5
48F
100
AcDbEntity
  8
0
100
AcDbSpline
 62
7
  6
CONTINUOUS
 70
0
 71
3
 72
10
 73
6
 74
0
 42
0.0000001
 43
0.0000001
 44
0.0000000001
 40
0.0
 40
0.0
 40
0.0
 40
0.0
 40
0.5431325284
 40
0.7946098805
 40
1.0
 40
1.0
 40
1.0
 40
1.0
 10
310.0927902528
 20
61.3278396414
 30
0.0
 10
309.9713375635
 20
61.7032582863
 30
0.0
 10
309.9457911807
 20
62.3064599403
 30
0.0
 10
310.1126904557
 20
63.0139370299
 30
0.0
 10
310.2438719812
 20
63.3219057605
 30
0.0
 10
310.3184480117
 20
63.4511445298
 30
0.0
  0
SPLINE
  5
490
100
AcDbEntity
  8
0
100
AcDbSpline
 62
7
  6
CONTINUOUS
 70
0
 71
3
 72
9
 73
5
 74
0
 42
0.0000001
 43
0.0000001
 44
0.0000000001
 40
0.0
 40
0.0
 40
0.0
 40
0.0
 40
0.5083655573
 40
1.0
 40
1.0
 40
1.0
 40
1.0
 10
330.7056795393
 20
289.7639455846
 30
0.0
 10
349.0338019983
 20
280.5123448252
 30
0.0
 10
384.6086221035
 20
261.3466753235
 30
0.0
 10
419.0188899829
 20
240.1525046314
 30
0.0
 10
435.5876079777
 20
229.2117058422
 30
0.0
  0
SPLINE
  5
491
100
AcDbEntity
  8
0
100
AcDbSpline
 62
7
  6
CONTINUOUS
 70
0
 71
3
 72
11
 73
7
 74
0
 42
0.0000001
 43
0.0000001
 44
0.0000000001
 40
0.0
 40
0.0
 40
0.0
 40
0.0
 40
0.0673356242
 40
0.2556126245
 40
0.5667194697
 40
1.0
 40
1.0
 40
1.0
 40
1.0
 10
310.154434862
 20
38.5772971222
 30
0.0
 10
310.1533422138
 20
38.5779263896
 30
0.0
 10
310.1566940544
 20
38.5841885386
 30
0.0
 10
310.1594807729
 20
38.5922302584
 30
0.0
 10
310.1688235135
 20
38.6084780149
 30
0.0
 10
310.175666995
 20
38.6201413361
 30
0.0
 10
310.1799347109
 20
38.6270416271
 30
0.0
  0
SPLINE
  5
492
100
AcDbEntity
  8
0
100
AcDbSpline
 62
7
  6
CONTINUOUS
 70
0
 71
3
 72
19
 73
15
 74
0
 42
0.0000001
 43
0.0000001
 44
0.0000000001
 40
0.0
 40
0.0
 40
0.0
 40
0.0
 40
0.0571777586
 40
0.1164410966
 40
0.177562979
 40
0.2402803046
 40
0.3692643536
 40
0.5008730397
 40
0.6323627146
 40
0.7609973267
 40
0.8234604646
 40
0.8842806896
 40
0.9432005643
 40
1.0
 40
1.0
 40
1.0
 40
1.0
 10
215.2523298339
 20
290.2729790642
 30
0.0
 10
217.2903193598
 20
291.2704154617
 30
0.0
 10
221.5152935329
 20
293.152035832
 30
0.0
 10
228.1304650686
 20
295.5914345292
 30
0.0
 10
235.0936202372
 20
297.6833009455
 30
0.0
 10
244.8580867964
 20
300.0080087868
 30
0.0
 10
257.5704637432
 20
301.9304637288
 30
0.0
 10
273.1390579202
 20
302.6543554684
 30
0.0
 10
288.6869037582
 20
301.7947019116
 30
0.0
 10
301.353119441
 20
299.7606502301
 30
0.0
 10
311.0595932546
 20
297.3492311392
 30
0.0
 10
317.9668205895
 20
295.1963416786
 30
0.0
 10
324.5169698125
 20
292.6989982782
 30
0.0
 10
328.6935269534
 20
290.7796324032
 30
0.0
 10
330.7056795393
 20
289.7639455846
 30
0.0
  0
LINE
  5
493
100
AcDbEntity
  8
0
100
AcDbLine
 62
7
  6
CONTINUOUS
 10
214.9317565763
 20
290.1159736302
 11
215.2523298339
 21
290.2729790642
  0
SPLINE
  5
494
100
AcDbEntity
  8
0
100
AcDbSpline
 62
7
  6
CONTINUOUS
 70
0
 71
3
 72
10
 73
6
 74
0
 42
0.0000001
 43
0.0000001
 44
0.0000000001
 40
0.0
 40
0.0
 40
0.0
 40
0.0
 40
0.2384745987
 40
0.4825332467
 40
1.0
 40
1.0
 40
1.0
 40
1.0
 10
28.4716316257
 20
225.510408195
 30
0.0
 10
28.5411633648
 20
225.5505497246
 30
0.0
 10
28.6916761137
 20
225.6159599679
 30
0.0
 10
29.024257758
 20
225.680111358
 30
0.0
 10
29.2862446892
 20
225.6496794665
 30
0.0
 10
29.4544651833
 20
225.6043722252
 30
0.0
  0
LINE
  5
495
100
AcDbEntity
  8
0
100
AcDbLine
 62
7
  6
CONTINUOUS
 10
436.470253788
 20
162.555640472
 11
436.1983111809
 21
162.370558754
  0
SPLINE
  5
496
100
AcDbEntity
  8
0
100
AcDbSpline
 62
7
  6
CONTINUOUS
 70
0
 71
3
 72
23
 73
19
 74
0
 42
0.0000001
 43
0.0000001
 44
0.0000000001
 40
0.0
 40
0.0
 40
0.0
 40
0.0
 40
0.0733665354
 40
0.1431630561
 40
0.2094776191
 40
0.2725312356
 40
0.3326914814
 40
0.3904784997
 40
0.4465572597
 40
0.5017101817
 40
0.5567886294
 40
0.6126496862
 40
0.6700916318
 40
0.7298022035
 40
0.792327502
 40
0.8580612257
 40
0.9272487814
 40
1.0
 40
1.0
 40
1.0
 40
1.0
 10
435.5876079777
 20
229.2117058422
 30
0.0
 10
437.2710404215
 20
228.1000872095
 30
0.0
 10
440.4710035967
 20
225.7976322795
 30
0.0
 10
444.8291496721
 20
222.0187295432
 30
0.0
 10
448.5935832897
 20
218.0272409141
 30
0.0
 10
451.7332607192
 20
213.8529334239
 30
0.0
 10
454.2214838255
 20
209.526792115
 30
0.0
 10
456.0353430913
 20
205.0819171744
 30
0.0
 10
457.1565102116
 20
200.5540547319
 30
0.0
 10
457.5725534211
 20
195.981874435
 30
0.0
 10
457.278575047
 20
191.40614556
 30
0.0
 10
456.2780536446
 20
186.8678259145
 30
0.0
 10
454.5822337143
 20
182.4060411614
 30
0.0
 10
452.2085418406
 20
178.0570438317
 30
0.0
 10
449.179170251
 20
173.8543500929
 30
0.0
 10
445.5201582403
 20
169.8292489426
 30
0.0
 10
441.2618916231
 20
166.0117695891
 30
0.0
 10
438.1236292949
 20
163.6817014134
 30
0.0
 10
436.470253788
 20
162.555640472
 30
0.0
  0
SPLINE
  5
497
100
AcDbEntity
  8
02___PRT_ALL_AXES
100
AcDbSpline
 62
7
  6
CONTINUOUS
 70
0
 71
3
 72
14
 73
10
 74
0
 42
0.0000001
 43
0.0000001
 44
0.0000000001
 40
0.0
 40
0.0
 40
0.0
 40
0.0
 40
0.2892717954
 40
0.422538264
 40
0.5484985901
 40
0.6678949924
 40
0.7818691022
 40
0.8919530715
 40
1.0
 40
1.0
 40
1.0
 40
1.0
 10
484.6190604856
 20
222.9517152668
 30
0.0
 10
484.0264942631
 20
222.6095990409
 30
0.0
 10
483.1966228101
 20
222.0382312029
 30
0.0
 10
482.2577269351
 20
221.1396312282
 30
0.0
 10
481.6862587678
 20
220.4469742416
 30
0.0
 10
481.2345219898
 20
219.7238367979
 30
0.0
 10
480.9075255414
 20
218.9766579849
 30
0.0
 10
480.7094302082
 20
218.2130344378
 30
0.0
 10
480.6650434204
 20
217.6960363196
 30
0.0
 10
480.66504342
 20
217.4404650992
 30
0.0
  0
SPLINE
  5
498
100
AcDbEntity
  8
0
100
AcDbSpline
 62
7
  6
CONTINUOUS
 70
0
 71
3
 72
9
 73
5
 74
0
 42
0.0000001
 43
0.0000001
 44
0.0000000001
 40
0.0
 40
0.0
 40
0.0
 40
0.0
 40
0.665606092
 40
1.0
 40
1.0
 40
1.0
 40
1.0
 10
310.6522271121
 20
38.7758257772
 30
0.0
 10
310.6624902296
 20
38.7603303951
 30
0.0
 10
310.6770343257
 20
38.7366098751
 30
0.0
 10
310.6910776264
 20
38.7122052809
 30
0.0
 10
310.6941235376
 20
38.7033786371
 30
0.0
  0
SPLINE
  5
499
100
AcDbEntity
  8
0
100
AcDbSpline
 62
7
  6
CONTINUOUS
 70
0
 71
3
 72
9
 73
5
 74
0
 42
0.0000001
 43
0.0000001
 44
0.0000000001
 40
0.0
 40
0.0
 40
0.0
 40
0.0
 40
0.4106241037
 40
1.0
 40
1.0
 40
1.0
 40
1.0
 10
310.6941235376
 20
38.7033786371
 30
0.0
 10
310.6942876444
 20
38.7029030775
 30
0.0
 10
310.6945449261
 20
38.7018730246
 30
0.0
 10
310.6952284025
 20
38.7001315668
 30
0.0
 10
310.6946026781
 20
38.6997711995
 30
0.0
  0
SPLINE
  5
49A
100
AcDbEntity
  8
0
100
AcDbSpline
 62
7
  6
CONTINUOUS
 70
0
 71
3
 72
9
 73
5
 74
0
 42
0.0000001
 43
0.0000001
 44
0.0000000001
 40
0.0
 40
0.0
 40
0.0
 40
0.0
 40
0.2706974451
 40
1.0
 40
1.0
 40
1.0
 40
1.0
 10
310.7427185571
 20
39.2010430204
 30
0.0
 10
310.7427185571
 20
39.1660046194
 30
0.0
 10
310.7376073852
 20
39.0367845605
 30
0.0
 10
310.7103175981
 20
38.9072108699
 30
0.0
 10
310.6732145493
 20
38.8204090611
 30
0.0
  0
SPLINE
  5
49B
100
AcDbEntity
  8
0
100
AcDbSpline
 62
7
  6
CONTINUOUS
 70
0
 71
3
 72
15
 73
11
 74
0
 42
0.0000001
 43
0.0000001
 44
0.0000000001
 40
0.0
 40
0.0
 40
0.0
 40
0.0
 40
0.1145013131
 40
0.2355245689
 40
0.3615328941
 40
0.4907280835
 40
0.6211563459
 40
0.750805802
 40
0.8777011224
 40
1.0
 40
1.0
 40
1.0
 40
1.0
 10
365.7844126184
 20
121.7453946492
 30
0.0
 10
362.2434888562
 20
120.0123895496
 30
0.0
 10
354.7319232982
 20
116.9017465427
 30
0.0
 10
342.7705800042
 20
113.3862837315
 30
0.0
 10
330.0283536054
 20
110.951216134
 30
0.0
 10
316.7971737115
 20
109.6526727088
 30
0.0
 10
303.3781600291
 20
109.5198372136
 30
0.0
 10
290.0772834626
 20
110.5559856974
 30
0.0
 10
277.1998014575
 20
112.7369152463
 30
0.0
 10
268.8990103463
 20
114.973399172
 30
0.0
 10
264.8975981898
 20
116.2844964827
 30
0.0
  0
LINE
  5
49C
100
AcDbEntity
  8
0
100
AcDbLine
 62
7
  6
CONTINUOUS
 10
366.104985876
 20
121.9024000832
 11
365.7844126184
 21
121.7453946492
  0
SPLINE
  5
49D
100
AcDbEntity
  8
0
100
AcDbSpline
 62
7
  6
CONTINUOUS
 70
0
 71
3
 72
11
 73
7
 74
0
 42
0.0000001
 43
0.0000001
 44
0.0000000001
 40
0.0
 40
0.0
 40
0.0
 40
0.0
 40
0.216772749
 40
0.4482309476
 40
0.706878444
 40
1.0
 40
1.0
 40
1.0
 40
1.0
 10
595.9873568609
 20
267.2863470626
 30
0.0
 10
595.9479573933
 20
267.3090938413
 30
0.0
 10
595.8575944847
 20
267.3419715432
 30
0.0
 10
595.7072936749
 20
267.3461713492
 30
0.0
 10
595.5459561411
 20
267.3076740514
 30
0.0
 10
595.4407175884
 20
267.2575470122
 30
0.0
 10
595.3873682275
 20
267.2269156975
 30
0.0
  0
SPLINE
  5
49E
100
AcDbEntity
  8
0
100
AcDbSpline
 62
7
  6
CONTINUOUS
 70
0
 71
3
 72
22
 73
18
 74
0
 42
0.0000001
 43
0.0000001
 44
0.0000000001
 40
0.0
 40
0.0
 40
0.0
 40
0.0
 40
0.0671560003
 40
0.1314834913
 40
0.1932666303
 40
0.25288794
 40
0.3108254725
 40
0.3676402282
 40
0.4239533327
 40
0.4804141248
 40
0.5376635491
 40
0.5962989639
 40
0.656846003
 40
0.71974044
 40
0.7853200806
 40
0.8538247093
 40
1.0
 40
1.0
 40
1.0
 40
1.0
 10
135.1086404289
 20
191.2164909955
 30
0.0
 10
134.0235457227
 20
192.3203253566
 30
0.0
 10
131.9912585902
 20
194.5752515516
 30
0.0
 10
129.3384052776
 20
198.1627873877
 30
0.0
 10
127.1647515682
 20
201.860803223
 30
0.0
 10
125.4846993787
 20
205.6480507847
 30
0.0
 10
124.3097466158
 20
209.5025161637
 30
0.0
 10
123.6485665639
 20
213.4008204733
 30
0.0
 10
123.506286063
 20
217.3184949731
 30
0.0
 10
123.8840382022
 20
221.2304799814
 30
0.0
 10
124.7788419794
 20
225.1118962875
 30
0.0
 10
126.1838863888
 20
228.9387276277
 30
0.0
 10
128.0891520284
 20
232.6882118584
 30
0.0
 10
130.4818048977
 20
236.3387157882
 30
0.0
 10
133.3470088578
 20
239.8701206518
 30
0.0
 10
137.8700719311
 20
244.4915848141
 30
0.0
 10
141.7818237116
 20
247.5661874023
 30
0.0
 10
144.5664886643
 20
249.4627332414
 30
0.0
  0
LINE
  5
49F
100
AcDbEntity
  8
0
100
AcDbLine
 62
7
  6
CONTINUOUS
 10
144.5664886643
 20
249.4627332414
 11
144.8384312714
 21
249.6478149594
  0
SPLINE
  5
4A0
100
AcDbEntity
  8
0
100
AcDbSpline
 62
7
  6
CONTINUOUS
 70
0
 71
3
 72
9
 73
5
 74
0
 42
0.0000001
 43
0.0000001
 44
0.0000000001
 40
0.0
 40
0.0
 40
0.0
 40
0.0
 40
0.230877259
 40
1.0
 40
1.0
 40
1.0
 40
1.0
 10
310.1758267662
 20
38.6979351293
 30
0.0
 10
310.1640762831
 20
38.7254253119
 30
0.0
 10
310.1207753414
 20
38.8477503308
 30
0.0
 10
310.1063233372
 20
38.9789753036
 30
0.0
 10
310.1063233372
 20
39.0785687545
 30
0.0
  0
SPLINE
  5
4A1
100
AcDbEntity
  8
0
100
AcDbSpline
 62
7
  6
CONTINUOUS
 70
0
 71
3
 72
16
 73
12
 74
0
 42
0.0000001
 43
0.0000001
 44
0.0000000001
 40
0.0
 40
0.0
 40
0.0
 40
0.0
 40
0.1105340696
 40
0.2226317571
 40
0.3378981139
 40
0.4577162425
 40
0.5197163128
 40
0.5832402862
 40
0.7151507227
 40
0.8539969756
 40
1.0
 40
1.0
 40
1.0
 40
1.0
 10
132.1813649401
 20
209.1144299676
 30
0.0
 10
132.1620920812
 20
210.4824677129
 30
0.0
 10
132.3372548008
 20
213.2455206429
 30
0.0
 10
133.2383850142
 20
217.3451047257
 30
0.0
 10
134.7680006832
 20
221.3764052073
 30
0.0
 10
136.5338538844
 20
224.6146547442
 30
0.0
 10
138.2291386108
 20
227.1359881244
 30
0.0
 10
140.1624258484
 20
229.6711238593
 30
0.0
 10
142.9510669586
 20
232.7399801763
 30
0.0
 10
146.7973928385
 20
236.1887559722
 30
0.0
 10
149.6324872687
 20
238.2938741652
 30
0.0
 10
151.1261689859
 20
239.3111727967
 30
0.0
  0
SPLINE
  5
4A2
100
AcDbEntity
  8
0
100
AcDbSpline
 62
7
  6
CONTINUOUS
 70
0
 71
3
 72
15
 73
11
 74
0
 42
0.0000001
 43
0.0000001
 44
0.0000000001
 40
0.0
 40
0.0
 40
0.0
 40
0.0
 40
0.1151916687
 40
0.2267467969
 40
0.3383345533
 40
0.4536188456
 40
0.5756986589
 40
0.7067759455
 40
0.8480876388
 40
1.0
 40
1.0
 40
1.0
 40
1.0
 10
89.696095618
 20
219.2739473327
 30
0.0
 10
89.3792902512
 20
219.9606983911
 30
0.0
 10
88.8861637843
 20
221.3791626022
 30
0.0
 10
88.6340299724
 20
223.6048018618
 30
0.0
 10
88.8952094006
 20
225.8308560469
 30
0.0
 10
89.6611545443
 20
228.008269099
 30
0.0
 10
90.9096221968
 20
230.0967855701
 30
0.0
 10
92.6123804028
 20
232.0633318072
 30
0.0
 10
94.7368977343
 20
233.8786433329
 30
0.0
 10
96.3539860166
 20
234.9332809771
 30
0.0
 10
97.2177568812
 20
235.4319763415
 30
0.0
  0
SPLINE
  5
4A3
100
AcDbEntity
  8
0
100
AcDbSpline
 62
7
  6
CONTINUOUS
 70
0
 71
3
 72
9
 73
5
 74
0
 42
0.0000001
 43
0.0000001
 44
0.0000000001
 40
0.0
 40
0.0
 40
0.0
 40
0.0
 40
0.236606814
 40
1.0
 40
1.0
 40
1.0
 40
1.0
 10
585.9462044659
 20
261.7760897953
 30
0.0
 10
585.9217355236
 20
261.7619627292
 30
0.0
 10
585.8206645137
 20
261.6982130342
 30
0.0
 10
585.7290393127
 20
261.6200659789
 30
0.0
 10
585.6646904658
 20
261.555495121
 30
0.0
  0
SPLINE
  5
4A4
100
AcDbEntity
  8
0
100
AcDbSpline
 62
7
  6
CONTINUOUS
 70
0
 71
3
 72
9
 73
5
 74
0
 42
0.0000001
 43
0.0000001
 44
0.0000000001
 40
0.0
 40
0.0
 40
0.0
 40
0.0
 40
0.2434123633
 40
1.0
 40
1.0
 40
1.0
 40
1.0
 10
518.6338510216
 20
209.0533888406
 30
0.0
 10
518.5631729764
 20
209.0832552334
 30
0.0
 10
518.2748761735
 20
209.2108172802
 30
0.0
 10
517.9949697265
 20
209.3571074966
 30
0.0
 10
517.7884264769
 20
209.4763525997
 30
0.0
  0
SPLINE
  5
4A5
100
AcDbEntity
  8
0
100
AcDbSpline
 62
7
  6
CONTINUOUS
 70
0
 71
3
 72
9
 73
5
 74
0
 42
0.0000001
 43
0.0000001
 44
0.0000000001
 40
0.0
 40
0.0
 40
0.0
 40
0.0
 40
0.264870498
 40
1.0
 40
1.0
 40
1.0
 40
1.0
 10
310.8184975138
 20
61.4536595063
 30
0.0
 10
310.8062422871
 20
61.4161418934
 30
0.0
 10
310.7647828955
 20
61.273069513
 30
0.0
 10
310.7427185571
 20
61.1236352406
 30
0.0
 10
310.7427185571
 20
61.0140932077
 30
0.0
  0
SPLINE
  5
4A6
100
AcDbEntity
  8
0
100
AcDbSpline
 62
7
  6
CONTINUOUS
 70
0
 71
3
 72
9
 73
5
 74
0
 42
0.0000001
 43
0.0000001
 44
0.0000000001
 40
0.0
 40
0.0
 40
0.0
 40
0.0
 40
0.2430644272
 40
1.0
 40
1.0
 40
1.0
 40
1.0
 10
310.1063233372
 20
61.1365696669
 30
0.0
 10
310.1063233372
 20
61.1493210028
 30
0.0
 10
310.1053973054
 20
61.2017798005
 30
0.0
 10
310.1008920561
 20
61.2541575979
 30
0.0
 10
310.0957588025
 20
61.2935337994
 30
0.0
  0
SPLINE
  5
4A7
100
AcDbEntity
  8
0
100
AcDbSpline
 62
7
  6
CONTINUOUS
 70
0
 71
3
 72
15
 73
11
 74
0
 42
0.0000001
 43
0.0000001
 44
0.0000000001
 40
0.0
 40
0.0
 40
0.0
 40
0.0
 40
0.1124817996
 40
0.2230675068
 40
0.3350258774
 40
0.4514320293
 40
0.5747844383
 40
0.706813607
 40
0.8484680033
 40
1.0
 40
1.0
 40
1.0
 40
1.0
 10
531.5886729558
 20
219.3352119356
 30
0.0
 10
531.8080129777
 20
219.9816301021
 30
0.0
 10
532.1189404983
 20
221.310707517
 30
0.0
 10
532.1545061761
 20
223.3585737723
 30
0.0
 10
531.7510530488
 20
225.3910288076
 30
0.0
 10
530.9192544159
 20
227.3709746275
 30
0.0
 10
529.6780013569
 20
229.2681451209
 30
0.0
 10
528.0501158254
 20
231.0565188083
 30
0.0
 10
526.0620443232
 20
232.7123804253
 30
0.0
 10
524.5648530245
 20
233.6817605919
 30
0.0
 10
523.7684506958
 20
234.1415532888
 30
0.0
  0
SPLINE
  5
4A8
100
AcDbEntity
  8
02___PRT_ALL_AXES
100
AcDbSpline
 62
7
  6
CONTINUOUS
 70
0
 71
3
 72
22
 73
18
 74
0
 42
0.0000001
 43
0.0000001
 44
0.0000000001
 40
0.0
 40
0.0
 40
0.0
 40
0.0
 40
0.0428194547
 40
0.0874068
 40
0.1351956786
 40
0.1871116745
 40
0.243565842
 40
0.3045316758
 40
0.3696387421
 40
0.4382565221
 40
0.5095643549
 40
0.5826105024
 40
0.7296293597
 40
0.8016272292
 40
0.8712403329
 40
0.9375981095
 40
1.0
 40
1.0
 40
1.0
 40
1.0
 10
507.6650401301
 20
217.4404650622
 30
0.0
 10
507.6650401308
 20
217.824776051
 30
0.0
 10
507.5622913534
 20
218.6126062391
 30
0.0
 10
507.1104612576
 20
219.7501605832
 30
0.0
 10
506.3772947833
 20
220.8285461901
 30
0.0
 10
505.3835798598
 20
221.8264303464
 30
0.0
 10
504.1522357476
 20
222.7261855485
 30
0.0
 10
502.709482078
 20
223.5108847356
 30
0.0
 10
501.0855179972
 20
224.1651185017
 30
0.0
 10
499.3145269166
 20
224.6755104044
 30
0.0
 10
497.4336902982
 20
225.0315004866
 30
0.0
 10
494.8290393326
 20
225.2903288463
 30
0.0
 10
492.1933960872
 20
225.2177222057
 30
0.0
 10
489.6322867637
 20
224.8118100302
 30
0.0
 10
487.820204993
 20
224.351756548
 30
0.0
 10
486.1435178155
 20
223.7442441312
 30
0.0
 10
485.1040928256
 20
223.2317471473
 30
0.0
 10
484.6190604856
 20
222.9517152668
 30
0.0
  0
SPLINE
  5
4A9
100
AcDbEntity
  8
03___PRT_ALL_CURVES
100
AcDbSpline
 62
2
  6
CONTINUOUS
 70
0
 71
3
 72
15
 73
11
 74
0
 42
0.0000001
 43
0.0000001
 44
0.0000000001
 40
0.0
 40
0.0
 40
0.0
 40
0.0
 40
0.125
 40
0.25
 40
0.375
 40
0.5
 40
0.625
 40
0.75
 40
0.875
 40
1.0
 40
1.0
 40
1.0
 40
1.0
 10
269.1706770171
 20
74.897058608
 30
0.0
 10
269.1736003255
 20
74.8949793151
 30
0.0
 10
269.1794524868
 20
74.890782937
 30
0.0
 10
269.188197461
 20
74.884715124
 30
0.0
 10
269.1971363972
 20
74.8786582518
 30
0.0
 10
269.2083399884
 20
74.871236413
 30
0.0
 10
269.2162279432
 20
74.8662700211
 30
0.0
 10
269.2263809182
 20
74.8600056987
 30
0.0
 10
269.2367032267
 20
74.8538080831
 30
0.0
 10
269.2434965865
 20
74.8499166307
 30
0.0
 10
269.2469042888
 20
74.8479408681
 30
0.0
  0
SPLINE
  5
4AA
100
AcDbEntity
  8
03___PRT_ALL_CURVES
100
AcDbSpline
 62
2
  6
CONTINUOUS
 70
0
 71
3
 72
13
 73
9
 74
0
 42
0.0000001
 43
0.0000001
 44
0.0000000001
 40
0.0
 40
0.0
 40
0.0
 40
0.0
 40
0.25
 40
0.375
 40
0.5
 40
0.625
 40
0.75
 40
1.0
 40
1.0
 40
1.0
 40
1.0
 10
269.0867247756
 20
74.9684123018
 30
0.0
 10
269.0931163631
 20
74.9621507159
 30
0.0
 10
269.102919175
 20
74.9525769934
 30
0.0
 10
269.1171464194
 20
74.9396469158
 30
0.0
 10
269.1282038162
 20
74.9299126862
 30
0.0
 10
269.1376373598
 20
74.9221802505
 30
0.0
 10
269.1519660621
 20
74.9107329829
 30
0.0
 10
269.1631939476
 20
74.9025137995
 30
0.0
 10
269.1706770159
 20
74.8970586089
 30
0.0
  0
SPLINE
  5
4AB
100
AcDbEntity
  8
03___PRT_ALL_CURVES
100
AcDbSpline
 62
2
  6
CONTINUOUS
 70
0
 71
3
 72
15
 73
11
 74
0
 42
0.0000001
 43
0.0000001
 44
0.0000000001
 40
0.0
 40
0.0
 40
0.0
 40
0.0
 40
0.125
 40
0.25
 40
0.375
 40
0.5
 40
0.625
 40
0.75
 40
0.875
 40
1.0
 40
1.0
 40
1.0
 40
1.0
 10
268.9977959914
 20
75.0805723562
 30
0.0
 10
269.0010255394
 20
75.0756346548
 30
0.0
 10
269.0072984937
 20
75.0658479332
 30
0.0
 10
269.0178247766
 20
75.0506357641
 30
0.0
 10
269.028708864
 20
75.0356193325
 30
0.0
 10
269.0388465267
 20
75.0221761529
 30
0.0
 10
269.0509485878
 20
75.0075590241
 30
0.0
 10
269.0621658067
 20
74.9945567058
 30
0.0
 10
269.073778942
 20
74.9817514122
 30
0.0
 10
269.0824902694
 20
74.9728263173
 30
0.0
 10
269.0867247784
 20
74.9684122989
 30
0.0
  0
SPLINE
  5
4AC
100
AcDbEntity
  8
03___PRT_ALL_CURVES
100
AcDbSpline
 62
2
  6
CONTINUOUS
 70
0
 71
3
 72
14
 73
10
 74
0
 42
0.0000001
 43
0.0000001
 44
0.0000000001
 40
0.0
 40
0.0
 40
0.0
 40
0.0
 40
0.125
 40
0.25
 40
0.375
 40
0.5
 40
0.625
 40
0.75
 40
1.0
 40
1.0
 40
1.0
 40
1.0
 10
268.9449815889
 20
75.1796109885
 30
0.0
 10
268.94682448
 20
75.1756468684
 30
0.0
 10
268.9503589898
 20
75.1679249241
 30
0.0
 10
268.9565683884
 20
75.1551042331
 30
0.0
 10
268.96301078
 20
75.1422224305
 30
0.0
 10
268.9686875397
 20
75.1311846365
 30
0.0
 10
268.9759320711
 20
75.1179488181
 30
0.0
 10
268.9853595347
 20
75.1012012574
 30
0.0
 10
268.9928350762
 20
75.0887859667
 30
0.0
 10
268.9977959918
 20
75.0805723555
 30
0.0
  0
SPLINE
  5
4AD
100
AcDbEntity
  8
03___PRT_ALL_CURVES
100
AcDbSpline
 62
2
  6
CONTINUOUS
 70
0
 71
3
 72
13
 73
9
 74
0
 42
0.0000001
 43
0.0000001
 44
0.0000000001
 40
0.0
 40
0.0
 40
0.0
 40
0.0
 40
0.125
 40
0.1875
 40
0.25
 40
0.375
 40
0.5
 40
1.0
 40
1.0
 40
1.0
 40
1.0
 10
268.9056757139
 20
75.2792027744
 30
0.0
 10
268.9069768278
 20
75.2755139773
 30
0.0
 10
268.9088852394
 20
75.2700726476
 30
0.0
 10
268.9116028255
 20
75.2624500776
 30
0.0
 10
268.9148787737
 20
75.2536012939
 30
0.0
 10
268.9188265203
 20
75.2430046475
 30
0.0
 10
268.9288932241
 20
75.2168492732
 30
0.0
 10
268.9368882486
 20
75.1982174941
 30
0.0
 10
268.944981588
 20
75.1796109905
 30
0.0
  0
SPLINE
  5
4AE
100
AcDbEntity
  8
03___PRT_ALL_CURVES
100
AcDbSpline
 62
2
  6
CONTINUOUS
 70
0
 71
3
 72
51
 73
47
 74
0
 42
0.0000001
 43
0.0000001
 44
0.0000000001
 40
0.0
 40
0.0
 40
0.0
 40
0.0
 40
0.0625
 40
0.09375
 40
0.109375
 40
0.125
 40
0.140625
 40
0.15625
 40
0.1875
 40
0.21875
 40
0.234375
 40
0.25
 40
0.265625
 40
0.28125
 40
0.3125
 40
0.34375
 40
0.359375
 40
0.375
 40
0.390625
 40
0.40625
 40
0.4375
 40
0.46875
 40
0.484375
 40
0.5
 40
0.515625
 40
0.53125
 40
0.5625
 40
0.59375
 40
0.609375
 40
0.625
 40
0.640625
 40
0.65625
 40
0.6875
 40
0.71875
 40
0.734375
 40
0.75
 40
0.765625
 40
0.78125
 40
0.8125
 40
0.84375
 40
0.859375
 40
0.875
 40
0.890625
 40
0.90625
 40
0.9375
 40
1.0
 40
1.0
 40
1.0
 40
1.0
 10
286.4970883854
 20
65.2035639647
 30
0.0
 10
286.497953722
 20
65.1928736657
 30
0.0
 10
286.4992928173
 20
65.1768238922
 30
0.0
 10
286.5007112789
 20
65.1581492942
 30
0.0
 10
286.5017272802
 20
65.14740647
 30
0.0
 10
286.501914016
 20
65.1395499026
 30
0.0
 10
286.5042990865
 20
65.1309269452
 30
0.0
 10
286.5067080264
 20
65.1196977291
 30
0.0
 10
286.5100070202
 20
65.1055667311
 30
0.0
 10
286.5131186808
 20
65.0914785692
 30
0.0
 10
286.5158273538
 20
65.0801808154
 30
0.0
 10
286.5173132251
 20
65.071763471
 30
0.0
 10
286.5208719578
 20
65.0631358552
 30
0.0
 10
286.5248897074
 20
65.0517056691
 30
0.0
 10
286.5301839463
 20
65.0373938533
 30
0.0
 10
286.5352990119
 20
65.0230867429
 30
0.0
 10
286.5396034388
 20
65.011649028
 30
0.0
 10
286.5423021397
 20
65.0030439985
 30
0.0
 10
286.5470131305
 20
64.9945419557
 30
0.0
 10
286.55258921
 20
64.9831681226
 30
0.0
 10
286.5598178963
 20
64.9689766849
 30
0.0
 10
286.5668937872
 20
64.9547290526
 30
0.0
 10
286.5727143392
 20
64.9434451308
 30
0.0
 10
286.5766919126
 20
64.9346733539
 30
0.0
 10
286.5821409289
 20
64.9270798273
 30
0.0
 10
286.5888903302
 20
64.9165413179
 30
0.0
 10
286.5975181268
 20
64.9035261094
 30
0.0
 10
286.6060266861
 20
64.8903964469
 30
0.0
 10
286.6129668671
 20
64.8800410639
 30
0.0
 10
286.6178435445
 20
64.8718981579
 30
0.0
 10
286.6239673883
 20
64.8651865535
 30
0.0
 10
286.6316954993
 20
64.8557348329
 30
0.0
 10
286.6415153281
 20
64.8441137889
 30
0.0
 10
286.6512426645
 20
64.8323469615
 30
0.0
 10
286.6591187633
 20
64.8231284943
 30
0.0
 10
286.6647986437
 20
64.8157171296
 30
0.0
 10
286.671340184
 20
64.8101983247
 30
0.0
 10
286.6797601812
 20
64.8021754772
 30
0.0
 10
286.6903964516
 20
64.7923988256
 30
0.0
 10
286.7009651971
 20
64.7824450938
 30
0.0
 10
286.7094932342
 20
64.7747055746
 30
0.0
 10
286.7157106548
 20
64.7683367848
 30
0.0
 10
286.722605984
 20
64.7641128632
 30
0.0
 10
286.7315632274
 20
64.7577326025
 30
0.0
 10
286.7473492762
 20
64.7469179425
 30
0.0
 10
286.7608421616
 20
64.737527961
 30
0.0
 10
286.769845866
 20
64.7312947006
 30
0.0
  0
SPLINE
  5
4AF
100
AcDbEntity
  8
03___PRT_ALL_CURVES
100
AcDbSpline
 62
2
  6
CONTINUOUS
 70
0
 71
3
 72
51
 73
47
 74
0
 42
0.0000001
 43
0.0000001
 44
0.0000000001
 40
0.0
 40
0.0
 40
0.0
 40
0.0
 40
0.0625
 40
0.09375
 40
0.125
 40
0.140625
 40
0.15625
 40
0.1640625
 40
0.171875
 40
0.1875
 40
0.21875
 40
0.25
 40
0.28125
 40
0.3125
 40
0.328125
 40
0.3359375
 40
0.34375
 40
0.359375
 40
0.375
 40
0.4375
 40
0.46875
 40
0.484375
 40
0.4921875
 40
0.5
 40
0.5078125
 40
0.515625
 40
0.53125
 40
0.5625
 40
0.625
 40
0.640625
 40
0.65625
 40
0.6640625
 40
0.671875
 40
0.6875
 40
0.71875
 40
0.75
 40
0.78125
 40
0.8125
 40
0.828125
 40
0.8359375
 40
0.84375
 40
0.859375
 40
0.875
 40
0.90625
 40
0.9375
 40
1.0
 40
1.0
 40
1.0
 40
1.0
 10
280.9039375949
 20
70.1751125391
 30
0.0
 10
280.9024841968
 20
70.1519516626
 30
0.0
 10
280.9002999223
 20
70.1172126058
 30
0.0
 10
280.8974042661
 20
70.0708848311
 30
0.0
 10
280.8955596689
 20
70.0419487893
 30
0.0
 10
280.8941633626
 20
70.0187570522
 30
0.0
 10
280.8931096484
 20
70.004360067
 30
0.0
 10
280.8926812889
 20
69.9926183636
 30
0.0
 10
280.8907393002
 20
69.9816948407
 30
0.0
 10
280.8866372468
 20
69.9629591048
 30
0.0
 10
280.8811474002
 20
69.9359927132
 30
0.0
 10
280.8743906487
 20
69.903728553
 30
0.0
 10
280.8677172722
 20
69.8714040416
 30
0.0
 10
280.8620189879
 20
69.8445885277
 30
0.0
 10
280.8582817006
 20
69.8255887559
 30
0.0
 10
280.8557560861
 20
69.8150876905
 30
0.0
 10
280.851762299
 20
69.8059268066
 30
0.0
 10
280.8472722156
 20
69.7940172767
 30
0.0
 10
280.8360798893
 20
69.7658147395
 30
0.0
 10
280.8231902434
 20
69.7327531774
 30
0.0
 10
280.8101605036
 20
69.6998346288
 30
0.0
 10
280.8037549337
 20
69.6832559954
 30
0.0
 10
280.7999272499
 20
69.6739666758
 30
0.0
 10
280.7975273329
 20
69.6664812329
 30
0.0
 10
280.7933277117
 20
69.6609775102
 30
0.0
 10
280.7883559903
 20
69.6529479134
 30
0.0
 10
280.7793628204
 20
69.6392187468
 30
0.0
 10
280.7615925586
 20
69.6115182052
 30
0.0
 10
280.7436964578
 20
69.5839804023
 30
0.0
 10
280.7284722565
 20
69.5602008514
 30
0.0
 10
280.7219965733
 20
69.5505080771
 30
0.0
 10
280.7171219336
 20
69.542254537
 30
0.0
 10
280.7111294794
 20
69.5358259819
 30
0.0
 10
280.7001229792
 20
69.5254243721
 30
0.0
 10
280.6846733848
 20
69.5101187758
 30
0.0
 10
280.6660066785
 20
69.4919544857
 30
0.0
 10
280.6474103805
 20
69.4736943398
 30
0.0
 10
280.6317847655
 20
69.4586283829
 30
0.0
 10
280.6210863013
 20
69.4478074041
 30
0.0
 10
280.6146009896
 20
69.4420498394
 30
0.0
 10
280.606715403
 20
69.4378954193
 30
0.0
 10
280.5973378723
 20
69.4321534795
 30
0.0
 10
280.5820658771
 20
69.4232731412
 30
0.0
 10
280.5630676676
 20
69.4120676364
 30
0.0
 10
280.5326190042
 20
69.3941978221
 30
0.0
 10
280.5097941005
 20
69.3807821878
 30
0.0
 10
280.4945749216
 20
69.3718413813
 30
0.0
  0
SPLINE
  5
4B0
100
AcDbEntity
  8
03___PRT_ALL_CURVES
100
AcDbSpline
 62
2
  6
CONTINUOUS
 70
0
 71
3
 72
39
 73
35
 74
0
 42
0.0000001
 43
0.0000001
 44
0.0000000001
 40
0.0
 40
0.0
 40
0.0
 40
0.0
 40
0.0625
 40
0.09375
 40
0.125
 40
0.140625
 40
0.15625
 40
0.1875
 40
0.21875
 40
0.25
 40
0.265625
 40
0.28125
 40
0.3125
 40
0.375
 40
0.40625
 40
0.4375
 40
0.46875
 40
0.5
 40
0.53125
 40
0.5625
 40
0.59375
 40
0.625
 40
0.6875
 40
0.71875
 40
0.734375
 40
0.75
 40
0.78125
 40
0.8125
 40
0.84375
 40
0.859375
 40
0.875
 40
0.90625
 40
0.9375
 40
1.0
 40
1.0
 40
1.0
 40
1.0
 10
267.208251353
 20
76.3397272256
 30
0.0
 10
267.2092393447
 20
76.3289860209
 30
0.0
 10
267.2107594681
 20
76.3128622036
 30
0.0
 10
267.2126337564
 20
76.2914118219
 30
0.0
 10
267.2141229844
 20
76.2779052471
 30
0.0
 10
267.2145897877
 20
76.2673281837
 30
0.0
 10
267.217700669
 20
76.2559184037
 30
0.0
 10
267.2212450292
 20
76.2417635073
 30
0.0
 10
267.2256619194
 20
76.2247311561
 30
0.0
 10
267.2292561231
 20
76.2105493434
 30
0.0
 10
267.2322573487
 20
76.1991987791
 30
0.0
 10
267.2348243544
 20
76.187859221
 30
0.0
 10
267.2436556637
 20
76.1679083784
 30
0.0
 10
267.2527915772
 20
76.1451429933
 30
0.0
 10
267.2621307623
 20
76.1223375142
 30
0.0
 10
267.2694823477
 20
76.1053181092
 30
0.0
 10
267.2796040406
 20
76.0889069077
 30
0.0
 10
267.2889494298
 20
76.0722956224
 30
0.0
 10
267.2986299263
 20
76.0558764686
 30
0.0
 10
267.3077462973
 20
76.0388888727
 30
0.0
 10
267.3187840628
 20
76.0239829136
 30
0.0
 10
267.3338319627
 20
76.0044504876
 30
0.0
 10
267.3489474876
 20
75.9851134666
 30
0.0
 10
267.3617789167
 20
75.9674560754
 30
0.0
 10
267.3703067645
 20
75.9595341088
 30
0.0
 10
267.3786254529
 20
75.951232342
 30
0.0
 10
267.3890980053
 20
75.9409936703
 30
0.0
 10
267.4016226858
 20
75.9286119881
 30
0.0
 10
267.4121022716
 20
75.918426791
 30
0.0
 10
267.4204054866
 20
75.9100073801
 30
0.0
 10
267.4294756269
 20
75.9041955099
 30
0.0
 10
267.4405505934
 20
75.8960374641
 30
0.0
 10
267.4584180255
 20
75.883486041
 30
0.0
 10
267.4717854153
 20
75.8739596473
 30
0.0
 10
267.4807043828
 20
75.8676337907
 30
0.0
  0
SPLINE
  5
4B1
100
AcDbEntity
  8
03___PRT_ALL_CURVES
100
AcDbSpline
 62
2
  6
CONTINUOUS
 70
0
 71
3
 72
51
 73
47
 74
0
 42
0.0000001
 43
0.0000001
 44
0.0000000001
 40
0.0
 40
0.0
 40
0.0
 40
0.0
 40
0.0625
 40
0.09375
 40
0.109375
 40
0.125
 40
0.140625
 40
0.15625
 40
0.1875
 40
0.21875
 40
0.234375
 40
0.25
 40
0.265625
 40
0.28125
 40
0.3125
 40
0.34375
 40
0.359375
 40
0.375
 40
0.390625
 40
0.40625
 40
0.4375
 40
0.46875
 40
0.484375
 40
0.5
 40
0.515625
 40
0.53125
 40
0.5625
 40
0.59375
 40
0.609375
 40
0.625
 40
0.640625
 40
0.65625
 40
0.6875
 40
0.71875
 40
0.734375
 40
0.75
 40
0.765625
 40
0.78125
 40
0.8125
 40
0.84375
 40
0.859375
 40
0.875
 40
0.890625
 40
0.90625
 40
0.9375
 40
1.0
 40
1.0
 40
1.0
 40
1.0
 10
265.0942840171
 20
77.5601992837
 30
0.0
 10
265.0951493537
 20
77.549508986
 30
0.0
 10
265.0964884488
 20
77.5334592146
 30
0.0
 10
265.0979069102
 20
77.5147846188
 30
0.0
 10
265.0989229114
 20
77.5040417961
 30
0.0
 10
265.0991096472
 20
77.4961852296
 30
0.0
 10
265.1014947174
 20
77.4875622733
 30
0.0
 10
265.1039036569
 20
77.4763330586
 30
0.0
 10
265.1072026503
 20
77.4622020624
 30
0.0
 10
265.1103143106
 20
77.4481139022
 30
0.0
 10
265.1130229832
 20
77.4368161499
 30
0.0
 10
265.1145088543
 20
77.4283988065
 30
0.0
 10
265.1180675866
 20
77.4197711919
 30
0.0
 10
265.1220853357
 20
77.4083410071
 30
0.0
 10
265.1273795739
 20
77.3940291931
 30
0.0
 10
265.1324946389
 20
77.3797220846
 30
0.0
 10
265.1367990652
 20
77.3682843711
 30
0.0
 10
265.1394977658
 20
77.3596793427
 30
0.0
 10
265.144208756
 20
77.351177301
 30
0.0
 10
265.1497848348
 20
77.3398034693
 30
0.0
 10
265.1570135202
 20
77.3256120334
 30
0.0
 10
265.1640894102
 20
77.3113644028
 30
0.0
 10
265.1699099615
 20
77.3000804825
 30
0.0
 10
265.1738875344
 20
77.2913087067
 30
0.0
 10
265.1793365499
 20
77.283715181
 30
0.0
 10
265.1860859505
 20
77.273176673
 30
0.0
 10
265.1947137459
 20
77.2601614661
 30
0.0
 10
265.2032223041
 20
77.2470318052
 30
0.0
 10
265.2101624842
 20
77.2366764236
 30
0.0
 10
265.2150391611
 20
77.2285335186
 30
0.0
 10
265.2211630041
 20
77.2218219151
 30
0.0
 10
265.2288911142
 20
77.2123701956
 30
0.0
 10
265.2387109416
 20
77.2007491531
 30
0.0
 10
265.2484382771
 20
77.188982327
 30
0.0
 10
265.2563143742
 20
77.1797638613
 30
0.0
 10
265.261994256
 20
77.1723524964
 30
0.0
 10
265.2685357877
 20
77.1668336966
 30
0.0
 10
265.2769558221
 20
77.1588108281
 30
0.0
 10
265.2875918002
 20
77.1490343456
 30
0.0
 10
265.2981615476
 20
77.1390800362
 30
0.0
 10
265.3066875511
 20
77.1313416908
 30
0.0
 10
265.3129111753
 20
77.1249693216
 30
0.0
 10
265.3197832105
 20
77.1207588418
 30
0.0
 10
265.3287196872
 20
77.1143905646
 30
0.0
 10
265.34446457
 20
77.1035996596
 30
0.0
 10
265.3579238244
 20
77.094229085
 30
0.0
 10
265.3669047405
 20
77.0880089746
 30
0.0
  0
SPLINE
  5
4B2
100
AcDbEntity
  8
03___PRT_ALL_CURVES
100
AcDbSpline
 62
2
  6
CONTINUOUS
 70
0
 71
3
 72
51
 73
47
 74
0
 42
0.0000001
 43
0.0000001
 44
0.0000000001
 40
0.0
 40
0.0
 40
0.0
 40
0.0
 40
0.0625
 40
0.09375
 40
0.109375
 40
0.125
 40
0.140625
 40
0.15625
 40
0.1875
 40
0.21875
 40
0.234375
 40
0.25
 40
0.265625
 40
0.28125
 40
0.3125
 40
0.34375
 40
0.359375
 40
0.375
 40
0.390625
 40
0.40625
 40
0.4375
 40
0.46875
 40
0.484375
 40
0.5
 40
0.515625
 40
0.53125
 40
0.5625
 40
0.59375
 40
0.609375
 40
0.625
 40
0.640625
 40
0.65625
 40
0.6875
 40
0.71875
 40
0.734375
 40
0.75
 40
0.765625
 40
0.78125
 40
0.8125
 40
0.84375
 40
0.859375
 40
0.875
 40
0.890625
 40
0.90625
 40
0.9375
 40
1.0
 40
1.0
 40
1.0
 40
1.0
 10
264.1090938186
 20
81.5118991135
 30
0.0
 10
264.1099560739
 20
81.5012468808
 30
0.0
 10
264.1112904016
 20
81.4852542562
 30
0.0
 10
264.1127038107
 20
81.4666461588
 30
0.0
 10
264.1137161968
 20
81.4559415821
 30
0.0
 10
264.1139022598
 20
81.4481130086
 30
0.0
 10
264.1162788669
 20
81.439520688
 30
0.0
 10
264.1186790822
 20
81.4283317961
 30
0.0
 10
264.1219674479
 20
81.4142485326
 30
0.0
 10
264.1250641701
 20
81.400219444
 30
0.0
 10
264.1277710149
 20
81.3889438724
 30
0.0
 10
264.1292277336
 20
81.380611591
 30
0.0
 10
264.1328633782
 20
81.3718078706
 30
0.0
 10
264.1369469803
 20
81.3602333188
 30
0.0
 10
264.1423335982
 20
81.3457156613
 30
0.0
 10
264.1475466599
 20
81.3311911973
 30
0.0
 10
264.1519079521
 20
81.3196275358
 30
0.0
 10
264.1547105262
 20
81.3107911446
 30
0.0
 10
264.1592912592
 20
81.3025813788
 30
0.0
 10
264.1647752906
 20
81.2914147203
 30
0.0
 10
264.1718620275
 20
81.2775421138
 30
0.0
 10
264.1788014894
 20
81.2636020207
 30
0.0
 10
264.1845211607
 20
81.252543341
 30
0.0
 10
264.1883949737
 20
81.2440096387
 30
0.0
 10
264.1938484977
 20
81.236388009
 30
0.0
 10
264.2005658042
 20
81.2259053308
 30
0.0
 10
264.2091686009
 20
81.2129255918
 30
0.0
 10
264.217639317
 20
81.199852049
 30
0.0
 10
264.2245679526
 20
81.189519457
 30
0.0
 10
264.2293874893
 20
81.1814475684
 30
0.0
 10
264.2356387545
 20
81.1746023369
 30
0.0
 10
264.2434725589
 20
81.1650435886
 30
0.0
 10
264.2534446127
 20
81.1532668079
 30
0.0
 10
264.2633239931
 20
81.1413431248
 30
0.0
 10
264.271306075
 20
81.1320194203
 30
0.0
 10
264.2771125075
 20
81.1244690575
 30
0.0
 10
264.2836001671
 20
81.1190414114
 30
0.0
 10
264.2920114107
 20
81.1110596825
 30
0.0
 10
264.3026146659
 20
81.1013622355
 30
0.0
 10
264.3131598299
 20
81.0914770164
 30
0.0
 10
264.3216640195
 20
81.0837957229
 30
0.0
 10
264.3278728411
 20
81.0774667705
 30
0.0
 10
264.3347249156
 20
81.0732963064
 30
0.0
 10
264.3436365779
 20
81.0669825702
 30
0.0
 10
264.3593371916
 20
81.0562865556
 30
0.0
 10
264.3727587903
 20
81.0469975064
 30
0.0
 10
264.3817145384
 20
81.0408317039
 30
0.0
  0
SPLINE
  5
4B3
100
AcDbEntity
  8
03___PRT_ALL_CURVES
100
AcDbSpline
 62
2
  6
CONTINUOUS
 70
0
 71
3
 72
123
 73
119
 74
0
 42
0.0000001
 43
0.0000001
 44
0.0000000001
 40
0.0
 40
0.0
 40
0.0
 40
0.0
 40
0.03125
 40
0.0625
 40
0.078125
 40
0.09375
 40
0.1015625
 40
0.109375
 40
0.1171875
 40
0.12109375
 40
0.123046875
 40
0.125
 40
0.126953125
 40
0.12890625
 40
0.1328125
 40
0.140625
 40
0.1484375
 40
0.15625
 40
0.171875
 40
0.1875
 40
0.203125
 40
0.21875
 40
0.2265625
 40
0.234375
 40
0.2421875
 40
0.24609375
 40
0.248046875
 40
0.25
 40
0.251953125
 40
0.25390625
 40
0.2578125
 40
0.265625
 40
0.2734375
 40
0.28125
 40
0.296875
 40
0.3125
 40
0.328125
 40
0.34375
 40
0.3515625
 40
0.359375
 40
0.3671875
 40
0.37109375
 40
0.373046875
 40
0.375
 40
0.376953125
 40
0.37890625
 40
0.3828125
 40
0.390625
 40
0.3984375
 40
0.40625
 40
0.421875
 40
0.4375
 40
0.453125
 40
0.46875
 40
0.4765625
 40
0.484375
 40
0.4921875
 40
0.49609375
 40
0.498046875
 40
0.5
 40
0.501953125
 40
0.50390625
 40
0.5078125
 40
0.515625
 40
0.5234375
 40
0.53125
 40
0.546875
 40
0.5625
 40
0.578125
 40
0.59375
 40
0.6015625
 40
0.609375
 40
0.6171875
 40
0.62109375
 40
0.623046875
 40
0.625
 40
0.626953125
 40
0.62890625
 40
0.6328125
 40
0.640625
 40
0.6484375
 40
0.65625
 40
0.671875
 40
0.6875
 40
0.703125
 40
0.71875
 40
0.7265625
 40
0.734375
 40
0.7421875
 40
0.74609375
 40
0.748046875
 40
0.75
 40
0.751953125
 40
0.75390625
 40
0.7578125
 40
0.765625
 40
0.7734375
 40
0.78125
 40
0.796875
 40
0.8125
 40
0.828125
 40
0.84375
 40
0.8515625
 40
0.859375
 40
0.8671875
 40
0.87109375
 40
0.873046875
 40
0.875
 40
0.876953125
 40
0.87890625
 40
0.8828125
 40
0.890625
 40
0.8984375
 40
0.90625
 40
0.921875
 40
0.9375
 40
0.96875
 40
1.0
 40
1.0
 40
1.0
 40
1.0
 10
299.8273018805
 20
56.8845605599
 30
0.0
 10
299.824599859
 20
56.8542999585
 30
0.0
 10
299.8191957061
 20
56.793778844
 30
0.0
 10
299.8124410638
 20
56.7181270085
 30
0.0
 10
299.8070361975
 20
56.6576064691
 30
0.0
 10
299.803660763
 20
56.6197790308
 30
0.0
 10
299.8009544468
 20
56.5895218907
 30
0.0
 10
299.7989410513
 20
56.5668158646
 30
0.0
 10
299.7972112362
 20
56.5479360753
 30
0.0
 10
299.7961023859
 20
56.534637997
 30
0.0
 10
299.795309461
 20
56.5271674838
 30
0.0
 10
299.795163507
 20
56.521202926
 30
0.0
 10
299.7933022421
 20
56.5166208655
 30
0.0
 10
299.7914188753
 20
56.510029221
 30
0.0
 10
299.787844215
 20
56.4987185233
 30
0.0
 10
299.7828833011
 20
56.482442918
 30
0.0
 10
299.7768678197
 20
56.4629624724
 30
0.0
 10
299.7688689763
 20
56.4369709743
 30
0.0
 10
299.7588628957
 20
56.4044876796
 30
0.0
 10
299.7468590274
 20
56.3655049079
 30
0.0
 10
299.7348534877
 20
56.3265236838
 30
0.0
 10
299.7248515858
 20
56.2940365198
 30
0.0
 10
299.716844385
 20
56.2680527603
 30
0.0
 10
299.7108543937
 20
56.2485487119
 30
0.0
 10
299.7058137364
 20
56.232346946
 30
0.0
 10
299.7023814302
 20
56.2209044337
 30
0.0
 10
299.7002699764
 20
56.2145239892
 30
0.0
 10
299.6991093214
 20
56.20929319
 30
0.0
 10
299.6963319931
 20
56.2057651872
 30
0.0
 10
299.6931928025
 20
56.200467229
 30
0.0
 10
299.6874364809
 20
56.1914725366
 30
0.0
 10
299.6793505272
 20
56.1784782957
 30
0.0
 10
299.6695885854
 20
56.1629471364
 30
0.0
 10
299.6565932081
 20
56.1422172834
 30
0.0
 10
299.6403418917
 20
56.116312447
 30
0.0
 10
299.6208435495
 20
56.0852232006
 30
0.0
 10
299.6013436089
 20
56.0541357577
 30
0.0
 10
299.5850962884
 20
56.0282264125
 30
0.0
 10
299.5720929193
 20
56.0075055772
 30
0.0
 10
299.5623553526
 20
55.9919469137
 30
0.0
 10
299.5541931434
 20
55.9790387173
 30
0.0
 10
299.5485729495
 20
55.9698904224
 30
0.0
 10
299.5452156483
 20
55.9648385738
 30
0.0
 10
299.5431082856
 20
55.9605546011
 30
0.0
 10
299.5394313512
 20
55.9581630995
 30
0.0
 10
299.5350762562
 20
55.9543143155
 30
0.0
 10
299.5271997569
 20
55.9478865035
 30
0.0
 10
299.5160809756
 20
55.9385431186
 30
0.0
 10
299.5026813541
 20
55.9273998849
 30
0.0
 10
299.484835137
 20
55.9125181883
 30
0.0
 10
299.4625204888
 20
55.8939243849
 30
0.0
 10
299.4357460025
 20
55.8716079751
 30
0.0
 10
299.4089701531
 20
55.8492936405
 30
0.0
 10
299.3866589125
 20
55.8306946492
 30
0.0
 10
299.3688058802
 20
55.8158233284
 30
0.0
 10
299.355427045
 20
55.8046484487
 30
0.0
 10
299.3442432358
 20
55.7954040656
 30
0.0
 10
299.3364828211
 20
55.7887995203
 30
0.0
 10
299.3319417293
 20
55.7852339074
 30
0.0
 10
299.3288361175
 20
55.781972595
 30
0.0
 10
299.3245829623
 20
55.7809554871
 30
0.0
 10
299.3193123647
 20
55.7788165395
 30
0.0
 10
299.3099023229
 20
55.7754381041
 30
0.0
 10
299.2965569084
 20
55.7704210861
 30
0.0
 10
299.2805006759
 20
55.7644822848
 30
0.0
 10
299.2591069485
 20
55.7565353628
 30
0.0
 10
299.2323597575
 20
55.7466115608
 30
0.0
 10
299.2002654069
 20
55.734698496
 30
0.0
 10
299.1681699926
 20
55.7227876804
 30
0.0
 10
299.1414254606
 20
55.7128582554
 30
0.0
 10
299.1200264151
 20
55.7049225795
 30
0.0
 10
299.103986403
 20
55.6989494776
 30
0.0
 10
299.0905902443
 20
55.694039766
 30
0.0
 10
299.0812707887
 20
55.6904697723
 30
0.0
 10
299.0758550493
 20
55.6886377491
 30
0.0
 10
299.0720477232
 20
55.686677868
 30
0.0
 10
299.0672676514
 20
55.6869574552
 30
0.0
 10
299.0612335268
 20
55.6865490866
 30
0.0
 10
299.0505157206
 20
55.6861983945
 30
0.0
 10
299.0352872193
 20
55.6855071266
 30
0.0
 10
299.01697764
 20
55.684759053
 30
0.0
 10
298.9925772282
 20
55.6837331616
 30
0.0
 10
298.9620724528
 20
55.6824606276
 30
0.0
 10
298.9254686328
 20
55.6809290914
 30
0.0
 10
298.8888639878
 20
55.6793998083
 30
0.0
 10
298.8583612751
 20
55.6781216414
 30
0.0
 10
298.833956738
 20
55.6771070157
 30
0.0
 10
298.815659741
 20
55.6763245816
 30
0.0
 10
298.8003918769
 20
55.6757408077
 30
0.0
 10
298.7897443393
 20
55.6751982224
 30
0.0
 10
298.7835976268
 20
55.6750973147
 30
0.0
 10
298.779163389
 20
55.6744324806
 30
0.0
 10
298.7740571675
 20
55.6760196895
 30
0.0
 10
298.7674832675
 20
55.6773504302
 30
0.0
 10
298.7558697334
 20
55.6800452232
 30
0.0
 10
298.7393360664
 20
55.6837035797
 30
0.0
 10
298.7194712264
 20
55.6881755129
 30
0.0
 10
298.6929933123
 20
55.6941094705
 30
0.0
 10
298.6598929749
 20
55.7015368033
 30
0.0
 10
298.6201738957
 20
55.710445081
 30
0.0
 10
298.5804542256
 20
55.7193556278
 30
0.0
 10
298.5473553654
 20
55.7267772881
 30
0.0
 10
298.5208744969
 20
55.7327225907
 30
0.0
 10
298.5010186677
 20
55.7371599218
 30
0.0
 10
298.4844568113
 20
55.7409265277
 30
0.0
 10
298.4728935995
 20
55.743428079
 30
0.0
 10
298.4662390706
 20
55.7450684414
 30
0.0
 10
298.4613805154
 20
55.7457045917
 30
0.0
 10
298.4560160839
 20
55.7486117757
 30
0.0
 10
298.4490399639
 20
55.751695859
 30
0.0
 10
298.4367495402
 20
55.7574620878
 30
0.0
 10
298.4192347742
 20
55.7655065967
 30
0.0
 10
298.3981986573
 20
55.7752426008
 30
0.0
 10
298.3701569273
 20
55.7881950914
 30
0.0
 10
298.3351025646
 20
55.8043955825
 30
0.0
 10
298.2790168143
 20
55.8303108458
 30
0.0
 10
298.2089092016
 20
55.8627068324
 30
0.0
 10
298.152823241
 20
55.8886230403
 30
0.0
 10
298.1247802445
 20
55.901581217
 30
0.0
  0
SPLINE
  5
4B4
100
AcDbEntity
  8
03___PRT_ALL_CURVES
100
AcDbSpline
 62
2
  6
CONTINUOUS
 70
0
 71
3
 72
105
 73
101
 74
0
 42
0.0000001
 43
0.0000001
 44
0.0000000001
 40
0.0
 40
0.0
 40
0.0
 40
0.0
 40
0.03125
 40
0.0625
 40
0.078125
 40
0.09375
 40
0.1015625
 40
0.109375
 40
0.1171875
 40
0.12109375
 40
0.123046875
 40
0.125
 40
0.126953125
 40
0.12890625
 40
0.1328125
 40
0.140625
 40
0.1484375
 40
0.15625
 40
0.171875
 40
0.1875
 40
0.203125
 40
0.21875
 40
0.2265625
 40
0.234375
 40
0.2421875
 40
0.24609375
 40
0.25
 40
0.25390625
 40
0.2578125
 40
0.265625
 40
0.2734375
 40
0.28125
 40
0.296875
 40
0.3125
 40
0.328125
 40
0.34375
 40
0.359375
 40
0.3671875
 40
0.37109375
 40
0.375
 40
0.37890625
 40
0.3828125
 40
0.390625
 40
0.40625
 40
0.421875
 40
0.4375
 40
0.453125
 40
0.46875
 40
0.484375
 40
0.4921875
 40
0.49609375
 40
0.5
 40
0.50390625
 40
0.5078125
 40
0.515625
 40
0.53125
 40
0.546875
 40
0.5625
 40
0.578125
 40
0.59375
 40
0.609375
 40
0.6171875
 40
0.62109375
 40
0.625
 40
0.62890625
 40
0.6328125
 40
0.640625
 40
0.65625
 40
0.671875
 40
0.6875
 40
0.703125
 40
0.71875
 40
0.734375
 40
0.7421875
 40
0.74609375
 40
0.75
 40
0.75390625
 40
0.7578125
 40
0.765625
 40
0.78125
 40
0.796875
 40
0.8125
 40
0.828125
 40
0.84375
 40
0.8515625
 40
0.859375
 40
0.8671875
 40
0.87109375
 40
0.873046875
 40
0.875
 40
0.876953125
 40
0.87890625
 40
0.8828125
 40
0.890625
 40
0.8984375
 40
0.90625
 40
0.921875
 40
0.9375
 40
0.96875
 40
1.0
 40
1.0
 40
1.0
 40
1.0
 10
298.1585485561
 20
65.0202308143
 30
0.0
 10
298.1857376238
 20
65.0012267549
 30
0.0
 10
298.240115737
 20
64.9632185241
 30
0.0
 10
298.3080884897
 20
64.9157087962
 30
0.0
 10
298.3624664583
 20
64.8776998365
 30
0.0
 10
298.3964532169
 20
64.8539468997
 30
0.0
 10
298.4236414145
 20
64.8349384534
 30
0.0
 10
298.4440358737
 20
64.8206988115
 30
0.0
 10
298.4610207236
 20
64.808779341
 30
0.0
 10
298.4729307887
 20
64.8005399232
 30
0.0
 10
298.4797042654
 20
64.7956689668
 30
0.0
 10
298.4848752915
 20
64.7924741275
 30
0.0
 10
298.4896987809
 20
64.7875271354
 30
0.0
 10
298.4962513249
 20
64.7815423164
 30
0.0
 10
298.5076617959
 20
64.7707841276
 30
0.0
 10
298.5239919974
 20
64.7555641592
 30
0.0
 10
298.5435756012
 20
64.737236478
 30
0.0
 10
298.5696914816
 20
64.7128218096
 30
0.0
 10
298.6023348624
 20
64.6822959734
 30
0.0
 10
298.6415073604
 20
64.6456676133
 30
0.0
 10
298.680680446
 20
64.6090406806
 30
0.0
 10
298.7133223575
 20
64.5785112762
 30
0.0
 10
298.7394411766
 20
64.5541037441
 30
0.0
 10
298.7590158171
 20
64.5357542972
 30
0.0
 10
298.7753740597
 20
64.5206024212
 30
0.0
 10
298.7883573894
 20
64.5081684278
 30
0.0
 10
298.7983770543
 20
64.4996968126
 30
0.0
 10
298.807319681
 20
64.4879659244
 30
0.0
 10
298.8196194064
 20
64.4734632464
 30
0.0
 10
298.834864985
 20
64.4549442847
 30
0.0
 10
298.85321492
 20
64.4328887194
 30
0.0
 10
298.87766225
 20
64.4034229361
 30
0.0
 10
298.9082276857
 20
64.3666104565
 30
0.0
 10
298.9449049718
 20
64.3224282278
 30
0.0
 10
298.9815771678
 20
64.2782434127
 30
0.0
 10
299.0182709609
 20
64.2340761961
 30
0.0
 10
299.0487813731
 20
64.1972136762
 30
0.0
 10
299.0702714853
 20
64.1715208756
 30
0.0
 10
299.0823441763
 20
64.1566660043
 30
0.0
 10
299.0919828643
 20
64.1460129598
 30
0.0
 10
299.0993885599
 20
64.1334941147
 30
0.0
 10
299.1100417149
 20
64.1174531346
 30
0.0
 10
299.1283218199
 20
64.0890781815
 30
0.0
 10
299.1546261134
 20
64.0487011664
 30
0.0
 10
299.1861094715
 20
64.0001804286
 30
0.0
 10
299.2176162332
 20
63.9516791583
 30
0.0
 10
299.2491111743
 20
63.9031683374
 30
0.0
 10
299.2806299947
 20
63.8546762516
 30
0.0
 10
299.306825931
 20
63.8142116886
 30
0.0
 10
299.3252991086
 20
63.7859927301
 30
0.0
 10
299.3356429535
 20
63.7697018402
 30
0.0
 10
299.3439987435
 20
63.7579506321
 30
0.0
 10
299.3500690362
 20
63.7444144718
 30
0.0
 10
299.3589599687
 20
63.7269888697
 30
0.0
 10
299.374147647
 20
63.696203976
 30
0.0
 10
299.396038685
 20
63.6523772477
 30
0.0
 10
299.4222240646
 20
63.599720119
 30
0.0
 10
299.4484339405
 20
63.5470805034
 30
0.0
 10
299.4746296973
 20
63.4944358901
 30
0.0
 10
299.5008574342
 20
63.4417937546
 30
0.0
 10
299.5226190471
 20
63.3979212137
 30
0.0
 10
299.5380373374
 20
63.3672179498
 30
0.0
 10
299.5465588201
 20
63.3496615735
 30
0.0
 10
299.5537639356
 20
63.3365271064
 30
0.0
 10
299.5578575217
 20
63.3232672058
 30
0.0
 10
299.5644009748
 20
63.305631091
 30
0.0
 10
299.5753463179
 20
63.2747475045
 30
0.0
 10
299.5912470748
 20
63.2306387562
 30
0.0
 10
299.6102140165
 20
63.1777036812
 30
0.0
 10
299.6292135405
 20
63.1247698568
 30
0.0
 10
299.6481967017
 20
63.0718356069
 30
0.0
 10
299.6672127321
 20
63.0189018083
 30
0.0
 10
299.6829634959
 20
62.9747891598
 30
0.0
 10
299.6941760994
 20
62.9439125227
 30
0.0
 10
299.7002913904
 20
62.9262652747
 30
0.0
 10
299.7057001434
 20
62.9130395716
 30
0.0
 10
299.707965713
 20
62.8997766641
 30
0.0
 10
299.7120828507
 20
62.8821057647
 30
0.0
 10
299.7187770119
 20
62.8511756451
 30
0.0
 10
299.7286072226
 20
62.8069929157
 30
0.0
 10
299.740288895
 20
62.753972311
 30
0.0
 10
299.7520014916
 20
62.7009519748
 30
0.0
 10
299.7637049721
 20
62.6479318938
 30
0.0
 10
299.7734624892
 20
62.6037474187
 30
0.0
 10
299.7812619809
 20
62.5684022893
 30
0.0
 10
299.7871283957
 20
62.5418867349
 30
0.0
 10
299.7919638053
 20
62.5198117764
 30
0.0
 10
299.7954531095
 20
62.5043174324
 30
0.0
 10
299.7972838057
 20
62.4955289028
 30
0.0
 10
299.7991165416
 20
62.4887533257
 30
0.0
 10
299.7991920182
 20
62.4826817775
 30
0.0
 10
299.7999056054
 20
62.4743408068
 30
0.0
 10
299.8008687975
 20
62.459858525
 30
0.0
 10
299.8023940935
 20
62.4391097326
 30
0.0
 10
299.8041605404
 20
62.4142367859
 30
0.0
 10
299.8065381248
 20
62.381063914
 30
0.0
 10
299.809502462
 20
62.3396008862
 30
0.0
 10
299.8142496748
 20
62.2732583298
 30
0.0
 10
299.8201822148
 20
62.1903307257
 30
0.0
 10
299.8249286967
 20
62.1239884621
 30
0.0
 10
299.8273018814
 20
62.0908173529
 30
0.0
  0
SPLINE
  5
4B5
100
AcDbEntity
  8
03___PRT_ALL_CURVES
100
AcDbSpline
 62
2
  6
CONTINUOUS
 70
0
 71
3
 72
101
 73
97
 74
0
 42
0.0000001
 43
0.0000001
 44
0.0000000001
 40
0.0
 40
0.0
 40
0.0
 40
0.0
 40
0.03125
 40
0.0625
 40
0.09375
 40
0.109375
 40
0.1171875
 40
0.125
 40
0.1328125
 40
0.13671875
 40
0.140625
 40
0.142578125
 40
0.14453125
 40
0.1484375
 40
0.15625
 40
0.171875
 40
0.1875
 40
0.21875
 40
0.234375
 40
0.25
 40
0.2578125
 40
0.265625
 40
0.2734375
 40
0.28125
 40
0.283203125
 40
0.28515625
 40
0.2890625
 40
0.29296875
 40
0.296875
 40
0.3046875
 40
0.3125
 40
0.34375
 40
0.375
 40
0.390625
 40
0.40625
 40
0.4140625
 40
0.421875
 40
0.42578125
 40
0.427734375
 40
0.4287109375
 40
0.4296875
 40
0.431640625
 40
0.43359375
 40
0.4375
 40
0.4453125
 40
0.453125
 40
0.46875
 40
0.484375
 40
0.5
 40
0.515625
 40
0.53125
 40
0.546875
 40
0.5546875
 40
0.5625
 40
0.56640625
 40
0.568359375
 40
0.5703125
 40
0.5712890625
 40
0.572265625
 40
0.57421875
 40
0.578125
 40
0.5859375
 40
0.59375
 40
0.609375
 40
0.625
 40
0.65625
 40
0.6875
 40
0.6953125
 40
0.703125
 40
0.70703125
 40
0.7109375
 40
0.71484375
 40
0.716796875
 40
0.71875
 40
0.7265625
 40
0.734375
 40
0.7421875
 40
0.75
 40
0.765625
 40
0.78125
 40
0.8125
 40
0.828125
 40
0.84375
 40
0.8515625
 40
0.85546875
 40
0.857421875
 40
0.859375
 40
0.86328125
 40
0.8671875
 40
0.875
 40
0.8828125
 40
0.890625
 40
0.90625
 40
0.9375
 40
0.96875
 40
1.0
 40
1.0
 40
1.0
 40
1.0
 10
260.9362670065
 20
84.5440586398
 30
0.0
 10
260.9393525737
 20
84.5740413458
 30
0.0
 10
260.9455238093
 20
84.6340066728
 30
0.0
 10
260.9547800561
 20
84.7239551727
 30
0.0
 10
260.9624953642
 20
84.7989107705
 30
0.0
 10
260.9678926301
 20
84.8513825857
 30
0.0
 10
260.9709821652
 20
84.8813619599
 30
0.0
 10
260.9732841528
 20
84.9038592232
 30
0.0
 10
260.9752507784
 20
84.922566384
 30
0.0
 10
260.9767157346
 20
84.9376230871
 30
0.0
 10
260.9778780414
 20
84.9468263698
 30
0.0
 10
260.978242871
 20
84.9546634283
 30
0.0
 10
260.9806703967
 20
84.9607684831
 30
0.0
 10
260.984559035
 20
84.9717542204
 30
0.0
 10
260.9925915382
 20
84.9935113862
 30
0.0
 10
261.0039333522
 20
85.0247048909
 30
0.0
 10
261.0221548408
 20
85.0745518584
 30
0.0
 10
261.0403550218
 20
85.1244167801
 30
0.0
 10
261.0585631861
 20
85.1742748193
 30
0.0
 10
261.069941087
 20
85.2054383384
 30
0.0
 10
261.0790466961
 20
85.2303654872
 30
0.0
 10
261.0858673589
 20
85.2490705015
 30
0.0
 10
261.0927205533
 20
85.2677387382
 30
0.0
 10
261.0977692625
 20
85.2818430089
 30
0.0
 10
261.1012768802
 20
85.2910855271
 30
0.0
 10
261.1032776552
 20
85.2976289308
 30
0.0
 10
261.1082399943
 20
85.3030254125
 30
0.0
 10
261.1136198144
 20
85.3101512586
 30
0.0
 10
261.1209937224
 20
85.31942535
 30
0.0
 10
261.1301424662
 20
85.3310955688
 30
0.0
 10
261.1521559625
 20
85.3590402004
 30
0.0
 10
261.185152232
 20
85.4009842974
 30
0.0
 10
261.2218271241
 20
85.4475746742
 30
0.0
 10
261.2511629219
 20
85.484852037
 30
0.0
 10
261.2695019002
 20
85.5081448231
 30
0.0
 10
261.2841642606
 20
85.5267911441
 30
0.0
 10
261.293348239
 20
85.5384176473
 30
0.0
 10
261.2997369472
 20
85.5466111941
 30
0.0
 10
261.3029861654
 20
85.5506326805
 30
0.0
 10
261.3047545341
 20
85.5530518798
 30
0.0
 10
261.3074097256
 20
85.5542541392
 30
0.0
 10
261.3104251076
 20
85.5561735877
 30
0.0
 10
261.3154191605
 20
85.5590121896
 30
0.0
 10
261.3240798174
 20
85.5640880621
 30
0.0
 10
261.3364933694
 20
85.5712827924
 30
0.0
 10
261.3563320338
 20
85.5828259488
 30
0.0
 10
261.3811382658
 20
85.5972440492
 30
0.0
 10
261.4109023454
 20
85.6145504443
 30
0.0
 10
261.4406673775
 20
85.6318554931
 30
0.0
 10
261.4704319983
 20
85.6491612527
 30
0.0
 10
261.5001973121
 20
85.6664655151
 30
0.0
 10
261.5249997729
 20
85.6808901322
 30
0.0
 10
261.5448461167
 20
85.6924200183
 30
0.0
 10
261.5572401273
 20
85.6996485167
 30
0.0
 10
261.5659358818
 20
85.7046637399
 30
0.0
 10
261.5708736756
 20
85.7075995584
 30
0.0
 10
261.5740330693
 20
85.7092701523
 30
0.0
 10
261.5763925323
 20
85.7109834357
 30
0.0
 10
261.5793655849
 20
85.7113209201
 30
0.0
 10
261.5844614784
 20
85.7121513192
 30
0.0
 10
261.5947291858
 20
85.7136418875
 30
0.0
 10
261.609357727
 20
85.7158600905
 30
0.0
 10
261.6327855348
 20
85.7193595648
 30
0.0
 10
261.6620626796
 20
85.7237510072
 30
0.0
 10
261.7089105627
 20
85.7307671797
 30
0.0
 10
261.7674674919
 20
85.7395450128
 30
0.0
 10
261.8201742489
 20
85.7474290416
 30
0.0
 10
261.855304348
 20
85.7527079538
 30
0.0
 10
261.869953254
 20
85.7548737958
 30
0.0
 10
261.8816458773
 20
85.7566850714
 30
0.0
 10
261.8904880306
 20
85.7578279449
 30
0.0
 10
261.8976252476
 20
85.7594661996
 30
0.0
 10
261.9042853218
 20
85.7579582526
 30
0.0
 10
261.914031014
 20
85.7564212685
 30
0.0
 10
261.9287522113
 20
85.7538113104
 30
0.0
 10
261.9483217981
 20
85.7505053979
 30
0.0
 10
261.9679070838
 20
85.7471529206
 30
0.0
 10
261.9940153059
 20
85.7426992539
 30
0.0
 10
262.0266525272
 20
85.7371263099
 30
0.0
 10
262.078870626
 20
85.7282145017
 30
0.0
 10
262.1310912367
 20
85.719292034
 30
0.0
 10
262.1833054032
 20
85.710397868
 30
0.0
 10
262.2159532747
 20
85.704777143
 30
0.0
 10
262.2387787576
 20
85.7009663742
 30
0.0
 10
262.2502298603
 20
85.698891623
 30
0.0
 10
262.2567115894
 20
85.6979787169
 30
0.0
 10
262.2638133732
 20
85.6943282293
 30
0.0
 10
262.2724782955
 20
85.6907024712
 30
0.0
 10
262.2864608299
 20
85.684377372
 30
0.0
 10
262.3038982871
 20
85.6766507391
 30
0.0
 10
262.3248406596
 20
85.6673018519
 30
0.0
 10
262.3527577452
 20
85.6548635023
 30
0.0
 10
262.401615477
 20
85.6330838879
 30
0.0
 10
262.4714107552
 20
85.6019766936
 30
0.0
 10
262.5551657272
 20
85.5646452429
 30
0.0
 10
262.6110022536
 20
85.5397581458
 30
0.0
 10
262.638920532
 20
85.5273145302
 30
0.0
  0
SPLINE
  5
4B6
100
AcDbEntity
  8
03___PRT_ALL_CURVES
100
AcDbSpline
 62
2
  6
CONTINUOUS
 70
0
 71
3
 72
105
 73
101
 74
0
 42
0.0000001
 43
0.0000001
 44
0.0000000001
 40
0.0
 40
0.0
 40
0.0
 40
0.0
 40
0.03125
 40
0.0625
 40
0.078125
 40
0.09375
 40
0.1015625
 40
0.109375
 40
0.1171875
 40
0.12109375
 40
0.123046875
 40
0.125
 40
0.126953125
 40
0.12890625
 40
0.1328125
 40
0.140625
 40
0.1484375
 40
0.15625
 40
0.171875
 40
0.1875
 40
0.203125
 40
0.21875
 40
0.2265625
 40
0.234375
 40
0.2421875
 40
0.24609375
 40
0.25
 40
0.25390625
 40
0.2578125
 40
0.265625
 40
0.2734375
 40
0.28125
 40
0.296875
 40
0.3125
 40
0.328125
 40
0.34375
 40
0.359375
 40
0.3671875
 40
0.37109375
 40
0.375
 40
0.37890625
 40
0.3828125
 40
0.390625
 40
0.40625
 40
0.421875
 40
0.4375
 40
0.453125
 40
0.46875
 40
0.484375
 40
0.4921875
 40
0.49609375
 40
0.5
 40
0.50390625
 40
0.5078125
 40
0.515625
 40
0.53125
 40
0.546875
 40
0.5625
 40
0.578125
 40
0.59375
 40
0.609375
 40
0.6171875
 40
0.62109375
 40
0.625
 40
0.62890625
 40
0.6328125
 40
0.640625
 40
0.65625
 40
0.671875
 40
0.6875
 40
0.703125
 40
0.71875
 40
0.734375
 40
0.7421875
 40
0.74609375
 40
0.75
 40
0.75390625
 40
0.7578125
 40
0.765625
 40
0.78125
 40
0.796875
 40
0.8125
 40
0.828125
 40
0.84375
 40
0.8515625
 40
0.859375
 40
0.8671875
 40
0.87109375
 40
0.873046875
 40
0.875
 40
0.876953125
 40
0.87890625
 40
0.8828125
 40
0.890625
 40
0.8984375
 40
0.90625
 40
0.921875
 40
0.9375
 40
0.96875
 40
1.0
 40
1.0
 40
1.0
 40
1.0
 10
262.6051480657
 20
76.4086668584
 30
0.0
 10
262.5779573218
 20
76.4276716747
 30
0.0
 10
262.5235758564
 20
76.4656814193
 30
0.0
 10
262.4555989134
 20
76.5131930394
 30
0.0
 10
262.4012175925
 20
76.5512035129
 30
0.0
 10
262.3672287387
 20
76.5749573957
 30
0.0
 10
262.340038865
 20
76.5939665992
 30
0.0
 10
262.3196431488
 20
76.6082068078
 30
0.0
 10
262.3026572513
 20
76.6201267543
 30
0.0
 10
262.2907464529
 20
76.628366498
 30
0.0
 10
262.2839725571
 20
76.633237652
 30
0.0
 10
262.278801217
 20
76.6364326073
 30
0.0
 10
262.2739774124
 20
76.641379839
 30
0.0
 10
262.2674244486
 20
76.6473649342
 30
0.0
 10
262.2560132426
 20
76.6581236265
 30
0.0
 10
262.2396819913
 20
76.6733443038
 30
0.0
 10
262.2200971278
 20
76.6916728401
 30
0.0
 10
262.1939795678
 20
76.7160886471
 30
0.0
 10
262.1613340873
 20
76.746615907
 30
0.0
 10
262.1221590699
 20
76.7832459753
 30
0.0
 10
262.0829834647
 20
76.8198746163
 30
0.0
 10
262.0503394537
 20
76.8504054446
 30
0.0
 10
262.0242189548
 20
76.8748141148
 30
0.0
 10
262.0046430549
 20
76.8931644185
 30
0.0
 10
261.9882837618
 20
76.9083169982
 30
0.0
 10
261.9752995937
 20
76.9207515774
 30
0.0
 10
261.9652792945
 20
76.9292235696
 30
0.0
 10
261.9563360545
 20
76.9409550729
 30
0.0
 10
261.944035504
 20
76.9554584878
 30
0.0
 10
261.9287888966
 20
76.9739783991
 30
0.0
 10
261.910437726
 20
76.9960350919
 30
0.0
 10
261.8859887489
 20
77.0255023826
 30
0.0
 10
261.8554212542
 20
77.0623167451
 30
0.0
 10
261.8187414972
 20
77.1065012338
 30
0.0
 10
261.7820668306
 20
77.150688309
 30
0.0
 10
261.7453705659
 20
77.1948577843
 30
0.0
 10
261.7148580971
 20
77.2317221915
 30
0.0
 10
261.6933665393
 20
77.2574163033
 30
0.0
 10
261.6812930315
 20
77.2722719393
 30
0.0
 10
261.671653705
 20
77.2829255137
 30
0.0
 10
261.6642474698
 20
77.2954450554
 30
0.0
 10
261.6535935608
 20
77.3114869063
 30
0.0
 10
261.6353121525
 20
77.3398634103
 30
0.0
 10
261.6090059887
 20
77.3802426266
 30
0.0
 10
261.5775203898
 20
77.4287660122
 30
0.0
 10
261.5460113861
 20
77.4772699284
 30
0.0
 10
261.5145142038
 20
77.5257833961
 30
0.0
 10
261.482993141
 20
77.574278127
 30
0.0
 10
261.4567953391
 20
77.6147448993
 30
0.0
 10
261.4383208496
 20
77.6429653946
 30
0.0
 10
261.4279762645
 20
77.6592571778
 30
0.0
 10
261.4196198925
 20
77.6710090133
 30
0.0
 10
261.4135491205
 20
77.6845459634
 30
0.0
 10
261.404657513
 20
77.701972562
 30
0.0
 10
261.3894686703
 20
77.7327592258
 30
0.0
 10
261.3675759601
 20
77.7765884691
 30
0.0
 10
261.3413885776
 20
77.8292486217
 30
0.0
 10
261.3151766977
 20
77.8818912596
 30
0.0
 10
261.2889789376
 20
77.9345388958
 30
0.0
 10
261.2627491957
 20
77.9871840534
 30
0.0
 10
261.240985917
 20
78.0310591148
 30
0.0
 10
261.2255664508
 20
78.0617641391
 30
0.0
 10
261.2170443116
 20
78.0793215275
 30
0.0
 10
261.2098386603
 20
78.0924567361
 30
0.0
 10
261.2057447042
 20
78.1057174454
 30
0.0
 10
261.1992006999
 20
78.1233546149
 30
0.0
 10
261.1882544193
 20
78.1542400582
 30
0.0
 10
261.1723523088
 20
78.1983514532
 30
0.0
 10
261.1533837491
 20
78.2512897069
 30
0.0
 10
261.1343826051
 20
78.3042267091
 30
0.0
 10
261.115397825
 20
78.3571641372
 30
0.0
 10
261.0963801739
 20
78.4101011134
 30
0.0
 10
261.0806280646
 20
78.4542164118
 30
0.0
 10
261.0694145093
 20
78.4850949001
 30
0.0
 10
261.06329869
 20
78.5027432117
 30
0.0
 10
261.0578894967
 20
78.5159696963
 30
0.0
 10
261.0556236553
 20
78.529233447
 30
0.0
 10
261.0515060964
 20
78.5469054493
 30
0.0
 10
261.0448112256
 20
78.5778375089
 30
0.0
 10
261.0349799868
 20
78.6220230045
 30
0.0
 10
261.0232970868
 20
78.6750469306
 30
0.0
 10
261.011583261
 20
78.728070589
 30
0.0
 10
260.9998785517
 20
78.7810939865
 30
0.0
 10
260.9901200106
 20
78.825281244
 30
0.0
 10
260.9823196996
 20
78.8606285576
 30
0.0
 10
260.9764526705
 20
78.8871458641
 30
0.0
 10
260.9716167482
 20
78.9092219203
 30
0.0
 10
260.9681270868
 20
78.9247177436
 30
0.0
 10
260.9662961838
 20
78.9335060085
 30
0.0
 10
260.9644633007
 20
78.9402845143
 30
0.0
 10
260.9643876466
 20
78.946347037
 30
0.0
 10
260.9636738333
 20
78.9546801436
 30
0.0
 10
260.9627102408
 20
78.9691467203
 30
0.0
 10
260.9611843752
 20
78.9898740926
 30
0.0
 10
260.9594172437
 20
79.0147209004
 30
0.0
 10
260.9570387468
 20
79.0478590723
 30
0.0
 10
260.9540732689
 20
79.0892786731
 30
0.0
 10
260.9493242312
 20
79.1555517753
 30
0.0
 10
260.9433894099
 20
79.2383925518
 30
0.0
 10
260.938641103
 20
79.3046653562
 30
0.0
 10
260.9362670058
 20
79.3378017355
 30
0.0
  0
SPLINE
  5
4B7
100
AcDbEntity
  8
03___PRT_ALL_CURVES
100
AcDbSpline
 62
2
  6
CONTINUOUS
 70
0
 71
3
 72
31
 73
27
 74
0
 42
0.0000001
 43
0.0000001
 44
0.0000000001
 40
0.0
 40
0.0
 40
0.0
 40
0.0
 40
0.0625
 40
0.125
 40
0.15625
 40
0.1875
 40
0.25
 40
0.3125
 40
0.34375
 40
0.375
 40
0.4375
 40
0.46875
 40
0.5
 40
0.53125
 40
0.5625
 40
0.625
 40
0.65625
 40
0.671875
 40
0.6875
 40
0.75
 40
0.8125
 40
0.828125
 40
0.84375
 40
0.875
 40
0.9375
 40
1.0
 40
1.0
 40
1.0
 40
1.0
 10
284.3496246832
 20
66.3116697422
 30
0.0
 10
284.3555805129
 20
66.3015511473
 30
0.0
 10
284.3674529864
 20
66.2812830433
 30
0.0
 10
284.3824895076
 20
66.2561024838
 30
0.0
 10
284.3941072731
 20
66.2356334384
 30
0.0
 10
284.407214101
 20
66.2163391279
 30
0.0
 10
284.4241515012
 20
66.1926779682
 30
0.0
 10
284.440747952
 20
66.1686753074
 30
0.0
 10
284.454400299
 20
66.1499273988
 30
0.0
 10
284.4692914672
 20
66.1327406691
 30
0.0
 10
284.4837749423
 20
66.1150472205
 30
0.0
 10
284.4985523807
 20
66.0977030445
 30
0.0
 10
284.5091612628
 20
66.0841538136
 30
0.0
 10
284.5215199499
 20
66.0725943417
 30
0.0
 10
284.5373844919
 20
66.0564700819
 30
0.0
 10
284.5534316686
 20
66.040636088
 30
0.0
 10
284.5673962777
 20
66.0264864028
 30
0.0
 10
284.5754161721
 20
66.0187613478
 30
0.0
 10
284.5876360075
 20
66.0091074539
 30
0.0
 10
284.6058670768
 20
65.993729694
 30
0.0
 10
284.6242078905
 20
65.9790390774
 30
0.0
 10
284.6363179815
 20
65.9686980402
 30
0.0
 10
284.6446549152
 20
65.9629580661
 30
0.0
 10
284.6593713719
 20
65.9534661245
 30
0.0
 10
284.6803281327
 20
65.9396151485
 30
0.0
 10
284.6971138838
 20
65.9286230715
 30
0.0
 10
284.7055042165
 20
65.923115945
 30
0.0
  0
SPLINE
  5
4B8
100
AcDbEntity
  8
03___PRT_ALL_CURVES
100
AcDbSpline
 62
2
  6
CONTINUOUS
 70
0
 71
3
 72
8
 73
4
 74
0
 42
0.0000001
 43
0.0000001
 44
0.0000000001
 40
0.0
 40
0.0
 40
0.0
 40
0.0
 40
1.0
 40
1.0
 40
1.0
 40
1.0
 10
282.8395709059
 20
62.7232068756
 30
0.0
 10
283.0120929444
 20
62.6236034835
 30
0.0
 10
283.1956843142
 20
62.5030953855
 30
0.0
 10
283.1956843142
 20
62.2563932634
 30
0.0
  0
SPLINE
  5
4B9
100
AcDbEntity
  8
03___PRT_ALL_CURVES
100
AcDbSpline
 62
2
  6
CONTINUOUS
 70
0
 71
3
 72
8
 73
4
 74
0
 42
0.0000001
 43
0.0000001
 44
0.0000000001
 40
0.0
 40
0.0
 40
0.0
 40
0.0
 40
1.0
 40
1.0
 40
1.0
 40
1.0
 10
283.1956843142
 20
62.2563932634
 30
0.0
 10
283.1956843142
 20
62.0384468931
 30
0.0
 10
283.0058982765
 20
62.1108477639
 30
0.0
 10
282.8476504565
 20
62.2022101185
 30
0.0
  0
SPLINE
  5
4BA
100
AcDbEntity
  8
03___PRT_ALL_CURVES
100
AcDbSpline
 62
2
  6
CONTINUOUS
 70
0
 71
3
 72
27
 73
23
 74
0
 42
0.0000001
 43
0.0000001
 44
0.0000000001
 40
0.0
 40
0.0
 40
0.0
 40
0.0
 40
0.1228158602
 40
0.1842237903
 40
0.2456317204
 40
0.3070396505
 40
0.3684475806
 40
0.3991515457
 40
0.4298555108
 40
0.4605594758
 40
0.4759114583
 40
0.4912634409
 40
0.5071614583
 40
0.5230594758
 40
0.5548555108
 40
0.5866515457
 40
0.6184475806
 40
0.6820396505
 40
0.7456317204
 40
0.8092237903
 40
0.8728158602
 40
1.0
 40
1.0
 40
1.0
 40
1.0
 10
284.4388557849
 20
61.7998802086
 30
0.0
 10
284.486017188
 20
61.7726521758
 30
0.0
 10
284.5585490678
 20
61.7287135944
 30
0.0
 10
284.6476934065
 20
61.6603975037
 30
0.0
 10
284.7079232911
 20
61.6035913558
 30
0.0
 10
284.7587690463
 20
61.5406472116
 30
0.0
 10
284.7914203437
 20
61.4824430643
 30
0.0
 10
284.8107881729
 20
61.4314532678
 30
0.0
 10
284.821642561
 20
61.3907254223
 30
0.0
 10
284.8273372447
 20
61.3543979612
 30
0.0
 10
284.8296831052
 20
61.3240368854
 30
0.0
 10
284.8302868457
 20
61.2998420551
 30
0.0
 10
284.8296748176
 20
61.2760131757
 30
0.0
 10
284.8273002055
 20
61.2471789279
 30
0.0
 10
284.8215238691
 20
61.2159864833
 30
0.0
 10
284.8105159231
 20
61.1861034098
 30
0.0
 10
284.7908810861
 20
61.1553292937
 30
0.0
 10
284.7578385082
 20
61.1323761276
 30
0.0
 10
284.7066396136
 20
61.1255496862
 30
0.0
 10
284.6462556289
 20
61.1360107296
 30
0.0
 10
284.5572388397
 20
61.1680924294
 30
0.0
 10
284.4852883658
 20
61.2066845222
 30
0.0
 10
284.4388557849
 20
61.2334917788
 30
0.0
  0
SPLINE
  5
4BB
100
AcDbEntity
  8
03___PRT_ALL_CURVES
100
AcDbSpline
 62
2
  6
CONTINUOUS
 70
0
 71
3
 72
21
 73
17
 74
0
 42
0.0000001
 43
0.0000001
 44
0.0000000001
 40
0.0
 40
0.0
 40
0.0
 40
0.0
 40
0.125
 40
0.25
 40
0.3125
 40
0.375
 40
0.4375
 40
0.46875
 40
0.5
 40
0.53125
 40
0.5625
 40
0.625
 40
0.6875
 40
0.75
 40
0.875
 40
1.0
 40
1.0
 40
1.0
 40
1.0
 10
275.2356262159
 20
67.1132470733
 30
0.0
 10
275.3136339879
 20
67.068210284
 30
0.0
 10
275.4683257469
 20
66.9454116902
 30
0.0
 10
275.635488051
 20
66.7287338998
 30
0.0
 10
275.7399453678
 20
66.5284934848
 30
0.0
 10
275.8002976684
 20
66.3676180844
 30
0.0
 10
275.8327898427
 20
66.2265173757
 30
0.0
 10
275.8463689651
 20
66.1113585479
 30
0.0
 10
275.8499127401
 20
66.0226530453
 30
0.0
 10
275.8463689651
 20
65.9380394491
 30
0.0
 10
275.8327898427
 20
65.8385600865
 30
0.0
 10
275.8002976684
 20
65.7349772602
 30
0.0
 10
275.7399453678
 20
65.6437891173
 30
0.0
 10
275.635488051
 20
65.5641628936
 30
0.0
 10
275.4683257469
 20
65.540503139
 30
0.0
 10
275.3136339879
 20
65.5963231619
 30
0.0
 10
275.2356262159
 20
65.6413599512
 30
0.0
  0
SPLINE
  5
4BC
100
AcDbEntity
  8
03___PRT_ALL_CURVES
100
AcDbSpline
 62
2
  6
CONTINUOUS
 70
0
 71
3
 72
22
 73
18
 74
0
 42
0.0000001
 43
0.0000001
 44
0.0000000001
 40
0.0
 40
0.0
 40
0.0
 40
0.0
 40
0.125
 40
0.25
 40
0.3125
 40
0.34375
 40
0.375
 40
0.4375
 40
0.5
 40
0.5625
 40
0.625
 40
0.65625
 40
0.6875
 40
0.75
 40
0.8125
 40
0.875
 40
1.0
 40
1.0
 40
1.0
 40
1.0
 10
284.2801086378
 20
66.4547354484
 30
0.0
 10
284.2826196718
 20
66.4491758824
 30
0.0
 10
284.2875985265
 20
66.438068397
 30
0.0
 10
284.2940381617
 20
66.4241258069
 30
0.0
 10
284.2984729903
 20
66.4145548322
 30
0.0
 10
284.3011599588
 20
66.4088028322
 30
0.0
 10
284.3044534592
 20
66.4019386947
 30
0.0
 10
284.3082924096
 20
66.3939093231
 30
0.0
 10
284.3133233931
 20
66.3832984417
 30
0.0
 10
284.3171020843
 20
66.375708822
 30
0.0
 10
284.3206074615
 20
66.3685718382
 30
0.0
 10
284.3231823865
 20
66.363301142
 30
0.0
 10
284.326389644
 20
66.3569247232
 30
0.0
 10
284.3305867922
 20
66.3486516104
 30
0.0
 10
284.335629644
 20
66.3386161296
 30
0.0
 10
284.3419187559
 20
66.3264556552
 30
0.0
 10
284.3465279629
 20
66.3176223835
 30
0.0
 10
284.3496246847
 20
66.3116697392
 30
0.0
  0
SPLINE
  5
4BD
100
AcDbEntity
  8
03___PRT_ALL_CURVES
100
AcDbSpline
 62
2
  6
CONTINUOUS
 70
0
 71
3
 72
8
 73
4
 74
0
 42
0.0000001
 43
0.0000001
 44
0.0000000001
 40
0.0
 40
0.0
 40
0.0
 40
0.0
 40
1.0
 40
1.0
 40
1.0
 40
1.0
 10
282.872044484
 20
61.842557399
 30
0.0
 10
283.0600877596
 20
61.7339930193
 30
0.0
 10
283.2523965439
 20
61.5839585902
 30
0.0
 10
283.2523965439
 20
61.3054141496
 30
0.0
  0
SPLINE
  5
4BE
100
AcDbEntity
  8
03___PRT_ALL_CURVES
100
AcDbSpline
 62
2
  6
CONTINUOUS
 70
0
 71
3
 72
8
 73
4
 74
0
 42
0.0000001
 43
0.0000001
 44
0.0000000001
 40
0.0
 40
0.0
 40
0.0
 40
0.0
 40
1.0
 40
1.0
 40
1.0
 40
1.0
 10
283.2523965439
 20
61.3054141496
 30
0.0
 10
283.2523965439
 20
61.0592128166
 30
0.0
 10
283.0462966093
 20
61.1319693131
 30
0.0
 10
282.872044484
 20
61.2325715485
 30
0.0
  0
SPLINE
  5
4BF
100
AcDbEntity
  8
03___PRT_ALL_CURVES
100
AcDbSpline
 62
2
  6
CONTINUOUS
 70
0
 71
3
 72
51
 73
47
 74
0
 42
0.0000001
 43
0.0000001
 44
0.0000000001
 40
0.0
 40
0.0
 40
0.0
 40
0.0
 40
0.0625
 40
0.09375
 40
0.109375
 40
0.125
 40
0.140625
 40
0.15625
 40
0.1875
 40
0.21875
 40
0.234375
 40
0.25
 40
0.265625
 40
0.28125
 40
0.3125
 40
0.34375
 40
0.359375
 40
0.375
 40
0.390625
 40
0.40625
 40
0.4375
 40
0.46875
 40
0.484375
 40
0.5
 40
0.515625
 40
0.53125
 40
0.5625
 40
0.59375
 40
0.609375
 40
0.625
 40
0.640625
 40
0.65625
 40
0.6875
 40
0.71875
 40
0.734375
 40
0.75
 40
0.765625
 40
0.78125
 40
0.8125
 40
0.84375
 40
0.859375
 40
0.875
 40
0.890625
 40
0.90625
 40
0.9375
 40
1.0
 40
1.0
 40
1.0
 40
1.0
 10
282.0818401149
 20
67.7526509571
 30
0.0
 10
282.0827054512
 20
67.7419606621
 30
0.0
 10
282.084044546
 20
67.7259108946
 30
0.0
 10
282.0854630071
 20
67.7072363034
 30
0.0
 10
282.086479008
 20
67.6964934833
 30
0.0
 10
282.0866657438
 20
67.6886369187
 30
0.0
 10
282.0890508134
 20
67.6800139646
 30
0.0
 10
282.0914597524
 20
67.6687847527
 30
0.0
 10
282.0947587449
 20
67.65465376
 30
0.0
 10
282.0978704044
 20
67.6405656032
 30
0.0
 10
282.1005790764
 20
67.6292678537
 30
0.0
 10
282.1020649471
 20
67.6208505124
 30
0.0
 10
282.1056236785
 20
67.6122228998
 30
0.0
 10
282.1096414266
 20
67.6007927179
 30
0.0
 10
282.1149356636
 20
67.5864809074
 30
0.0
 10
282.1200507273
 20
67.5721738024
 30
0.0
 10
282.1243551525
 20
67.5607360918
 30
0.0
 10
282.1270538524
 20
67.5521310654
 30
0.0
 10
282.1317648415
 20
67.5436290258
 30
0.0
 10
282.137340919
 20
67.5322551969
 30
0.0
 10
282.1445696025
 20
67.5180637645
 30
0.0
 10
282.1516454908
 20
67.5038161375
 30
0.0
 10
282.1574660407
 20
67.4925322199
 30
0.0
 10
282.1614436126
 20
67.4837604463
 30
0.0
 10
282.1668926268
 20
67.4761669224
 30
0.0
 10
282.1736420257
 20
67.465628417
 30
0.0
 10
282.182269819
 20
67.4526132133
 30
0.0
 10
282.1907783751
 20
67.4394835557
 30
0.0
 10
282.1977185535
 20
67.4291281766
 30
0.0
 10
282.2025952292
 20
67.4209852736
 30
0.0
 10
282.2087190707
 20
67.4142736717
 30
0.0
 10
282.2164471789
 20
67.4048219546
 30
0.0
 10
282.226267004
 20
67.3932009149
 30
0.0
 10
282.2359943367
 20
67.3814340918
 30
0.0
 10
282.2438704326
 20
67.3722156281
 30
0.0
 10
282.2495503109
 20
67.3648042662
 30
0.0
 10
282.2560918487
 20
67.3592854633
 30
0.0
 10
282.2645118428
 20
67.3512626188
 30
0.0
 10
282.2751481094
 20
67.3414859708
 30
0.0
 10
282.2857168507
 20
67.3315322429
 30
0.0
 10
282.2942448851
 20
67.3237927262
 30
0.0
 10
282.3004623019
 20
67.3174239397
 30
0.0
 10
282.3073576341
 20
67.3132000165
 30
0.0
 10
282.3163148791
 20
67.3068197553
 30
0.0
 10
282.3321009318
 20
67.2960050937
 30
0.0
 10
282.3455938202
 20
67.286615111
 30
0.0
 10
282.3545975266
 20
67.2803818498
 30
0.0
  0
SPLINE
  5
4C0
100
AcDbEntity
  8
03___PRT_ALL_CURVES
100
AcDbSpline
 62
2
  6
CONTINUOUS
 70
0
 71
3
 72
123
 73
119
 74
0
 42
0.0000001
 43
0.0000001
 44
0.0000000001
 40
0.0
 40
0.0
 40
0.0
 40
0.0
 40
0.03125
 40
0.0625
 40
0.078125
 40
0.09375
 40
0.1015625
 40
0.109375
 40
0.1171875
 40
0.12109375
 40
0.123046875
 40
0.125
 40
0.126953125
 40
0.12890625
 40
0.1328125
 40
0.140625
 40
0.1484375
 40
0.15625
 40
0.171875
 40
0.1875
 40
0.203125
 40
0.21875
 40
0.2265625
 40
0.234375
 40
0.2421875
 40
0.24609375
 40
0.248046875
 40
0.25
 40
0.251953125
 40
0.25390625
 40
0.2578125
 40
0.265625
 40
0.2734375
 40
0.28125
 40
0.296875
 40
0.3125
 40
0.328125
 40
0.34375
 40
0.3515625
 40
0.359375
 40
0.3671875
 40
0.37109375
 40
0.373046875
 40
0.375
 40
0.376953125
 40
0.37890625
 40
0.3828125
 40
0.390625
 40
0.3984375
 40
0.40625
 40
0.421875
 40
0.4375
 40
0.453125
 40
0.46875
 40
0.4765625
 40
0.484375
 40
0.4921875
 40
0.49609375
 40
0.498046875
 40
0.5
 40
0.501953125
 40
0.50390625
 40
0.5078125
 40
0.515625
 40
0.5234375
 40
0.53125
 40
0.546875
 40
0.5625
 40
0.578125
 40
0.59375
 40
0.6015625
 40
0.609375
 40
0.6171875
 40
0.62109375
 40
0.623046875
 40
0.625
 40
0.626953125
 40
0.62890625
 40
0.6328125
 40
0.640625
 40
0.6484375
 40
0.65625
 40
0.671875
 40
0.6875
 40
0.703125
 40
0.71875
 40
0.7265625
 40
0.734375
 40
0.7421875
 40
0.74609375
 40
0.748046875
 40
0.75
 40
0.751953125
 40
0.75390625
 40
0.7578125
 40
0.765625
 40
0.7734375
 40
0.78125
 40
0.796875
 40
0.8125
 40
0.828125
 40
0.84375
 40
0.8515625
 40
0.859375
 40
0.8671875
 40
0.87109375
 40
0.873046875
 40
0.875
 40
0.876953125
 40
0.87890625
 40
0.8828125
 40
0.890625
 40
0.8984375
 40
0.90625
 40
0.921875
 40
0.9375
 40
0.96875
 40
1.0
 40
1.0
 40
1.0
 40
1.0
 10
279.7605159267
 20
72.9727222668
 30
0.0
 10
279.730823451
 20
72.9862257844
 30
0.0
 10
279.6714385239
 20
73.0132326689
 30
0.0
 10
279.5972072431
 20
73.0469920272
 30
0.0
 10
279.5378224745
 20
73.0739979332
 30
0.0
 10
279.500706415
 20
73.0908801997
 30
0.0
 10
279.4710148933
 20
73.1043778274
 30
0.0
 10
279.4487426217
 20
73.1145234597
 30
0.0
 10
279.4301939438
 20
73.1229068588
 30
0.0
 10
279.417187206
 20
73.1289151514
 30
0.0
 10
279.4097901712
 20
73.1321299986
 30
0.0
 10
279.4041427098
 20
73.1351565475
 30
0.0
 10
279.3988762963
 20
73.1358306738
 30
0.0
 10
279.3917214979
 20
73.1375500602
 30
0.0
 10
279.3792625277
 20
73.1401766762
 30
0.0
 10
279.3614316226
 20
73.1441288615
 30
0.0
 10
279.3400483951
 20
73.1487859277
 30
0.0
 10
279.3115325817
 20
73.1550252452
 30
0.0
 10
279.2758894938
 20
73.1628140631
 30
0.0
 10
279.233116995
 20
73.1721653796
 30
0.0
 10
279.1903449831
 20
73.1815142826
 30
0.0
 10
279.154700678
 20
73.1893091343
 30
0.0
 10
279.126187299
 20
73.1955363843
 30
0.0
 10
279.1047966467
 20
73.2002302563
 30
0.0
 10
279.0869889693
 20
73.2040672977
 30
0.0
 10
279.0744885341
 20
73.2068994631
 30
0.0
 10
279.067400173
 20
73.2082895079
 30
0.0
 10
279.0619296852
 20
73.2099752661
 30
0.0
 10
279.0570486931
 20
73.2092022933
 30
0.0
 10
279.050335081
 20
73.2090292958
 30
0.0
 10
279.0386820631
 20
73.2083269631
 30
0.0
 10
279.0219848074
 20
73.2075325399
 30
0.0
 10
279.0019695407
 20
73.2064898096
 30
0.0
 10
278.9752750241
 20
73.2051307489
 30
0.0
 10
278.9419094849
 20
73.2034211316
 30
0.0
 10
278.9018695682
 20
73.2013745201
 30
0.0
 10
278.8618305596
 20
73.1993254579
 30
0.0
 10
278.8284627503
 20
73.1976219672
 30
0.0
 10
278.8017727739
 20
73.1962506534
 30
0.0
 10
278.7817436598
 20
73.1952452952
 30
0.0
 10
278.7650897244
 20
73.1943339564
 30
0.0
 10
278.7533593731
 20
73.1938403359
 30
0.0
 10
278.7467696685
 20
73.1933329291
 30
0.0
 10
278.7415080721
 20
73.1935871545
 30
0.0
 10
278.7374670708
 20
73.1914149268
 30
0.0
 10
278.7316533118
 20
73.1893649971
 30
0.0
 10
278.7216776017
 20
73.1853832788
 30
0.0
 10
278.7073228779
 20
73.1799012765
 30
0.0
 10
278.6901416016
 20
73.1732346254
 30
0.0
 10
278.667217721
 20
73.164376593
 30
0.0
 10
278.6385682316
 20
73.1532934054
 30
0.0
 10
278.6041863782
 20
73.1399984323
 30
0.0
 10
278.5698058112
 20
73.1267010866
 30
0.0
 10
278.5411531055
 20
73.1156238306
 30
0.0
 10
278.5182356574
 20
73.1067539351
 30
0.0
 10
278.501034762
 20
73.1001234661
 30
0.0
 10
278.4867414152
 20
73.0945282711
 30
0.0
 10
278.4766561377
 20
73.0907486191
 30
0.0
 10
278.4710179332
 20
73.0883749286
 30
0.0
 10
278.4664376848
 20
73.0871971903
 30
0.0
 10
278.4632014106
 20
73.0837162786
 30
0.0
 10
278.4584175851
 20
73.0798784357
 30
0.0
 10
278.45026431
 20
73.0727879044
 30
0.0
 10
278.4385025816
 20
73.062854266
 30
0.0
 10
278.4244373871
 20
73.0508501351
 30
0.0
 10
278.405666714
 20
73.0348738966
 30
0.0
 10
278.3822092769
 20
73.0148934904
 30
0.0
 10
278.3540576327
 20
72.9909216176
 30
0.0
 10
278.3259074204
 20
72.9669474589
 30
0.0
 10
278.3024464035
 20
72.9469727676
 30
0.0
 10
278.2836828899
 20
72.9309850993
 30
0.0
 10
278.269595859
 20
72.9190158291
 30
0.0
 10
278.2579024441
 20
72.9089731321
 30
0.0
 10
278.2496272189
 20
72.902077287
 30
0.0
 10
278.245038788
 20
72.897927508
 30
0.0
 10
278.241202324
 20
72.8954047639
 30
0.0
 10
278.2388762889
 20
72.8906283076
 30
0.0
 10
278.2352480542
 20
72.8850458192
 30
0.0
 10
278.2291441149
 20
72.8749101966
 30
0.0
 10
278.2202958659
 20
72.8606222252
 30
0.0
 10
278.2097329008
 20
72.843394694
 30
0.0
 10
278.1956297507
 20
72.820453291
 30
0.0
 10
278.178007453
 20
72.7917666611
 30
0.0
 10
278.1568576191
 20
72.757347153
 30
0.0
 10
278.1357094679
 20
72.7229256559
 30
0.0
 10
278.1180829636
 20
72.6942439984
 30
0.0
 10
278.1039882266
 20
72.6712926506
 30
0.0
 10
278.0933996014
 20
72.6540954512
 30
0.0
 10
278.0846316277
 20
72.6397125893
 30
0.0
 10
278.0783843848
 20
72.6297463608
 30
0.0
 10
278.0749857583
 20
72.6238924607
 30
0.0
 10
278.0719544406
 20
72.6199496942
 30
0.0
 10
278.0707669008
 20
72.6142957493
 30
0.0
 10
278.068540384
 20
72.6073540343
 30
0.0
 10
278.064943626
 20
72.5949279364
 30
0.0
 10
278.0596487413
 20
72.5773217604
 30
0.0
 10
278.0533619367
 20
72.5561321149
 30
0.0
 10
278.0449560991
 20
72.5279010001
 30
0.0
 10
278.0344568955
 20
72.4926045983
 30
0.0
 10
278.0218541501
 20
72.4502523372
 30
0.0
 10
278.0092532596
 20
72.407898405
 30
0.0
 10
277.9987494188
 20
72.372606181
 30
0.0
 10
277.9903528555
 20
72.3443667106
 30
0.0
 10
277.9840377644
 20
72.3232025494
 30
0.0
 10
277.9788313716
 20
72.305516648
 30
0.0
 10
277.9750766421
 20
72.2932328723
 30
0.0
 10
277.9731032352
 20
72.2860631214
 30
0.0
 10
277.9711382231
 20
72.2811096295
 30
0.0
 10
277.9710269619
 20
72.2745360778
 30
0.0
 10
277.9702320045
 20
72.2663364373
 30
0.0
 10
277.9691420961
 20
72.251723778
 30
0.0
 10
277.9674275784
 20
72.2309862005
 30
0.0
 10
277.9654375746
 20
72.206042189
 30
0.0
 10
277.9627606887
 20
72.172804086
 30
0.0
 10
277.9594226442
 20
72.1312494107
 30
0.0
 10
277.9540772652
 20
72.0647658699
 30
0.0
 10
277.9473970984
 20
71.9816600831
 30
0.0
 10
277.9420524905
 20
71.9151758683
 30
0.0
 10
277.9393802459
 20
71.8819337091
 30
0.0
  0
SPLINE
  5
4C1
100
AcDbEntity
  8
03___PRT_ALL_CURVES
100
AcDbSpline
 62
2
  6
CONTINUOUS
 70
0
 71
3
 72
89
 73
85
 74
0
 42
0.0000001
 43
0.0000001
 44
0.0000000001
 40
0.0
 40
0.0
 40
0.0
 40
0.0
 40
0.03125
 40
0.0625
 40
0.09375
 40
0.109375
 40
0.1171875
 40
0.125
 40
0.1328125
 40
0.13671875
 40
0.140625
 40
0.142578125
 40
0.14453125
 40
0.1484375
 40
0.15625
 40
0.171875
 40
0.1875
 40
0.21875
 40
0.234375
 40
0.25
 40
0.265625
 40
0.2734375
 40
0.28125
 40
0.28515625
 40
0.2890625
 40
0.29296875
 40
0.296875
 40
0.3125
 40
0.328125
 40
0.34375
 40
0.375
 40
0.390625
 40
0.40625
 40
0.4140625
 40
0.421875
 40
0.4296875
 40
0.43359375
 40
0.4375
 40
0.4453125
 40
0.453125
 40
0.46875
 40
0.484375
 40
0.5
 40
0.515625
 40
0.53125
 40
0.546875
 40
0.5546875
 40
0.5625
 40
0.56640625
 40
0.5703125
 40
0.578125
 40
0.5859375
 40
0.59375
 40
0.609375
 40
0.625
 40
0.65625
 40
0.671875
 40
0.6875
 40
0.703125
 40
0.70703125
 40
0.7109375
 40
0.71484375
 40
0.71875
 40
0.7265625
 40
0.734375
 40
0.75
 40
0.765625
 40
0.78125
 40
0.8125
 40
0.828125
 40
0.84375
 40
0.8515625
 40
0.85546875
 40
0.857421875
 40
0.859375
 40
0.86328125
 40
0.8671875
 40
0.875
 40
0.8828125
 40
0.890625
 40
0.90625
 40
0.9375
 40
0.96875
 40
1.0
 40
1.0
 40
1.0
 40
1.0
 10
281.6269692838
 20
69.7635220002
 30
0.0
 10
281.62362372
 20
69.7998940851
 30
0.0
 10
281.6169324826
 20
69.8726382894
 30
0.0
 10
281.6068962843
 20
69.9817543887
 30
0.0
 10
281.5985308675
 20
70.0726850756
 30
0.0
 10
281.5926788162
 20
70.1363353783
 30
0.0
 10
281.5893289502
 20
70.1727088183
 30
0.0
 10
281.586832992
 20
70.1999837194
 30
0.0
 10
281.5847006544
 20
70.2227293007
 30
0.0
 10
281.5831122575
 20
70.2408887623
 30
0.0
 10
281.5818520126
 20
70.2523226859
 30
0.0
 10
281.5814564409
 20
70.2612768514
 30
0.0
 10
281.5788243699
 20
70.2709355022
 30
0.0
 10
281.574608073
 20
70.2877153479
 30
0.0
 10
281.5658987326
 20
70.3213622086
 30
0.0
 10
281.553601347
 20
70.3693836624
 30
0.0
 10
281.5338439604
 20
70.4462434665
 30
0.0
 10
281.5141134986
 20
70.52309597
 30
0.0
 10
281.4943634395
 20
70.5999512669
 30
0.0
 10
281.479582762
 20
70.6575916602
 30
0.0
 10
281.4671674738
 20
70.7056277551
 30
0.0
 10
281.4574546465
 20
70.7440513295
 30
0.0
 10
281.4508846498
 20
70.7680781004
 30
0.0
 10
281.4467725528
 20
70.787271954
 30
0.0
 10
281.4405564667
 20
70.8017428114
 30
0.0
 10
281.4346589736
 20
70.8162059924
 30
0.0
 10
281.4227000995
 20
70.845136302
 30
0.0
 10
281.404830662
 20
70.8885301256
 30
0.0
 10
281.380965195
 20
70.9463894128
 30
0.0
 10
281.3491595995
 20
71.0235352322
 30
0.0
 10
281.3173429421
 20
71.1006787215
 30
0.0
 10
281.2855482
 20
71.1778291238
 30
0.0
 10
281.2656309163
 20
71.2260327845
 30
0.0
 10
281.2498009783
 20
71.2646308024
 30
0.0
 10
281.2376441997
 20
71.2934832524
 30
0.0
 10
281.2284180141
 20
71.3178325516
 30
0.0
 10
281.2173230151
 20
71.3360571237
 30
0.0
 10
281.2068766363
 20
71.3545008454
 30
0.0
 10
281.1935965739
 20
71.3774804599
 30
0.0
 10
281.172472603
 20
71.414289784
 30
0.0
 10
281.1460250286
 20
71.4602870334
 30
0.0
 10
281.1143062772
 20
71.5154899687
 30
0.0
 10
281.0825823514
 20
71.5706910091
 30
0.0
 10
281.0508607853
 20
71.625893393
 30
0.0
 10
281.019134955
 20
71.681092298
 30
0.0
 10
280.9927090105
 20
71.7271018621
 30
0.0
 10
280.9715409933
 20
71.7638861091
 30
0.0
 10
280.9583730129
 20
71.7869295358
 30
0.0
 10
280.9476965711
 20
71.8052422747
 30
0.0
 10
280.937538735
 20
71.8240004054
 30
0.0
 10
280.9211294688
 20
71.8442601332
 30
0.0
 10
280.9023061476
 20
71.8693170944
 30
0.0
 10
280.8769052774
 20
71.9024660559
 30
0.0
 10
280.8452580079
 20
71.9439914379
 30
0.0
 10
280.7945641575
 20
72.0103819368
 30
0.0
 10
280.7438874038
 20
72.0767877335
 30
0.0
 10
280.6932030243
 20
72.1431852208
 30
0.0
 10
280.6551955203
 20
72.1929929666
 30
0.0
 10
280.6266754104
 20
72.2303230012
 30
0.0
 10
280.6076843338
 20
72.2552496394
 30
0.0
 10
280.5981489628
 20
72.267641653
 30
0.0
 10
280.5887684565
 20
72.2803108988
 30
0.0
 10
280.574231198
 20
72.2935693543
 30
0.0
 10
280.5567546715
 20
72.3113866678
 30
0.0
 10
280.5284037644
 20
72.3391989515
 30
0.0
 10
280.4930984284
 20
72.3742029637
 30
0.0
 10
280.4506748925
 20
72.4161053484
 30
0.0
 10
280.394130517
 20
72.4720123518
 30
0.0
 10
280.337578373
 20
72.5279012729
 30
0.0
 10
280.28103428
 20
72.5838165728
 30
0.0
 10
280.2456805683
 20
72.618712757
 30
0.0
 10
280.2209598815
 20
72.6432411598
 30
0.0
 10
280.208562755
 20
72.6553671059
 30
0.0
 10
280.2015378949
 20
72.6625187879
 30
0.0
 10
280.1939185457
 20
72.6674358626
 30
0.0
 10
280.1845979129
 20
72.6743473384
 30
0.0
 10
280.1695711343
 20
72.6849780667
 30
0.0
 10
280.1508266932
 20
72.6984131945
 30
0.0
 10
280.1283166584
 20
72.714472554
 30
0.0
 10
280.0983091057
 20
72.7359069366
 30
0.0
 10
280.0457931736
 20
72.7734069006
 30
0.0
 10
279.9707718337
 20
72.8269836166
 30
0.0
 10
279.880745614
 20
72.891273376
 30
0.0
 10
279.8207282507
 20
72.9341336537
 30
0.0
 10
279.7907195545
 20
72.9555637378
 30
0.0
  0
SPLINE
  5
4C2
100
AcDbEntity
  8
03___PRT_ALL_CURVES
100
AcDbSpline
 62
2
  6
CONTINUOUS
 70
0
 71
3
 72
103
 73
99
 74
0
 42
0.0000001
 43
0.0000001
 44
0.0000000001
 40
0.0
 40
0.0
 40
0.0
 40
0.0
 40
0.03125
 40
0.0625
 40
0.09375
 40
0.109375
 40
0.1171875
 40
0.125
 40
0.1328125
 40
0.13671875
 40
0.140625
 40
0.142578125
 40
0.14453125
 40
0.1484375
 40
0.15625
 40
0.171875
 40
0.1875
 40
0.21875
 40
0.234375
 40
0.25
 40
0.2578125
 40
0.265625
 40
0.2734375
 40
0.28125
 40
0.283203125
 40
0.28515625
 40
0.2890625
 40
0.29296875
 40
0.296875
 40
0.3046875
 40
0.3125
 40
0.328125
 40
0.34375
 40
0.375
 40
0.390625
 40
0.40625
 40
0.4140625
 40
0.421875
 40
0.42578125
 40
0.427734375
 40
0.4287109375
 40
0.4296875
 40
0.431640625
 40
0.43359375
 40
0.4375
 40
0.4453125
 40
0.453125
 40
0.46875
 40
0.484375
 40
0.5
 40
0.515625
 40
0.53125
 40
0.546875
 40
0.5546875
 40
0.5625
 40
0.56640625
 40
0.568359375
 40
0.5703125
 40
0.5712890625
 40
0.572265625
 40
0.57421875
 40
0.578125
 40
0.5859375
 40
0.59375
 40
0.609375
 40
0.625
 40
0.65625
 40
0.671875
 40
0.6875
 40
0.6953125
 40
0.703125
 40
0.70703125
 40
0.7109375
 40
0.71484375
 40
0.716796875
 40
0.71875
 40
0.7265625
 40
0.734375
 40
0.7421875
 40
0.75
 40
0.765625
 40
0.78125
 40
0.8125
 40
0.828125
 40
0.84375
 40
0.8515625
 40
0.85546875
 40
0.857421875
 40
0.859375
 40
0.86328125
 40
0.8671875
 40
0.875
 40
0.8828125
 40
0.890625
 40
0.90625
 40
0.9375
 40
0.96875
 40
1.0
 40
1.0
 40
1.0
 40
1.0
 10
279.8013886456
 20
68.6800441911
 30
0.0
 10
279.8310964717
 20
68.6670261448
 30
0.0
 10
279.890512098
 20
68.6409901931
 30
0.0
 10
279.9796356919
 20
68.6019354206
 30
0.0
 10
280.0539049033
 20
68.5693922409
 30
0.0
 10
280.1058942291
 20
68.5466072104
 30
0.0
 10
280.1356010454
 20
68.5335946903
 30
0.0
 10
280.1578850163
 20
68.523814181
 30
0.0
 10
280.1764427008
 20
68.5157310303
 30
0.0
 10
280.1913164181
 20
68.5091136124
 30
0.0
 10
280.2005497126
 20
68.5053213325
 30
0.0
 10
280.2080801251
 20
68.501500578
 30
0.0
 10
280.2150856531
 20
68.500552661
 30
0.0
 10
280.2274368154
 20
68.4983930653
 30
0.0
 10
280.2520741935
 20
68.4944293433
 30
0.0
 10
280.2873043421
 20
68.4885813799
 30
0.0
 10
280.3436535895
 20
68.4793285252
 30
0.0
 10
280.4000083175
 20
68.4700459608
 30
0.0
 10
280.4563608463
 20
68.4607746105
 30
0.0
 10
280.4915821077
 20
68.4549767395
 30
0.0
 10
280.5197574326
 20
68.4503435039
 30
0.0
 10
280.5408934205
 20
68.44685536
 30
0.0
 10
280.5620122732
 20
68.4434175543
 30
0.0
 10
280.5778994479
 20
68.4406980985
 30
0.0
 10
280.5884161938
 20
68.4391045664
 30
0.0
 10
280.5956052193
 20
68.4375197541
 30
0.0
 10
280.6032948912
 20
68.4393474519
 30
0.0
 10
280.6128253931
 20
68.440650952
 30
0.0
 10
280.6254269339
 20
68.4426997185
 30
0.0
 10
280.6412150836
 20
68.4451542715
 30
0.0
 10
280.6664558815
 20
68.4491410168
 30
0.0
 10
280.6980137967
 20
68.4541041143
 30
0.0
 10
280.7485026702
 20
68.4620562884
 30
0.0
 10
280.7989921513
 20
68.4700062229
 30
0.0
 10
280.8494826528
 20
68.4779544624
 30
0.0
 10
280.881036159
 20
68.4829282161
 30
0.0
 10
280.9062860462
 20
68.4868929931
 30
0.0
 10
280.9220510486
 20
68.4894034917
 30
0.0
 10
280.9331189729
 20
68.4910956755
 30
0.0
 10
280.9386085477
 20
68.4920309805
 30
0.0
 10
280.9418169084
 20
68.492421813
 30
0.0
 10
280.9443077901
 20
68.4942546908
 30
0.0
 10
280.947667024
 20
68.496052098
 30
0.0
 10
280.9529047125
 20
68.4992034752
 30
0.0
 10
280.9621345299
 20
68.5045900295
 30
0.0
 10
280.9752866626
 20
68.5123520775
 30
0.0
 10
280.9963486985
 20
68.5247339235
 30
0.0
 10
281.0226698491
 20
68.5402240809
 30
0.0
 10
281.0542579875
 20
68.5588067363
 30
0.0
 10
281.0858453258
 20
68.5773909656
 30
0.0
 10
281.1174331068
 20
68.595974433
 30
0.0
 10
281.1490199173
 20
68.614559374
 30
0.0
 10
281.1753451254
 20
68.6300425477
 30
0.0
 10
281.1963988988
 20
68.642438615
 30
0.0
 10
281.2095720567
 20
68.6501644747
 30
0.0
 10
281.2187641117
 20
68.6556160251
 30
0.0
 10
281.2240623307
 20
68.6586632182
 30
0.0
 10
281.2272666189
 20
68.6607273154
 30
0.0
 10
281.2300756823
 20
68.6620125442
 30
0.0
 10
281.2319878932
 20
68.6646342877
 30
0.0
 10
281.2354905833
 20
68.6689893846
 30
0.0
 10
281.2423849949
 20
68.6778649474
 30
0.0
 10
281.2522920517
 20
68.6904580422
 30
0.0
 10
281.2681109897
 20
68.7106552081
 30
0.0
 10
281.2878957194
 20
68.7358851816
 30
0.0
 10
281.3195452263
 20
68.776262208
 30
0.0
 10
281.351195714
 20
68.8166375694
 30
0.0
 10
281.3828478047
 20
68.857011124
 30
0.0
 10
281.4026255365
 20
68.8822505003
 30
0.0
 10
281.4184589009
 20
68.9024282819
 30
0.0
 10
281.4283292188
 20
68.9150707415
 30
0.0
 10
281.436283962
 20
68.9251129085
 30
0.0
 10
281.4420898735
 20
68.9328411279
 30
0.0
 10
281.4474375826
 20
68.9386559141
 30
0.0
 10
281.4496221732
 20
68.9458778026
 30
0.0
 10
281.4534375308
 20
68.9560496112
 30
0.0
 10
281.4589344025
 20
68.9715849622
 30
0.0
 10
281.4663928331
 20
68.9921400755
 30
0.0
 10
281.4738166753
 20
69.0127376462
 30
0.0
 10
281.4837272453
 20
69.0401862189
 30
0.0
 10
281.4961110759
 20
69.0745022027
 30
0.0
 10
281.515929021
 20
69.1294037715
 30
0.0
 10
281.5357380917
 20
69.1843125146
 30
0.0
 10
281.5555709235
 20
69.2392027387
 30
0.0
 10
281.567914436
 20
69.2735494477
 30
0.0
 10
281.5766589125
 20
69.2975115253
 30
0.0
 10
281.580888776
 20
69.3096029084
 30
0.0
 10
281.5835350522
 20
69.3163346254
 30
0.0
 10
281.5838800353
 20
69.3248499055
 30
0.0
 10
281.58509923
 20
69.3348833114
 30
0.0
 10
281.5866095469
 20
69.3512780781
 30
0.0
 10
281.5886485388
 20
69.3716544333
 30
0.0
 10
281.5910306614
 20
69.3961561788
 30
0.0
 10
281.5942293817
 20
69.4288076906
 30
0.0
 10
281.5998166322
 20
69.4859559818
 30
0.0
 10
281.6078039169
 20
69.5675921365
 30
0.0
 10
281.6173862899
 20
69.6655573578
 30
0.0
 10
281.6237749898
 20
69.7308671557
 30
0.0
 10
281.6269692833
 20
69.7635220984
 30
0.0
  0
SPLINE
  5
4C3
100
AcDbEntity
  8
03___PRT_ALL_CURVES
100
AcDbSpline
 62
2
  6
CONTINUOUS
 70
0
 71
3
 72
89
 73
85
 74
0
 42
0.0000001
 43
0.0000001
 44
0.0000000001
 40
0.0
 40
0.0
 40
0.0
 40
0.0
 40
0.03125
 40
0.0625
 40
0.09375
 40
0.109375
 40
0.1171875
 40
0.125
 40
0.1328125
 40
0.13671875
 40
0.140625
 40
0.142578125
 40
0.14453125
 40
0.1484375
 40
0.15625
 40
0.171875
 40
0.1875
 40
0.21875
 40
0.234375
 40
0.25
 40
0.265625
 40
0.2734375
 40
0.28125
 40
0.28515625
 40
0.2890625
 40
0.29296875
 40
0.296875
 40
0.3125
 40
0.328125
 40
0.34375
 40
0.375
 40
0.390625
 40
0.40625
 40
0.4140625
 40
0.421875
 40
0.4296875
 40
0.43359375
 40
0.4375
 40
0.4453125
 40
0.453125
 40
0.46875
 40
0.484375
 40
0.5
 40
0.515625
 40
0.53125
 40
0.546875
 40
0.5546875
 40
0.5625
 40
0.56640625
 40
0.5703125
 40
0.578125
 40
0.5859375
 40
0.59375
 40
0.609375
 40
0.625
 40
0.65625
 40
0.671875
 40
0.6875
 40
0.703125
 40
0.70703125
 40
0.7109375
 40
0.71484375
 40
0.71875
 40
0.7265625
 40
0.734375
 40
0.75
 40
0.765625
 40
0.78125
 40
0.8125
 40
0.828125
 40
0.84375
 40
0.8515625
 40
0.85546875
 40
0.857421875
 40
0.859375
 40
0.86328125
 40
0.8671875
 40
0.875
 40
0.8828125
 40
0.890625
 40
0.90625
 40
0.9375
 40
0.96875
 40
1.0
 40
1.0
 40
1.0
 40
1.0
 10
277.9393802459
 20
71.8819337047
 30
0.0
 10
277.9427183992
 20
71.8456421407
 30
0.0
 10
277.9493948151
 20
71.7730589782
 30
0.0
 10
277.9594087827
 20
71.6641844411
 30
0.0
 10
277.9677556696
 20
71.5734550573
 30
0.0
 10
277.9735947583
 20
71.5099456642
 30
0.0
 10
277.9769372042
 20
71.4736527481
 30
0.0
 10
277.9794276337
 20
71.4464382284
 30
0.0
 10
277.9815552481
 20
71.4237430014
 30
0.0
 10
277.9831401264
 20
71.4056237414
 30
0.0
 10
277.9843975801
 20
71.3942151304
 30
0.0
 10
277.9847922751
 20
71.3852807877
 30
0.0
 10
277.9874185182
 20
71.375643519
 30
0.0
 10
277.9916254795
 20
71.3589008201
 30
0.0
 10
278.000315536
 20
71.3253284459
 30
0.0
 10
278.0125856929
 20
71.2774133008
 30
0.0
 10
278.0322993333
 20
71.2007236469
 30
0.0
 10
278.0519861084
 20
71.1240412775
 30
0.0
 10
278.0716924374
 20
71.047356121
 30
0.0
 10
278.0864403879
 20
70.9898433305
 30
0.0
 10
278.0988281866
 20
70.9419135766
 30
0.0
 10
278.1085195079
 20
70.9035750634
 30
0.0
 10
278.1150749577
 20
70.8796014822
 30
0.0
 10
278.1191779494
 20
70.8604501197
 30
0.0
 10
278.1253802733
 20
70.8460112969
 30
0.0
 10
278.1312647093
 20
70.8315801337
 30
0.0
 10
278.1431971066
 20
70.8027138683
 30
0.0
 10
278.1610269814
 20
70.7594161074
 30
0.0
 10
278.1848396105
 20
70.7016849057
 30
0.0
 10
278.2165747888
 20
70.6247098672
 30
0.0
 10
278.2483210044
 20
70.5477371537
 30
0.0
 10
278.2800453533
 20
70.4707575425
 30
0.0
 10
278.2999185405
 20
70.4226605922
 30
0.0
 10
278.3157134311
 20
70.3841480203
 30
0.0
 10
278.3278432948
 20
70.3553594422
 30
0.0
 10
278.3370490535
 20
70.3310640462
 30
0.0
 10
278.3481194894
 20
70.3128798178
 30
0.0
 10
278.3585427409
 20
70.2944769252
 30
0.0
 10
278.3717934025
 20
70.2715481808
 30
0.0
 10
278.3928706071
 20
70.2348203418
 30
0.0
 10
278.4192596291
 20
70.1889249168
 30
0.0
 10
278.4509081583
 20
70.1338441847
 30
0.0
 10
278.4825618504
 20
70.0787653432
 30
0.0
 10
278.5142131881
 20
70.0236851613
 30
0.0
 10
278.5458687805
 20
69.9686084504
 30
0.0
 10
278.5722362205
 20
69.9227007381
 30
0.0
 10
278.5933573738
 20
69.8859979206
 30
0.0
 10
278.6064962016
 20
69.8630055054
 30
0.0
 10
278.6171490069
 20
69.8447333055
 30
0.0
 10
278.6272843544
 20
69.8260166999
 30
0.0
 10
278.6436572931
 20
69.8058018202
 30
0.0
 10
278.6624389423
 20
69.7808003269
 30
0.0
 10
278.6877835788
 20
69.7477247461
 30
0.0
 10
278.7193607861
 20
69.7062912875
 30
0.0
 10
278.769942408
 20
69.6400477552
 30
0.0
 10
278.8205069711
 20
69.5737889588
 30
0.0
 10
278.871079143
 20
69.5075384535
 30
0.0
 10
278.9090025043
 20
69.4578409655
 30
0.0
 10
278.937459475
 20
69.4205935673
 30
0.0
 10
278.9564085082
 20
69.3957221083
 30
0.0
 10
278.9659227694
 20
69.3833575265
 30
0.0
 10
278.9752825085
 20
69.3707163263
 30
0.0
 10
278.9897875845
 20
69.3574872196
 30
0.0
 10
279.0072254214
 20
69.339709347
 30
0.0
 10
279.0355135649
 20
69.311958629
 30
0.0
 10
279.0707407425
 20
69.2770321017
 30
0.0
 10
279.1130703574
 20
69.2352224747
 30
0.0
 10
279.1694895714
 20
69.1794392182
 30
0.0
 10
279.2259164178
 20
69.1236740732
 30
0.0
 10
279.2823355713
 20
69.0678824092
 30
0.0
 10
279.3176104141
 20
69.0330638237
 30
0.0
 10
279.3422774559
 20
69.0085890855
 30
0.0
 10
279.3546456202
 20
68.9964908677
 30
0.0
 10
279.3616573751
 20
68.989353588
 30
0.0
 10
279.3692290363
 20
68.9844653979
 30
0.0
 10
279.3785019001
 20
68.977585069
 30
0.0
 10
279.3934456305
 20
68.9670069473
 30
0.0
 10
279.4120885319
 20
68.953636627
 30
0.0
 10
279.4344757472
 20
68.9376554433
 30
0.0
 10
279.4643198795
 20
68.9163251532
 30
0.0
 10
279.5165496681
 20
68.8790074172
 30
0.0
 10
279.5911623141
 20
68.8256909923
 30
0.0
 10
279.6806980656
 20
68.7617135972
 30
0.0
 10
279.7403884569
 20
68.7190615595
 30
0.0
 10
279.7702336662
 20
68.6977355958
 30
0.0
  0
SPLINE
  5
4C4
100
AcDbEntity
  8
03___PRT_ALL_CURVES
100
AcDbSpline
 62
2
  6
CONTINUOUS
 70
0
 71
3
 72
9
 73
5
 74
0
 42
0.0000001
 43
0.0000001
 44
0.0000000001
 40
0.0
 40
0.0
 40
0.0
 40
0.0
 40
0.5
 40
1.0
 40
1.0
 40
1.0
 40
1.0
 10
277.2498708303
 20
70.2343002734
 30
0.0
 10
277.2622444427
 20
70.2250241812
 30
0.0
 10
277.2870675287
 20
70.2068247006
 30
0.0
 10
277.3121092804
 20
70.1917156374
 30
0.0
 10
277.3253657413
 20
70.1839444875
 30
0.0
  0
SPLINE
  5
4C5
100
AcDbEntity
  8
03___PRT_ALL_CURVES
100
AcDbSpline
 62
2
  6
CONTINUOUS
 70
0
 71
3
 72
14
 73
10
 74
0
 42
0.0000001
 43
0.0000001
 44
0.0000000001
 40
0.0
 40
0.0
 40
0.0
 40
0.0
 40
0.25
 40
0.375
 40
0.5
 40
0.625
 40
0.75
 40
0.875
 40
1.0
 40
1.0
 40
1.0
 40
1.0
 10
277.162454759
 20
70.3145542219
 30
0.0
 10
277.1693170877
 20
70.3072115449
 30
0.0
 10
277.1795788078
 20
70.2962522684
 30
0.0
 10
277.1937654482
 20
70.2822919443
 30
0.0
 10
277.2040445364
 20
70.2724126512
 30
0.0
 10
277.216183205
 20
70.2616726564
 30
0.0
 10
277.2271294031
 20
70.2523248368
 30
0.0
 10
277.2381687729
 20
70.2433028953
 30
0.0
 10
277.2460103046
 20
70.2373023203
 30
0.0
 10
277.2498708265
 20
70.2343002762
 30
0.0
  0
SPLINE
  5
4C6
100
AcDbEntity
  8
03___PRT_ALL_CURVES
100
AcDbSpline
 62
2
  6
CONTINUOUS
 70
0
 71
3
 72
21
 73
17
 74
0
 42
0.0000001
 43
0.0000001
 44
0.0000000001
 40
0.0
 40
0.0
 40
0.0
 40
0.0
 40
0.125
 40
0.1875
 40
0.25
 40
0.3125
 40
0.375
 40
0.4375
 40
0.5
 40
0.5625
 40
0.625
 40
0.6875
 40
0.75
 40
0.8125
 40
0.875
 40
1.0
 40
1.0
 40
1.0
 40
1.0
 10
277.02456458
 20
70.5627602943
 30
0.0
 10
277.0281120311
 20
70.551906815
 30
0.0
 10
277.0332858915
 20
70.535665708
 30
0.0
 10
277.0407736377
 20
70.5138544513
 30
0.0
 10
277.0481103411
 20
70.4971351412
 30
0.0
 10
277.054656953
 20
70.4804335529
 30
0.0
 10
277.062643037
 20
70.464021945
 30
0.0
 10
277.0710801489
 20
70.4478415701
 30
0.0
 10
277.0789830896
 20
70.4311507212
 30
0.0
 10
277.0885716871
 20
70.4162705351
 30
0.0
 10
277.0976262833
 20
70.4008808024
 30
0.0
 10
277.107131228
 20
70.3857185933
 30
0.0
 10
277.1179759745
 20
70.3710447696
 30
0.0
 10
277.1282255545
 20
70.3559677477
 30
0.0
 10
277.1432794799
 20
70.3373642612
 30
0.0
 10
277.1548176843
 20
70.3237192489
 30
0.0
 10
277.1624547627
 20
70.3145542179
 30
0.0
  0
SPLINE
  5
4C7
100
AcDbEntity
  8
03___PRT_ALL_CURVES
100
AcDbSpline
 62
2
  6
CONTINUOUS
 70
0
 71
3
 72
11
 73
7
 74
0
 42
0.0000001
 43
0.0000001
 44
0.0000000001
 40
0.0
 40
0.0
 40
0.0
 40
0.0
 40
0.125
 40
0.25
 40
0.5
 40
1.0
 40
1.0
 40
1.0
 40
1.0
 10
277.0034519854
 20
70.6724698601
 30
0.0
 10
277.0039486229
 20
70.6683575565
 30
0.0
 10
277.0048484195
 20
70.6603836698
 30
0.0
 10
277.0073958389
 20
70.6424301326
 30
0.0
 10
277.0126621031
 20
70.6100300654
 30
0.0
 10
277.0196147424
 20
70.5818162856
 30
0.0
 10
277.0245645808
 20
70.5627602914
 30
0.0
  0
SPLINE
  5
4C8
100
AcDbEntity
  8
03___PRT_ALL_CURVES
100
AcDbSpline
 62
2
  6
CONTINUOUS
 70
0
 71
3
 72
31
 73
27
 74
0
 42
0.0000001
 43
0.0000001
 44
0.0000000001
 40
0.0
 40
0.0
 40
0.0
 40
0.0
 40
0.0625
 40
0.125
 40
0.15625
 40
0.1875
 40
0.25
 40
0.3125
 40
0.34375
 40
0.375
 40
0.4375
 40
0.46875
 40
0.5
 40
0.53125
 40
0.5625
 40
0.625
 40
0.65625
 40
0.671875
 40
0.6875
 40
0.75
 40
0.8125
 40
0.828125
 40
0.84375
 40
0.875
 40
0.9375
 40
1.0
 40
1.0
 40
1.0
 40
1.0
 10
275.2841330169
 20
71.9112253176
 30
0.0
 10
275.2885171821
 20
71.9013844023
 30
0.0
 10
275.2972313903
 20
71.8816819555
 30
0.0
 10
275.3083947617
 20
71.8571569777
 30
0.0
 10
275.3167571755
 20
71.8373205261
 30
0.0
 10
275.3271762335
 20
71.8182674876
 30
0.0
 10
275.3409755158
 20
71.7947552213
 30
0.0
 10
275.3542654656
 20
71.7710172424
 30
0.0
 10
275.3654994557
 20
71.7523253441
 30
0.0
 10
275.3787382084
 20
71.7346779827
 30
0.0
 10
275.3913626092
 20
71.7166386324
 30
0.0
 10
275.4043264936
 20
71.6989918461
 30
0.0
 10
275.4136453082
 20
71.6849710533
 30
0.0
 10
275.4244107759
 20
71.6738967907
 30
0.0
 10
275.4382513394
 20
71.6580875835
 30
0.0
 10
275.4522789574
 20
71.6426464584
 30
0.0
 10
275.4643990196
 20
71.628854071
 30
0.0
 10
275.4714954197
 20
71.6212710707
 30
0.0
 10
275.483043293
 20
71.6114793504
 30
0.0
 10
275.499969437
 20
71.5960224183
 30
0.0
 10
275.5171233352
 20
71.5812687222
 30
0.0
 10
275.5284434542
 20
71.5707737659
 30
0.0
 10
275.5361978112
 20
71.5652223362
 30
0.0
 10
275.549866238
 20
71.5562016556
 30
0.0
 10
275.5693408241
 20
71.5429495367
 30
0.0
 10
275.5849362607
 20
71.5324592114
 30
0.0
 10
275.5927320081
 20
71.5272001275
 30
0.0
  0
SPLINE
  5
4C9
100
AcDbEntity
  8
03___PRT_ALL_CURVES
100
AcDbSpline
 62
2
  6
CONTINUOUS
 70
0
 71
3
 72
9
 73
5
 74
0
 42
0.0000001
 43
0.0000001
 44
0.0000000001
 40
0.0
 40
0.0
 40
0.0
 40
0.0
 40
0.5
 40
1.0
 40
1.0
 40
1.0
 40
1.0
 10
275.2462699536
 20
72.0246363522
 30
0.0
 10
275.2518573146
 20
72.0058439835
 30
0.0
 10
275.2633211633
 20
71.9682107105
 30
0.0
 10
275.2769914039
 20
71.9305194721
 30
0.0
 10
275.2841330187
 20
71.9112253128
 30
0.0
  0
SPLINE
  5
4CA
100
AcDbEntity
  8
03___PRT_ALL_CURVES
100
AcDbSpline
 62
2
  6
CONTINUOUS
 70
0
 71
3
 72
8
 73
4
 74
0
 42
0.0000001
 43
0.0000001
 44
0.0000000001
 40
0.0
 40
0.0
 40
0.0
 40
0.0
 40
1.0
 40
1.0
 40
1.0
 40
1.0
 10
285.2429347589
 20
61.0993778497
 30
0.0
 10
285.2429380184
 20
61.7116615801
 30
0.0
 10
284.7495627342
 20
61.9849050573
 30
0.0
 10
284.344076442
 20
62.2190073811
 30
0.0
  0
SPLINE
  5
4CB
100
AcDbEntity
  8
03___PRT_ALL_CURVES
100
AcDbSpline
 62
2
  6
CONTINUOUS
 70
0
 71
3
 72
8
 73
4
 74
0
 42
0.0000001
 43
0.0000001
 44
0.0000000001
 40
0.0
 40
0.0
 40
0.0
 40
0.0
 40
1.0
 40
1.0
 40
1.0
 40
1.0
 10
284.8806580917
 20
60.7990539497
 30
0.0
 10
285.1048314252
 20
60.722120907
 30
0.0
 10
285.2429334376
 20
60.8511629448
 30
0.0
 10
285.2429347589
 20
61.0993778497
 30
0.0
  0
SPLINE
  5
4CC
100
AcDbEntity
  8
03___PRT_ALL_CURVES
100
AcDbSpline
 62
2
  6
CONTINUOUS
 70
0
 71
3
 72
8
 73
4
 74
0
 42
0.0000001
 43
0.0000001
 44
0.0000000001
 40
0.0
 40
0.0
 40
0.0
 40
0.0
 40
1.0
 40
1.0
 40
1.0
 40
1.0
 10
285.0529520889
 20
60.4761537768
 30
0.0
 10
285.0190984671
 20
60.5822442952
 30
0.0
 10
284.9673702862
 20
60.7188516035
 30
0.0
 10
284.8806580917
 20
60.7990539497
 30
0.0
  0
SPLINE
  5
4CD
100
AcDbEntity
  8
03___PRT_ALL_CURVES
100
AcDbSpline
 62
2
  6
CONTINUOUS
 70
0
 71
3
 72
8
 73
4
 74
0
 42
0.0000001
 43
0.0000001
 44
0.0000000001
 40
0.0
 40
0.0
 40
0.0
 40
0.0
 40
1.0
 40
1.0
 40
1.0
 40
1.0
 10
284.4360590174
 20
60.8708783387
 30
0.0
 10
284.5935931845
 20
60.7799280025
 30
0.0
 10
284.6362665177
 20
60.6984302883
 30
0.0
 10
284.6900719126
 20
60.5060937177
 30
0.0
  0
SPLINE
  5
4CE
100
AcDbEntity
  8
03___PRT_ALL_CURVES
100
AcDbSpline
 62
2
  6
CONTINUOUS
 70
0
 71
3
 72
8
 73
4
 74
0
 42
0.0000001
 43
0.0000001
 44
0.0000000001
 40
0.0
 40
0.0
 40
0.0
 40
0.0
 40
1.0
 40
1.0
 40
1.0
 40
1.0
 10
283.5922204332
 20
62.083614556
 30
0.0
 10
283.5922204332
 20
62.5675170194
 30
0.0
 10
283.2199605528
 20
62.8680013102
 30
0.0
 10
282.9747480015
 20
63.0095716399
 30
0.0
  0
SPLINE
  5
4CF
100
AcDbEntity
  8
03___PRT_ALL_CURVES
100
AcDbSpline
 62
2
  6
CONTINUOUS
 70
0
 71
3
 72
8
 73
4
 74
0
 42
0.0000001
 43
0.0000001
 44
0.0000000001
 40
0.0
 40
0.0
 40
0.0
 40
0.0
 40
1.0
 40
1.0
 40
1.0
 40
1.0
 10
283.2457810648
 20
61.7951796021
 30
0.0
 10
283.4533606354
 20
61.7345774393
 30
0.0
 10
283.5922204332
 20
61.8341608628
 30
0.0
 10
283.5922204332
 20
62.083614556
 30
0.0
  0
SPLINE
  5
4D0
100
AcDbEntity
  8
03___PRT_ALL_CURVES
100
AcDbSpline
 62
2
  6
CONTINUOUS
 70
0
 71
3
 72
8
 73
4
 74
0
 42
0.0000001
 43
0.0000001
 44
0.0000000001
 40
0.0
 40
0.0
 40
0.0
 40
0.0
 40
1.0
 40
1.0
 40
1.0
 40
1.0
 10
283.649088039
 20
61.0607804363
 30
0.0
 10
283.649088039
 20
61.3212395449
 30
0.0
 10
283.4859749179
 20
61.613230898
 30
0.0
 10
283.2457810648
 20
61.7951796021
 30
0.0
  0
SPLINE
  5
4D1
100
AcDbEntity
  8
03___PRT_ALL_CURVES
100
AcDbSpline
 62
2
  6
CONTINUOUS
 70
0
 71
3
 72
8
 73
4
 74
0
 42
0.0000001
 43
0.0000001
 44
0.0000000001
 40
0.0
 40
0.0
 40
0.0
 40
0.0
 40
1.0
 40
1.0
 40
1.0
 40
1.0
 10
282.9747480015
 20
60.8088694551
 30
0.0
 10
283.2145621092
 20
60.6704158477
 30
0.0
 10
283.649088039
 20
60.5050034833
 30
0.0
 10
283.649088039
 20
61.0607804363
 30
0.0
  0
SPLINE
  5
4D2
100
AcDbEntity
  8
03___PRT_ALL_CURVES
100
AcDbSpline
 62
2
  6
CONTINUOUS
 70
0
 71
3
 72
25
 73
21
 74
0
 42
0.0000001
 43
0.0000001
 44
0.0000000001
 40
0.0
 40
0.0
 40
0.0
 40
0.0
 40
0.1250129628
 40
0.1875194442
 40
0.2500259255
 40
0.3125324069
 40
0.3750388883
 40
0.406292129
 40
0.4375453697
 40
0.4687986104
 40
0.5000518511
 40
0.5312986104
 40
0.5625453697
 40
0.593792129
 40
0.6250388883
 40
0.6875324069
 40
0.7500259255
 40
0.8125194442
 40
0.8750129628
 40
1.0
 40
1.0
 40
1.0
 40
1.0
 10
275.1627548851
 20
65.3190237504
 30
0.0
 10
275.3079157521
 20
65.2352169807
 30
0.0
 10
275.5195575134
 20
65.1341522726
 30
0.0
 10
275.7689683418
 20
65.0805643017
 30
0.0
 10
275.9343878247
 20
65.0891180671
 30
0.0
 10
276.0726917026
 20
65.1546339383
 30
0.0
 10
276.1606186305
 20
65.2633735582
 30
0.0
 10
276.2118673584
 20
65.3864595076
 30
0.0
 10
276.2401173441
 20
65.4980319533
 30
0.0
 10
276.2575681166
 20
65.6285107937
 30
0.0
 10
276.2635890036
 20
65.783810934
 30
0.0
 10
276.2575683366
 20
65.9460550769
 30
0.0
 10
276.240117235
 20
66.0966626255
 30
0.0
 10
276.2118672935
 20
66.2408395327
 30
0.0
 10
276.1606185199
 20
66.4230891241
 30
0.0
 10
276.0726917504
 20
66.6333535128
 30
0.0
 10
275.9343883165
 20
66.8585773928
 30
0.0
 10
275.7689691692
 20
67.0581576779
 30
0.0
 10
275.5195583456
 20
67.2925891106
 30
0.0
 10
275.3079161558
 20
67.4359189325
 30
0.0
 10
275.1627548851
 20
67.5197259353
 30
0.0
  0
SPLINE
  5
4D3
100
AcDbEntity
  8
03___PRT_ALL_CURVES
100
AcDbSpline
 62
2
  6
CONTINUOUS
 70
0
 71
3
 72
14
 73
10
 74
0
 42
0.0000001
 43
0.0000001
 44
0.0000000001
 40
0.0
 40
0.0
 40
0.0
 40
0.0
 40
0.125
 40
0.25
 40
0.375
 40
0.5
 40
0.625
 40
0.75
 40
1.0
 40
1.0
 40
1.0
 40
1.0
 10
272.7785151058
 20
72.8157788653
 30
0.0
 10
272.7812456968
 20
72.8136982232
 30
0.0
 10
272.7865103544
 20
72.8096341644
 30
0.0
 10
272.7955864865
 20
72.8029547239
 30
0.0
 10
272.8047898156
 20
72.7963704608
 30
0.0
 10
272.8144985382
 20
72.7896500799
 30
0.0
 10
272.8221909369
 20
72.7846480274
 30
0.0
 10
272.8344340515
 20
72.7768663374
 30
0.0
 10
272.843996305
 20
72.7712525148
 30
0.0
 10
272.8503598232
 20
72.7675319104
 30
0.0
  0
SPLINE
  5
4D4
100
AcDbEntity
  8
03___PRT_ALL_CURVES
100
AcDbSpline
 62
2
  6
CONTINUOUS
 70
0
 71
3
 72
21
 73
17
 74
0
 42
0.0000001
 43
0.0000001
 44
0.0000000001
 40
0.0
 40
0.0
 40
0.0
 40
0.0
 40
0.125
 40
0.1875
 40
0.25
 40
0.3125
 40
0.375
 40
0.4375
 40
0.5
 40
0.5625
 40
0.625
 40
0.6875
 40
0.75
 40
0.8125
 40
0.875
 40
1.0
 40
1.0
 40
1.0
 40
1.0
 10
272.6135687603
 20
73.0132950694
 30
0.0
 10
272.6192271005
 20
73.003646415
 30
0.0
 10
272.6276343301
 20
72.9891153197
 30
0.0
 10
272.6391650924
 20
72.9699729811
 30
0.0
 10
272.6487527858
 20
72.956333354
 30
0.0
 10
272.657906289
 20
72.9423055211
 30
0.0
 10
272.6678569316
 20
72.9291133842
 30
0.0
 10
272.6780714697
 20
72.916252409
 30
0.0
 10
272.6879424179
 20
72.9028739613
 30
0.0
 10
272.6989238303
 20
72.8912342418
 30
0.0
 10
272.7095780484
 20
72.8790580768
 30
0.0
 10
272.7204305795
 20
72.8672889659
 30
0.0
 10
272.7318063019
 20
72.8566946935
 30
0.0
 10
272.7428694442
 20
72.8455272325
 30
0.0
 10
272.7585898064
 20
72.8321278393
 30
0.0
 10
272.7705703579
 20
72.8223554017
 30
0.0
 10
272.7785151078
 20
72.8157788638
 30
0.0
  0
SPLINE
  5
4D5
100
AcDbEntity
  8
03___PRT_ALL_CURVES
100
AcDbSpline
 62
2
  6
CONTINUOUS
 70
0
 71
3
 72
12
 73
8
 74
0
 42
0.0000001
 43
0.0000001
 44
0.0000000001
 40
0.0
 40
0.0
 40
0.0
 40
0.0
 40
0.125
 40
0.25
 40
0.5
 40
0.75
 40
1.0
 40
1.0
 40
1.0
 40
1.0
 10
272.5619193767
 20
73.128280886
 30
0.0
 10
272.5636114185
 20
73.1238433245
 30
0.0
 10
272.5668444851
 20
73.115203767
 30
0.0
 10
272.5745187542
 20
73.0960401271
 30
0.0
 10
272.5848453252
 20
73.0715102728
 30
0.0
 10
272.5983052889
 20
73.0429629805
 30
0.0
 10
272.6084179106
 20
73.0232567783
 30
0.0
 10
272.6135687602
 20
73.0132950695
 30
0.0
  0
SPLINE
  5
4D6
100
AcDbEntity
  8
03___PRT_ALL_CURVES
100
AcDbSpline
 62
2
  6
CONTINUOUS
 70
0
 71
3
 72
50
 73
46
 74
0
 42
0.0000001
 43
0.0000001
 44
0.0000000001
 40
0.0
 40
0.0
 40
0.0
 40
0.0
 40
0.0625
 40
0.125
 40
0.140625
 40
0.15625
 40
0.1640625
 40
0.171875
 40
0.1875
 40
0.21875
 40
0.25
 40
0.28125
 40
0.3125
 40
0.328125
 40
0.3359375
 40
0.34375
 40
0.359375
 40
0.375
 40
0.4375
 40
0.46875
 40
0.484375
 40
0.4921875
 40
0.5
 40
0.5078125
 40
0.515625
 40
0.53125
 40
0.5625
 40
0.625
 40
0.640625
 40
0.65625
 40
0.6640625
 40
0.671875
 40
0.6875
 40
0.71875
 40
0.75
 40
0.78125
 40
0.8125
 40
0.828125
 40
0.8359375
 40
0.84375
 40
0.859375
 40
0.875
 40
0.90625
 40
0.9375
 40
1.0
 40
1.0
 40
1.0
 40
1.0
 10
280.4169759052
 20
71.5713075805
 30
0.0
 10
280.4345570101
 20
71.543892351
 30
0.0
 10
280.4697328746
 20
71.489074869
 30
0.0
 10
280.5092442762
 20
71.4273468047
 30
0.0
 10
280.5356748193
 20
71.3862799243
 30
0.0
 10
280.5465552661
 20
71.3690430081
 30
0.0
 10
280.5555681334
 20
71.3555466774
 30
0.0
 10
280.5634527848
 20
71.3409781104
 30
0.0
 10
280.5767262907
 20
71.3149848406
 30
0.0
 10
280.5959653937
 20
71.2781122516
 30
0.0
 10
280.6189221129
 20
71.2337529276
 30
0.0
 10
280.6419565269
 20
71.1894254266
 30
0.0
 10
280.6610013927
 20
71.1524732801
 30
0.0
 10
280.6746148136
 20
71.1266192358
 30
0.0
 10
280.6819556011
 20
71.111827908
 30
0.0
 10
280.6876461774
 20
71.0969708239
 30
0.0
 10
280.6953238045
 20
71.078422013
 30
0.0
 10
280.7132824377
 20
71.0338857113
 30
0.0
 10
280.7344225512
 20
70.9819397609
 30
0.0
 10
280.7554067536
 20
70.9299713668
 30
0.0
 10
280.7660196965
 20
70.9040129944
 30
0.0
 10
280.7718993511
 20
70.8891385742
 30
0.0
 10
280.7768292186
 20
70.8780985741
 30
0.0
 10
280.7797710221
 20
70.8666158463
 30
0.0
 10
280.7843869403
 20
70.8514599174
 30
0.0
 10
280.7921411289
 20
70.8248656532
 30
0.0
 10
280.8078925784
 20
70.7717233214
 30
0.0
 10
280.8234802677
 20
70.7185893645
 30
0.0
 10
280.837018436
 20
70.6729950289
 30
0.0
 10
280.8424418341
 20
70.6540783076
 30
0.0
 10
280.8472848364
 20
70.6387558205
 30
0.0
 10
280.8502847076
 20
70.6241250391
 30
0.0
 10
280.8546776469
 20
70.5988426633
 30
0.0
 10
280.8614041645
 20
70.5625564863
 30
0.0
 10
280.8692701944
 20
70.5190870232
 30
0.0
 10
280.877237965
 20
70.4755913585
 30
0.0
 10
280.8837101309
 20
70.4393706854
 30
0.0
 10
280.8885481856
 20
70.4139736778
 30
0.0
 10
280.8908358722
 20
70.3995263073
 30
0.0
 10
280.8913280859
 20
70.3853242136
 30
0.0
 10
280.8925581208
 20
70.367487614
 30
0.0
 10
280.8941826087
 20
70.3389959889
 30
0.0
 10
280.8963309071
 20
70.3033653803
 30
0.0
 10
280.8997021138
 20
70.2463654324
 30
0.0
 10
280.9022453847
 20
70.2036134406
 30
0.0
 10
280.9039375951
 20
70.175112564
 30
0.0
  0
SPLINE
  5
4D7
100
AcDbEntity
  8
03___PRT_ALL_CURVES
100
AcDbSpline
 62
2
  6
CONTINUOUS
 70
0
 71
3
 72
36
 73
32
 74
0
 42
0.0000001
 43
0.0000001
 44
0.0000000001
 40
0.0
 40
0.0
 40
0.0
 40
0.0
 40
0.0625
 40
0.125
 40
0.15625
 40
0.171875
 40
0.1875
 40
0.25
 40
0.3125
 40
0.328125
 40
0.34375
 40
0.375
 40
0.4375
 40
0.46875
 40
0.484375
 40
0.5
 40
0.515625
 40
0.53125
 40
0.5625
 40
0.625
 40
0.65625
 40
0.671875
 40
0.6875
 40
0.75
 40
0.78125
 40
0.8125
 40
0.828125
 40
0.84375
 40
0.875
 40
0.9375
 40
1.0
 40
1.0
 40
1.0
 40
1.0
 10
279.7985162326
 20
72.1683529358
 30
0.0
 10
279.8122295341
 20
72.1594742745
 30
0.0
 10
279.839659202
 20
72.1417464624
 30
0.0
 10
279.8739309623
 20
72.1194391454
 30
0.0
 10
279.8979493533
 20
72.1040951501
 30
0.0
 10
279.9116304734
 20
72.0949066299
 30
0.0
 10
279.9319116362
 20
72.078823155
 30
0.0
 10
279.9624563583
 20
72.0557685581
 30
0.0
 10
279.9928699452
 20
72.0318825414
 30
0.0
 10
280.0132822431
 20
72.0166304862
 30
0.0
 10
280.0265845286
 20
72.005040087
 30
0.0
 10
280.0497184265
 20
71.9840806068
 30
0.0
 10
280.0762061237
 20
71.9603795235
 30
0.0
 10
280.0993994491
 20
71.9396542604
 30
0.0
 10
280.112599859
 20
71.9276623463
 30
0.0
 10
280.122654183
 20
71.9191113633
 30
0.0
 10
280.1321189001
 20
71.9088630232
 30
0.0
 10
280.1449435779
 20
71.8957894565
 30
0.0
 10
280.16729731
 20
71.8726471539
 30
0.0
 10
280.1928426662
 20
71.8462334218
 30
0.0
 10
280.2152889432
 20
71.8232941061
 30
0.0
 10
280.2279549727
 20
71.809872562
 30
0.0
 10
280.2460754387
 20
71.7880196987
 30
0.0
 10
280.2675080224
 20
71.7630831324
 30
0.0
 10
280.2918797017
 20
71.734390092
 30
0.0
 10
280.3070849967
 20
71.7163039924
 30
0.0
 10
280.3193447191
 20
71.7022507181
 30
0.0
 10
280.3312440994
 20
71.6866573815
 30
0.0
 10
280.3518999679
 20
71.6586521073
 30
0.0
 10
280.3814967972
 20
71.6190219071
 30
0.0
 10
280.4051473058
 20
71.5872027498
 30
0.0
 10
280.4169759294
 20
71.5713075457
 30
0.0
  0
SPLINE
  5
4D8
100
AcDbEntity
  8
03___PRT_ALL_CURVES
100
AcDbSpline
 62
2
  6
CONTINUOUS
 70
0
 71
3
 72
46
 73
42
 74
0
 42
0.0000001
 43
0.0000001
 44
0.0000000001
 40
0.0
 40
0.0
 40
0.0
 40
0.0
 40
0.0625
 40
0.125
 40
0.140625
 40
0.15625
 40
0.1640625
 40
0.171875
 40
0.1875
 40
0.21875
 40
0.25
 40
0.28125
 40
0.3125
 40
0.328125
 40
0.3359375
 40
0.34375
 40
0.359375
 40
0.375
 40
0.4375
 40
0.46875
 40
0.484375
 40
0.5
 40
0.515625
 40
0.53125
 40
0.5625
 40
0.625
 40
0.640625
 40
0.65625
 40
0.6640625
 40
0.671875
 40
0.6875
 40
0.71875
 40
0.75
 40
0.78125
 40
0.8125
 40
0.828125
 40
0.84375
 40
0.859375
 40
0.875
 40
0.9375
 40
1.0
 40
1.0
 40
1.0
 40
1.0
 10
279.0683283948
 20
72.2789856339
 30
0.0
 10
279.0808341071
 20
72.282927776
 30
0.0
 10
279.1058367305
 20
72.2908260876
 30
0.0
 10
279.1340042869
 20
72.2996485649
 30
0.0
 10
279.1527249004
 20
72.3056222712
 30
0.0
 10
279.160610417
 20
72.3079754251
 30
0.0
 10
279.1667199798
 20
72.3101748797
 30
0.0
 10
279.1735567356
 20
72.3112153208
 30
0.0
 10
279.1858590784
 20
72.3124972342
 30
0.0
 10
279.2032563915
 20
72.3146122905
 30
0.0
 10
279.2242123687
 20
72.3170200274
 30
0.0
 10
279.2451354795
 20
72.3194950848
 30
0.0
 10
279.2626149589
 20
72.3214418399
 30
0.0
 10
279.2747735107
 20
72.3230182804
 30
0.0
 10
279.281840332
 20
72.3235874781
 30
0.0
 10
279.2893551979
 20
72.3229085325
 30
0.0
 10
279.2985958069
 20
72.322485842
 30
0.0
 10
279.3208976791
 20
72.3211262963
 30
0.0
 10
279.3468928237
 20
72.3195902709
 30
0.0
 10
279.3728502277
 20
72.3182058643
 30
0.0
 10
279.387763984
 20
72.3171204949
 30
0.0
 10
279.3987172223
 20
72.3171459878
 30
0.0
 10
279.4105582991
 20
72.3139605408
 30
0.0
 10
279.4260368189
 20
72.3108326581
 30
0.0
 10
279.4532674107
 20
72.3048436636
 30
0.0
 10
279.4804515631
 20
72.2990074955
 30
0.0
 10
279.5037495054
 20
72.2940455804
 30
0.0
 10
279.513483695
 20
72.2918378168
 30
0.0
 10
279.5212072098
 20
72.2904042719
 30
0.0
 10
279.5291647014
 20
72.2877523027
 30
0.0
 10
279.5431991119
 20
72.2825443851
 30
0.0
 10
279.5631910294
 20
72.27540602
 30
0.0
 10
279.5872073982
 20
72.2666886343
 30
0.0
 10
279.6112110801
 20
72.2580942116
 30
0.0
 10
279.6312347148
 20
72.2506484392
 30
0.0
 10
279.6472106066
 20
72.2453113481
 30
0.0
 10
279.6593092334
 20
72.2396202013
 30
0.0
 10
279.6714405343
 20
72.2334561681
 30
0.0
 10
279.6956863246
 20
72.2213714126
 30
0.0
 10
279.7320621278
 20
72.2031412647
 30
0.0
 10
279.7643932828
 20
72.1869785487
 30
0.0
 10
279.7805592218
 20
72.1788919583
 30
0.0
  0
SPLINE
  5
4D9
100
AcDbEntity
  8
03___PRT_ALL_CURVES
100
AcDbSpline
 62
2
  6
CONTINUOUS
 70
0
 71
3
 72
51
 73
47
 74
0
 42
0.0000001
 43
0.0000001
 44
0.0000000001
 40
0.0
 40
0.0
 40
0.0
 40
0.0
 40
0.0625
 40
0.09375
 40
0.125
 40
0.140625
 40
0.15625
 40
0.1640625
 40
0.171875
 40
0.1875
 40
0.21875
 40
0.25
 40
0.28125
 40
0.3125
 40
0.328125
 40
0.3359375
 40
0.34375
 40
0.359375
 40
0.375
 40
0.4375
 40
0.46875
 40
0.484375
 40
0.4921875
 40
0.5
 40
0.5078125
 40
0.515625
 40
0.53125
 40
0.5625
 40
0.625
 40
0.640625
 40
0.65625
 40
0.6640625
 40
0.671875
 40
0.6875
 40
0.71875
 40
0.75
 40
0.78125
 40
0.8125
 40
0.828125
 40
0.8359375
 40
0.84375
 40
0.859375
 40
0.875
 40
0.90625
 40
0.9375
 40
1.0
 40
1.0
 40
1.0
 40
1.0
 10
278.6619089447
 20
71.4695190996
 30
0.0
 10
278.6633797931
 20
71.4929580216
 30
0.0
 10
278.6655900912
 20
71.5281134274
 30
0.0
 10
278.6685210536
 20
71.5749992109
 30
0.0
 10
278.6703864503
 20
71.6042780148
 30
0.0
 10
278.6718022846
 20
71.6277576265
 30
0.0
 10
278.6728616162
 20
71.6423033678
 30
0.0
 10
278.6733095579
 20
71.654235457
 30
0.0
 10
278.6752160457
 20
71.6650887744
 30
0.0
 10
278.6792303922
 20
71.6835806342
 30
0.0
 10
278.6846082311
 20
71.7102614818
 30
0.0
 10
278.6912252607
 20
71.7421579165
 30
0.0
 10
278.6977589053
 20
71.7741144327
 30
0.0
 10
278.7033452069
 20
71.8006450764
 30
0.0
 10
278.7069947436
 20
71.8193997929
 30
0.0
 10
278.7094849271
 20
71.8298325396
 30
0.0
 10
278.7134987073
 20
71.8391952826
 30
0.0
 10
278.7179948594
 20
71.8512648149
 30
0.0
 10
278.7292171364
 20
71.8799271091
 30
0.0
 10
278.7421388366
 20
71.9135029574
 30
0.0
 10
278.7551958329
 20
71.9469358008
 30
0.0
 10
278.7616239606
 20
71.9637848268
 30
0.0
 10
278.7654499121
 20
71.9732059492
 30
0.0
 10
278.7678898458
 20
71.9808545814
 30
0.0
 10
278.7719715314
 20
71.9862754984
 30
0.0
 10
278.7768410888
 20
71.9942804748
 30
0.0
 10
278.7856299282
 20
72.0079267737
 30
0.0
 10
278.8030088622
 20
72.0354885808
 30
0.0
 10
278.8205118091
 20
72.062884771
 30
0.0
 10
278.8353905536
 20
72.0865298207
 30
0.0
 10
278.8417372791
 20
72.0961897883
 30
0.0
 10
278.8464736411
 20
72.1043626298
 30
0.0
 10
278.8524562776
 20
72.1109097108
 30
0.0
 10
278.8635052784
 20
72.1216113127
 30
0.0
 10
278.8789844968
 20
72.1372971475
 30
0.0
 10
278.8976995743
 20
72.1559380754
 30
0.0
 10
278.9163426996
 20
72.1746707672
 30
0.0
 10
278.9320017987
 20
72.1901271925
 30
0.0
 10
278.9427360082
 20
72.2012302609
 30
0.0
 10
278.9492223108
 20
72.2071349956
 30
0.0
 10
278.957035626
 20
72.211383671
 30
0.0
 10
278.9663479025
 20
72.217261548
 30
0.0
 10
278.9815014719
 20
72.2263492603
 30
0.0
 10
279.0003564515
 20
72.237817451
 30
0.0
 10
279.0305732508
 20
72.2561056156
 30
0.0
 10
279.0532248631
 20
72.2698354507
 30
0.0
 10
279.0683283796
 20
72.2789856271
 30
0.0
  0
SPLINE
  5
4DA
100
AcDbEntity
  8
03___PRT_ALL_CURVES
100
AcDbSpline
 62
2
  6
CONTINUOUS
 70
0
 71
3
 72
50
 73
46
 74
0
 42
0.0000001
 43
0.0000001
 44
0.0000000001
 40
0.0
 40
0.0
 40
0.0
 40
0.0
 40
0.0625
 40
0.125
 40
0.140625
 40
0.15625
 40
0.1640625
 40
0.171875
 40
0.1875
 40
0.21875
 40
0.25
 40
0.28125
 40
0.3125
 40
0.328125
 40
0.3359375
 40
0.34375
 40
0.359375
 40
0.375
 40
0.4375
 40
0.46875
 40
0.484375
 40
0.4921875
 40
0.5
 40
0.5078125
 40
0.515625
 40
0.53125
 40
0.5625
 40
0.625
 40
0.640625
 40
0.65625
 40
0.6640625
 40
0.671875
 40
0.6875
 40
0.71875
 40
0.75
 40
0.78125
 40
0.8125
 40
0.828125
 40
0.8359375
 40
0.84375
 40
0.859375
 40
0.875
 40
0.90625
 40
0.9375
 40
1.0
 40
1.0
 40
1.0
 40
1.0
 10
279.1455343943
 20
70.0802550948
 30
0.0
 10
279.1280962134
 20
70.1074042575
 30
0.0
 10
279.0932063445
 20
70.1616896928
 30
0.0
 10
279.0540160237
 20
70.2228188138
 30
0.0
 10
279.0278005032
 20
70.2634869686
 30
0.0
 10
279.0170082191
 20
70.2805569077
 30
0.0
 10
279.0080692172
 20
70.2939216192
 30
0.0
 10
279.0002462341
 20
70.3083513903
 30
0.0
 10
278.9870749512
 20
70.3340985039
 30
0.0
 10
278.9679850685
 20
70.3706206217
 30
0.0
 10
278.9452051345
 20
70.4145611732
 30
0.0
 10
278.9223515222
 20
70.4584608413
 30
0.0
 10
278.9034458352
 20
70.4950851674
 30
0.0
 10
278.8899522099
 20
70.5206534165
 30
0.0
 10
278.8826449745
 20
70.535369371
 30
0.0
 10
278.8768565233
 20
70.550482236
 30
0.0
 10
278.8691014533
 20
70.5692376349
 30
0.0
 10
278.8509201913
 20
70.614362411
 30
0.0
 10
278.8295302038
 20
70.6669698013
 30
0.0
 10
278.8082987189
 20
70.7195938956
 30
0.0
 10
278.7975523316
 20
70.7459037957
 30
0.0
 10
278.7916128583
 20
70.7609393187
 30
0.0
 10
278.7865916223
 20
70.7722126915
 30
0.0
 10
278.7837362505
 20
70.7834984946
 30
0.0
 10
278.7791735641
 20
70.7985419191
 30
0.0
 10
278.7715413411
 20
70.8248696919
 30
0.0
 10
278.7560136579
 20
70.8775265212
 30
0.0
 10
278.7406554846
 20
70.9301685287
 30
0.0
 10
278.7273161271
 20
70.9753210934
 30
0.0
 10
278.7219693574
 20
70.9940903135
 30
0.0
 10
278.7172023524
 20
71.0092090417
 30
0.0
 10
278.7142246677
 20
71.0239498399
 30
0.0
 10
278.7098455591
 20
71.0495704431
 30
0.0
 10
278.7031517728
 20
71.0862644936
 30
0.0
 10
278.6953198823
 20
71.1302518623
 30
0.0
 10
278.6873860467
 20
71.1742720965
 30
0.0
 10
278.6809471231
 20
71.2108839831
 30
0.0
 10
278.6761220049
 20
71.2366483731
 30
0.0
 10
278.6738579355
 20
71.2511591124
 30
0.0
 10
278.6734504762
 20
71.2648723861
 30
0.0
 10
278.672305451
 20
71.2822870294
 30
0.0
 10
278.6708286774
 20
71.3099978619
 30
0.0
 10
278.6688610144
 20
71.3446886744
 30
0.0
 10
278.6657810742
 20
71.4001646286
 30
0.0
 10
278.6634557469
 20
71.4417781971
 30
0.0
 10
278.6619089448
 20
71.4695191088
 30
0.0
  0
SPLINE
  5
4DB
100
AcDbEntity
  8
03___PRT_ALL_CURVES
100
AcDbSpline
 62
2
  6
CONTINUOUS
 70
0
 71
3
 72
35
 73
31
 74
0
 42
0.0000001
 43
0.0000001
 44
0.0000000001
 40
0.0
 40
0.0
 40
0.0
 40
0.0
 40
0.0625
 40
0.125
 40
0.15625
 40
0.171875
 40
0.1875
 40
0.25
 40
0.3125
 40
0.328125
 40
0.34375
 40
0.375
 40
0.4375
 40
0.46875
 40
0.484375
 40
0.5
 40
0.515625
 40
0.53125
 40
0.5625
 40
0.625
 40
0.65625
 40
0.671875
 40
0.6875
 40
0.75
 40
0.8125
 40
0.828125
 40
0.84375
 40
0.875
 40
0.9375
 40
1.0
 40
1.0
 40
1.0
 40
1.0
 10
279.7625940368
 20
69.4859811473
 30
0.0
 10
279.7488480319
 20
69.4948796651
 30
0.0
 10
279.7213529522
 20
69.5126471185
 30
0.0
 10
279.6869994522
 20
69.5350043463
 30
0.0
 10
279.6629237972
 20
69.5503826193
 30
0.0
 10
279.6492100267
 20
69.5595917501
 30
0.0
 10
279.6288802855
 20
69.5757117402
 30
0.0
 10
279.5982624853
 20
69.598818503
 30
0.0
 10
279.5677760671
 20
69.6227587142
 30
0.0
 10
279.5473149439
 20
69.638045256
 30
0.0
 10
279.5339807216
 20
69.6496621265
 30
0.0
 10
279.5107912247
 20
69.6706695864
 30
0.0
 10
279.4842398895
 20
69.6944248862
 30
0.0
 10
279.4609908431
 20
69.7151975549
 30
0.0
 10
279.4477587057
 20
69.7272169247
 30
0.0
 10
279.4376802575
 20
69.7357874084
 30
0.0
 10
279.4281926738
 20
69.7460594302
 30
0.0
 10
279.4153370674
 20
69.7591631132
 30
0.0
 10
279.3929294243
 20
69.7823588093
 30
0.0
 10
279.3673223075
 20
69.8088332089
 30
0.0
 10
279.3448221646
 20
69.8318258469
 30
0.0
 10
279.3321251293
 20
69.8452776293
 30
0.0
 10
279.3139633343
 20
69.8671857967
 30
0.0
 10
279.2862977711
 20
69.8992469184
 30
0.0
 10
279.2589980539
 20
69.9319168165
 30
0.0
 10
279.2404704128
 20
69.9532162076
 30
0.0
 10
279.2288302662
 20
69.9684266769
 30
0.0
 10
279.2088016682
 20
69.9955293246
 30
0.0
 10
279.1800095651
 20
70.0339924841
 30
0.0
 10
279.1570306849
 20
70.0648406981
 30
0.0
 10
279.1455343946
 20
70.0802550943
 30
0.0
  0
SPLINE
  5
4DC
100
AcDbEntity
  8
03___PRT_ALL_CURVES
100
AcDbSpline
 62
2
  6
CONTINUOUS
 70
0
 71
3
 72
45
 73
41
 74
0
 42
0.0000001
 43
0.0000001
 44
0.0000000001
 40
0.0
 40
0.0
 40
0.0
 40
0.0
 40
0.0625
 40
0.125
 40
0.140625
 40
0.15625
 40
0.1640625
 40
0.171875
 40
0.1875
 40
0.21875
 40
0.25
 40
0.28125
 40
0.3125
 40
0.328125
 40
0.3359375
 40
0.34375
 40
0.359375
 40
0.375
 40
0.4375
 40
0.46875
 40
0.484375
 40
0.5
 40
0.515625
 40
0.53125
 40
0.5625
 40
0.625
 40
0.65625
 40
0.671875
 40
0.6875
 40
0.71875
 40
0.75
 40
0.78125
 40
0.8125
 40
0.828125
 40
0.8359375
 40
0.84375
 40
0.859375
 40
0.875
 40
0.9375
 40
1.0
 40
1.0
 40
1.0
 40
1.0
 10
280.4945749346
 20
69.3718413869
 30
0.0
 10
280.4819034313
 20
69.3679895588
 30
0.0
 10
280.4565692527
 20
69.3602717211
 30
0.0
 10
280.428028576
 20
69.3516529706
 30
0.0
 10
280.4090593916
 20
69.3458140706
 30
0.0
 10
280.4010700441
 20
69.3435185791
 30
0.0
 10
280.3948780222
 20
69.3413617722
 30
0.0
 10
280.3879565926
 20
69.3403767133
 30
0.0
 10
280.3755050909
 20
69.3391976314
 30
0.0
 10
280.3578948438
 20
69.3372264204
 30
0.0
 10
280.3366848646
 20
69.3349924559
 30
0.0
 10
280.3155014363
 20
69.3326914298
 30
0.0
 10
280.2978248117
 20
69.3308878726
 30
0.0
 10
280.2854894706
 20
69.3294153966
 30
0.0
 10
280.2783821842
 20
69.3288997682
 30
0.0
 10
280.2710549435
 20
69.3296102873
 30
0.0
 10
280.2619707782
 20
69.3300799668
 30
0.0
 10
280.2401097432
 20
69.3315460601
 30
0.0
 10
280.2145950518
 20
69.3332088197
 30
0.0
 10
280.1891624704
 20
69.3347181227
 30
0.0
 10
280.174495767
 20
69.3358763465
 30
0.0
 10
280.1638736789
 20
69.3359015642
 30
0.0
 10
280.151806733
 20
69.3391527003
 30
0.0
 10
280.1362215179
 20
69.3423645198
 30
0.0
 10
280.1087119106
 20
69.3484862902
 30
0.0
 10
280.0773749472
 20
69.3554156645
 30
0.0
 10
280.0499212919
 20
69.3611534844
 30
0.0
 10
280.034240159
 20
69.3650235048
 30
0.0
 10
280.0185715679
 20
69.3711440338
 30
0.0
 10
279.9989822074
 20
69.3780203663
 30
0.0
 10
279.9754735455
 20
69.3866129802
 30
0.0
 10
279.9519763957
 20
69.3950804604
 30
0.0
 10
279.932358255
 20
69.4022696271
 30
0.0
 10
279.9186986032
 20
69.40707763
 30
0.0
 10
279.9107790197
 20
69.4101698896
 30
0.0
 10
279.9024298575
 20
69.4145592644
 30
0.0
 10
279.8921402397
 20
69.4196026139
 30
0.0
 10
279.867324277
 20
69.4320716501
 30
0.0
 10
279.830151512
 20
69.4506206692
 30
0.0
 10
279.7970882576
 20
69.4671714814
 30
0.0
 10
279.78055923
 20
69.4754390381
 30
0.0
  0
SPLINE
  5
4DD
100
AcDbEntity
  8
03___PRT_ALL_CURVES
100
AcDbSpline
 62
2
  6
CONTINUOUS
 70
0
 71
3
 72
31
 73
27
 74
0
 42
0.0000001
 43
0.0000001
 44
0.0000000001
 40
0.0
 40
0.0
 40
0.0
 40
0.0
 40
0.0625
 40
0.125
 40
0.15625
 40
0.1875
 40
0.25
 40
0.3125
 40
0.34375
 40
0.375
 40
0.4375
 40
0.46875
 40
0.5
 40
0.53125
 40
0.5625
 40
0.625
 40
0.65625
 40
0.671875
 40
0.6875
 40
0.75
 40
0.8125
 40
0.828125
 40
0.84375
 40
0.875
 40
0.9375
 40
1.0
 40
1.0
 40
1.0
 40
1.0
 10
296.0592279315
 20
59.5624103677
 30
0.0
 10
296.063256186
 20
59.5530898661
 30
0.0
 10
296.0712588184
 20
59.5344299907
 30
0.0
 10
296.0815314919
 20
59.5111995069
 30
0.0
 10
296.0891839264
 20
59.4924169631
 30
0.0
 10
296.0988836717
 20
59.4743515581
 30
0.0
 10
296.1117709177
 20
59.4520608756
 30
0.0
 10
296.1241855224
 20
59.4295167806
 30
0.0
 10
296.1346414938
 20
59.4118568356
 30
0.0
 10
296.146823382
 20
59.3955216125
 30
0.0
 10
296.1584603464
 20
59.3787326741
 30
0.0
 10
296.1704376444
 20
59.3623113403
 30
0.0
 10
296.1789445409
 20
59.3493462414
 30
0.0
 10
296.1891855787
 20
59.3387937344
 30
0.0
 10
296.2022282544
 20
59.32386581
 30
0.0
 10
296.2154748952
 20
59.309260192
 30
0.0
 10
296.2269319497
 20
59.2961972285
 30
0.0
 10
296.2336061519
 20
59.2890567495
 30
0.0
 10
296.244281529
 20
59.2800762066
 30
0.0
 10
296.2599925001
 20
59.2657839675
 30
0.0
 10
296.2759157386
 20
59.2521821638
 30
0.0
 10
296.2863788483
 20
59.2425111855
 30
0.0
 10
296.2936662675
 20
59.2373652976
 30
0.0
 10
296.3065684641
 20
59.2289845908
 30
0.0
 10
296.3249216403
 20
59.2166834173
 30
0.0
 10
296.3396281153
 20
59.2069426644
 30
0.0
 10
296.346978361
 20
59.2020597648
 30
0.0
  0
SPLINE
  5
4DE
100
AcDbEntity
  8
03___PRT_ALL_CURVES
100
AcDbSpline
 62
2
  6
CONTINUOUS
 70
0
 71
3
 72
15
 73
11
 74
0
 42
0.0000001
 43
0.0000001
 44
0.0000000001
 40
0.0
 40
0.0
 40
0.0
 40
0.0
 40
0.125
 40
0.25
 40
0.375
 40
0.5
 40
0.625
 40
0.75
 40
0.875
 40
1.0
 40
1.0
 40
1.0
 40
1.0
 10
296.0260740024
 20
59.6676886655
 30
0.0
 10
296.0271865825
 20
59.6636417692
 30
0.0
 10
296.029385954
 20
59.6555397952
 30
0.0
 10
296.0328397432
 20
59.6434359225
 30
0.0
 10
296.0364900094
 20
59.6310659606
 30
0.0
 10
296.0412050063
 20
59.6155640318
 30
0.0
 10
296.0447373064
 20
59.6046558693
 30
0.0
 10
296.0493927915
 20
59.5906083722
 30
0.0
 10
296.054255487
 20
59.5763609917
 30
0.0
 10
296.0575771013
 20
59.5670785614
 30
0.0
 10
296.0592279313
 20
59.5624103683
 30
0.0
  0
SPLINE
  5
4DF
100
AcDbEntity
  8
03___PRT_ALL_CURVES
100
AcDbSpline
 62
2
  6
CONTINUOUS
 70
0
 71
3
 72
17
 73
13
 74
0
 42
0.0000001
 43
0.0000001
 44
0.0000000001
 40
0.0
 40
0.0
 40
0.0
 40
0.0
 40
0.125
 40
0.1875
 40
0.25
 40
0.375
 40
0.5
 40
0.625
 40
0.75
 40
0.8125
 40
0.875
 40
1.0
 40
1.0
 40
1.0
 40
1.0
 10
272.5287779936
 20
73.2335735565
 30
0.0
 10
272.52987678
 20
73.2295673664
 30
0.0
 10
272.5314856956
 20
73.2236580148
 30
0.0
 10
272.5337879728
 20
73.2153791451
 30
0.0
 10
272.5366070577
 20
73.2057227059
 30
0.0
 10
272.539959769
 20
73.194321032
 30
0.0
 10
272.5432568057
 20
73.183471023
 30
0.0
 10
272.5481875394
 20
73.1681753086
 30
0.0
 10
272.551663983
 20
73.1577607341
 30
0.0
 10
272.5542358989
 20
73.1500672355
 30
0.0
 10
272.5575438431
 20
73.1406301156
 30
0.0
 10
272.5601913717
 20
73.1331695504
 30
0.0
 10
272.5619193751
 20
73.1282808904
 30
0.0
  0
SPLINE
  5
4E0
100
AcDbEntity
  8
03___PRT_ALL_CURVES
100
AcDbSpline
 62
2
  6
CONTINUOUS
 70
0
 71
3
 72
20
 73
16
 74
0
 42
0.0000001
 43
0.0000001
 44
0.0000000001
 40
0.0
 40
0.0
 40
0.0
 40
0.0
 40
0.125
 40
0.1875
 40
0.25
 40
0.3125
 40
0.375
 40
0.4375
 40
0.5
 40
0.5625
 40
0.625
 40
0.75
 40
0.8125
 40
0.875
 40
1.0
 40
1.0
 40
1.0
 40
1.0
 10
268.5500339218
 20
77.5075372896
 30
0.0
 10
268.5416183678
 20
77.5096619142
 30
0.0
 10
268.5290106534
 20
77.5127697518
 30
0.0
 10
268.5121379011
 20
77.5172299328
 30
0.0
 10
268.4993023558
 20
77.5215156824
 30
0.0
 10
268.4865476735
 20
77.5253439936
 30
0.0
 10
268.4736505203
 20
77.5300614447
 30
0.0
 10
268.46070834
 20
77.5350985575
 30
0.0
 10
268.4478217154
 20
77.5396772749
 30
0.0
 10
268.434757895
 20
77.5457699122
 30
0.0
 10
268.4174257642
 20
77.5531603411
 30
0.0
 10
268.3999302468
 20
77.5619214553
 30
0.0
 10
268.3826106161
 20
77.5704222813
 30
0.0
 10
268.36463892
 20
77.5803379813
 30
0.0
 10
268.3510117888
 20
77.5881067842
 30
0.0
 10
268.3419600034
 20
77.5932122022
 30
0.0
  0
SPLINE
  5
4E1
100
AcDbEntity
  8
03___PRT_ALL_CURVES
100
AcDbSpline
 62
2
  6
CONTINUOUS
 70
0
 71
3
 72
46
 73
42
 74
0
 42
0.0000001
 43
0.0000001
 44
0.0000000001
 40
0.0
 40
0.0
 40
0.0
 40
0.0
 40
0.0625
 40
0.125
 40
0.140625
 40
0.15625
 40
0.171875
 40
0.1875
 40
0.21875
 40
0.25
 40
0.28125
 40
0.3125
 40
0.328125
 40
0.3359375
 40
0.34375
 40
0.359375
 40
0.375
 40
0.4375
 40
0.46875
 40
0.484375
 40
0.5
 40
0.515625
 40
0.53125
 40
0.5625
 40
0.625
 40
0.640625
 40
0.65625
 40
0.6640625
 40
0.671875
 40
0.6875
 40
0.71875
 40
0.75
 40
0.78125
 40
0.8125
 40
0.828125
 40
0.8359375
 40
0.84375
 40
0.859375
 40
0.875
 40
0.9375
 40
1.0
 40
1.0
 40
1.0
 40
1.0
 10
268.868303682
 20
77.7237303107
 30
0.0
 10
268.865391897
 20
77.7141872149
 30
0.0
 10
268.8595602421
 20
77.695108314
 30
0.0
 10
268.8530360126
 20
77.6736117432
 30
0.0
 10
268.8486334688
 20
77.6593285398
 30
0.0
 10
268.8465261843
 20
77.6521021863
 30
0.0
 10
268.8440535616
 20
77.6452052713
 30
0.0
 10
268.8390176617
 20
77.6375777148
 30
0.0
 10
268.8333208158
 20
77.6275034463
 30
0.0
 10
268.8262226662
 20
77.6156529781
 30
0.0
 10
268.8192154086
 20
77.6037116108
 30
0.0
 10
268.8132913324
 20
77.5938645901
 30
0.0
 10
268.809282573
 20
77.5867927946
 30
0.0
 10
268.8067805294
 20
77.5830271862
 30
0.0
 10
268.8034838942
 20
77.580297568
 30
0.0
 10
268.7996343917
 20
77.5765320297
 30
0.0
 10
268.7901749619
 20
77.5677805164
 30
0.0
 10
268.779180851
 20
77.557535814
 30
0.0
 10
268.7682541144
 20
77.547144866
 30
0.0
 10
268.7618660411
 20
77.5414816162
 30
0.0
 10
268.7574884077
 20
77.5364526591
 30
0.0
 10
268.7515292002
 20
77.5344125636
 30
0.0
 10
268.744134926
 20
77.5306504833
 30
0.0
 10
268.7309414287
 20
77.5245463333
 30
0.0
 10
268.7178217801
 20
77.5183003674
 30
0.0
 10
268.7065992037
 20
77.5129080803
 30
0.0
 10
268.701849903
 20
77.5107931621
 30
0.0
 10
268.698223924
 20
77.5087886042
 30
0.0
 10
268.6939626807
 20
77.5079290451
 30
0.0
 10
268.6862101652
 20
77.5069572359
 30
0.0
 10
268.6752902553
 20
77.5052886086
 30
0.0
 10
268.662116887
 20
77.5034148736
 30
0.0
 10
268.6489732446
 20
77.5014751933
 30
0.0
 10
268.6379790198
 20
77.4999714293
 30
0.0
 10
268.6303565553
 20
77.4987111095
 30
0.0
 10
268.6258872304
 20
77.4983131672
 30
0.0
 10
268.6209902783
 20
77.499128219
 30
0.0
 10
268.6150152561
 20
77.4997324182
 30
0.0
 10
268.600554872
 20
77.501523823
 30
0.0
 10
268.5789152423
 20
77.5040664168
 30
0.0
 10
268.5596593139
 20
77.5063852231
 30
0.0
 10
268.5500339374
 20
77.5075372859
 30
0.0
  0
SPLINE
  5
4E2
100
AcDbEntity
  8
03___PRT_ALL_CURVES
100
AcDbSpline
 62
2
  6
CONTINUOUS
 70
0
 71
3
 72
9
 73
5
 74
0
 42
0.0000001
 43
0.0000001
 44
0.0000000001
 40
0.0
 40
0.0
 40
0.0
 40
0.0
 40
0.5
 40
1.0
 40
1.0
 40
1.0
 40
1.0
 10
268.8811297918
 20
77.8714463179
 30
0.0
 10
268.8807794794
 20
77.8458992463
 30
0.0
 10
268.8793737484
 20
77.7951615774
 30
0.0
 10
268.8723893328
 20
77.7482536146
 30
0.0
 10
268.8683036812
 20
77.7237303064
 30
0.0
  0
SPLINE
  5
4E3
100
AcDbEntity
  8
03___PRT_ALL_CURVES
100
AcDbSpline
 62
2
  6
CONTINUOUS
 70
0
 71
3
 72
31
 73
27
 74
0
 42
0.0000001
 43
0.0000001
 44
0.0000000001
 40
0.0
 40
0.0
 40
0.0
 40
0.0
 40
0.0625
 40
0.125
 40
0.15625
 40
0.1875
 40
0.25
 40
0.3125
 40
0.34375
 40
0.375
 40
0.4375
 40
0.46875
 40
0.5
 40
0.53125
 40
0.5625
 40
0.625
 40
0.65625
 40
0.671875
 40
0.6875
 40
0.75
 40
0.8125
 40
0.828125
 40
0.84375
 40
0.875
 40
0.9375
 40
1.0
 40
1.0
 40
1.0
 40
1.0
 10
292.2890344403
 20
61.7279530796
 30
0.0
 10
292.2949762619
 20
61.7178484624
 30
0.0
 10
292.3068207493
 20
61.6976084175
 30
0.0
 10
292.3218221372
 20
61.6724624139
 30
0.0
 10
292.3334121124
 20
61.6520221006
 30
0.0
 10
292.3464900052
 20
61.6327525869
 30
0.0
 10
292.3633908232
 20
61.6091209197
 30
0.0
 10
292.3799509078
 20
61.5851487979
 30
0.0
 10
292.393573974
 20
61.5664240115
 30
0.0
 10
292.4084352806
 20
61.5492559591
 30
0.0
 10
292.4228890898
 20
61.5315826364
 30
0.0
 10
292.4376367108
 20
61.514257574
 30
0.0
 10
292.4482234885
 20
61.5007242665
 30
0.0
 10
292.4605591127
 20
61.4891748717
 30
0.0
 10
292.4763932351
 20
61.4730661241
 30
0.0
 10
292.4924099238
 20
61.4572468786
 30
0.0
 10
292.5063478184
 20
61.4431107409
 30
0.0
 10
292.5143525459
 20
61.4353927076
 30
0.0
 10
292.5265510685
 20
61.4257450088
 30
0.0
 10
292.5447432971
 20
61.4103821373
 30
0.0
 10
292.5630706
 20
61.3956905322
 30
0.0
 10
292.5751340483
 20
61.385371567
 30
0.0
 10
292.5835289904
 20
61.3795927476
 30
0.0
 10
292.5983899748
 20
61.3700069792
 30
0.0
 10
292.6195305653
 20
61.3560355687
 30
0.0
 10
292.6364702795
 20
61.3449429982
 30
0.0
 10
292.6449367313
 20
61.3393861432
 30
0.0
  0
SPLINE
  5
4E4
100
AcDbEntity
  8
03___PRT_ALL_CURVES
100
AcDbSpline
 62
2
  6
CONTINUOUS
 70
0
 71
3
 72
21
 73
17
 74
0
 42
0.0000001
 43
0.0000001
 44
0.0000000001
 40
0.0
 40
0.0
 40
0.0
 40
0.0
 40
0.125
 40
0.25
 40
0.3125
 40
0.34375
 40
0.375
 40
0.4375
 40
0.5
 40
0.5625
 40
0.625
 40
0.75
 40
0.8125
 40
0.84375
 40
0.875
 40
1.0
 40
1.0
 40
1.0
 40
1.0
 10
292.2195774935
 20
61.8709846643
 30
0.0
 10
292.2221055798
 20
61.8653872478
 30
0.0
 10
292.2271182394
 20
61.8542041498
 30
0.0
 10
292.2336016291
 20
61.8401666019
 30
0.0
 10
292.238066541
 20
61.8305305205
 30
0.0
 10
292.2407718157
 20
61.8247392689
 30
0.0
 10
292.244087452
 20
61.8178287626
 30
0.0
 10
292.2479542719
 20
61.8097419117
 30
0.0
 10
292.253011996
 20
61.7990704193
 30
0.0
 10
292.25684392
 20
61.7913859609
 30
0.0
 10
292.2623535159
 20
61.78010372
 30
0.0
 10
292.2679125285
 20
61.7690651891
 30
0.0
 10
292.272696923
 20
61.7595576537
 30
0.0
 10
292.2756322017
 20
61.7537754282
 30
0.0
 10
292.2811677041
 20
61.7431447286
 30
0.0
 10
292.2854856788
 20
61.7347955418
 30
0.0
 10
292.2890344407
 20
61.7279530789
 30
0.0
  0
SPLINE
  5
4E5
100
AcDbEntity
  8
03___PRT_ALL_CURVES
100
AcDbSpline
 62
2
  6
CONTINUOUS
 70
0
 71
3
 72
39
 73
35
 74
0
 42
0.0000001
 43
0.0000001
 44
0.0000000001
 40
0.0
 40
0.0
 40
0.0
 40
0.0
 40
0.0625
 40
0.09375
 40
0.125
 40
0.140625
 40
0.15625
 40
0.1875
 40
0.21875
 40
0.25
 40
0.265625
 40
0.28125
 40
0.3125
 40
0.375
 40
0.40625
 40
0.4375
 40
0.46875
 40
0.5
 40
0.53125
 40
0.5625
 40
0.59375
 40
0.625
 40
0.6875
 40
0.71875
 40
0.734375
 40
0.75
 40
0.78125
 40
0.8125
 40
0.84375
 40
0.859375
 40
0.875
 40
0.90625
 40
0.9375
 40
1.0
 40
1.0
 40
1.0
 40
1.0
 10
290.02194328
 20
63.1685340809
 30
0.0
 10
290.0229312805
 20
63.157792782
 30
0.0
 10
290.0244514172
 20
63.1416688232
 30
0.0
 10
290.0263257219
 20
63.1202182531
 30
0.0
 10
290.027814963
 20
63.1067115598
 30
0.0
 10
290.0282817704
 20
63.0961344036
 30
0.0
 10
290.031392679
 20
63.0847245234
 30
0.0
 10
290.0349370699
 20
63.0705695032
 30
0.0
 10
290.0393540006
 20
63.0535370001
 30
0.0
 10
290.0429482307
 20
63.0393550707
 30
0.0
 10
290.0459494931
 20
63.0280043909
 30
0.0
 10
290.0485164786
 20
63.0166647976
 30
0.0
 10
290.0573483241
 20
62.996713089
 30
0.0
 10
290.0664813439
 20
62.9739519838
 30
0.0
 10
290.0758275216
 20
62.9511358949
 30
0.0
 10
290.083158199
 20
62.9341479318
 30
0.0
 10
290.0930801811
 20
62.9180364646
 30
0.0
 10
290.1022710508
 20
62.9016584557
 30
0.0
 10
290.1117950655
 20
62.8854701175
 30
0.0
 10
290.1207176126
 20
62.8687896386
 30
0.0
 10
290.1317128851
 20
62.8538880517
 30
0.0
 10
290.1467335531
 20
62.8343026407
 30
0.0
 10
290.1618146718
 20
62.8149279821
 30
0.0
 10
290.1746155175
 20
62.797235968
 30
0.0
 10
290.1831342891
 20
62.7892849097
 30
0.0
 10
290.1914424322
 20
62.7809556794
 30
0.0
 10
290.2019023216
 20
62.7706821016
 30
0.0
 10
290.2144115209
 20
62.758258858
 30
0.0
 10
290.224878466
 20
62.7480387089
 30
0.0
 10
290.2331710865
 20
62.7395919353
 30
0.0
 10
290.2422352114
 20
62.733746998
 30
0.0
 10
290.2533010902
 20
62.7255495724
 30
0.0
 10
290.2711548624
 20
62.7129340445
 30
0.0
 10
290.2845118091
 20
62.7033598192
 30
0.0
 10
290.2934238586
 20
62.6970020199
 30
0.0
  0
SPLINE
  5
4E6
100
AcDbEntity
  8
03___PRT_ALL_CURVES
100
AcDbSpline
 62
2
  6
CONTINUOUS
 70
0
 71
3
 72
16
 73
12
 74
0
 42
0.0000001
 43
0.0000001
 44
0.0000000001
 40
0.0
 40
0.0
 40
0.0
 40
0.0
 40
0.25
 40
0.375
 40
0.4375
 40
0.5
 40
0.625
 40
0.6875
 40
0.75
 40
0.875
 40
1.0
 40
1.0
 40
1.0
 40
1.0
 10
268.8718113875
 20
78.0134868482
 30
0.0
 10
268.8732516885
 20
78.0017724319
 30
0.0
 10
268.8753647169
 20
77.9841956874
 30
0.0
 10
268.8773036382
 20
77.9639963138
 30
0.0
 10
268.8781731009
 20
77.9524417873
 30
0.0
 10
268.8791384785
 20
77.9412949186
 30
0.0
 10
268.879766859
 20
77.9277141301
 30
0.0
 10
268.8804198677
 20
77.9153597446
 30
0.0
 10
268.8807011976
 20
77.904474682
 30
0.0
 10
268.8811003072
 20
77.8900518361
 30
0.0
 10
268.8810927244
 20
77.877569483
 30
0.0
 10
268.8811297918
 20
77.871446316
 30
0.0
  0
SPLINE
  5
4E7
100
AcDbEntity
  8
03___PRT_ALL_CURVES
100
AcDbSpline
 62
2
  6
CONTINUOUS
 70
0
 71
3
 72
15
 73
11
 74
0
 42
0.0000001
 43
0.0000001
 44
0.0000000001
 40
0.0
 40
0.0
 40
0.0
 40
0.0
 40
0.125
 40
0.25
 40
0.375
 40
0.5
 40
0.625
 40
0.75
 40
0.875
 40
1.0
 40
1.0
 40
1.0
 40
1.0
 10
268.8350327375
 20
78.180226555
 30
0.0
 10
268.8370596026
 20
78.1734168945
 30
0.0
 10
268.8412145892
 20
78.1597758947
 30
0.0
 10
268.8468395314
 20
78.1394444678
 30
0.0
 10
268.8521153153
 20
78.1189702851
 30
0.0
 10
268.8576488231
 20
78.0959606235
 30
0.0
 10
268.8614832392
 20
78.076970275
 30
0.0
 10
268.8654692934
 20
78.0554993634
 30
0.0
 10
268.8690171689
 20
78.0340908791
 30
0.0
 10
268.8708343053
 20
78.0204036122
 30
0.0
 10
268.8718113877
 20
78.0134868468
 30
0.0
  0
SPLINE
  5
4E8
100
AcDbEntity
  8
03___PRT_ALL_CURVES
100
AcDbSpline
 62
2
  6
CONTINUOUS
 70
0
 71
3
 72
21
 73
17
 74
0
 42
0.0000001
 43
0.0000001
 44
0.0000000001
 40
0.0
 40
0.0
 40
0.0
 40
0.0
 40
0.125
 40
0.1875
 40
0.25
 40
0.3125
 40
0.375
 40
0.4375
 40
0.5
 40
0.5625
 40
0.625
 40
0.6875
 40
0.75
 40
0.8125
 40
0.875
 40
1.0
 40
1.0
 40
1.0
 40
1.0
 10
268.6711878994
 20
78.4944778087
 30
0.0
 10
268.6797523645
 20
78.4826057959
 30
0.0
 10
268.6926867381
 20
78.4648719399
 30
0.0
 10
268.7095818663
 20
78.4409301458
 30
0.0
 10
268.7212510557
 20
78.4220042695
 30
0.0
 10
268.7333463941
 20
78.4036825176
 30
0.0
 10
268.744739293
 20
78.3839137987
 30
0.0
 10
268.7557706939
 20
78.363815171
 30
0.0
 10
268.7675779723
 20
78.3437263193
 30
0.0
 10
268.776643239
 20
78.3239282724
 30
0.0
 10
268.7865007834
 20
78.304121461
 30
0.0
 10
268.7959312288
 20
78.2840589027
 30
0.0
 10
268.8043247717
 20
78.2629896841
 30
0.0
 10
268.813386982
 20
78.2421260281
 30
0.0
 10
268.8232862399
 20
78.2145537002
 30
0.0
 10
268.8302762057
 20
78.1939701847
 30
0.0
 10
268.8350327335
 20
78.1802265676
 30
0.0
  0
SPLINE
  5
4E9
100
AcDbEntity
  8
03___PRT_ALL_CURVES
100
AcDbSpline
 62
2
  6
CONTINUOUS
 70
0
 71
3
 72
17
 73
13
 74
0
 42
0.0000001
 43
0.0000001
 44
0.0000000001
 40
0.0
 40
0.0
 40
0.0
 40
0.0
 40
0.125
 40
0.1875
 40
0.25
 40
0.375
 40
0.4375
 40
0.5
 40
0.5625
 40
0.625
 40
0.75
 40
1.0
 40
1.0
 40
1.0
 40
1.0
 10
268.5402644973
 20
78.6371396424
 30
0.0
 10
268.5456850074
 20
78.6320311603
 30
0.0
 10
268.553763758
 20
78.624467264
 30
0.0
 10
268.5647434841
 20
78.6139867617
 30
0.0
 10
268.5764899154
 20
78.6021464396
 30
0.0
 10
268.5878087597
 20
78.5908278124
 30
0.0
 10
268.598230158
 20
78.5796525883
 30
0.0
 10
268.6059557749
 20
78.5716965124
 30
0.0
 10
268.6144918423
 20
78.5619673664
 30
0.0
 10
268.6256200825
 20
78.5496814067
 30
0.0
 10
268.644916347
 20
78.5271812558
 30
0.0
 10
268.66070959
 20
78.5075766685
 30
0.0
 10
268.6711878939
 20
78.4944778157
 30
0.0
  0
SPLINE
  5
4EA
100
AcDbEntity
  8
03___PRT_ALL_CURVES
100
AcDbSpline
 62
2
  6
CONTINUOUS
 70
0
 71
3
 72
17
 73
13
 74
0
 42
0.0000001
 43
0.0000001
 44
0.0000000001
 40
0.0
 40
0.0
 40
0.0
 40
0.0
 40
0.125
 40
0.1875
 40
0.25
 40
0.375
 40
0.5
 40
0.625
 40
0.75
 40
0.8125
 40
0.875
 40
1.0
 40
1.0
 40
1.0
 40
1.0
 10
268.3528518283
 20
78.776447137
 30
0.0
 10
268.3601622315
 20
78.771992327
 30
0.0
 10
268.3710390139
 20
78.7654284384
 30
0.0
 10
268.3858966802
 20
78.7562032811
 30
0.0
 10
268.4019379522
 20
78.7455160868
 30
0.0
 10
268.4215480307
 20
78.7323150418
 30
0.0
 10
268.4452213828
 20
78.7155460864
 30
0.0
 10
268.4686309436
 20
78.6975100062
 30
0.0
 10
268.4881510216
 20
78.6817434626
 30
0.0
 10
268.5034735377
 20
78.6693120146
 30
0.0
 10
268.5196962998
 20
78.6552630541
 30
0.0
 10
268.5320639707
 20
78.6443371046
 30
0.0
 10
268.540264507
 20
78.6371396336
 30
0.0
  0
SPLINE
  5
4EB
100
AcDbEntity
  8
03___PRT_ALL_CURVES
100
AcDbSpline
 62
2
  6
CONTINUOUS
 70
0
 71
3
 72
22
 73
18
 74
0
 42
0.0000001
 43
0.0000001
 44
0.0000000001
 40
0.0
 40
0.0
 40
0.0
 40
0.0
 40
0.125
 40
0.15625
 40
0.1875
 40
0.25
 40
0.3125
 40
0.375
 40
0.4375
 40
0.5
 40
0.5625
 40
0.625
 40
0.6875
 40
0.75
 40
0.8125
 40
0.875
 40
1.0
 40
1.0
 40
1.0
 40
1.0
 10
268.7883240495
 20
79.1728093863
 30
0.0
 10
268.7736078899
 20
79.1857900161
 30
0.0
 10
268.7550113111
 20
79.2020534
 30
0.0
 10
268.7332995543
 20
79.2214566709
 30
0.0
 10
268.7175362226
 20
79.2346328029
 30
0.0
 10
268.6973620743
 20
79.2511135505
 30
0.0
 10
268.6734086117
 20
79.2711822531
 30
0.0
 10
268.6491850614
 20
79.2900668019
 30
0.0
 10
268.624895494
 20
79.3084577631
 30
0.0
 10
268.6006946566
 20
79.3275380298
 30
0.0
 10
268.5762049162
 20
79.3443546622
 30
0.0
 10
268.5517933903
 20
79.3618626311
 30
0.0
 10
268.5273579094
 20
79.3788688882
 30
0.0
 10
268.5027271355
 20
79.3945500318
 30
0.0
 10
268.478475692
 20
79.4107520935
 30
0.0
 10
268.444377729
 20
79.4313434306
 30
0.0
 10
268.4184268022
 20
79.4466209001
 30
0.0
 10
268.4012100632
 20
79.4568427761
 30
0.0
  0
SPLINE
  5
4EC
100
AcDbEntity
  8
03___PRT_ALL_CURVES
100
AcDbSpline
 62
2
  6
CONTINUOUS
 70
0
 71
3
 72
50
 73
46
 74
0
 42
0.0000001
 43
0.0000001
 44
0.0000000001
 40
0.0
 40
0.0
 40
0.0
 40
0.0
 40
0.0625
 40
0.09375
 40
0.125
 40
0.140625
 40
0.15625
 40
0.1640625
 40
0.171875
 40
0.1875
 40
0.21875
 40
0.25
 40
0.28125
 40
0.3125
 40
0.328125
 40
0.3359375
 40
0.34375
 40
0.359375
 40
0.375
 40
0.4375
 40
0.46875
 40
0.484375
 40
0.4921875
 40
0.5
 40
0.5078125
 40
0.515625
 40
0.53125
 40
0.5625
 40
0.625
 40
0.640625
 40
0.65625
 40
0.6640625
 40
0.671875
 40
0.6875
 40
0.71875
 40
0.75
 40
0.78125
 40
0.8125
 40
0.828125
 40
0.8359375
 40
0.84375
 40
0.859375
 40
0.875
 40
0.9375
 40
1.0
 40
1.0
 40
1.0
 40
1.0
 10
269.519044002
 20
77.9204020665
 30
0.0
 10
269.5111826821
 20
77.9485960398
 30
0.0
 10
269.4993857662
 20
77.9908878946
 30
0.0
 10
269.4836762894
 20
78.0472734554
 30
0.0
 10
269.4738167322
 20
78.0825218869
 30
0.0
 10
269.4660228725
 20
78.1107036323
 30
0.0
 10
269.460937812
 20
78.1283559949
 30
0.0
 10
269.4573596727
 20
78.1423890827
 30
0.0
 10
269.4519930156
 20
78.156746362
 30
0.0
 10
269.4417700554
 20
78.1820221411
 30
0.0
 10
269.4276029924
 20
78.2180522957
 30
0.0
 10
269.4104042585
 20
78.2613192744
 30
0.0
 10
269.3932990927
 20
78.3045880426
 30
0.0
 10
269.3788981094
 20
78.3406137234
 30
0.0
 10
269.3690845099
 20
78.3658973318
 30
0.0
 10
269.3630628757
 20
78.3802420841
 30
0.0
 10
269.3554834146
 20
78.3941986583
 30
0.0
 10
269.3465418771
 20
78.4117772252
 30
0.0
 10
269.3246408943
 20
78.4538549684
 30
0.0
 10
269.2992654676
 20
78.5029986121
 30
0.0
 10
269.2737490126
 20
78.5520803911
 30
0.0
 10
269.2610968956
 20
78.5766823118
 30
0.0
 10
269.2537053576
 20
78.5906447651
 30
0.0
 10
269.2486166573
 20
78.6013865287
 30
0.0
 10
269.2417890228
 20
78.6110964917
 30
0.0
 10
269.2332920744
 20
78.6244030684
 30
0.0
 10
269.2181397607
 20
78.6475213063
 30
0.0
 10
269.1880425185
 20
78.693887251
 30
0.0
 10
269.1578315807
 20
78.7401494682
 30
0.0
 10
269.1320319922
 20
78.7799325927
 30
0.0
 10
269.121177136
 20
78.7963419628
 30
0.0
 10
269.1127357674
 20
78.8098571156
 30
0.0
 10
269.1034083555
 20
78.8219551869
 30
0.0
 10
269.0866734378
 20
78.8424680774
 30
0.0
 10
269.0629836203
 20
78.8721184916
 30
0.0
 10
269.0344548346
 20
78.9075424996
 30
0.0
 10
269.0059825355
 20
78.943038408
 30
0.0
 10
268.9821515017
 20
78.972509071
 30
0.0
 10
268.9656637126
 20
78.9933365261
 30
0.0
 10
268.9559408949
 20
79.0049312942
 30
0.0
 10
268.9450841085
 20
79.0153719636
 30
0.0
 10
268.9319007291
 20
79.0288172848
 30
0.0
 10
268.8999415292
 20
79.0607613018
 30
0.0
 10
268.8521378277
 20
79.1088148239
 30
0.0
 10
268.8095907515
 20
79.1514731941
 30
0.0
 10
268.7883240755
 20
79.1728093631
 30
0.0
  0
SPLINE
  5
4ED
100
AcDbEntity
  8
03___PRT_ALL_CURVES
100
AcDbSpline
 62
2
  6
CONTINUOUS
 70
0
 71
3
 72
23
 73
19
 74
0
 42
0.0000001
 43
0.0000001
 44
0.0000000001
 40
0.0
 40
0.0
 40
0.0
 40
0.0
 40
0.0625
 40
0.125
 40
0.15625
 40
0.1875
 40
0.25
 40
0.3125
 40
0.375
 40
0.4375
 40
0.5
 40
0.5625
 40
0.625
 40
0.6875
 40
0.75
 40
0.8125
 40
0.875
 40
1.0
 40
1.0
 40
1.0
 40
1.0
 10
269.568818034
 20
77.4685370569
 30
0.0
 10
269.5686674061
 20
77.4769273612
 30
0.0
 10
269.5683844684
 20
77.4936618311
 30
0.0
 10
269.5679392062
 20
77.5148106116
 30
0.0
 10
269.5677753354
 20
77.5312451806
 30
0.0
 10
269.5669153807
 20
77.5494330169
 30
0.0
 10
269.5655377778
 20
77.5727996306
 30
0.0
 10
269.5642683994
 20
77.6004472401
 30
0.0
 10
269.5619482963
 20
77.6286532483
 30
0.0
 10
269.5592209235
 20
77.6570310915
 30
0.0
 10
269.5570601425
 20
77.6851697474
 30
0.0
 10
269.5530402639
 20
77.7140933178
 30
0.0
 10
269.5495822355
 20
77.7427863621
 30
0.0
 10
269.545735904
 20
77.7716165964
 30
0.0
 10
269.5407931763
 20
77.800900176
 30
0.0
 10
269.5364488205
 20
77.8297763431
 30
0.0
 10
269.5289268909
 20
77.8698463055
 30
0.0
 10
269.5229528087
 20
77.9002229769
 30
0.0
 10
269.5190440061
 20
77.9204020468
 30
0.0
  0
SPLINE
  5
4EE
100
AcDbEntity
  8
03___PRT_ALL_CURVES
100
AcDbSpline
 62
2
  6
CONTINUOUS
 70
0
 71
3
 72
23
 73
19
 74
0
 42
0.0000001
 43
0.0000001
 44
0.0000000001
 40
0.0
 40
0.0
 40
0.0
 40
0.0
 40
0.125
 40
0.15625
 40
0.1875
 40
0.25
 40
0.3125
 40
0.375
 40
0.4375
 40
0.5
 40
0.5625
 40
0.625
 40
0.65625
 40
0.6875
 40
0.75
 40
0.8125
 40
0.875
 40
1.0
 40
1.0
 40
1.0
 40
1.0
 10
269.5246387245
 20
77.1201672519
 30
0.0
 10
269.5279292903
 20
77.1327795725
 30
0.0
 10
269.5319840068
 20
77.1487770214
 30
0.0
 10
269.537025139
 20
77.1672778155
 30
0.0
 10
269.5400115526
 20
77.1810967869
 30
0.0
 10
269.5435512574
 20
77.1989483955
 30
0.0
 10
269.54812306
 20
77.2199160252
 30
0.0
 10
269.5517075347
 20
77.2417762267
 30
0.0
 10
269.5548849485
 20
77.2637173946
 30
0.0
 10
269.5586618265
 20
77.2860406017
 30
0.0
 10
269.5604479084
 20
77.3067546857
 30
0.0
 10
269.5623298451
 20
77.3245566225
 30
0.0
 10
269.5638863083
 20
77.338306253
 30
0.0
 10
269.564924288
 20
77.3535913991
 30
0.0
 10
269.5659669464
 20
77.3732592536
 30
0.0
 10
269.5675870601
 20
77.3964477368
 30
0.0
 10
269.5683232271
 20
77.4283703729
 30
0.0
 10
269.5685808434
 20
77.4524946909
 30
0.0
 10
269.568818034
 20
77.4685370494
 30
0.0
  0
SPLINE
  5
4EF
100
AcDbEntity
  8
03___PRT_ALL_CURVES
100
AcDbSpline
 62
2
  6
CONTINUOUS
 70
0
 71
3
 72
51
 73
47
 74
0
 42
0.0000001
 43
0.0000001
 44
0.0000000001
 40
0.0
 40
0.0
 40
0.0
 40
0.0
 40
0.0625
 40
0.09375
 40
0.125
 40
0.140625
 40
0.15625
 40
0.1640625
 40
0.171875
 40
0.1875
 40
0.21875
 40
0.25
 40
0.28125
 40
0.3125
 40
0.328125
 40
0.3359375
 40
0.34375
 40
0.359375
 40
0.375
 40
0.4375
 40
0.46875
 40
0.484375
 40
0.4921875
 40
0.5
 40
0.5078125
 40
0.515625
 40
0.53125
 40
0.5625
 40
0.625
 40
0.640625
 40
0.65625
 40
0.6640625
 40
0.671875
 40
0.6875
 40
0.71875
 40
0.75
 40
0.78125
 40
0.8125
 40
0.828125
 40
0.8359375
 40
0.84375
 40
0.859375
 40
0.875
 40
0.90625
 40
0.9375
 40
1.0
 40
1.0
 40
1.0
 40
1.0
 10
268.9652632933
 20
76.6793885942
 30
0.0
 10
268.9810701827
 20
76.6807329202
 30
0.0
 10
269.0047790971
 20
76.6827540136
 30
0.0
 10
269.0363966616
 20
76.6854303866
 30
0.0
 10
269.0561458088
 20
76.6871414912
 30
0.0
 10
269.0719721003
 20
76.6884228878
 30
0.0
 10
269.0818020135
 20
76.6894232925
 30
0.0
 10
269.0898068463
 20
76.6897666118
 30
0.0
 10
269.0972972852
 20
76.6917783235
 30
0.0
 10
269.1101663699
 20
76.6960743318
 30
0.0
 10
269.1286772258
 20
76.7018033879
 30
0.0
 10
269.1508300019
 20
76.7088645274
 30
0.0
 10
269.1730214631
 20
76.715833536
 30
0.0
 10
269.1914356062
 20
76.7217929196
 30
0.0
 10
269.2044739381
 20
76.7256858548
 30
0.0
 10
269.2116935815
 20
76.7283424834
 30
0.0
 10
269.2180441015
 20
76.7326256552
 30
0.0
 10
269.2262795698
 20
76.7374233316
 30
0.0
 10
269.2457978072
 20
76.7493984925
 30
0.0
 10
269.2686744564
 20
76.763186267
 30
0.0
 10
269.2914510147
 20
76.777120636
 30
0.0
 10
269.3029262069
 20
76.7839778767
 30
0.0
 10
269.3093487644
 20
76.7880638329
 30
0.0
 10
269.3145449359
 20
76.7906571136
 30
0.0
 10
269.3182914413
 20
76.7950513739
 30
0.0
 10
269.3237924579
 20
76.8002821428
 30
0.0
 10
269.3331834696
 20
76.8097291315
 30
0.0
 10
269.3521399007
 20
76.8284036756
 30
0.0
 10
269.3709929548
 20
76.8472222465
 30
0.0
 10
269.3872496607
 20
76.8632005594
 30
0.0
 10
269.39391094
 20
76.8700427568
 30
0.0
 10
269.3994999044
 20
76.875088743
 30
0.0
 10
269.4041389836
 20
76.8816981627
 30
0.0
 10
269.4118157465
 20
76.8939914259
 30
0.0
 10
269.4230153245
 20
76.9111709868
 30
0.0
 10
269.4363469339
 20
76.9319600209
 30
0.0
 10
269.4497376417
 20
76.9526664008
 30
0.0
 10
269.4607894738
 20
76.9700525974
 30
0.0
 10
269.468724792
 20
76.9819842482
 30
0.0
 10
269.4729501828
 20
76.9891722477
 30
0.0
 10
269.4760118608
 20
76.9977528185
 30
0.0
 10
269.4802374123
 20
77.0080017172
 30
0.0
 10
269.4867756154
 20
77.0246664269
 30
0.0
 10
269.4950246476
 20
77.0454060347
 30
0.0
 10
269.5081802762
 20
77.0786406517
 30
0.0
 10
269.5180566328
 20
77.1035550845
 30
0.0
 10
269.5246387295
 20
77.1201672685
 30
0.0
  0
SPLINE
  5
4F0
100
AcDbEntity
  8
03___PRT_ALL_CURVES
100
AcDbSpline
 62
2
  6
CONTINUOUS
 70
0
 71
3
 72
39
 73
35
 74
0
 42
0.0000001
 43
0.0000001
 44
0.0000000001
 40
0.0
 40
0.0
 40
0.0
 40
0.0
 40
0.0625
 40
0.09375
 40
0.125
 40
0.140625
 40
0.15625
 40
0.1875
 40
0.21875
 40
0.25
 40
0.265625
 40
0.28125
 40
0.3125
 40
0.375
 40
0.40625
 40
0.4375
 40
0.46875
 40
0.5
 40
0.53125
 40
0.5625
 40
0.59375
 40
0.625
 40
0.6875
 40
0.71875
 40
0.734375
 40
0.75
 40
0.78125
 40
0.8125
 40
0.84375
 40
0.859375
 40
0.875
 40
0.90625
 40
0.9375
 40
1.0
 40
1.0
 40
1.0
 40
1.0
 10
288.6410003746
 20
63.9658038025
 30
0.0
 10
288.6419883751
 20
63.9550625035
 30
0.0
 10
288.6435085118
 20
63.9389385447
 30
0.0
 10
288.6453828165
 20
63.9174879746
 30
0.0
 10
288.6468720576
 20
63.9039812813
 30
0.0
 10
288.647338865
 20
63.8934041251
 30
0.0
 10
288.6504497737
 20
63.8819942449
 30
0.0
 10
288.6539941645
 20
63.8678392248
 30
0.0
 10
288.6584110952
 20
63.8508067216
 30
0.0
 10
288.6620053253
 20
63.8366247922
 30
0.0
 10
288.6650065878
 20
63.8252741124
 30
0.0
 10
288.6675735732
 20
63.8139345191
 30
0.0
 10
288.6764054187
 20
63.7939828105
 30
0.0
 10
288.6855384385
 20
63.7712217053
 30
0.0
 10
288.6948846162
 20
63.7484056164
 30
0.0
 10
288.7022152936
 20
63.7314176533
 30
0.0
 10
288.7121372757
 20
63.7153061861
 30
0.0
 10
288.7213281454
 20
63.6989281772
 30
0.0
 10
288.7308521601
 20
63.682739839
 30
0.0
 10
288.7397747072
 20
63.6660593601
 30
0.0
 10
288.7507699797
 20
63.6511577732
 30
0.0
 10
288.7657906477
 20
63.6315723622
 30
0.0
 10
288.7808717664
 20
63.6121977036
 30
0.0
 10
288.7936726121
 20
63.5945056896
 30
0.0
 10
288.8021913837
 20
63.5865546313
 30
0.0
 10
288.8104995268
 20
63.5782254009
 30
0.0
 10
288.8209594162
 20
63.5679518231
 30
0.0
 10
288.8334686155
 20
63.5555285795
 30
0.0
 10
288.8439355606
 20
63.5453084304
 30
0.0
 10
288.8522281812
 20
63.5368616568
 30
0.0
 10
288.861292306
 20
63.5310167195
 30
0.0
 10
288.8723581848
 20
63.5228192939
 30
0.0
 10
288.890211957
 20
63.5102037661
 30
0.0
 10
288.9035689038
 20
63.5006295407
 30
0.0
 10
288.9124809532
 20
63.4942717415
 30
0.0
  0
SPLINE
  5
4F1
100
AcDbEntity
  8
03___PRT_ALL_CURVES
100
AcDbSpline
 62
2
  6
CONTINUOUS
 70
0
 71
3
 72
51
 73
47
 74
0
 42
0.0000001
 43
0.0000001
 44
0.0000000001
 40
0.0
 40
0.0
 40
0.0
 40
0.0
 40
0.0625
 40
0.09375
 40
0.109375
 40
0.125
 40
0.140625
 40
0.15625
 40
0.1875
 40
0.21875
 40
0.234375
 40
0.25
 40
0.265625
 40
0.28125
 40
0.3125
 40
0.34375
 40
0.359375
 40
0.375
 40
0.390625
 40
0.40625
 40
0.4375
 40
0.46875
 40
0.484375
 40
0.5
 40
0.515625
 40
0.53125
 40
0.5625
 40
0.59375
 40
0.609375
 40
0.625
 40
0.640625
 40
0.65625
 40
0.6875
 40
0.71875
 40
0.734375
 40
0.75
 40
0.765625
 40
0.78125
 40
0.8125
 40
0.84375
 40
0.859375
 40
0.875
 40
0.890625
 40
0.90625
 40
0.9375
 40
1.0
 40
1.0
 40
1.0
 40
1.0
 10
285.5123702582
 20
69.1549912502
 30
0.0
 10
285.5132325094
 20
69.1443390675
 30
0.0
 10
285.5145668302
 20
69.1283465195
 30
0.0
 10
285.5159802342
 20
69.1097385056
 30
0.0
 10
285.516992613
 20
69.099033985
 30
0.0
 10
285.517178683
 20
69.0912054302
 30
0.0
 10
285.5195552495
 20
69.082613218
 30
0.0
 10
285.5219556004
 20
69.0714240396
 30
0.0
 10
285.5252428316
 20
69.0573434257
 30
0.0
 10
285.5283433976
 20
69.043305495
 30
0.0
 10
285.5310424128
 20
69.0320480234
 30
0.0
 10
285.5325229862
 20
69.023660691
 30
0.0
 10
285.5360690303
 20
69.015063837
 30
0.0
 10
285.5400724546
 20
69.0036744052
 30
0.0
 10
285.5453478169
 20
68.9894136181
 30
0.0
 10
285.5504446447
 20
68.9751575198
 30
0.0
 10
285.5547337242
 20
68.9637605861
 30
0.0
 10
285.5574228029
 20
68.9551862377
 30
0.0
 10
285.5621169967
 20
68.946714509
 30
0.0
 10
285.5676731947
 20
68.9353812293
 30
0.0
 10
285.5748761071
 20
68.9212403911
 30
0.0
 10
285.5819267689
 20
68.9070435587
 30
0.0
 10
285.5877265678
 20
68.8957998698
 30
0.0
 10
285.5916899591
 20
68.8870593687
 30
0.0
 10
285.5971195469
 20
68.8794929167
 30
0.0
 10
285.6038448832
 20
68.8689919824
 30
0.0
 10
285.612441918
 20
68.8560231791
 30
0.0
 10
285.6209201378
 20
68.8429403322
 30
0.0
 10
285.6278355781
 20
68.8326218677
 30
0.0
 10
285.6326948539
 20
68.8245080064
 30
0.0
 10
285.6387969153
 20
68.8178202901
 30
0.0
 10
285.6464972122
 20
68.8084024793
 30
0.0
 10
285.6562840063
 20
68.7968212718
 30
0.0
 10
285.66596984
 20
68.7851019098
 30
0.0
 10
285.6738316736
 20
68.7759051463
 30
0.0
 10
285.6794491249
 20
68.768554288
 30
0.0
 10
285.6861256886
 20
68.7629272094
 30
0.0
 10
285.6946572327
 20
68.7548185466
 30
0.0
 10
285.7054529383
 20
68.7449174537
 30
0.0
 10
285.7161867182
 20
68.7348347829
 30
0.0
 10
285.7248173433
 20
68.7270166446
 30
0.0
 10
285.7311966639
 20
68.7205179928
 30
0.0
 10
285.7379287769
 20
68.7164355341
 30
0.0
 10
285.7467818348
 20
68.7101492227
 30
0.0
 10
285.7623323858
 20
68.6995433496
 30
0.0
 10
285.7756416468
 20
68.6903171137
 30
0.0
 10
285.7845188836
 20
68.6841963981
 30
0.0
  0
SPLINE
  5
4F2
100
AcDbEntity
  8
0
100
AcDbSpline
 62
3
  6
CONTINUOUS
 70
0
 71
3
 72
9
 73
5
 74
0
 42
0.0000001
 43
0.0000001
 44
0.0000000001
 40
0.0
 40
0.0
 40
0.0
 40
0.0
 40
0.4772586383
 40
1.0
 40
1.0
 40
1.0
 40
1.0
 10
584.5594818691
 20
221.7427057167
 30
0.0
 10
584.5594818691
 20
221.5849563982
 30
0.0
 10
584.4814348389
 20
221.2549978794
 30
0.0
 10
584.3134002785
 20
220.96492288
 30
0.0
 10
584.2050285403
 20
220.8303514515
 30
0.0
  0
SPLINE
  5
4F3
100
AcDbEntity
  8
0
100
AcDbSpline
 62
3
  6
CONTINUOUS
 70
0
 71
3
 72
11
 73
7
 74
0
 42
0.0000001
 43
0.0000001
 44
0.0000000001
 40
0.0
 40
0.0
 40
0.0
 40
0.0
 40
0.217772933
 40
0.4509535358
 40
0.7101892693
 40
1.0
 40
1.0
 40
1.0
 40
1.0
 10
29.3637567806
 20
197.8503303503
 30
0.0
 10
29.2318076183
 20
197.9265092535
 30
0.0
 10
28.9848217954
 20
198.1339967721
 30
0.0
 10
28.7221419786
 20
198.5637590801
 30
0.0
 10
28.5658361335
 20
199.0933016293
 30
0.0
 10
28.5352219518
 20
199.4787616054
 30
0.0
 10
28.5352219518
 20
199.6815222875
 30
0.0
  0
SPLINE
  5
4F4
100
AcDbEntity
  8
0
100
AcDbSpline
 62
3
  6
CONTINUOUS
 70
0
 71
3
 72
9
 73
5
 74
0
 42
0.0000001
 43
0.0000001
 44
0.0000000001
 40
0.0
 40
0.0
 40
0.0
 40
0.0
 40
0.5460888276
 40
1.0
 40
1.0
 40
1.0
 40
1.0
 10
28.5352219518
 20
200.2519568322
 30
0.0
 10
28.5352219518
 20
200.4017224956
 30
0.0
 10
28.5687158349
 20
200.6794517553
 30
0.0
 10
28.7183644403
 20
200.9253950465
 30
0.0
 10
28.8121189261
 20
201.0072901763
 30
0.0
  0
SPLINE
  5
4F5
100
AcDbEntity
  8
0
100
AcDbSpline
 62
3
  6
CONTINUOUS
 70
0
 71
3
 72
11
 73
7
 74
0
 42
0.0000001
 43
0.0000001
 44
0.0000000001
 40
0.0
 40
0.0
 40
0.0
 40
0.0
 40
0.217772933
 40
0.4509535358
 40
0.7101892693
 40
1.0
 40
1.0
 40
1.0
 40
1.0
 10
311.5005371142
 20
34.9622692967
 30
0.0
 10
311.368587952
 20
35.0384481999
 30
0.0
 10
311.121602129
 20
35.2459357185
 30
0.0
 10
310.8589223122
 20
35.6756980265
 30
0.0
 10
310.7026164671
 20
36.2052405756
 30
0.0
 10
310.6720022854
 20
36.5907005518
 30
0.0
 10
310.6720022854
 20
36.7934612339
 30
0.0
  0
SPLINE
  5
4F6
100
AcDbEntity
  8
0
100
AcDbSpline
 62
3
  6
CONTINUOUS
 70
0
 71
3
 72
9
 73
5
 74
0
 42
0.0000001
 43
0.0000001
 44
0.0000000001
 40
0.0
 40
0.0
 40
0.0
 40
0.0
 40
0.2760856751
 40
1.0
 40
1.0
 40
1.0
 40
1.0
 10
302.8937953088
 20
42.5077460121
 30
0.0
 10
302.8141589327
 20
42.5537230551
 30
0.0
 10
302.5346046291
 20
42.7335108707
 30
0.0
 10
302.2885745893
 20
42.9772121717
 30
0.0
 10
302.1682595468
 20
43.1861620608
 30
0.0
  0
SPLINE
  5
4F7
100
AcDbEntity
  8
0
100
AcDbSpline
 62
3
  6
CONTINUOUS
 70
0
 71
3
 72
11
 73
7
 74
0
 42
0.0000001
 43
0.0000001
 44
0.0000000001
 40
0.0
 40
0.0
 40
0.0
 40
0.0
 40
0.2372383316
 40
0.5000010919
 40
0.7627632579
 40
1.0
 40
1.0
 40
1.0
 40
1.0
 10
310.6720022854
 20
37.3638957786
 30
0.0
 10
310.6720022854
 20
37.4566307836
 30
0.0
 10
310.6372194
 20
37.6522041615
 30
0.0
 10
310.5159880161
 20
37.9270198571
 30
0.0
 10
310.3386056057
 20
38.1694158563
 30
0.0
 10
310.1866252916
 20
38.2973239108
 30
0.0
 10
310.1063145053
 20
38.343690316
 30
0.0
  0
SPLINE
  5
4F8
100
AcDbEntity
  8
02___PRT_ALL_AXES
100
AcDbSpline
 62
3
  6
CONTINUOUS
 70
0
 71
3
 72
12
 73
8
 74
0
 42
0.0000001
 43
0.0000001
 44
0.0000000001
 40
0.0
 40
0.0
 40
0.0
 40
0.0
 40
0.2873535769
 40
0.5468119758
 40
0.7815238102
 40
0.8921747107
 40
1.0
 40
1.0
 40
1.0
 40
1.0
 10
484.6190604856
 20
222.4618138165
 30
0.0
 10
484.0712047744
 20
222.1455110622
 30
0.0
 10
483.0701494032
 20
221.4646558597
 30
0.0
 10
481.8446963403
 20
220.2407366922
 30
0.0
 10
481.1373544223
 20
219.092865086
 30
0.0
 10
480.8066301012
 20
218.1482791925
 30
0.0
 10
480.7169913298
 20
217.6734189513
 30
0.0
 10
480.6914062971
 20
217.4374246199
 30
0.0
  0
SPLINE
  5
4F9
100
AcDbEntity
  8
0
100
AcDbSpline
 62
3
  6
CONTINUOUS
 70
0
 71
3
 72
9
 73
5
 74
0
 42
0.0000001
 43
0.0000001
 44
0.0000000001
 40
0.0
 40
0.0
 40
0.0
 40
0.0
 40
0.2581281959
 40
1.0
 40
1.0
 40
1.0
 40
1.0
 10
585.5807309203
 20
261.6620315514
 30
0.0
 10
585.6065073148
 20
261.6670787466
 30
0.0
 10
585.7059104531
 20
261.6888281589
 30
0.0
 10
585.8034673448
 20
261.71948099
 30
0.0
 10
585.8734003012
 20
261.7479066369
 30
0.0
  0
SPLINE
  5
4FA
100
AcDbEntity
  8
0
100
AcDbSpline
 62
3
  6
CONTINUOUS
 70
0
 71
3
 72
9
 73
5
 74
0
 42
0.0000001
 43
0.0000001
 44
0.0000000001
 40
0.0
 40
0.0
 40
0.0
 40
0.0
 40
0.2546584829
 40
1.0
 40
1.0
 40
1.0
 40
1.0
 10
585.8734003012
 20
261.7479066369
 30
0.0
 10
585.8823214984
 20
261.7515328356
 30
0.0
 10
585.9172019733
 20
261.7661408721
 30
0.0
 10
585.9514596137
 20
261.7822470124
 30
0.0
 10
585.9765217803
 20
261.7951428782
 30
0.0
  0
SPLINE
  5
4FB
100
AcDbEntity
  8
0
100
AcDbSpline
 62
3
  6
CONTINUOUS
 70
0
 71
3
 72
9
 73
5
 74
0
 42
0.0000001
 43
0.0000001
 44
0.0000000001
 40
0.0
 40
0.0
 40
0.0
 40
0.0
 40
0.2473251513
 40
1.0
 40
1.0
 40
1.0
 40
1.0
 10
310.5222771183
 20
62.0247899073
 30
0.0
 10
310.5134703955
 20
62.0047288092
 30
0.0
 10
310.4789409812
 20
61.9231406282
 30
0.0
 10
310.4475813086
 20
61.8402664021
 30
0.0
 10
310.424101584
 20
61.7778625026
 30
0.0
  0
SPLINE
  5
4FC
100
AcDbEntity
  8
0
100
AcDbSpline
 62
3
  6
CONTINUOUS
 70
0
 71
3
 72
9
 73
5
 74
0
 42
0.0000001
 43
0.0000001
 44
0.0000000001
 40
0.0
 40
0.0
 40
0.0
 40
0.0
 40
0.4447690612
 40
1.0
 40
1.0
 40
1.0
 40
1.0
 10
310.3184480117
 20
62.9612430795
 30
0.0
 10
310.3531437375
 20
62.8710263462
 30
0.0
 10
310.4114556041
 20
62.6605493593
 30
0.0
 10
310.4351618838
 20
62.4432101906
 30
0.0
 10
310.4372444002
 20
62.3225638533
 30
0.0
  0
SPLINE
  5
4FD
100
AcDbEntity
  8
0
100
AcDbSpline
 62
3
  6
CONTINUOUS
 70
0
 71
3
 72
10
 73
6
 74
0
 42
0.0000001
 43
0.0000001
 44
0.0000000001
 40
0.0
 40
0.0
 40
0.0
 40
0.0
 40
0.5065490125
 40
0.7579817578
 40
1.0
 40
1.0
 40
1.0
 40
1.0
 10
310.5222771183
 20
62.0247899073
 30
0.0
 10
310.5451852623
 20
62.0769730564
 30
0.0
 10
310.5580936689
 20
62.1704282702
 30
0.0
 10
310.5054147343
 20
62.2732605445
 30
0.0
 10
310.4612325023
 20
62.3096809793
 30
0.0
 10
310.4372444002
 20
62.3225638533
 30
0.0
  0
SPLINE
  5
4FE
100
AcDbEntity
  8
0
100
AcDbSpline
 62
3
  6
CONTINUOUS
 70
0
 71
3
 72
9
 73
5
 74
0
 42
0.0000001
 43
0.0000001
 44
0.0000000001
 40
0.0
 40
0.0
 40
0.0
 40
0.0
 40
0.5602077848
 40
1.0
 40
1.0
 40
1.0
 40
1.0
 10
310.4236111418
 20
61.7777808126
 30
0.0
 10
310.3490945736
 20
61.9882500539
 30
0.0
 10
310.2784972817
 20
62.3876968116
 30
0.0
 10
310.298403152
 20
62.787113534
 30
0.0
 10
310.3184480117
 20
62.9612430795
 30
0.0
  0
SPLINE
  5
4FF
100
AcDbEntity
  8
0
100
AcDbSpline
 62
3
  6
CONTINUOUS
 70
0
 71
3
 72
9
 73
5
 74
0
 42
0.0000001
 43
0.0000001
 44
0.0000000001
 40
0.0
 40
0.0
 40
0.0
 40
0.0
 40
0.5018573193
 40
1.0
 40
1.0
 40
1.0
 40
1.0
 10
583.458860077
 20
220.727423687
 30
0.0
 10
583.6070676472
 20
220.8755199846
 30
0.0
 10
583.8581939955
 20
221.2160046461
 30
0.0
 10
584.0170769863
 20
221.6083944634
 30
0.0
 10
584.0643218704
 20
221.8109246496
 30
0.0
  0
SPLINE
  5
500
100
AcDbEntity
  8
0
100
AcDbSpline
 62
3
  6
CONTINUOUS
 70
0
 71
3
 72
9
 73
5
 74
0
 42
0.0000001
 43
0.0000001
 44
0.0000000001
 40
0.0
 40
0.0
 40
0.0
 40
0.0
 40
0.7470871532
 40
1.0
 40
1.0
 40
1.0
 40
1.0
 10
585.0138026865
 20
261.5965227062
 30
0.0
 10
584.9872599536
 20
261.5889086912
 30
0.0
 10
584.9528604535
 20
261.5730188071
 30
0.0
 10
584.9238642166
 20
261.5500011252
 30
0.0
 10
584.9169147766
 20
261.54374896
 30
0.0
  0
SPLINE
  5
501
100
AcDbEntity
  8
0
100
AcDbSpline
 62
3
  6
CONTINUOUS
 70
0
 71
3
 72
9
 73
5
 74
0
 42
0.0000001
 43
0.0000001
 44
0.0000000001
 40
0.0
 40
0.0
 40
0.0
 40
0.0
 40
0.2452912567
 40
1.0
 40
1.0
 40
1.0
 40
1.0
 10
585.1576368307
 20
261.6102924106
 30
0.0
 10
585.1924410018
 20
261.612284838
 30
0.0
 10
585.3341439622
 20
261.6240080202
 30
0.0
 10
585.4746030936
 20
261.6464861295
 30
0.0
 10
585.5807309203
 20
261.6620315514
 30
0.0
  0
SPLINE
  5
502
100
AcDbEntity
  8
0
100
AcDbSpline
 62
3
  6
CONTINUOUS
 70
0
 71
3
 72
8
 73
4
 74
0
 42
0.0000001
 43
0.0000001
 44
0.0000000001
 40
0.0
 40
0.0
 40
0.0
 40
0.0
 40
1.0
 40
1.0
 40
1.0
 40
1.0
 10
584.9304446294
 20
261.5444325435
 30
0.0
 10
584.9481497306
 20
261.5461935868
 30
0.0
 10
584.9657338663
 20
261.5505117709
 30
0.0
 10
584.9823549883
 20
261.5568608012
 30
0.0
  0
SPLINE
  5
503
100
AcDbEntity
  8
0
100
AcDbSpline
 62
3
  6
CONTINUOUS
 70
0
 71
3
 72
8
 73
4
 74
0
 42
0.0000001
 43
0.0000001
 44
0.0000000001
 40
0.0
 40
0.0
 40
0.0
 40
0.0
 40
1.0
 40
1.0
 40
1.0
 40
1.0
 10
584.9823549883
 20
261.5568608012
 30
0.0
 10
585.0107268855
 20
261.5676984591
 30
0.0
 10
585.0371305975
 20
261.584789044
 30
0.0
 10
585.0595190311
 20
261.6053116515
 30
0.0
  0
SPLINE
  5
504
100
AcDbEntity
  8
0
100
AcDbSpline
 62
3
  6
CONTINUOUS
 70
0
 71
3
 72
9
 73
5
 74
0
 42
0.0000001
 43
0.0000001
 44
0.0000000001
 40
0.0
 40
0.0
 40
0.0
 40
0.0
 40
0.2730576596
 40
1.0
 40
1.0
 40
1.0
 40
1.0
 10
584.7921902452
 20
261.4628997081
 30
0.0
 10
584.7468014984
 20
261.4351578614
 30
0.0
 10
584.5763779694
 20
261.3405894451
 30
0.0
 10
584.3923439307
 20
261.2706074397
 30
0.0
 10
584.2551103139
 20
261.2356404578
 30
0.0
  0
SPLINE
  5
505
100
AcDbEntity
  8
0
100
AcDbSpline
 62
3
  6
CONTINUOUS
 70
0
 71
3
 72
11
 73
7
 74
0
 42
0.0000001
 43
0.0000001
 44
0.0000000001
 40
0.0
 40
0.0
 40
0.0
 40
0.0
 40
0.2898067778
 40
0.5490454867
 40
0.7822259138
 40
1.0
 40
1.0
 40
1.0
 40
1.0
 10
595.7055649543
 20
267.4106255668
 30
0.0
 10
595.7406807113
 20
267.4308995375
 30
0.0
 10
595.8104995499
 20
267.4641398837
 30
0.0
 10
595.9178398565
 20
267.4900216096
 30
0.0
 10
596.018535853
 20
267.487503037
 30
0.0
 10
596.0791704913
 20
267.4654824632
 30
0.0
 10
596.1055581887
 20
267.4502478622
 30
0.0
  0
SPLINE
  5
506
100
AcDbEntity
  8
0
100
AcDbSpline
 62
3
  6
CONTINUOUS
 70
0
 71
3
 72
9
 73
5
 74
0
 42
0.0000001
 43
0.0000001
 44
0.0000000001
 40
0.0
 40
0.0
 40
0.0
 40
0.0
 40
0.4540849395
 40
1.0
 40
1.0
 40
1.0
 40
1.0
 10
584.1733464617
 20
261.2350361517
 30
0.0
 10
584.2738106576
 20
261.2816656597
 30
0.0
 10
584.4957267109
 20
261.3830136312
 30
0.0
 10
584.7259045367
 20
261.4655608292
 30
0.0
 10
584.8537757997
 20
261.5027050967
 30
0.0
  0
SPLINE
  5
507
100
AcDbEntity
  8
02___PRT_ALL_AXES
100
AcDbSpline
 62
3
  6
CONTINUOUS
 70
0
 71
3
 72
21
 73
17
 74
0
 42
0.0000001
 43
0.0000001
 44
0.0000000001
 40
0.0
 40
0.0
 40
0.0
 40
0.0
 40
0.0429774087
 40
0.0882650782
 40
0.137036166
 40
0.1899818596
 40
0.2473420647
 40
0.308983784
 40
0.3744831566
 40
0.4431967343
 40
0.5868112353
 40
0.7324917785
 40
0.8036989992
 40
0.8725326126
 40
0.9381832168
 40
1.0
 40
1.0
 40
1.0
 40
1.0
 10
507.6386773037
 20
217.4374241611
 30
0.0
 10
507.5978573237
 20
217.8139448101
 30
0.0
 10
507.4154191494
 20
218.5792700391
 30
0.0
 10
506.8689100936
 20
219.666146063
 30
0.0
 10
506.0627926027
 20
220.6898383328
 30
0.0
 10
505.0167423898
 20
221.6315673701
 30
0.0
 10
503.7527253446
 20
222.4752807851
 30
0.0
 10
502.2960757755
 20
223.2055521568
 30
0.0
 10
500.6756728927
 20
223.8086613618
 30
0.0
 10
498.3058978154
 20
224.4361831641
 30
0.0
 10
495.1589346887
 20
224.8274100671
 30
0.0
 10
491.9692985917
 20
224.7044478656
 30
0.0
 10
489.4831505018
 20
224.2892280657
 30
0.0
 10
487.7265201345
 20
223.8312629307
 30
0.0
 10
486.1001122339
 20
223.2340449263
 30
0.0
 10
485.0908232021
 20
222.734184522
 30
0.0
 10
484.6190604856
 20
222.4618138165
 30
0.0
  0
SPLINE
  5
508
100
AcDbEntity
  8
02___PRT_ALL_AXES
100
AcDbSpline
 62
3
  6
CONTINUOUS
 70
0
 71
3
 72
11
 73
7
 74
0
 42
0.0000001
 43
0.0000001
 44
0.0000000001
 40
0.0
 40
0.0
 40
0.0
 40
0.0
 40
0.2333657599
 40
0.4794472476
 40
0.7359071358
 40
1.0
 40
1.0
 40
1.0
 40
1.0
 10
257.2235341102
 20
57.9228588468
 30
0.0
 10
259.8950400989
 20
56.6136534816
 30
0.0
 10
265.5327488962
 20
54.2212199432
 30
0.0
 10
274.4853439551
 20
51.3776207801
 30
0.0
 10
284.0292907163
 20
49.2224592112
 30
0.0
 10
290.6062762959
 20
48.2804165515
 30
0.0
 10
293.9546982958
 20
47.9293033533
 30
0.0
  0
SPLINE
  5
509
100
AcDbEntity
  8
02___PRT_ALL_AXES
100
AcDbSpline
 62
3
  6
CONTINUOUS
 70
0
 71
3
 72
14
 73
10
 74
0
 42
0.0000001
 43
0.0000001
 44
0.0000000001
 40
0.0
 40
0.0
 40
0.0
 40
0.0
 40
0.2804236145
 40
0.4114900992
 40
0.536917709
 40
0.657420702
 40
0.7739554665
 40
0.8876991164
 40
1.0
 40
1.0
 40
1.0
 40
1.0
 10
153.3323982239
 20
117.9030771833
 30
0.0
 10
153.3777160814
 20
116.3857049712
 30
0.0
 10
153.621138986
 20
114.1546712275
 30
0.0
 10
154.3720595396
 20
111.3423448401
 30
0.0
 10
155.1117214459
 20
109.4353285616
 30
0.0
 10
156.0355776949
 20
107.6986628505
 30
0.0
 10
157.1377848628
 20
106.1454379266
 30
0.0
 10
158.4102328929
 20
104.7884969743
 30
0.0
 10
159.3686898847
 20
104.0198810737
 30
0.0
 10
159.8689758613
 20
103.674491299
 30
0.0
  0
SPLINE
  5
50A
100
AcDbEntity
  8
02___PRT_ALL_AXES
100
AcDbSpline
 62
3
  6
CONTINUOUS
 70
0
 71
3
 72
15
 73
11
 74
0
 42
0.0000001
 43
0.0000001
 44
0.0000000001
 40
0.0
 40
0.0
 40
0.0
 40
0.0
 40
0.1504421531
 40
0.2925948726
 40
0.4264950806
 40
0.5525253742
 40
0.6714665489
 40
0.7845342735
 40
0.893375967
 40
1.0
 40
1.0
 40
1.0
 40
1.0
 10
257.2235341099
 20
57.9228588469
 30
0.0
 10
257.2846992196
 20
57.0263320226
 30
0.0
 10
257.4739252666
 20
55.2862976581
 30
0.0
 10
257.9819357442
 20
52.7859815657
 30
0.0
 10
258.7023623297
 20
50.4897806828
 30
0.0
 10
259.6297478091
 20
48.4190917928
 30
0.0
 10
260.7570786231
 20
46.5935632696
 30
0.0
 10
262.0758319558
 20
45.0315515396
 30
0.0
 10
263.5740909259
 20
43.7506302373
 30
0.0
 10
264.6883694017
 20
43.0912078328
 30
0.0
 10
265.2629257757
 20
42.8164344486
 30
0.0
  0
SPLINE
  5
50B
100
AcDbEntity
  8
02___PRT_ALL_AXES
100
AcDbSpline
 62
3
  6
CONTINUOUS
 70
0
 71
3
 72
13
 73
9
 74
0
 42
0.0000001
 43
0.0000001
 44
0.0000000001
 40
0.0
 40
0.0
 40
0.0
 40
0.0
 40
0.2464917345
 40
0.370672829
 40
0.4953874802
 40
0.6206216972
 40
0.7464162052
 40
1.0
 40
1.0
 40
1.0
 40
1.0
 10
153.3323982239
 20
117.9030771833
 30
0.0
 10
161.4537371844
 20
112.2995074401
 30
0.0
 10
173.8255177192
 20
104.0991517571
 30
0.0
 10
190.6787220833
 20
93.6472561506
 30
0.0
 10
203.5697768317
 20
86.0221091597
 30
0.0
 10
216.6755875382
 20
78.6398576873
 30
0.0
 10
234.4765470812
 20
69.0909287556
 30
0.0
 10
248.0672730449
 20
62.3048537917
 30
0.0
 10
257.2235341102
 20
57.9228588468
 30
0.0
  0
SPLINE
  5
50C
100
AcDbEntity
  8
02___PRT_ALL_AXES
100
AcDbSpline
 62
3
  6
CONTINUOUS
 70
0
 71
3
 72
12
 73
8
 74
0
 42
0.0000001
 43
0.0000001
 44
0.0000000001
 40
0.0
 40
0.0
 40
0.0
 40
0.0
 40
0.1105475351
 40
0.2243715461
 40
0.4638283836
 40
0.7218944264
 40
1.0
 40
1.0
 40
1.0
 40
1.0
 10
135.4085722486
 20
139.463884305
 30
0.0
 10
135.7359519016
 20
138.4652075359
 30
0.0
 10
136.5100104988
 20
136.4725582613
 30
0.0
 10
138.5142397406
 20
132.5380878493
 30
0.0
 10
141.887666984
 20
127.7635001924
 30
0.0
 10
147.0817275731
 20
122.4935721507
 30
0.0
 10
151.1430174491
 20
119.3852973821
 30
0.0
 10
153.3323982239
 20
117.9030771833
 30
0.0
  0
SPLINE
  5
50D
100
AcDbEntity
  8
0
100
AcDbSpline
 62
3
  6
CONTINUOUS
 70
0
 71
3
 72
11
 73
7
 74
0
 42
0.0000001
 43
0.0000001
 44
0.0000000001
 40
0.0
 40
0.0
 40
0.0
 40
0.0
 40
0.2177726704
 40
0.4509525054
 40
0.7101917589
 40
1.0
 40
1.0
 40
1.0
 40
1.0
 10
596.1055581887
 20
267.4502478622
 30
0.0
 10
596.1319467567
 20
267.4350127584
 30
0.0
 10
596.1813368042
 20
267.3935110537
 30
0.0
 10
596.2338683035
 20
267.3075619953
 30
0.0
 10
596.2651254913
 20
267.2016572936
 30
0.0
 10
596.271248024
 20
267.1245688856
 30
0.0
 10
596.271248024
 20
267.0840189562
 30
0.0
  0
ELLIPSE
  5
50E
100
AcDbEntity
  8
0
100
AcDbEllipse
 62
7
  6
CONTINUOUS
 10
302.3965428151
 20
383.2386250965
 30
0.0
 11
-0.1475093684
 21
0.6484543124
 31
0.0
 40
0.4955059556
 41
1.1613255932
 42
1.5159659238
  0
ELLIPSE
  5
50F
100
AcDbEntity
  8
0
100
AcDbEllipse
 62
7
  6
CONTINUOUS
 10
302.4030766878
 20
383.233778577
 30
0.0
 11
0.4095270443
 21
0.3018506899
 31
0.0
 40
0.7764816643
 41
1.897961648
 42
1.9188726557
  0
ELLIPSE
  5
510
100
AcDbEntity
  8
0
100
AcDbEllipse
 62
7
  6
CONTINUOUS
 10
583.6847914785
 20
220.8404529484
 30
0.0
 11
-0.1475093684
 21
0.6484543124
 31
0.0
 40
0.4955059556
 41
-2.6624244722
 42
-2.0220890758
  0
ELLIPSE
  5
511
100
AcDbEntity
  8
0
100
AcDbEllipse
 62
7
  6
CONTINUOUS
 10
596.1298225463
 20
211.6790700859
 30
0.0
 11
-0.1475093684
 21
0.6484543124
 31
0.0
 40
0.4955059556
 41
-3.1604575488
 42
-2.0011780681
  0
ELLIPSE
  5
512
100
AcDbEntity
  8
0
100
AcDbEllipse
 62
7
  6
CONTINUOUS
 10
583.6913253513
 20
220.8356064288
 30
0.0
 11
0.4095270443
 21
0.3018506899
 31
0.0
 40
0.7764816643
 41
-1.2645420132
 42
-1.2436310056
  0
ELLIPSE
  5
513
100
AcDbEntity
  8
0
100
AcDbEllipse
 62
7
  6
CONTINUOUS
 10
584.1090573136
 20
220.5955084956
 30
0.0
 11
-0.1475093684
 21
0.6484543124
 31
0.0
 40
0.4955059556
 41
-3.045200449
 42
-2.0220890758
  0
ELLIPSE
  5
514
100
AcDbEntity
  8
0
100
AcDbEllipse
 62
7
  6
CONTINUOUS
 10
584.1155911863
 20
220.5906619761
 30
0.0
 11
0.4095270443
 21
0.3018506899
 31
0.0
 40
0.7764816643
 41
-1.2645420132
 42
-1.2436310056
  0
ELLIPSE
  5
515
100
AcDbEntity
  8
0
100
AcDbEllipse
 62
7
  6
CONTINUOUS
 10
584.6301928416
 20
221.6301128212
 30
0.0
 11
-0.1617571456
 21
0.6085583008
 31
0.0
 40
0.516600304
 41
-1.9218019266
 42
-1.1496639655
  0
ENDSEC
  0
SECTION
  2
OBJECTS
  0
DICTIONARY
  5
C
100
AcDbDictionary
280
0
281
1
  3
ACAD_GROUP
350
D
  3
ACAD_MLINESTYLE
350
17
  3
ACAD_LAYOUT
350
1A
  3
ACAD_PLOTSETTINGS
350
19
  3
ACAD_PLOTSTYLENAME
350
E
  0
DICTIONARY
  5
D
102
{ACAD_REACTORS
330
C
102
}
100
AcDbDictionary
280
0
281
1
  0
ACDBDICTIONARYWDFLT
  5
E
102
{ACAD_REACTORS
330
C
102
}
100
AcDbDictionary
281
1
  3
Normal
350
F
100
AcDbDictionaryWithDefault
340
F
  0
DICTIONARY
  5
17
102
{ACAD_REACTORS
330
C
102
}
100
AcDbDictionary
280
0
281
1
  3
Standard
350
18
  0
DICTIONARY
  5
19
102
{ACAD_REACTORS
330
C
102
}
100
AcDbDictionary
281
1
  0
DICTIONARY
  5
1A
102
{ACAD_REACTORS
330
C
102
}
100
AcDbDictionary
281
1
  3
Model
350
516
  3
Layout1
350
517
  0
ACDBPLACEHOLDER
  5
F
102
{ACAD_REACTORS
330
E
102
}
  0
MLINESTYLE
  5
18
102
{ACAD_REACTORS
330
17
102
}
100
AcDbMlineStyle
  2
STANDARD
 70
0
  3

 62
256
 51
90.0
 52
90.0
 71
2
 49
0.5
 62
256
  6
BYLAYER
 49
-0.5
 62
256
  6
BYLAYER
  0
LAYOUT
  5
516
102
{ACAD_REACTORS
330
1A
102
}
100
AcDbPlotSettings
  1

  2
none_device
  4

  6

 40
0.0
 41
0.0
 42
0.0
 43
0.0
 44
628.0
 45
454.0
 46
0.0
 47
0.0
 48
0.0
 49
0.0
140
0.0
141
0.0
142
1.0
143
1.0
 70
1024
 72
1
 73
0
 74
0
  7

 75
0
147
1.0
148
0.0
149
0.0
100
AcDbLayout
  1
Model
 70
0
 71
0
 10
0.0
 20
0.0
 11
628.0
 21
454.0
 12
0.0
 22
0.0
 32
0.0
 14
0.0
 24
0.0
 34
0.0
 15
0.0
 25
0.0
 35
0.0
146
0.0
 13
0.0
 23
0.0
 33
0.0
 16
1.0
 26
0.0
 36
0.0
 17
0.0
 27
1.0
 37
0.0
 76
0
330
216
345
0
346
0
  0
LAYOUT
  5
517
102
{ACAD_REACTORS
330
1A
102
}
100
AcDbPlotSettings
  1

  2
none_device
  4

  6

 40
0.0
 41
0.0
 42
0.0
 43
0.0
 44
628.0
 45
454.0
 46
0.0
 47
0.0
 48
0.0
 49
0.0
140
0.0
141
0.0
142
1.0
143
1.0
 70
0
 72
1
 73
0
 74
0
  7

 75
0
147
1.0
148
0.0
149
0.0
100
AcDbLayout
  1
Layout1
 70
0
 71
1
 10
0.0
 20
0.0
 11
628.0
 21
454.0
 12
0.0
 22
0.0
 32
0.0
 14
0.0
 24
0.0
 34
0.0
 15
0.0
 25
0.0
 35
0.0
146
0.0
 13
0.0
 23
0.0
 33
0.0
 16
1.0
 26
0.0
 36
0.0
 17
0.0
 27
1.0
 37
0.0
 76
0
330
217
345
0
346
0
  0
ENDSEC
  0
EOF
