  0
SECTION
  2
HEADER
  9
$ACADVER
  1
AC1032
  9
$ACADMAINTVER
 90
      228
  9
$DWGCODEPAGE
  3
ANSI_1252
  9
$REQUIREDVERSIONS
160
                 0
  9
$INSBASE
 10
0.0
 20
0.0
 30
0.0
  9
$EXTMIN
 10
1.000000000000000E+20
 20
1.000000000000000E+20
 30
1.000000000000000E+20
  9
$EXTMAX
 10
-1.000000000000000E+20
 20
-1.000000000000000E+20
 30
-1.000000000000000E+20
  9
$LIMMIN
 10
0.0
 20
0.0
  9
$LIMMAX
 10
12.0
 20
9.0
  9
$ORTHOMODE
 70
     0
  9
$REGENMODE
 70
     1
  9
$FILLMODE
 70
     1
  9
$QTEXTMODE
 70
     0
  9
$MIRRTEXT
 70
     0
  9
$LTSCALE
 40
1.0
  9
$ATTMODE
 70
     1
  9
$TEXTSIZE
 40
0.2
  9
$TRACEWID
 40
0.05
  9
$TEXTSTYLE
  7
Standard
  9
$CLAYER
  8
0
  9
$CELTYPE
  6
ByLayer
  9
$CECOLOR
 62
   256
  9
$CELTSCALE
 40
1.0
  9
$DISPSILH
 70
     0
  9
$DIMSCALE
 40
1.0
  9
$DIMASZ
 40
0.18
  9
$DIMEXO
 40
0.0625
  9
$DIMDLI
 40
0.38
  9
$DIMRND
 40
0.0
  9
$DIMDLE
 40
0.0
  9
$DIMEXE
 40
0.18
  9
$DIMTP
 40
0.0
  9
$DIMTM
 40
0.0
  9
$DIMTXT
 40
0.18
  9
$DIMCEN
 40
0.09
  9
$DIMTSZ
 40
0.0
  9
$DIMTOL
 70
     0
  9
$DIMLIM
 70
     0
  9
$DIMTIH
 70
     1
  9
$DIMTOH
 70
     1
  9
$DIMSE1
 70
     0
  9
$DIMSE2
 70
     0
  9
$DIMTAD
 70
     0
  9
$DIMZIN
 70
     0
  9
$DIMBLK
  1

  9
$DIMASO
 70
     1
  9
$DIMSHO
 70
     1
  9
$DIMPOST
  1

  9
$DIMAPOST
  1

  9
$DIMALT
 70
     0
  9
$DIMALTD
 70
     2
  9
$DIMALTF
 40
25.4
  9
$DIMLFAC
 40
1.0
  9
$DIMTOFL
 70
     0
  9
$DIMTVP
 40
0.0
  9
$DIMTIX
 70
     0
  9
$DIMSOXD
 70
     0
  9
$DIMSAH
 70
     0
  9
$DIMBLK1
  1

  9
$DIMBLK2
  1

  9
$DIMSTYLE
  2
Standard
  9
$DIMCLRD
 70
     0
  9
$DIMCLRE
 70
     0
  9
$DIMCLRT
 70
     0
  9
$DIMTFAC
 40
1.0
  9
$DIMGAP
 40
0.09
  9
$DIMJUST
 70
     0
  9
$DIMSD1
 70
     0
  9
$DIMSD2
 70
     0
  9
$DIMTOLJ
 70
     1
  9
$DIMTZIN
 70
     0
  9
$DIMALTZ
 70
     0
  9
$DIMALTTZ
 70
     0
  9
$DIMUPT
 70
     0
  9
$DIMDEC
 70
     4
  9
$DIMTDEC
 70
     4
  9
$DIMALTU
 70
     2
  9
$DIMALTTD
 70
     2
  9
$DIMTXSTY
  7
Standard
  9
$DIMAUNIT
 70
     0
  9
$DIMADEC
 70
     0
  9
$DIMALTRND
 40
0.0
  9
$DIMAZIN
 70
     0
  9
$DIMDSEP
 70
    46
  9
$DIMATFIT
 70
     3
  9
$DIMFRAC
 70
     0
  9
$DIMLDRBLK
  1

  9
$DIMLUNIT
 70
     2
  9
$DIMLWD
 70
    -2
  9
$DIMLWE
 70
    -2
  9
$DIMTMOVE
 70
     0
  9
$DIMFXL
 40
1.0
  9
$DIMFXLON
 70
     0
  9
$DIMJOGANG
 40
0.7853981633974483
  9
$DIMTFILL
 70
     0
  9
$DIMTFILLCLR
 70
     0
  9
$DIMARCSYM
 70
     0
  9
$DIMLTYPE
  6

  9
$DIMLTEX1
  6

  9
$DIMLTEX2
  6

  9
$DIMTXTDIRECTION
 70
     0
  9
$LUNITS
 70
     2
  9
$LUPREC
 70
     4
  9
$SKETCHINC
 40
0.1
  9
$FILLETRAD
 40
0.0
  9
$AUNITS
 70
     0
  9
$AUPREC
 70
     0
  9
$MENU
  1
.
  9
$ELEVATION
 40
0.0
  9
$PELEVATION
 40
0.0
  9
$THICKNESS
 40
0.0
  9
$LIMCHECK
 70
     0
  9
$CHAMFERA
 40
0.0
  9
$CHAMFERB
 40
0.0
  9
$CHAMFERC
 40
0.0
  9
$CHAMFERD
 40
0.0
  9
$SKPOLY
 70
     0
  9
$TDCREATE
 40
2459992.579548611
  9
$TDUCREATE
 40
2459992.704548612
  9
$TDUPDATE
 40
2459992.579548611
  9
$TDUUPDATE
 40
2459992.704548612
  9
$TDINDWG
 40
0.0000000000
  9
$TDUSRTIMER
 40
0.0000000000
  9
$USRTIMER
 70
     1
  9
$ANGBASE
 50
0.0
  9
$ANGDIR
 70
     0
  9
$PDMODE
 70
     0
  9
$PDSIZE
 40
0.0
  9
$PLINEWID
 40
0.0
  9
$SPLFRAME
 70
     0
  9
$SPLINETYPE
 70
     6
  9
$SPLINESEGS
 70
     8
  9
$HANDSEED
  5
185
  9
$SURFTAB1
 70
     6
  9
$SURFTAB2
 70
     6
  9
$SURFTYPE
 70
     6
  9
$SURFU
 70
     6
  9
$SURFV
 70
     6
  9
$UCSBASE
  2

  9
$UCSNAME
  2

  9
$UCSORG
 10
0.0
 20
0.0
 30
0.0
  9
$UCSXDIR
 10
1.0
 20
0.0
 30
0.0
  9
$UCSYDIR
 10
0.0
 20
1.0
 30
0.0
  9
$UCSORTHOREF
  2

  9
$UCSORTHOVIEW
 70
     0
  9
$UCSORGTOP
 10
0.0
 20
0.0
 30
0.0
  9
$UCSORGBOTTOM
 10
0.0
 20
0.0
 30
0.0
  9
$UCSORGLEFT
 10
0.0
 20
0.0
 30
0.0
  9
$UCSORGRIGHT
 10
0.0
 20
0.0
 30
0.0
  9
$UCSORGFRONT
 10
0.0
 20
0.0
 30
0.0
  9
$UCSORGBACK
 10
0.0
 20
0.0
 30
0.0
  9
$PUCSBASE
  2

  9
$PUCSNAME
  2

  9
$PUCSORG
 10
0.0
 20
0.0
 30
0.0
  9
$PUCSXDIR
 10
1.0
 20
0.0
 30
0.0
  9
$PUCSYDIR
 10
0.0
 20
1.0
 30
0.0
  9
$PUCSORTHOREF
  2

  9
$PUCSORTHOVIEW
 70
     0
  9
$PUCSORGTOP
 10
0.0
 20
0.0
 30
0.0
  9
$PUCSORGBOTTOM
 10
0.0
 20
0.0
 30
0.0
  9
$PUCSORGLEFT
 10
0.0
 20
0.0
 30
0.0
  9
$PUCSORGRIGHT
 10
0.0
 20
0.0
 30
0.0
  9
$PUCSORGFRONT
 10
0.0
 20
0.0
 30
0.0
  9
$PUCSORGBACK
 10
0.0
 20
0.0
 30
0.0
  9
$USERI1
 70
     0
  9
$USERI2
 70
     0
  9
$USERI3
 70
     0
  9
$USERI4
 70
     0
  9
$USERI5
 70
     0
  9
$USERR1
 40
0.0
  9
$USERR2
 40
0.0
  9
$USERR3
 40
0.0
  9
$USERR4
 40
0.0
  9
$USERR5
 40
0.0
  9
$WORLDVIEW
 70
     1
  9
$SHADEDGE
 70
     3
  9
$SHADEDIF
 70
    70
  9
$TILEMODE
 70
     1
  9
$MAXACTVP
 70
    64
  9
$PINSBASE
 10
0.0
 20
0.0
 30
0.0
  9
$PLIMCHECK
 70
     0
  9
$PEXTMIN
 10
1.000000000000000E+20
 20
1.000000000000000E+20
 30
1.000000000000000E+20
  9
$PEXTMAX
 10
-1.000000000000000E+20
 20
-1.000000000000000E+20
 30
-1.000000000000000E+20
  9
$PLIMMIN
 10
0.0
 20
0.0
  9
$PLIMMAX
 10
12.0
 20
9.0
  9
$UNITMODE
 70
     0
  9
$VISRETAIN
 70
     1
  9
$PLINEGEN
 70
     0
  9
$PSLTSCALE
 70
     1
  9
$TREEDEPTH
 70
  3020
  9
$CMLSTYLE
  2
Standard
  9
$CMLJUST
 70
     0
  9
$CMLSCALE
 40
1.0
  9
$PROXYGRAPHICS
 70
     1
  9
$MEASUREMENT
 70
     0
  9
$CELWEIGHT
370
    -1
  9
$ENDCAPS
280
     0
  9
$JOINSTYLE
280
     0
  9
$LWDISPLAY
290
     1
  9
$INSUNITS
 70
     0
  9
$HYPERLINKBASE
  1

  9
$STYLESHEET
  1

  9
$XEDIT
290
     1
  9
$CEPSNTYPE
380
     0
  9
$PSTYLEMODE
290
     1
  9
$FINGERPRINTGUID
  2
{14A0B312-75D8-8D4B-8BD7-EAAB1CEF8040}
  9
$VERSIONGUID
  2
{0ED23722-8471-4746-9C2E-19AA654027D4}
  9
$EXTNAMES
290
     1
  9
$PSVPSCALE
 40
0.0
  9
$OLESTARTUP
290
     0
  9
$SORTENTS
280
   127
  9
$INDEXCTL
280
     0
  9
$HIDETEXT
280
     1
  9
$XCLIPFRAME
280
     2
  9
$HALOGAP
280
     0
  9
$OBSCOLOR
 70
   257
  9
$OBSLTYPE
280
     0
  9
$INTERSECTIONDISPLAY
280
     0
  9
$INTERSECTIONCOLOR
 70
   257
  9
$DIMASSOC
280
     2
  9
$PROJECTNAME
  1

  9
$CAMERADISPLAY
290
     0
  9
$LENSLENGTH
 40
50.0
  9
$CAMERAHEIGHT
 40
0.0
  9
$STEPSPERSEC
 40
2.0
  9
$STEPSIZE
 40
6.0
  9
$3DDWFPREC
 40
2.0
  9
$PSOLWIDTH
 40
0.25
  9
$PSOLHEIGHT
 40
4.0
  9
$LOFTANG1
 40
1.570796326794896
  9
$LOFTANG2
 40
1.570796326794896
  9
$LOFTMAG1
 40
0.0
  9
$LOFTMAG2
 40
0.0
  9
$LOFTPARAM
 70
     7
  9
$LOFTNORMALS
280
     1
  9
$LATITUDE
 40
37.795
  9
$LONGITUDE
 40
-122.394
  9
$NORTHDIRECTION
 40
0.0
  9
$TIMEZONE
 70
 -8000
  9
$LIGHTGLYPHDISPLAY
280
     1
  9
$TILEMODELIGHTSYNCH
280
     1
  9
$CMATERIAL
347
11
  9
$SOLIDHIST
280
     0
  9
$SHOWHIST
280
     1
  9
$DWFFRAME
280
     2
  9
$DGNFRAME
280
     0
  9
$REALWORLDSCALE
290
     1
  9
$INTERFERECOLOR
 62
     1
  9
$INTERFEREOBJVS
345
33
  9
$INTERFEREVPVS
346
30
  9
$CSHADOW
280
     0
  9
$SHADOWPLANELOCATION
 40
0.0
  0
ENDSEC
  0
SECTION
  2
CLASSES
  0
CLASS
  1
ACDBDICTIONARYWDFLT
  2
AcDbDictionaryWithDefault
  3
ObjectDBX Classes
 90
        0
 91
        1
280
     0
281
     0
  0
CLASS
  1
MATERIAL
  2
AcDbMaterial
  3
ObjectDBX Classes
 90
     1153
 91
        3
280
     0
281
     0
  0
CLASS
  1
VISUALSTYLE
  2
AcDbVisualStyle
  3
ObjectDBX Classes
 90
     4095
 91
       24
280
     0
281
     0
  0
CLASS
  1
SCALE
  2
AcDbScale
  3
ObjectDBX Classes
 90
     1153
 91
       17
280
     0
281
     0
  0
CLASS
  1
TABLESTYLE
  2
AcDbTableStyle
  3
ObjectDBX Classes
 90
     4095
 91
        1
280
     0
281
     0
  0
CLASS
  1
MLEADERSTYLE
  2
AcDbMLeaderStyle
  3
ACDB_MLEADERSTYLE_CLASS
 90
     4095
 91
        1
280
     0
281
     0
  0
CLASS
  1
ACDBSECTIONVIEWSTYLE
  2
AcDbSectionViewStyle
  3
ObjectDBX Classes
 90
     1025
 91
        1
280
     0
281
     0
  0
CLASS
  1
ACDBDETAILVIEWSTYLE
  2
AcDbDetailViewStyle
  3
ObjectDBX Classes
 90
     1025
 91
        1
280
     0
281
     0
  0
CLASS
  1
DICTIONARYVAR
  2
AcDbDictionaryVar
  3
ObjectDBX Classes
 90
        0
 91
        5
280
     0
281
     0
  0
CLASS
  1
CELLSTYLEMAP
  2
AcDbCellStyleMap
  3
ObjectDBX Classes
 90
     1152
 91
        1
280
     0
281
     0
  0
ENDSEC
  0
SECTION
  2
TABLES
  0
TABLE
  2
VPORT
  5
8
330
0
100
AcDbSymbolTable
 70
     1
  0
VPORT
  5
57
330
8
100
AcDbSymbolTableRecord
100
AcDbViewportTableRecord
  2
*Active
 70
     0
 10
0.0
 20
0.0
 11
1.0
 21
1.0
 12
0.0
 22
0.0
 13
0.0
 23
0.0
 14
1.0
 24
1.0
 15
0.0
 25
0.0
 16
0.0
 26
0.0
 36
1.0
 17
711.8148148148161
 27
403.9999999999995
 37
0.0
 40
650.0800000000015
 41
1.150046490004651
 42
50.0
 43
0.0
 44
0.0
 50
0.0
 51
0.0
 71
     0
 72
   100
 73
     1
 74
     1
 75
     0
 76
     0
 77
     0
 78
     0
281
     0
 65
     1
110
0.0
120
0.0
130
0.0
111
1.0
121
0.0
131
0.0
112
0.0
122
1.0
132
0.0
 79
     0
146
0.0
 60
     3
 61
     5
292
     1
282
     1
141
0.0
142
0.0
 63
   250
421
  3355443
  0
ENDTAB
  0
TABLE
  2
LTYPE
  5
5
330
0
100
AcDbSymbolTable
 70
     1
  0
LTYPE
  5
5B
330
5
100
AcDbSymbolTableRecord
100
AcDbLinetypeTableRecord
  2
ByBlock
 70
     0
  3

 72
    65
 73
     0
 40
0.0
  0
LTYPE
  5
5C
330
5
100
AcDbSymbolTableRecord
100
AcDbLinetypeTableRecord
  2
ByLayer
 70
     0
  3

 72
    65
 73
     0
 40
0.0
  0
LTYPE
  5
5D
330
5
100
AcDbSymbolTableRecord
100
AcDbLinetypeTableRecord
  2
Continuous
 70
     0
  3
Solid line
 72
    65
 73
     0
 40
0.0
  0
ENDTAB
  0
TABLE
  2
LAYER
  5
2
330
0
100
AcDbSymbolTable
 70
     2
  0
LAYER
  5
54
330
2
100
AcDbSymbolTableRecord
100
AcDbLayerTableRecord
  2
0
 70
     0
 62
     7
  6
Continuous
370
    -3
390
F
347
21
348
0
  0
LAYER
  5
78
330
2
100
AcDbSymbolTableRecord
100
AcDbLayerTableRecord
  2
1
 70
     0
 62
     7
  6
Continuous
370
     0
390
F
347
21
348
0
  0
ENDTAB
  0
TABLE
  2
STYLE
  5
3
330
0
100
AcDbSymbolTable
 70
     2
  0
STYLE
  5
55
330
3
100
AcDbSymbolTableRecord
100
AcDbTextStyleTableRecord
  2
Standard
 70
     0
 40
0.0
 41
1.0
 50
0.0
 71
     0
 42
0.2
  3
txt
  4

  0
STYLE
  5
5A
330
3
100
AcDbSymbolTableRecord
100
AcDbTextStyleTableRecord
  2
Annotative
 70
     0
 40
0.0
 41
1.0
 50
0.0
 71
     0
 42
0.2
  3
txt
  4

1001
AcadAnnotative
1000
AnnotativeData
1002
{
1070
     1
1070
     1
1002
}
  0
ENDTAB
  0
TABLE
  2
VIEW
  5
6
330
0
100
AcDbSymbolTable
 70
     0
  0
ENDTAB
  0
TABLE
  2
UCS
  5
7
330
0
100
AcDbSymbolTable
 70
     0
  0
ENDTAB
  0
TABLE
  2
APPID
  5
9
330
0
100
AcDbSymbolTable
 70
     2
  0
APPID
  5
56
330
9
100
AcDbSymbolTableRecord
100
AcDbRegAppTableRecord
  2
ACAD
 70
     0
  0
APPID
  5
5E
330
9
100
AcDbSymbolTableRecord
100
AcDbRegAppTableRecord
  2
AcadAnnotative
 70
     0
  0
ENDTAB
  0
TABLE
  2
DIMSTYLE
  5
A
330
0
100
AcDbSymbolTable
 70
     2
100
AcDbDimStyleTable
 71
     0
  0
DIMSTYLE
105
58
330
A
100
AcDbSymbolTableRecord
100
AcDbDimStyleTableRecord
  2
Standard
 70
     0
340
55
  0
DIMSTYLE
105
59
330
A
100
AcDbSymbolTableRecord
100
AcDbDimStyleTableRecord
  2
Annotative
 70
     0
340
55
1001
AcadAnnotative
1000
AnnotativeData
1002
{
1070
     1
1070
     1
1002
}
  0
ENDTAB
  0
TABLE
  2
BLOCK_RECORD
  5
1
330
0
100
AcDbSymbolTable
 70
     4
  0
BLOCK_RECORD
  5
70
330
1
100
AcDbSymbolTableRecord
100
AcDbBlockTableRecord
  2
*Model_Space
340
73
 70
     0
280
     1
281
     0
  0
BLOCK_RECORD
  5
6C
330
1
100
AcDbSymbolTableRecord
100
AcDbBlockTableRecord
  2
*Paper_Space
340
6F
 70
     0
280
     1
281
     0
  0
BLOCK_RECORD
  5
74
330
1
100
AcDbSymbolTableRecord
100
AcDbBlockTableRecord
  2
*Paper_Space0
340
77
 70
     0
280
     1
281
     0
  0
BLOCK_RECORD
  5
7A
330
1
100
AcDbSymbolTableRecord
100
AcDbBlockTableRecord
  2
Block_0
340
0
102
{BLKREFS
331
7B
102
}
 70
     0
280
     1
281
     0
  0
BLOCK_RECORD
  5
80
330
1
100
AcDbSymbolTableRecord
100
AcDbBlockTableRecord
  2
Block_1
340
0
102
{BLKREFS
331
81
102
}
 70
     0
280
     1
281
     0
  0
BLOCK_RECORD
  5
164
330
1
100
AcDbSymbolTableRecord
100
AcDbBlockTableRecord
  2
Block_2
340
0
102
{BLKREFS
331
165
102
}
 70
     0
280
     1
281
     0
  0
ENDTAB
  0
ENDSEC
  0
SECTION
  2
BLOCKS
  0
BLOCK
  5
71
330
70
100
AcDbEntity
  8
0
100
AcDbBlockBegin
  2
*Model_Space
 70
     0
 10
0.0
 20
0.0
 30
0.0
  3
*Model_Space
  1

  0
ENDBLK
  5
72
330
70
100
AcDbEntity
  8
0
100
AcDbBlockEnd
  0
BLOCK
  5
6D
330
6C
100
AcDbEntity
 67
     1
  8
0
100
AcDbBlockBegin
  2
*Paper_Space
 70
     0
 10
0.0
 20
0.0
 30
0.0
  3
*Paper_Space
  1

  0
ENDBLK
  5
6E
330
6C
100
AcDbEntity
 67
     1
  8
0
100
AcDbBlockEnd
  0
BLOCK
  5
75
330
74
100
AcDbEntity
 67
     1
  8
0
100
AcDbBlockBegin
  2
*Paper_Space0
 70
     0
 10
0.0
 20
0.0
 30
0.0
  3
*Paper_Space0
  1

  0
ENDBLK
  5
76
330
74
100
AcDbEntity
 67
     1
  8
0
100
AcDbBlockEnd
  0
BLOCK
  5
7C
330
7A
100
AcDbEntity
  8
0
100
AcDbBlockBegin
  2
Block_0
 70
     0
 10
0.0
 20
0.0
 30
0.0
  3
Block_0
  1

  0
SPLINE
  5
7E
330
7A
100
AcDbEntity
  8
1
 62
   251
370
    25
100
AcDbSpline
210
0.0
220
0.0
230
1.0
 70
     9
 71
     3
 72
    29
 73
    25
 74
     0
 42
0.0000000001
 43
0.0000000001
 40
0.0
 40
0.0
 40
0.0
 40
0.0
 40
1.0
 40
1.0
 40
1.0
 40
2.0
 40
2.0
 40
2.0
 40
3.0
 40
3.0
 40
3.0
 40
4.0
 40
4.0
 40
4.0
 40
5.0
 40
5.0
 40
5.0
 40
6.0
 40
6.0
 40
6.0
 40
7.0
 40
7.0
 40
7.0
 40
8.0
 40
8.0
 40
8.0
 40
8.0
 10
1047.98412026545
 20
115.5443044843596
 30
0.0
 10
1047.98412026545
 20
113.2337980945158
 30
0.0
 10
1046.094890993259
 20
111.3445711581516
 30
0.0
 10
1043.782754190841
 20
111.3445711581516
 30
0.0
 10
1043.782754190841
 20
111.3445711581516
 30
0.0
 10
1019.090543611461
 20
111.3445711581516
 30
0.0
 10
1019.090543611461
 20
111.3445711581516
 30
0.0
 10
1016.78330271842
 20
111.3445711581516
 30
0.0
 10
1014.892441476429
 20
113.2337980945158
 30
0.0
 10
1014.892441476429
 20
115.5443044843596
 30
0.0
 10
1014.892441476429
 20
115.5443044843596
 30
0.0
 10
1014.892441476429
 20
140.2397778354061
 30
0.0
 10
1014.892441476429
 20
140.2397778354061
 30
0.0
 10
1014.892441476429
 20
142.5470218428927
 30
0.0
 10
1016.78330271842
 20
144.4378799704354
 30
0.0
 10
1019.090543611461
 20
144.4378799704354
 30
0.0
 10
1019.090543611461
 20
144.4378799704354
 30
0.0
 10
1043.782754190841
 20
144.4378799704354
 30
0.0
 10
1043.782754190841
 20
144.4378799704354
 30
0.0
 10
1046.094890993259
 20
144.4378799704354
 30
0.0
 10
1047.98412026545
 20
142.5470218428927
 30
0.0
 10
1047.98412026545
 20
140.2397778354061
 30
0.0
 10
1047.98412026545
 20
140.2397778354061
 30
0.0
 10
1047.98412026545
 20
115.5443044843596
 30
0.0
 10
1047.98412026545
 20
115.5443044843596
 30
0.0
  0
LWPOLYLINE
  5
7F
330
7A
100
AcDbEntity
  8
1
100
AcDbPolyline
 90
        4
 70
     1
 43
0.0
 10
1014.218232399649
 20
110.670687151698
 10
1048.79418459836
 20
110.670687151698
 10
1048.79418459836
 20
145.1111111111095
 10
1014.218232399649
 20
145.1111111111095
  0
ENDBLK
  5
7D
330
7A
100
AcDbEntity
  8
0
100
AcDbBlockEnd
  0
BLOCK
  5
82
330
80
100
AcDbEntity
  8
0
100
AcDbBlockBegin
  2
Block_1
 70
     0
 10
0.0
 20
0.0
 30
0.0
  3
Block_1
  1

  0
LINE
  5
84
330
80
100
AcDbEntity
  8
1
 62
   253
370
    30
100
AcDbLine
 10
1021.203868447899
 20
122.1624601416042
 30
0.0
 11
1041.65359030639
 21
122.1624601416042
 31
0.0
  0
LINE
  5
85
330
80
100
AcDbEntity
  8
1
 62
   253
370
    20
100
AcDbLine
 10
1020.960294281889
 20
124.909668059201
 30
0.0
 11
1020.960294281889
 21
119.4186283573362
 31
0.0
  0
LINE
  5
86
330
80
100
AcDbEntity
  8
1
 62
   253
370
    20
100
AcDbLine
 10
1041.902952129539
 20
124.909668059201
 30
0.0
 11
1041.902952129539
 21
119.4186283573362
 31
0.0
  0
ENDBLK
  5
83
330
80
100
AcDbEntity
  8
0
100
AcDbBlockEnd
  0
BLOCK
  5
166
330
164
100
AcDbEntity
  8
0
100
AcDbBlockBegin
  2
Block_2
 70
     0
 10
0.0
 20
0.0
 30
0.0
  3
Block_2
  1

  0
SPLINE
  5
168
330
164
100
AcDbEntity
  8
1
100
AcDbSpline
210
0.0
220
0.0
230
1.0
 70
     9
 71
     3
 72
    53
 73
    49
 74
     0
 42
0.0000000001
 43
0.0000000001
 40
0.0
 40
0.0
 40
0.0
 40
0.0
 40
1.0
 40
1.0
 40
1.0
 40
2.0
 40
2.0
 40
2.0
 40
3.0
 40
3.0
 40
3.0
 40
4.0
 40
4.0
 40
4.0
 40
5.0
 40
5.0
 40
5.0
 40
6.0
 40
6.0
 40
6.0
 40
7.0
 40
7.0
 40
7.0
 40
8.0
 40
8.0
 40
8.0
 40
9.0
 40
9.0
 40
9.0
 40
10.0
 40
10.0
 40
10.0
 40
11.0
 40
11.0
 40
11.0
 40
12.0
 40
12.0
 40
12.0
 40
13.0
 40
13.0
 40
13.0
 40
14.0
 40
14.0
 40
14.0
 40
15.0
 40
15.0
 40
15.0
 40
16.0
 40
16.0
 40
16.0
 40
16.0
 10
581.5440415365182
 20
506.6274039011968
 30
0.0
 10
581.5076515582713
 20
506.6887007092937
 30
0.0
 10
581.4632050235068
 20
506.7482968331132
 30
0.0
 10
581.4150739221031
 20
506.7945534097543
 30
0.0
 10
581.3690085434163
 20
506.8391719021174
 30
0.0
 10
581.3170325124101
 20
506.8776640611458
 30
0.0
 10
581.2696641562434
 20
506.8963236062445
 30
0.0
 10
581.2180866028993
 20
506.9209624130235
 30
0.0
 10
581.1689708201974
 20
506.9301942549364
 30
0.0
 10
581.1242588077211
 20
506.9277620326483
 30
0.0
 10
581.0796245469873
 20
506.922626717237
 30
0.0
 10
581.0374085152434
 20
506.9046778571264
 30
0.0
 10
581.0036768682894
 20
506.8746355994071
 30
0.0
 10
580.9699452213362
 20
506.844593341686
 30
0.0
 10
580.9447805703984
 20
506.7995856499137
 30
0.0
 10
580.9279399412862
 20
506.7480596900968
 30
0.0
 10
580.9110993121739
 20
506.6965337302799
 30
0.0
 10
580.9047652489216
 20
506.6338697087412
 30
0.0
 10
580.906675026018
 20
506.5674749839372
 30
0.0
 10
580.9085848031154
 20
506.5010802591341
 30
0.0
 10
580.9207606016261
 20
506.4319101669544
 30
0.0
 10
580.9431706412069
 20
506.359989908693
 30
0.0
 10
580.9634323468462
 20
506.2925797711513
 30
0.0
 10
580.9939600739035
 20
506.2223942662349
 30
0.0
 10
581.0323864242582
 20
506.1594001034982
 30
0.0
 10
581.0687446221536
 20
506.0981284966983
 30
0.0
 10
581.1131427557857
 20
506.041294736362
 30
0.0
 10
581.1592565356031
 20
505.9939138805147
 30
0.0
 10
581.2074995988386
 20
505.9448445377947
 30
0.0
 10
581.2573321553882
 20
505.9106935561676
 30
0.0
 10
581.3068122056638
 20
505.8877180349636
 30
0.0
 10
581.3562462845493
 20
505.8674204055868
 30
0.0
 10
581.4074571405781
 20
505.8566097497596
 30
0.0
 10
581.452059620964
 20
505.861770266465
 30
0.0
 10
581.4967716334394
 20
505.8642024887531
 30
0.0
 10
581.5369219424638
 20
505.8837894331418
 30
0.0
 10
581.5706535894169
 20
505.9138316908629
 30
0.0
 10
581.6043852363709
 20
505.9438739485831
 30
0.0
 10
581.6316498201195
 20
505.9871338831198
 30
0.0
 10
581.6484880194902
 20
506.0387443145973
 30
0.0
 10
581.6632311455332
 20
506.0919335599892
 30
0.0
 10
581.6716627118512
 20
506.1529342959556
 30
0.0
 10
581.6697529347557
 20
506.2193290207578
 30
0.0
 10
581.6658234063324
 20
506.2846839380126
 30
0.0
 10
581.6535698560792
 20
506.3565571233157
 30
0.0
 10
581.6333057207002
 20
506.4240517325161
 30
0.0
 10
581.61089811086
 20
506.4958875191178
 30
0.0
 10
581.5804799158931
 20
506.5633447296168
 30
0.0
 10
581.5440415365182
 20
506.6274039011968
 30
0.0
  0
HATCH
  5
169
330
164
100
AcDbEntity
  8
1
 62
   139
440
 33554687
100
AcDbHatch
 10
0.0
 20
0.0
 30
0.0
210
0.0
220
0.0
230
1.0
  2
SOLID
 70
     1
 71
     1
 91
        1
 92
        1
 93
        2
 72
     4
 94
        3
 73
     0
 74
     0
 95
       53
 96
       49
 40
0.0
 40
0.0
 40
0.0
 40
0.0
 40
1.0
 40
1.0
 40
1.0
 40
2.0
 40
2.0
 40
2.0
 40
3.0
 40
3.0
 40
3.0
 40
4.0
 40
4.0
 40
4.0
 40
5.0
 40
5.0
 40
5.0
 40
6.0
 40
6.0
 40
6.0
 40
7.0
 40
7.0
 40
7.0
 40
8.0
 40
8.0
 40
8.0
 40
9.0
 40
9.0
 40
9.0
 40
10.0
 40
10.0
 40
10.0
 40
11.0
 40
11.0
 40
11.0
 40
12.0
 40
12.0
 40
12.0
 40
13.0
 40
13.0
 40
13.0
 40
14.0
 40
14.0
 40
14.0
 40
15.0
 40
15.0
 40
15.0
 40
16.0
 40
16.0
 40
16.0
 40
16.0
 10
581.5440415365182
 20
506.6274039011968
 10
581.5076515582713
 20
506.6887007092937
 10
581.4632050235068
 20
506.7482968331132
 10
581.4150739221031
 20
506.7945534097543
 10
581.3690085434163
 20
506.8391719021174
 10
581.3170325124101
 20
506.8776640611458
 10
581.2696641562434
 20
506.8963236062445
 10
581.2180866028993
 20
506.9209624130235
 10
581.1689708201974
 20
506.9301942549364
 10
581.1242588077211
 20
506.9277620326483
 10
581.0796245469873
 20
506.922626717237
 10
581.0374085152434
 20
506.9046778571264
 10
581.0036768682894
 20
506.8746355994071
 10
580.9699452213362
 20
506.844593341686
 10
580.9447805703984
 20
506.7995856499137
 10
580.9279399412862
 20
506.7480596900968
 10
580.9110993121739
 20
506.6965337302799
 10
580.9047652489216
 20
506.6338697087412
 10
580.906675026018
 20
506.5674749839372
 10
580.9085848031154
 20
506.5010802591341
 10
580.9207606016261
 20
506.4319101669544
 10
580.9431706412069
 20
506.359989908693
 10
580.9634323468462
 20
506.2925797711513
 10
580.9939600739035
 20
506.2223942662349
 10
581.0323864242582
 20
506.1594001034982
 10
581.0687446221536
 20
506.0981284966983
 10
581.1131427557857
 20
506.041294736362
 10
581.1592565356031
 20
505.9939138805147
 10
581.2074995988386
 20
505.9448445377947
 10
581.2573321553882
 20
505.9106935561676
 10
581.3068122056638
 20
505.8877180349636
 10
581.3562462845493
 20
505.8674204055868
 10
581.4074571405781
 20
505.8566097497596
 10
581.452059620964
 20
505.861770266465
 10
581.4967716334394
 20
505.8642024887531
 10
581.5369219424638
 20
505.8837894331418
 10
581.5706535894169
 20
505.9138316908629
 10
581.6043852363709
 20
505.9438739485831
 10
581.6316498201195
 20
505.9871338831198
 10
581.6484880194902
 20
506.0387443145973
 10
581.6632311455332
 20
506.0919335599892
 10
581.6716627118512
 20
506.1529342959556
 10
581.6697529347557
 20
506.2193290207578
 10
581.6658234063324
 20
506.2846839380126
 10
581.6535698560792
 20
506.3565571233157
 10
581.6333057207002
 20
506.4240517325161
 10
581.61089811086
 20
506.4958875191178
 10
581.5804799158931
 20
506.5633447296168
 10
581.5440415365182
 20
506.6274039011968
 97
        0
 72
     1
 10
581.5440415365182
 20
506.6274039011968
 11
581.5440415365182
 21
506.6274039011968
 97
        0
 75
     2
 76
     1
 98
        1
 10
0.0
 20
0.0
450
        0
451
        0
460
0.0
461
0.0
452
        0
462
0.0
453
        0
470

  0
SPLINE
  5
16A
330
164
100
AcDbEntity
  8
1
100
AcDbSpline
210
0.0
220
0.0
230
1.0
 70
     9
 71
     3
 72
    29
 73
    25
 74
     0
 42
0.0000000001
 43
0.0000000001
 40
0.0
 40
0.0
 40
0.0
 40
0.0
 40
1.0
 40
1.0
 40
1.0
 40
2.0
 40
2.0
 40
2.0
 40
3.0
 40
3.0
 40
3.0
 40
4.0
 40
4.0
 40
4.0
 40
5.0
 40
5.0
 40
5.0
 40
6.0
 40
6.0
 40
6.0
 40
7.0
 40
7.0
 40
7.0
 40
8.0
 40
8.0
 40
8.0
 40
8.0
 10
577.3707954121309
 20
508.5431964713206
 30
0.0
 10
577.354298454612
 20
508.6211585912588
 30
0.0
 10
577.3052584360502
 20
508.6979346384778
 30
0.0
 10
577.2493572939611
 20
508.731449944672
 30
0.0
 10
577.2266040249296
 20
508.7440449499472
 30
0.0
 10
577.205945829226
 20
508.755061141308
 30
0.0
 10
577.1852582829124
 20
508.7660180623069
 30
0.0
 10
577.1852582829124
 20
508.7660180623069
 30
0.0
 10
577.0821809279668
 20
508.8125925827398
 30
0.0
 10
577.0821809279668
 20
508.8125925827398
 30
0.0
 10
577.0821809279668
 20
508.8125925827398
 30
0.0
 10
577.0982863349563
 20
508.3941130037155
 30
0.0
 10
577.0982863349563
 20
508.3941130037155
 30
0.0
 10
577.0982863349563
 20
508.3941130037155
 30
0.0
 10
577.2013636899019
 20
508.3475384832809
 30
0.0
 10
577.2013636899019
 20
508.3475384832809
 30
0.0
 10
577.2447267535053
 20
508.3266896501282
 30
0.0
 10
577.2854041228083
 20
508.3268733140029
 30
0.0
 10
577.3196921806438
 20
508.3375715615702
 30
0.0
 10
577.3598449194123
 20
508.3570740342993
 30
0.0
 10
577.382943847635
 20
508.4037198103487
 30
0.0
 10
577.3789365674701
 20
508.4717778207296
 30
0.0
 10
577.3782999751047
 20
508.4939093956627
 30
0.0
 10
577.3755976600205
 20
508.5176790548748
 30
0.0
 10
577.3707954121309
 20
508.5431964713206
 30
0.0
  0
HATCH
  5
16B
330
164
100
AcDbEntity
  8
1
 62
   139
440
 33554687
100
AcDbHatch
 10
0.0
 20
0.0
 30
0.0
210
0.0
220
0.0
230
1.0
  2
SOLID
 70
     1
 71
     1
 91
        1
 92
        1
 93
        2
 72
     4
 94
        3
 73
     0
 74
     0
 95
       29
 96
       25
 40
0.0
 40
0.0
 40
0.0
 40
0.0
 40
1.0
 40
1.0
 40
1.0
 40
2.0
 40
2.0
 40
2.0
 40
3.0
 40
3.0
 40
3.0
 40
4.0
 40
4.0
 40
4.0
 40
5.0
 40
5.0
 40
5.0
 40
6.0
 40
6.0
 40
6.0
 40
7.0
 40
7.0
 40
7.0
 40
8.0
 40
8.0
 40
8.0
 40
8.0
 10
577.3707954121309
 20
508.5431964713206
 10
577.354298454612
 20
508.6211585912588
 10
577.3052584360502
 20
508.6979346384778
 10
577.2493572939611
 20
508.731449944672
 10
577.2266040249296
 20
508.7440449499472
 10
577.205945829226
 20
508.755061141308
 10
577.1852582829124
 20
508.7660180623069
 10
577.1852582829124
 20
508.7660180623069
 10
577.0821809279668
 20
508.8125925827398
 10
577.0821809279668
 20
508.8125925827398
 10
577.0821809279668
 20
508.8125925827398
 10
577.0982863349563
 20
508.3941130037155
 10
577.0982863349563
 20
508.3941130037155
 10
577.0982863349563
 20
508.3941130037155
 10
577.2013636899019
 20
508.3475384832809
 10
577.2013636899019
 20
508.3475384832809
 10
577.2447267535053
 20
508.3266896501282
 10
577.2854041228083
 20
508.3268733140029
 10
577.3196921806438
 20
508.3375715615702
 10
577.3598449194123
 20
508.3570740342993
 10
577.382943847635
 20
508.4037198103487
 10
577.3789365674701
 20
508.4717778207296
 10
577.3782999751047
 20
508.4939093956627
 10
577.3755976600205
 20
508.5176790548748
 10
577.3707954121309
 20
508.5431964713206
 97
        0
 72
     1
 10
577.3707954121309
 20
508.5431964713206
 11
577.3707954121309
 21
508.5431964713206
 97
        0
 75
     2
 76
     1
 98
        1
 10
0.0
 20
0.0
450
        0
451
        0
460
0.0
461
0.0
452
        0
462
0.0
453
        0
470

  0
LWPOLYLINE
  5
16C
330
164
100
AcDbEntity
  8
1
100
AcDbPolyline
 90
        3
 70
     1
 43
0.0
 10
578.2808877775915
 20
507.5829533299547
 10
578.6025953287444
 20
507.4359783496202
 10
578.4204493231991
 20
508.0375508852894
  0
HATCH
  5
16D
330
164
100
AcDbEntity
  8
1
 62
   139
440
 33554687
100
AcDbHatch
 10
0.0
 20
0.0
 30
0.0
210
0.0
220
0.0
230
1.0
  2
SOLID
 70
     1
 71
     1
 91
        1
 92
        1
 93
        3
 72
     1
 10
578.2808877775915
 20
507.5829533299547
 11
578.6025953287444
 21
507.4359783496202
 72
     1
 10
578.6025953287444
 20
507.4359783496202
 11
578.4204493231991
 21
508.0375508852894
 72
     1
 10
578.4204493231991
 20
508.0375508852894
 11
578.2808877775915
 21
507.5829533299547
 97
        1
330
16C
 75
     2
 76
     1
 98
        1
 10
0.0
 20
0.0
450
        0
451
        0
460
0.0
461
0.0
452
        0
462
0.0
453
        0
470

  0
LWPOLYLINE
  5
16E
330
164
100
AcDbEntity
  8
1
100
AcDbPolyline
 90
        3
 70
     1
 43
0.0
 10
586.4384784374287
 20
503.851472016905
 10
586.7601859885826
 20
503.7044970365723
 10
586.5801057057551
 20
504.3044314879616
  0
HATCH
  5
16F
330
164
100
AcDbEntity
  8
1
 62
   139
440
 33554687
100
AcDbHatch
 10
0.0
 20
0.0
 30
0.0
210
0.0
220
0.0
230
1.0
  2
SOLID
 70
     1
 71
     1
 91
        1
 92
        1
 93
        3
 72
     1
 10
586.4384784374287
 20
503.851472016905
 11
586.7601859885826
 21
503.7044970365723
 72
     1
 10
586.7601859885826
 20
503.7044970365723
 11
586.5801057057551
 21
504.3044314879616
 72
     1
 10
586.5801057057551
 20
504.3044314879616
 11
586.4384784374287
 21
503.851472016905
 97
        1
330
16E
 75
     2
 76
     1
 98
        1
 10
0.0
 20
0.0
450
        0
451
        0
460
0.0
461
0.0
452
        0
462
0.0
453
        0
470

  0
SPLINE
  5
170
330
164
100
AcDbEntity
  8
1
100
AcDbSpline
210
0.0
220
0.0
230
1.0
 70
    11
 71
     3
 72
    29
 73
    25
 74
     0
 42
0.0000000001
 43
0.0000000001
 40
0.0
 40
0.0
 40
0.0
 40
0.0
 40
1.0
 40
1.0
 40
1.0
 40
2.0
 40
2.0
 40
2.0
 40
3.0
 40
3.0
 40
3.0
 40
4.0
 40
4.0
 40
4.0
 40
5.0
 40
5.0
 40
5.0
 40
6.0
 40
6.0
 40
6.0
 40
7.0
 40
7.0
 40
7.0
 40
8.0
 40
8.0
 40
8.0
 40
8.0
 10
586.9662659408386
 20
503.0212111381351
 30
0.0
 10
586.9662659408386
 20
503.0212111381351
 30
0.0
 10
586.8582449455134
 20
503.3800111403198
 30
0.0
 10
586.8582449455134
 20
503.3800111403198
 30
0.0
 10
586.8582449455134
 20
503.3800111403198
 30
0.0
 10
586.3632288821245
 20
503.6075434858803
 30
0.0
 10
586.3632288821245
 20
503.6075434858803
 30
0.0
 10
586.3632288821245
 20
503.6075434858803
 30
0.0
 10
586.2794608540643
 20
503.3358661899292
 30
0.0
 10
586.2794608540643
 20
503.3358661899292
 30
0.0
 10
586.2794608540643
 20
503.3358661899292
 30
0.0
 10
586.015482053016
 20
503.455966002476
 30
0.0
 10
586.015482053016
 20
503.455966002476
 30
0.0
 10
586.015482053016
 20
503.455966002476
 30
0.0
 10
586.4383592662325
 20
504.8165165689897
 30
0.0
 10
586.4383592662325
 20
504.8165165689897
 30
0.0
 10
586.4383592662325
 20
504.8165165689897
 30
0.0
 10
586.6858914984941
 20
504.7013692144646
 30
0.0
 10
586.6858914984941
 20
504.7013692144646
 30
0.0
 10
586.6858914984941
 20
504.7013692144646
 30
0.0
 10
587.2282274203016
 20
502.8999870463821
 30
0.0
 10
587.2282274203016
 20
502.8999870463821
 30
0.0
 10
587.2282274203016
 20
502.8999870463821
 30
0.0
 10
586.9662659408386
 20
503.0212111381351
 30
0.0
 10
586.9662659408386
 20
503.0212111381351
 30
0.0
  0
SPLINE
  5
171
330
164
100
AcDbEntity
  8
1
100
AcDbSpline
210
0.0
220
0.0
230
1.0
 70
    11
 71
     3
 72
    35
 73
    31
 74
     0
 42
0.0000000001
 43
0.0000000001
 40
0.0
 40
0.0
 40
0.0
 40
0.0
 40
1.0
 40
1.0
 40
1.0
 40
2.0
 40
2.0
 40
2.0
 40
3.0
 40
3.0
 40
3.0
 40
4.0
 40
4.0
 40
4.0
 40
5.0
 40
5.0
 40
5.0
 40
6.0
 40
6.0
 40
6.0
 40
7.0
 40
7.0
 40
7.0
 40
8.0
 40
8.0
 40
8.0
 40
9.0
 40
9.0
 40
9.0
 40
10.0
 40
10.0
 40
10.0
 40
10.0
 10
585.8814829106913
 20
503.5162476099867
 30
0.0
 10
585.8814829106913
 20
503.5162476099867
 30
0.0
 10
585.613343313601
 20
503.6395643207261
 30
0.0
 10
585.613343313601
 20
503.6395643207261
 30
0.0
 10
585.613343313601
 20
503.6395643207261
 30
0.0
 10
585.0244009218932
 20
504.9397118130445
 30
0.0
 10
585.0244009218932
 20
504.9397118130445
 30
0.0
 10
585.0244009218932
 20
504.9397118130445
 30
0.0
 10
585.0647299455431
 20
503.8906956655191
 30
0.0
 10
585.0647299455431
 20
503.8906956655191
 30
0.0
 10
585.0647299455431
 20
503.8906956655191
 30
0.0
 10
584.7966196990601
 20
504.0140716466212
 30
0.0
 10
584.7966196990601
 20
504.0140716466212
 30
0.0
 10
584.7966196990601
 20
504.0140716466212
 30
0.0
 10
584.7369680965048
 20
505.5923349207987
 30
0.0
 10
584.7369680965048
 20
505.5923349207987
 30
0.0
 10
584.7369680965048
 20
505.5923349207987
 30
0.0
 10
585.0051101233366
 20
505.4689337383997
 30
0.0
 10
585.0051101233366
 20
505.4689337383997
 30
0.0
 10
585.0051101233366
 20
505.4689337383997
 30
0.0
 10
585.5918748304948
 20
504.1732370964391
 30
0.0
 10
585.5918748304948
 20
504.1732370964391
 30
0.0
 10
585.5918748304948
 20
504.1732370964391
 30
0.0
 10
585.551625988327
 20
505.2194656791825
 30
0.0
 10
585.551625988327
 20
505.2194656791825
 30
0.0
 10
585.551625988327
 20
505.2194656791825
 30
0.0
 10
585.8196560533278
 20
505.0988772628606
 30
0.0
 10
585.8196560533278
 20
505.0988772628606
 30
0.0
 10
585.8196560533278
 20
505.0988772628606
 30
0.0
 10
585.8814829106913
 20
503.5162476099867
 30
0.0
 10
585.8814829106913
 20
503.5162476099867
 30
0.0
  0
SPLINE
  5
172
330
164
100
AcDbEntity
  8
1
100
AcDbSpline
210
0.0
220
0.0
230
1.0
 70
    11
 71
     3
 72
    17
 73
    13
 74
     0
 42
0.0000000001
 43
0.0000000001
 40
0.0
 40
0.0
 40
0.0
 40
0.0
 40
1.0
 40
1.0
 40
1.0
 40
2.0
 40
2.0
 40
2.0
 40
3.0
 40
3.0
 40
3.0
 40
4.0
 40
4.0
 40
4.0
 40
4.0
 10
584.5924989315354
 20
504.1056078045094
 30
0.0
 10
584.5924989315354
 20
504.1056078045094
 30
0.0
 10
584.3243569047045
 20
504.2290089869092
 30
0.0
 10
584.3243569047045
 20
504.2290089869092
 30
0.0
 10
584.3243569047045
 20
504.2290089869092
 30
0.0
 10
584.2626420091701
 20
505.8088258737052
 30
0.0
 10
584.2626420091701
 20
505.8088258737052
 30
0.0
 10
584.2626420091701
 20
505.8088258737052
 30
0.0
 10
584.5306720741728
 20
505.6882374573842
 30
0.0
 10
584.5306720741728
 20
505.6882374573842
 30
0.0
 10
584.5306720741728
 20
505.6882374573842
 30
0.0
 10
584.5924989315354
 20
504.1056078045094
 30
0.0
 10
584.5924989315354
 20
504.1056078045094
 30
0.0
  0
SPLINE
  5
173
330
164
100
AcDbEntity
  8
1
100
AcDbSpline
210
0.0
220
0.0
230
1.0
 70
    11
 71
     3
 72
    29
 73
    25
 74
     0
 42
0.0000000001
 43
0.0000000001
 40
0.0
 40
0.0
 40
0.0
 40
0.0
 40
1.0
 40
1.0
 40
1.0
 40
2.0
 40
2.0
 40
2.0
 40
3.0
 40
3.0
 40
3.0
 40
4.0
 40
4.0
 40
4.0
 40
5.0
 40
5.0
 40
5.0
 40
6.0
 40
6.0
 40
6.0
 40
7.0
 40
7.0
 40
7.0
 40
8.0
 40
8.0
 40
8.0
 40
8.0
 10
584.1016462706011
 20
505.6038368515392
 30
0.0
 10
584.1016462706011
 20
505.6038368515392
 30
0.0
 10
583.8149943820053
 20
505.7337441045783
 30
0.0
 10
583.8149943820053
 20
505.7337441045783
 30
0.0
 10
583.8149943820053
 20
505.7337441045783
 30
0.0
 10
583.86442585448
 20
504.4395328755399
 30
0.0
 10
583.86442585448
 20
504.4395328755399
 30
0.0
 10
583.86442585448
 20
504.4395328755399
 30
0.0
 10
583.5963180377403
 20
504.5628243849842
 30
0.0
 10
583.5963180377403
 20
504.5628243849842
 30
0.0
 10
583.5963180377403
 20
504.5628243849842
 30
0.0
 10
583.5469325366538
 20
505.8543577221935
 30
0.0
 10
583.5469325366538
 20
505.8543577221935
 30
0.0
 10
583.5469325366538
 20
505.8543577221935
 30
0.0
 10
583.2581347438581
 20
505.9886906242963
 30
0.0
 10
583.2581347438581
 20
505.9886906242963
 30
0.0
 10
583.2581347438581
 20
505.9886906242963
 30
0.0
 10
583.2479463941281
 20
506.2727174681385
 30
0.0
 10
583.2479463941281
 20
506.2727174681385
 30
0.0
 10
583.2479463941281
 20
506.2727174681385
 30
0.0
 10
584.0914285702638
 20
505.8878044250186
 30
0.0
 10
584.0914285702638
 20
505.8878044250186
 30
0.0
 10
584.0914285702638
 20
505.8878044250186
 30
0.0
 10
584.1016462706011
 20
505.6038368515392
 30
0.0
 10
584.1016462706011
 20
505.6038368515392
 30
0.0
  0
SPLINE
  5
174
330
164
100
AcDbEntity
  8
1
100
AcDbSpline
210
0.0
220
0.0
230
1.0
 70
    11
 71
     3
 72
    35
 73
    31
 74
     0
 42
0.0000000001
 43
0.0000000001
 40
0.0
 40
0.0
 40
0.0
 40
0.0
 40
1.0
 40
1.0
 40
1.0
 40
2.0
 40
2.0
 40
2.0
 40
3.0
 40
3.0
 40
3.0
 40
4.0
 40
4.0
 40
4.0
 40
5.0
 40
5.0
 40
5.0
 40
6.0
 40
6.0
 40
6.0
 40
7.0
 40
7.0
 40
7.0
 40
8.0
 40
8.0
 40
8.0
 40
9.0
 40
9.0
 40
9.0
 40
10.0
 40
10.0
 40
10.0
 40
10.0
 10
583.1363845577779
 20
504.7734327452745
 30
0.0
 10
583.1363845577779
 20
504.7734327452745
 30
0.0
 10
582.8683227124257
 20
504.8940463628923
 30
0.0
 10
582.8683227124257
 20
504.8940463628923
 30
0.0
 10
582.8683227124257
 20
504.8940463628923
 30
0.0
 10
582.2814000720472
 20
506.1952336627546
 30
0.0
 10
582.2814000720472
 20
506.1952336627546
 30
0.0
 10
582.2814000720472
 20
506.1952336627546
 30
0.0
 10
582.3218092771776
 20
505.143429950449
 30
0.0
 10
582.3218092771776
 20
505.143429950449
 30
0.0
 10
582.3218092771776
 20
505.143429950449
 30
0.0
 10
582.0536990306955
 20
505.2668059315529
 30
0.0
 10
582.0536990306955
 20
505.2668059315529
 30
0.0
 10
582.0536990306955
 20
505.2668059315529
 30
0.0
 10
581.991872173332
 20
506.8494355844259
 30
0.0
 10
581.991872173332
 20
506.8494355844259
 30
0.0
 10
581.991872173332
 20
506.8494355844259
 30
0.0
 10
582.2621092734889
 20
506.7244555881134
 30
0.0
 10
582.2621092734889
 20
506.7244555881134
 30
0.0
 10
582.2621092734889
 20
506.7244555881134
 30
0.0
 10
582.8489541621292
 20
505.4259713813698
 30
0.0
 10
582.8489541621292
 20
505.4259713813698
 30
0.0
 10
582.8489541621292
 20
505.4259713813698
 30
0.0
 10
582.8086251384793
 20
506.4749875288944
 30
0.0
 10
582.8086251384793
 20
506.4749875288944
 30
0.0
 10
582.8086251384793
 20
506.4749875288944
 30
0.0
 10
583.0767353849632
 20
506.3516115477905
 30
0.0
 10
583.0767353849632
 20
506.3516115477905
 30
0.0
 10
583.0767353849632
 20
506.3516115477905
 30
0.0
 10
583.1363845577779
 20
504.7734327452745
 30
0.0
 10
583.1363845577779
 20
504.7734327452745
 30
0.0
  0
SPLINE
  5
175
330
164
100
AcDbEntity
  8
1
100
AcDbSpline
210
0.0
220
0.0
230
1.0
 70
     9
 71
     3
 72
    53
 73
    49
 74
     0
 42
0.0000000001
 43
0.0000000001
 40
0.0
 40
0.0
 40
0.0
 40
0.0
 40
1.0
 40
1.0
 40
1.0
 40
2.0
 40
2.0
 40
2.0
 40
3.0
 40
3.0
 40
3.0
 40
4.0
 40
4.0
 40
4.0
 40
5.0
 40
5.0
 40
5.0
 40
6.0
 40
6.0
 40
6.0
 40
7.0
 40
7.0
 40
7.0
 40
8.0
 40
8.0
 40
8.0
 40
9.0
 40
9.0
 40
9.0
 40
10.0
 40
10.0
 40
10.0
 40
11.0
 40
11.0
 40
11.0
 40
12.0
 40
12.0
 40
12.0
 40
13.0
 40
13.0
 40
13.0
 40
14.0
 40
14.0
 40
14.0
 40
15.0
 40
15.0
 40
15.0
 40
16.0
 40
16.0
 40
16.0
 40
16.0
 10
581.8853960687174
 20
505.8114236430101
 30
0.0
 10
581.8572611952413
 20
505.7282417360056
 30
0.0
 10
581.8145391413436
 20
505.6566272241316
 30
0.0
 10
581.7589289324269
 20
505.6087701740652
 30
0.0
 10
581.7033989049924
 20
505.5581255592223
 30
0.0
 10
581.6349489421873
 20
505.5312636074768
 30
0.0
 10
581.5599033335675
 20
505.5231692608203
 30
0.0
 10
581.4847481928564
 20
505.5178032085787
 30
0.0
 10
581.4028536641499
 20
505.5340427287947
 30
0.0
 10
581.3203518936852
 20
505.572473094312
 30
0.0
 10
581.2379009540936
 20
505.608056624681
 30
0.0
 10
581.1547625912653
 20
505.6686185651305
 30
0.0
 10
581.0772967660541
 20
505.7435850616038
 30
0.0
 10
580.9977676478665
 20
505.8201051706965
 30
0.0
 10
580.9258457776613
 20
505.9150261514568
 30
0.0
 10
580.8639176040815
 20
506.01555966048
 30
0.0
 10
580.8040091818257
 20
506.117132977055
 30
0.0
 10
580.7518683705183
 20
506.2315320357338
 30
0.0
 10
580.7180819174955
 20
506.3448312100162
 30
0.0
 10
580.6822273120105
 20
506.4598529402373
 30
0.0
 10
580.6626755331353
 20
506.5727601798108
 30
0.0
 10
580.6575847818112
 20
506.6795654808584
 30
0.0
 10
580.6544795717254
 20
506.787520262409
 30
0.0
 10
580.6658036088392
 20
506.8893983067282
 30
0.0
 10
580.6939384823153
 20
506.9725802137336
 30
0.0
 10
580.7219931743075
 20
507.0585496855228
 30
0.0
 10
580.7646834478573
 20
507.130189398692
 30
0.0
 10
580.8202936567741
 20
507.1780464487556
 30
0.0
 10
580.8759038656908
 20
507.2259034988201
 30
0.0
 10
580.9421761439453
 20
507.2572163009208
 30
0.0
 10
581.0193994371148
 20
507.2608597972211
 30
0.0
 10
581.0944743963427
 20
507.2690134142467
 30
0.0
 10
581.1743516034657
 20
507.25164961482
 30
0.0
 10
581.2588706955148
 20
507.2143435285124
 30
0.0
 10
581.3393043135201
 20
507.1776357189337
 30
0.0
 10
581.4244599979356
 20
507.1181980576902
 30
0.0
 10
581.5019258231468
 20
507.0432315612188
 30
0.0
 10
581.5815351228147
 20
506.9639238873469
 30
0.0
 10
581.6533768115387
 20
506.8717904713694
 30
0.0
 10
581.7132876635342
 20
506.7701326831365
 30
0.0
 10
581.7752134073743
 20
506.6696836457704
 30
0.0
 10
581.8253368970963
 20
506.5541603078827
 30
0.0
 10
581.8612208531876
 20
506.4391978480252
 30
0.0
 10
581.8971072390186
 20
506.3241509165082
 30
0.0
 10
581.9166272375468
 20
506.2112688782308
 30
0.0
 10
581.9217981703514
 20
506.1016760124039
 30
0.0
 10
581.9248231989567
 20
505.9965087956334
 30
0.0
 10
581.9134531904519
 20
505.8973086431388
 30
0.0
 10
581.8853960687174
 20
505.8114236430101
 30
0.0
  0
SPLINE
  5
176
330
164
100
AcDbEntity
  8
1
100
AcDbSpline
210
0.0
220
0.0
230
1.0
 70
    11
 71
     3
 72
    44
 73
    40
 74
     0
 42
0.0000000001
 43
0.0000000001
 40
0.0
 40
0.0
 40
0.0
 40
0.0
 40
1.0
 40
1.0
 40
1.0
 40
2.0
 40
2.0
 40
2.0
 40
3.0
 40
3.0
 40
3.0
 40
4.0
 40
4.0
 40
4.0
 40
5.0
 40
5.0
 40
5.0
 40
6.0
 40
6.0
 40
6.0
 40
7.0
 40
7.0
 40
7.0
 40
8.0
 40
8.0
 40
8.0
 40
9.0
 40
9.0
 40
9.0
 40
10.0
 40
10.0
 40
10.0
 40
11.0
 40
11.0
 40
11.0
 40
12.0
 40
12.0
 40
12.0
 40
13.0
 40
13.0
 40
13.0
 40
13.0
 10
580.3893808451094
 20
506.0266808352744
 30
0.0
 10
580.3893808451094
 20
506.0266808352744
 30
0.0
 10
580.22188643965
 20
507.1089327625422
 30
0.0
 10
580.22188643965
 20
507.1089327625422
 30
0.0
 10
580.22188643965
 20
507.1089327625422
 30
0.0
 10
579.9912449685144
 20
506.2125529132381
 30
0.0
 10
579.9912449685144
 20
506.2125529132381
 30
0.0
 10
579.9912449685144
 20
506.2125529132381
 30
0.0
 10
579.8345385285483
 20
506.2827516342004
 30
0.0
 10
579.8345385285483
 20
506.2827516342004
 30
0.0
 10
579.8345385285483
 20
506.2827516342004
 30
0.0
 10
579.5268644333928
 20
507.4274622596249
 30
0.0
 10
579.5268644333928
 20
507.4274622596249
 30
0.0
 10
579.5268644333928
 20
507.4274622596249
 30
0.0
 10
579.4364828334346
 20
506.4658361473802
 30
0.0
 10
579.4364828334346
 20
506.4658361473802
 30
0.0
 10
579.4364828334346
 20
506.4658361473802
 30
0.0
 10
579.1745697551041
 20
506.5842978756482
 30
0.0
 10
579.1745697551041
 20
506.5842978756482
 30
0.0
 10
579.1745697551041
 20
506.5842978756482
 30
0.0
 10
579.3149876561183
 20
508.0715135957116
 30
0.0
 10
579.3149876561183
 20
508.0715135957116
 30
0.0
 10
579.3149876561183
 20
508.0715135957116
 30
0.0
 10
579.5830177211209
 20
507.9509251793906
 30
0.0
 10
579.5830177211209
 20
507.9509251793906
 30
0.0
 10
579.5830177211209
 20
507.9509251793906
 30
0.0
 10
579.8929472525633
 20
506.7990606104867
 30
0.0
 10
579.8929472525633
 20
506.7990606104867
 30
0.0
 10
579.8929472525633
 20
506.7990606104867
 30
0.0
 10
580.1234625708294
 20
507.7009059164002
 30
0.0
 10
580.1234625708294
 20
507.7009059164002
 30
0.0
 10
580.1234625708294
 20
507.7009059164002
 30
0.0
 10
580.3915244161799
 20
507.5802922987813
 30
0.0
 10
580.3915244161799
 20
507.5802922987813
 30
0.0
 10
580.3915244161799
 20
507.5802922987813
 30
0.0
 10
580.6533596461559
 20
505.9065810227275
 30
0.0
 10
580.6533596461559
 20
505.9065810227275
 30
0.0
 10
580.6533596461559
 20
505.9065810227275
 30
0.0
 10
580.3893808451094
 20
506.0266808352744
 30
0.0
 10
580.3893808451094
 20
506.0266808352744
 30
0.0
  0
SPLINE
  5
177
330
164
100
AcDbEntity
  8
1
100
AcDbSpline
210
0.0
220
0.0
230
1.0
 70
    11
 71
     3
 72
    29
 73
    25
 74
     0
 42
0.0000000001
 43
0.0000000001
 40
0.0
 40
0.0
 40
0.0
 40
0.0
 40
1.0
 40
1.0
 40
1.0
 40
2.0
 40
2.0
 40
2.0
 40
3.0
 40
3.0
 40
3.0
 40
4.0
 40
4.0
 40
4.0
 40
5.0
 40
5.0
 40
5.0
 40
6.0
 40
6.0
 40
6.0
 40
7.0
 40
7.0
 40
7.0
 40
8.0
 40
8.0
 40
8.0
 40
8.0
 10
578.8075135991111
 20
506.7509722086279
 30
0.0
 10
578.8075135991111
 20
506.7509722086279
 30
0.0
 10
578.699412422301
 20
507.1125597755954
 30
0.0
 10
578.699412422301
 20
507.1125597755954
 30
0.0
 10
578.699412422301
 20
507.1125597755954
 30
0.0
 10
578.2045083207458
 20
507.337279355077
 30
0.0
 10
578.2045083207458
 20
507.337279355077
 30
0.0
 10
578.2045083207458
 20
507.337279355077
 30
0.0
 10
578.1207402926838
 20
507.0656020591268
 30
0.0
 10
578.1207402926838
 20
507.0656020591268
 30
0.0
 10
578.1207402926838
 20
507.0656020591268
 30
0.0
 10
577.8588589947039
 20
507.1840385860987
 30
0.0
 10
577.8588589947039
 20
507.1840385860987
 30
0.0
 10
577.8588589947039
 20
507.1840385860987
 30
0.0
 10
578.2796387048547
 20
508.5462524381873
 30
0.0
 10
578.2796387048547
 20
508.5462524381873
 30
0.0
 10
578.2796387048547
 20
508.5462524381873
 30
0.0
 10
578.5270907556332
 20
508.4338926484433
 30
0.0
 10
578.5270907556332
 20
508.4338926484433
 30
0.0
 10
578.5270907556332
 20
508.4338926484433
 30
0.0
 10
579.069394897091
 20
506.6325356816578
 30
0.0
 10
579.069394897091
 20
506.6325356816578
 30
0.0
 10
579.069394897091
 20
506.6325356816578
 30
0.0
 10
578.8075135991111
 20
506.7509722086279
 30
0.0
 10
578.8075135991111
 20
506.7509722086279
 30
0.0
  0
SPLINE
  5
178
330
164
100
AcDbEntity
  8
1
100
AcDbSpline
210
0.0
220
0.0
230
1.0
 70
    11
 71
     3
 72
    32
 73
    28
 74
     0
 42
0.0000000001
 43
0.0000000001
 40
0.0
 40
0.0
 40
0.0
 40
0.0
 40
1.0
 40
1.0
 40
1.0
 40
2.0
 40
2.0
 40
2.0
 40
3.0
 40
3.0
 40
3.0
 40
4.0
 40
4.0
 40
4.0
 40
5.0
 40
5.0
 40
5.0
 40
6.0
 40
6.0
 40
6.0
 40
7.0
 40
7.0
 40
7.0
 40
8.0
 40
8.0
 40
8.0
 40
9.0
 40
9.0
 40
9.0
 40
9.0
 10
577.4587057965255
 20
507.3687863848526
 30
0.0
 10
577.4587057965255
 20
507.3687863848526
 30
0.0
 10
577.107359256318
 20
508.1207935211295
 30
0.0
 10
577.107359256318
 20
508.1207935211295
 30
0.0
 10
577.107359256318
 20
508.1207935211295
 30
0.0
 10
577.132883420717
 20
507.5163003715533
 30
0.0
 10
577.132883420717
 20
507.5163003715533
 30
0.0
 10
577.132883420717
 20
507.5163003715533
 30
0.0
 10
576.8626781009079
 20
507.6412551665717
 30
0.0
 10
576.8626781009079
 20
507.6412551665717
 30
0.0
 10
576.8626781009079
 20
507.6412551665717
 30
0.0
 10
576.8029463168714
 20
509.2223060055293
 30
0.0
 10
576.8029463168714
 20
509.2223060055293
 30
0.0
 10
576.8029463168714
 20
509.2223060055293
 30
0.0
 10
577.2608600455087
 20
509.0106578376917
 30
0.0
 10
577.2608600455087
 20
509.0106578376917
 30
0.0
 10
577.431961522585
 20
508.9344920524563
 30
0.0
 10
577.5848802687623
 20
508.7131030102163
 30
0.0
 10
577.6261732723587
 20
508.4802694618447
 30
0.0
 10
577.6765921125961
 20
508.2130419976102
 30
0.0
 10
577.5598321570969
 20
508.027041643103
 30
0.0
 10
577.3674085289412
 20
508.0660486258402
 30
0.0
 10
577.3674085289412
 20
508.0660486258402
 30
0.0
 10
577.7556696779283
 20
507.2334258726113
 30
0.0
 10
577.7556696779283
 20
507.2334258726113
 30
0.0
 10
577.7556696779283
 20
507.2334258726113
 30
0.0
 10
577.4587057965255
 20
507.3687863848526
 30
0.0
 10
577.4587057965255
 20
507.3687863848526
 30
0.0
  0
SPLINE
  5
179
330
164
100
AcDbEntity
  8
1
100
AcDbSpline
210
0.0
220
0.0
230
1.0
 70
    11
 71
     3
 72
    29
 73
    25
 74
     0
 42
0.0000000001
 43
0.0000000001
 40
0.0
 40
0.0
 40
0.0
 40
0.0
 40
1.0
 40
1.0
 40
1.0
 40
2.0
 40
2.0
 40
2.0
 40
3.0
 40
3.0
 40
3.0
 40
4.0
 40
4.0
 40
4.0
 40
5.0
 40
5.0
 40
5.0
 40
6.0
 40
6.0
 40
6.0
 40
7.0
 40
7.0
 40
7.0
 40
8.0
 40
8.0
 40
8.0
 40
8.0
 10
576.6420307597827
 20
509.0145294185831
 30
0.0
 10
576.6420307597827
 20
509.0145294185831
 30
0.0
 10
576.3553788711869
 20
509.1444366716223
 30
0.0
 10
576.3553788711869
 20
509.1444366716223
 30
0.0
 10
576.3553788711869
 20
509.1444366716223
 30
0.0
 10
576.4048421240131
 20
507.8502002412887
 30
0.0
 10
576.4048421240131
 20
507.8502002412887
 30
0.0
 10
576.4048421240131
 20
507.8502002412887
 30
0.0
 10
576.1346050238535
 20
507.9751802376013
 30
0.0
 10
576.1346050238535
 20
507.9751802376013
 30
0.0
 10
576.1346050238535
 20
507.9751802376013
 30
0.0
 10
576.0852513031177
 20
509.2666883735192
 30
0.0
 10
576.0852513031177
 20
509.2666883735192
 30
0.0
 10
576.0852513031177
 20
509.2666883735192
 30
0.0
 10
575.7985510133903
 20
509.3993579900443
 30
0.0
 10
575.7985510133903
 20
509.3993579900443
 30
0.0
 10
575.7985510133903
 20
509.3993579900443
 30
0.0
 10
575.7862675903343
 20
509.6849636478009
 30
0.0
 10
575.7862675903343
 20
509.6849636478009
 30
0.0
 10
575.7862675903343
 20
509.6849636478009
 30
0.0
 10
576.6318130594445
 20
509.2984969920625
 30
0.0
 10
576.6318130594445
 20
509.2984969920625
 30
0.0
 10
576.6318130594445
 20
509.2984969920625
 30
0.0
 10
576.6420307597827
 20
509.0145294185831
 30
0.0
 10
576.6420307597827
 20
509.0145294185831
 30
0.0
  0
SPLINE
  5
17A
330
164
100
AcDbEntity
  8
1
100
AcDbSpline
210
0.0
220
0.0
230
1.0
 70
     9
 71
     3
 72
    41
 73
    37
 74
     0
 42
0.0000000001
 43
0.0000000001
 40
0.0
 40
0.0
 40
0.0
 40
0.0
 40
1.0
 40
1.0
 40
1.0
 40
2.0
 40
2.0
 40
2.0
 40
3.0
 40
3.0
 40
3.0
 40
4.0
 40
4.0
 40
4.0
 40
5.0
 40
5.0
 40
5.0
 40
6.0
 40
6.0
 40
6.0
 40
7.0
 40
7.0
 40
7.0
 40
8.0
 40
8.0
 40
8.0
 40
9.0
 40
9.0
 40
9.0
 40
10.0
 40
10.0
 40
10.0
 40
11.0
 40
11.0
 40
11.0
 40
12.0
 40
12.0
 40
12.0
 40
12.0
 10
588.0000242867208
 20
504.9360056328177
 30
0.0
 10
587.8932535304539
 20
505.1099041462521
 30
0.0
 10
587.7466801119517
 20
505.2532091981938
 30
0.0
 10
587.606468641904
 20
505.3156930976475
 30
0.0
 10
587.606468641904
 20
505.3156930976475
 30
0.0
 10
575.0487070955296
 20
511.0569853440601
 30
0.0
 10
575.0487070955296
 20
511.0569853440601
 30
0.0
 10
574.9084154440025
 20
511.1222568082958
 30
0.0
 10
574.7662228500594
 20
511.1132594571572
 30
0.0
 10
574.6709385615194
 20
511.0292590173322
 30
0.0
 10
574.5736687317449
 20
510.9441090970039
 30
0.0
 10
574.521243914397
 20
510.7855097006058
 30
0.0
 10
574.5284048057783
 20
510.6067345451919
 30
0.0
 10
574.5284048057783
 20
510.6067345451919
 30
0.0
 10
574.6094447099586
 20
508.4975860600825
 30
0.0
 10
574.6094447099586
 20
508.4975860600825
 30
0.0
 10
574.616605601339
 20
508.3188109046687
 30
0.0
 10
574.6817969182284
 20
508.1048319561896
 30
0.0
 10
574.7886478559776
 20
507.9281458779733
 30
0.0
 10
574.8934814721387
 20
507.750335520549
 30
0.0
 10
575.0419920307458
 20
507.610942312599
 30
0.0
 10
575.1822519019242
 20
507.5456960496594
 30
0.0
 10
575.1822519019242
 20
507.5456960496594
 30
0.0
 10
587.7421427317158
 20
501.8027153163748
 30
0.0
 10
587.7421427317158
 20
501.8027153163748
 30
0.0
 10
587.8803368801763
 20
501.7391071377142
 30
0.0
 10
588.0225294741203
 20
501.7481044888508
 30
0.0
 10
588.119879485378
 20
501.830466844397
 30
0.0
 10
588.2150835924348
 20
501.9172548490059
 30
0.0
 10
588.2675084097827
 20
502.0758542454041
 30
0.0
 10
588.2602673369192
 20
502.2574169655991
 30
0.0
 10
588.2602673369192
 20
502.2574169655991
 30
0.0
 10
588.1793076142202
 20
504.3637778859265
 30
0.0
 10
588.1793076142202
 20
504.3637778859265
 30
0.0
 10
588.1742124455558
 20
504.5409149570623
 30
0.0
 10
588.1069554059513
 20
504.7565319898203
 30
0.0
 10
588.0000242867208
 20
504.9360056328177
 30
0.0
  0
HATCH
  5
17B
330
164
100
AcDbEntity
  8
1
 62
   139
440
 33554687
100
AcDbHatch
 10
0.0
 20
0.0
 30
0.0
210
0.0
220
0.0
230
1.0
  2
SOLID
 70
     1
 71
     1
 91
       11
 92
        1
 93
        1
 72
     4
 94
        3
 73
     0
 74
     0
 95
       29
 96
       25
 40
0.0
 40
0.0
 40
0.0
 40
0.0
 40
1.0
 40
1.0
 40
1.0
 40
2.0
 40
2.0
 40
2.0
 40
3.0
 40
3.0
 40
3.0
 40
4.0
 40
4.0
 40
4.0
 40
5.0
 40
5.0
 40
5.0
 40
6.0
 40
6.0
 40
6.0
 40
7.0
 40
7.0
 40
7.0
 40
8.0
 40
8.0
 40
8.0
 40
8.0
 10
586.9662659408386
 20
503.0212111381351
 10
586.9662659408386
 20
503.0212111381351
 10
586.8582449455134
 20
503.3800111403198
 10
586.8582449455134
 20
503.3800111403198
 10
586.8582449455134
 20
503.3800111403198
 10
586.3632288821245
 20
503.6075434858803
 10
586.3632288821245
 20
503.6075434858803
 10
586.3632288821245
 20
503.6075434858803
 10
586.2794608540643
 20
503.3358661899292
 10
586.2794608540643
 20
503.3358661899292
 10
586.2794608540643
 20
503.3358661899292
 10
586.015482053016
 20
503.455966002476
 10
586.015482053016
 20
503.455966002476
 10
586.015482053016
 20
503.455966002476
 10
586.4383592662325
 20
504.8165165689897
 10
586.4383592662325
 20
504.8165165689897
 10
586.4383592662325
 20
504.8165165689897
 10
586.6858914984941
 20
504.7013692144646
 10
586.6858914984941
 20
504.7013692144646
 10
586.6858914984941
 20
504.7013692144646
 10
587.2282274203016
 20
502.8999870463821
 10
587.2282274203016
 20
502.8999870463821
 10
587.2282274203016
 20
502.8999870463821
 10
586.9662659408386
 20
503.0212111381351
 10
586.9662659408386
 20
503.0212111381351
 97
        0
 97
        1
330
170
 92
        1
 93
        1
 72
     4
 94
        3
 73
     0
 74
     0
 95
       35
 96
       31
 40
0.0
 40
0.0
 40
0.0
 40
0.0
 40
1.0
 40
1.0
 40
1.0
 40
2.0
 40
2.0
 40
2.0
 40
3.0
 40
3.0
 40
3.0
 40
4.0
 40
4.0
 40
4.0
 40
5.0
 40
5.0
 40
5.0
 40
6.0
 40
6.0
 40
6.0
 40
7.0
 40
7.0
 40
7.0
 40
8.0
 40
8.0
 40
8.0
 40
9.0
 40
9.0
 40
9.0
 40
10.0
 40
10.0
 40
10.0
 40
10.0
 10
585.8814829106913
 20
503.5162476099867
 10
585.8814829106913
 20
503.5162476099867
 10
585.613343313601
 20
503.6395643207261
 10
585.613343313601
 20
503.6395643207261
 10
585.613343313601
 20
503.6395643207261
 10
585.0244009218932
 20
504.9397118130445
 10
585.0244009218932
 20
504.9397118130445
 10
585.0244009218932
 20
504.9397118130445
 10
585.0647299455431
 20
503.8906956655191
 10
585.0647299455431
 20
503.8906956655191
 10
585.0647299455431
 20
503.8906956655191
 10
584.7966196990601
 20
504.0140716466212
 10
584.7966196990601
 20
504.0140716466212
 10
584.7966196990601
 20
504.0140716466212
 10
584.7369680965048
 20
505.5923349207987
 10
584.7369680965048
 20
505.5923349207987
 10
584.7369680965048
 20
505.5923349207987
 10
585.0051101233366
 20
505.4689337383997
 10
585.0051101233366
 20
505.4689337383997
 10
585.0051101233366
 20
505.4689337383997
 10
585.5918748304948
 20
504.1732370964391
 10
585.5918748304948
 20
504.1732370964391
 10
585.5918748304948
 20
504.1732370964391
 10
585.551625988327
 20
505.2194656791825
 10
585.551625988327
 20
505.2194656791825
 10
585.551625988327
 20
505.2194656791825
 10
585.8196560533278
 20
505.0988772628606
 10
585.8196560533278
 20
505.0988772628606
 10
585.8196560533278
 20
505.0988772628606
 10
585.8814829106913
 20
503.5162476099867
 10
585.8814829106913
 20
503.5162476099867
 97
        0
 97
        1
330
171
 92
        1
 93
        1
 72
     4
 94
        3
 73
     0
 74
     0
 95
       17
 96
       13
 40
0.0
 40
0.0
 40
0.0
 40
0.0
 40
1.0
 40
1.0
 40
1.0
 40
2.0
 40
2.0
 40
2.0
 40
3.0
 40
3.0
 40
3.0
 40
4.0
 40
4.0
 40
4.0
 40
4.0
 10
584.5924989315354
 20
504.1056078045094
 10
584.5924989315354
 20
504.1056078045094
 10
584.3243569047045
 20
504.2290089869092
 10
584.3243569047045
 20
504.2290089869092
 10
584.3243569047045
 20
504.2290089869092
 10
584.2626420091701
 20
505.8088258737052
 10
584.2626420091701
 20
505.8088258737052
 10
584.2626420091701
 20
505.8088258737052
 10
584.5306720741728
 20
505.6882374573842
 10
584.5306720741728
 20
505.6882374573842
 10
584.5306720741728
 20
505.6882374573842
 10
584.5924989315354
 20
504.1056078045094
 10
584.5924989315354
 20
504.1056078045094
 97
        0
 97
        1
330
172
 92
        1
 93
        1
 72
     4
 94
        3
 73
     0
 74
     0
 95
       29
 96
       25
 40
0.0
 40
0.0
 40
0.0
 40
0.0
 40
1.0
 40
1.0
 40
1.0
 40
2.0
 40
2.0
 40
2.0
 40
3.0
 40
3.0
 40
3.0
 40
4.0
 40
4.0
 40
4.0
 40
5.0
 40
5.0
 40
5.0
 40
6.0
 40
6.0
 40
6.0
 40
7.0
 40
7.0
 40
7.0
 40
8.0
 40
8.0
 40
8.0
 40
8.0
 10
584.1016462706011
 20
505.6038368515392
 10
584.1016462706011
 20
505.6038368515392
 10
583.8149943820053
 20
505.7337441045783
 10
583.8149943820053
 20
505.7337441045783
 10
583.8149943820053
 20
505.7337441045783
 10
583.86442585448
 20
504.4395328755399
 10
583.86442585448
 20
504.4395328755399
 10
583.86442585448
 20
504.4395328755399
 10
583.5963180377403
 20
504.5628243849842
 10
583.5963180377403
 20
504.5628243849842
 10
583.5963180377403
 20
504.5628243849842
 10
583.5469325366538
 20
505.8543577221935
 10
583.5469325366538
 20
505.8543577221935
 10
583.5469325366538
 20
505.8543577221935
 10
583.2581347438581
 20
505.9886906242963
 10
583.2581347438581
 20
505.9886906242963
 10
583.2581347438581
 20
505.9886906242963
 10
583.2479463941281
 20
506.2727174681385
 10
583.2479463941281
 20
506.2727174681385
 10
583.2479463941281
 20
506.2727174681385
 10
584.0914285702638
 20
505.8878044250186
 10
584.0914285702638
 20
505.8878044250186
 10
584.0914285702638
 20
505.8878044250186
 10
584.1016462706011
 20
505.6038368515392
 10
584.1016462706011
 20
505.6038368515392
 97
        0
 97
        1
330
173
 92
        1
 93
        1
 72
     4
 94
        3
 73
     0
 74
     0
 95
       35
 96
       31
 40
0.0
 40
0.0
 40
0.0
 40
0.0
 40
1.0
 40
1.0
 40
1.0
 40
2.0
 40
2.0
 40
2.0
 40
3.0
 40
3.0
 40
3.0
 40
4.0
 40
4.0
 40
4.0
 40
5.0
 40
5.0
 40
5.0
 40
6.0
 40
6.0
 40
6.0
 40
7.0
 40
7.0
 40
7.0
 40
8.0
 40
8.0
 40
8.0
 40
9.0
 40
9.0
 40
9.0
 40
10.0
 40
10.0
 40
10.0
 40
10.0
 10
583.1363845577779
 20
504.7734327452745
 10
583.1363845577779
 20
504.7734327452745
 10
582.8683227124257
 20
504.8940463628923
 10
582.8683227124257
 20
504.8940463628923
 10
582.8683227124257
 20
504.8940463628923
 10
582.2814000720472
 20
506.1952336627546
 10
582.2814000720472
 20
506.1952336627546
 10
582.2814000720472
 20
506.1952336627546
 10
582.3218092771776
 20
505.143429950449
 10
582.3218092771776
 20
505.143429950449
 10
582.3218092771776
 20
505.143429950449
 10
582.0536990306955
 20
505.2668059315529
 10
582.0536990306955
 20
505.2668059315529
 10
582.0536990306955
 20
505.2668059315529
 10
581.991872173332
 20
506.8494355844259
 10
581.991872173332
 20
506.8494355844259
 10
581.991872173332
 20
506.8494355844259
 10
582.2621092734889
 20
506.7244555881134
 10
582.2621092734889
 20
506.7244555881134
 10
582.2621092734889
 20
506.7244555881134
 10
582.8489541621292
 20
505.4259713813698
 10
582.8489541621292
 20
505.4259713813698
 10
582.8489541621292
 20
505.4259713813698
 10
582.8086251384793
 20
506.4749875288944
 10
582.8086251384793
 20
506.4749875288944
 10
582.8086251384793
 20
506.4749875288944
 10
583.0767353849632
 20
506.3516115477905
 10
583.0767353849632
 20
506.3516115477905
 10
583.0767353849632
 20
506.3516115477905
 10
583.1363845577779
 20
504.7734327452745
 10
583.1363845577779
 20
504.7734327452745
 97
        0
 97
        1
330
174
 92
        1
 93
        1
 72
     4
 94
        3
 73
     0
 74
     0
 95
       44
 96
       40
 40
0.0
 40
0.0
 40
0.0
 40
0.0
 40
1.0
 40
1.0
 40
1.0
 40
2.0
 40
2.0
 40
2.0
 40
3.0
 40
3.0
 40
3.0
 40
4.0
 40
4.0
 40
4.0
 40
5.0
 40
5.0
 40
5.0
 40
6.0
 40
6.0
 40
6.0
 40
7.0
 40
7.0
 40
7.0
 40
8.0
 40
8.0
 40
8.0
 40
9.0
 40
9.0
 40
9.0
 40
10.0
 40
10.0
 40
10.0
 40
11.0
 40
11.0
 40
11.0
 40
12.0
 40
12.0
 40
12.0
 40
13.0
 40
13.0
 40
13.0
 40
13.0
 10
580.3893808451094
 20
506.0266808352744
 10
580.3893808451094
 20
506.0266808352744
 10
580.22188643965
 20
507.1089327625422
 10
580.22188643965
 20
507.1089327625422
 10
580.22188643965
 20
507.1089327625422
 10
579.9912449685144
 20
506.2125529132381
 10
579.9912449685144
 20
506.2125529132381
 10
579.9912449685144
 20
506.2125529132381
 10
579.8345385285483
 20
506.2827516342004
 10
579.8345385285483
 20
506.2827516342004
 10
579.8345385285483
 20
506.2827516342004
 10
579.5268644333928
 20
507.4274622596249
 10
579.5268644333928
 20
507.4274622596249
 10
579.5268644333928
 20
507.4274622596249
 10
579.4364828334346
 20
506.4658361473802
 10
579.4364828334346
 20
506.4658361473802
 10
579.4364828334346
 20
506.4658361473802
 10
579.1745697551041
 20
506.5842978756482
 10
579.1745697551041
 20
506.5842978756482
 10
579.1745697551041
 20
506.5842978756482
 10
579.3149876561183
 20
508.0715135957116
 10
579.3149876561183
 20
508.0715135957116
 10
579.3149876561183
 20
508.0715135957116
 10
579.5830177211209
 20
507.9509251793906
 10
579.5830177211209
 20
507.9509251793906
 10
579.5830177211209
 20
507.9509251793906
 10
579.8929472525633
 20
506.7990606104867
 10
579.8929472525633
 20
506.7990606104867
 10
579.8929472525633
 20
506.7990606104867
 10
580.1234625708294
 20
507.7009059164002
 10
580.1234625708294
 20
507.7009059164002
 10
580.1234625708294
 20
507.7009059164002
 10
580.3915244161799
 20
507.5802922987813
 10
580.3915244161799
 20
507.5802922987813
 10
580.3915244161799
 20
507.5802922987813
 10
580.6533596461559
 20
505.9065810227275
 10
580.6533596461559
 20
505.9065810227275
 10
580.6533596461559
 20
505.9065810227275
 10
580.3893808451094
 20
506.0266808352744
 10
580.3893808451094
 20
506.0266808352744
 97
        0
 97
        1
330
176
 92
        1
 93
        1
 72
     4
 94
        3
 73
     0
 74
     0
 95
       29
 96
       25
 40
0.0
 40
0.0
 40
0.0
 40
0.0
 40
1.0
 40
1.0
 40
1.0
 40
2.0
 40
2.0
 40
2.0
 40
3.0
 40
3.0
 40
3.0
 40
4.0
 40
4.0
 40
4.0
 40
5.0
 40
5.0
 40
5.0
 40
6.0
 40
6.0
 40
6.0
 40
7.0
 40
7.0
 40
7.0
 40
8.0
 40
8.0
 40
8.0
 40
8.0
 10
578.8075135991111
 20
506.7509722086279
 10
578.8075135991111
 20
506.7509722086279
 10
578.699412422301
 20
507.1125597755954
 10
578.699412422301
 20
507.1125597755954
 10
578.699412422301
 20
507.1125597755954
 10
578.2045083207458
 20
507.337279355077
 10
578.2045083207458
 20
507.337279355077
 10
578.2045083207458
 20
507.337279355077
 10
578.1207402926838
 20
507.0656020591268
 10
578.1207402926838
 20
507.0656020591268
 10
578.1207402926838
 20
507.0656020591268
 10
577.8588589947039
 20
507.1840385860987
 10
577.8588589947039
 20
507.1840385860987
 10
577.8588589947039
 20
507.1840385860987
 10
578.2796387048547
 20
508.5462524381873
 10
578.2796387048547
 20
508.5462524381873
 10
578.2796387048547
 20
508.5462524381873
 10
578.5270907556332
 20
508.4338926484433
 10
578.5270907556332
 20
508.4338926484433
 10
578.5270907556332
 20
508.4338926484433
 10
579.069394897091
 20
506.6325356816578
 10
579.069394897091
 20
506.6325356816578
 10
579.069394897091
 20
506.6325356816578
 10
578.8075135991111
 20
506.7509722086279
 10
578.8075135991111
 20
506.7509722086279
 97
        0
 97
        1
330
177
 92
        1
 93
        1
 72
     4
 94
        3
 73
     0
 74
     0
 95
       32
 96
       28
 40
0.0
 40
0.0
 40
0.0
 40
0.0
 40
1.0
 40
1.0
 40
1.0
 40
2.0
 40
2.0
 40
2.0
 40
3.0
 40
3.0
 40
3.0
 40
4.0
 40
4.0
 40
4.0
 40
5.0
 40
5.0
 40
5.0
 40
6.0
 40
6.0
 40
6.0
 40
7.0
 40
7.0
 40
7.0
 40
8.0
 40
8.0
 40
8.0
 40
9.0
 40
9.0
 40
9.0
 40
9.0
 10
577.4587057965255
 20
507.3687863848526
 10
577.4587057965255
 20
507.3687863848526
 10
577.107359256318
 20
508.1207935211295
 10
577.107359256318
 20
508.1207935211295
 10
577.107359256318
 20
508.1207935211295
 10
577.132883420717
 20
507.5163003715533
 10
577.132883420717
 20
507.5163003715533
 10
577.132883420717
 20
507.5163003715533
 10
576.8626781009079
 20
507.6412551665717
 10
576.8626781009079
 20
507.6412551665717
 10
576.8626781009079
 20
507.6412551665717
 10
576.8029463168714
 20
509.2223060055293
 10
576.8029463168714
 20
509.2223060055293
 10
576.8029463168714
 20
509.2223060055293
 10
577.2608600455087
 20
509.0106578376917
 10
577.2608600455087
 20
509.0106578376917
 10
577.431961522585
 20
508.9344920524563
 10
577.5848802687623
 20
508.7131030102163
 10
577.6261732723587
 20
508.4802694618447
 10
577.6765921125961
 20
508.2130419976102
 10
577.5598321570969
 20
508.027041643103
 10
577.3674085289412
 20
508.0660486258402
 10
577.3674085289412
 20
508.0660486258402
 10
577.7556696779283
 20
507.2334258726113
 10
577.7556696779283
 20
507.2334258726113
 10
577.7556696779283
 20
507.2334258726113
 10
577.4587057965255
 20
507.3687863848526
 10
577.4587057965255
 20
507.3687863848526
 97
        0
 97
        1
330
178
 92
        1
 93
        1
 72
     4
 94
        3
 73
     0
 74
     0
 95
       29
 96
       25
 40
0.0
 40
0.0
 40
0.0
 40
0.0
 40
1.0
 40
1.0
 40
1.0
 40
2.0
 40
2.0
 40
2.0
 40
3.0
 40
3.0
 40
3.0
 40
4.0
 40
4.0
 40
4.0
 40
5.0
 40
5.0
 40
5.0
 40
6.0
 40
6.0
 40
6.0
 40
7.0
 40
7.0
 40
7.0
 40
8.0
 40
8.0
 40
8.0
 40
8.0
 10
576.6420307597827
 20
509.0145294185831
 10
576.6420307597827
 20
509.0145294185831
 10
576.3553788711869
 20
509.1444366716223
 10
576.3553788711869
 20
509.1444366716223
 10
576.3553788711869
 20
509.1444366716223
 10
576.4048421240131
 20
507.8502002412887
 10
576.4048421240131
 20
507.8502002412887
 10
576.4048421240131
 20
507.8502002412887
 10
576.1346050238535
 20
507.9751802376013
 10
576.1346050238535
 20
507.9751802376013
 10
576.1346050238535
 20
507.9751802376013
 10
576.0852513031177
 20
509.2666883735192
 10
576.0852513031177
 20
509.2666883735192
 10
576.0852513031177
 20
509.2666883735192
 10
575.7985510133903
 20
509.3993579900443
 10
575.7985510133903
 20
509.3993579900443
 10
575.7985510133903
 20
509.3993579900443
 10
575.7862675903343
 20
509.6849636478009
 10
575.7862675903343
 20
509.6849636478009
 10
575.7862675903343
 20
509.6849636478009
 10
576.6318130594445
 20
509.2984969920625
 10
576.6318130594445
 20
509.2984969920625
 10
576.6318130594445
 20
509.2984969920625
 10
576.6420307597827
 20
509.0145294185831
 10
576.6420307597827
 20
509.0145294185831
 97
        0
 97
        1
330
179
 92
        1
 93
        2
 72
     4
 94
        3
 73
     0
 74
     0
 95
       53
 96
       49
 40
0.0
 40
0.0
 40
0.0
 40
0.0
 40
1.0
 40
1.0
 40
1.0
 40
2.0
 40
2.0
 40
2.0
 40
3.0
 40
3.0
 40
3.0
 40
4.0
 40
4.0
 40
4.0
 40
5.0
 40
5.0
 40
5.0
 40
6.0
 40
6.0
 40
6.0
 40
7.0
 40
7.0
 40
7.0
 40
8.0
 40
8.0
 40
8.0
 40
9.0
 40
9.0
 40
9.0
 40
10.0
 40
10.0
 40
10.0
 40
11.0
 40
11.0
 40
11.0
 40
12.0
 40
12.0
 40
12.0
 40
13.0
 40
13.0
 40
13.0
 40
14.0
 40
14.0
 40
14.0
 40
15.0
 40
15.0
 40
15.0
 40
16.0
 40
16.0
 40
16.0
 40
16.0
 10
581.8853960687174
 20
505.8114236430101
 10
581.8572611952413
 20
505.7282417360056
 10
581.8145391413436
 20
505.6566272241316
 10
581.7589289324269
 20
505.6087701740652
 10
581.7033989049924
 20
505.5581255592223
 10
581.6349489421873
 20
505.5312636074768
 10
581.5599033335675
 20
505.5231692608203
 10
581.4847481928564
 20
505.5178032085787
 10
581.4028536641499
 20
505.5340427287947
 10
581.3203518936852
 20
505.572473094312
 10
581.2379009540936
 20
505.608056624681
 10
581.1547625912653
 20
505.6686185651305
 10
581.0772967660541
 20
505.7435850616038
 10
580.9977676478665
 20
505.8201051706965
 10
580.9258457776613
 20
505.9150261514568
 10
580.8639176040815
 20
506.01555966048
 10
580.8040091818257
 20
506.117132977055
 10
580.7518683705183
 20
506.2315320357338
 10
580.7180819174955
 20
506.3448312100162
 10
580.6822273120105
 20
506.4598529402373
 10
580.6626755331353
 20
506.5727601798108
 10
580.6575847818112
 20
506.6795654808584
 10
580.6544795717254
 20
506.787520262409
 10
580.6658036088392
 20
506.8893983067282
 10
580.6939384823153
 20
506.9725802137336
 10
580.7219931743075
 20
507.0585496855228
 10
580.7646834478573
 20
507.130189398692
 10
580.8202936567741
 20
507.1780464487556
 10
580.8759038656908
 20
507.2259034988201
 10
580.9421761439453
 20
507.2572163009208
 10
581.0193994371148
 20
507.2608597972211
 10
581.0944743963427
 20
507.2690134142467
 10
581.1743516034657
 20
507.25164961482
 10
581.2588706955148
 20
507.2143435285124
 10
581.3393043135201
 20
507.1776357189337
 10
581.4244599979356
 20
507.1181980576902
 10
581.5019258231468
 20
507.0432315612188
 10
581.5815351228147
 20
506.9639238873469
 10
581.6533768115387
 20
506.8717904713694
 10
581.7132876635342
 20
506.7701326831365
 10
581.7752134073743
 20
506.6696836457704
 10
581.8253368970963
 20
506.5541603078827
 10
581.8612208531876
 20
506.4391978480252
 10
581.8971072390186
 20
506.3241509165082
 10
581.9166272375468
 20
506.2112688782308
 10
581.9217981703514
 20
506.1016760124039
 10
581.9248231989567
 20
505.9965087956334
 10
581.9134531904519
 20
505.8973086431388
 10
581.8853960687174
 20
505.8114236430101
 97
        0
 72
     1
 10
581.8853960687174
 20
505.8114236430101
 11
581.8853960687174
 21
505.8114236430101
 97
        0
 92
        1
 93
        2
 72
     4
 94
        3
 73
     0
 74
     0
 95
       41
 96
       37
 40
0.0
 40
0.0
 40
0.0
 40
0.0
 40
1.0
 40
1.0
 40
1.0
 40
2.0
 40
2.0
 40
2.0
 40
3.0
 40
3.0
 40
3.0
 40
4.0
 40
4.0
 40
4.0
 40
5.0
 40
5.0
 40
5.0
 40
6.0
 40
6.0
 40
6.0
 40
7.0
 40
7.0
 40
7.0
 40
8.0
 40
8.0
 40
8.0
 40
9.0
 40
9.0
 40
9.0
 40
10.0
 40
10.0
 40
10.0
 40
11.0
 40
11.0
 40
11.0
 40
12.0
 40
12.0
 40
12.0
 40
12.0
 10
588.0000242867208
 20
504.9360056328177
 10
587.8932535304539
 20
505.1099041462521
 10
587.7466801119517
 20
505.2532091981938
 10
587.606468641904
 20
505.3156930976475
 10
587.606468641904
 20
505.3156930976475
 10
575.0487070955296
 20
511.0569853440601
 10
575.0487070955296
 20
511.0569853440601
 10
574.9084154440025
 20
511.1222568082958
 10
574.7662228500594
 20
511.1132594571572
 10
574.6709385615194
 20
511.0292590173322
 10
574.5736687317449
 20
510.9441090970039
 10
574.521243914397
 20
510.7855097006058
 10
574.5284048057783
 20
510.6067345451919
 10
574.5284048057783
 20
510.6067345451919
 10
574.6094447099586
 20
508.4975860600825
 10
574.6094447099586
 20
508.4975860600825
 10
574.616605601339
 20
508.3188109046687
 10
574.6817969182284
 20
508.1048319561896
 10
574.7886478559776
 20
507.9281458779733
 10
574.8934814721387
 20
507.750335520549
 10
575.0419920307458
 20
507.610942312599
 10
575.1822519019242
 20
507.5456960496594
 10
575.1822519019242
 20
507.5456960496594
 10
587.7421427317158
 20
501.8027153163748
 10
587.7421427317158
 20
501.8027153163748
 10
587.8803368801763
 20
501.7391071377142
 10
588.0225294741203
 20
501.7481044888508
 10
588.119879485378
 20
501.830466844397
 10
588.2150835924348
 20
501.9172548490059
 10
588.2675084097827
 20
502.0758542454041
 10
588.2602673369192
 20
502.2574169655991
 10
588.2602673369192
 20
502.2574169655991
 10
588.1793076142202
 20
504.3637778859265
 10
588.1793076142202
 20
504.3637778859265
 10
588.1742124455558
 20
504.5409149570623
 10
588.1069554059513
 20
504.7565319898203
 10
588.0000242867208
 20
504.9360056328177
 97
        0
 72
     1
 10
588.0000242867208
 20
504.9360056328177
 11
588.0000242867208
 21
504.9360056328177
 97
        0
 75
     2
 76
     1
 98
        1
 10
0.0
 20
0.0
450
        0
451
        0
460
0.0
461
0.0
452
        0
462
0.0
453
        0
470

  0
ENDBLK
  5
167
330
164
100
AcDbEntity
  8
0
100
AcDbBlockEnd
  0
ENDSEC
  0
SECTION
  2
ENTITIES
  0
MTEXT
  5
79
330
70
100
AcDbEntity
  8
1
100
AcDbMText
 10
1021.4287109375
 20
128.8857421875
 30
0.0
 40
0.2
 41
0.0
 46
0.0
 71
     7
 72
     1
  1
\C253;\FFrutiger Bold|b1|i0|c1;\H8.915794;\W1.000000;mm
 73
     1
 44
1.0
  0
INSERT
  5
7B
330
70
100
AcDbEntity
  8
1
100
AcDbBlockReference
  2
Block_0
 10
0.0
 20
0.0
 30
0.0
  0
INSERT
  5
81
330
70
100
AcDbEntity
  8
1
100
AcDbBlockReference
  2
Block_1
 10
0.0
 20
0.0
 30
0.0
  0
LINE
  5
87
330
70
100
AcDbEntity
  8
1
 62
     7
370
    35
100
AcDbLine
 10
842.4019558122544
 20
214.3922846089881
 30
0.0
 11
842.4019558122544
 21
245.3299418611332
 31
0.0
  0
LINE
  5
88
330
70
100
AcDbEntity
  8
1
 62
     7
370
    35
100
AcDbLine
 10
845.4785903528026
 20
250.6740916435683
 30
0.0
 11
861.0968503060759
 21
258.7369269286392
 31
0.0
  0
LINE
  5
89
330
70
100
AcDbEntity
  8
1
 62
     7
370
    35
100
AcDbLine
 10
520.8074274355649
 20
513.0893390796764
 30
0.0
 11
520.8074274355649
 21
251.3862229045499
 31
0.0
  0
LINE
  5
8A
330
70
100
AcDbEntity
  8
1
 62
     7
370
    35
100
AcDbLine
 10
867.4019136592214
 20
570.0822891157385
 30
0.0
 11
867.4019136592214
 21
580.5969082169122
 31
0.0
  0
LINE
  5
8B
330
70
100
AcDbEntity
  8
1
 62
     7
370
    35
100
AcDbLine
 10
518.9616635784277
 20
564.2026248459551
 30
0.0
 11
518.9616635784277
 21
514.2597455071664
 31
0.0
  0
LINE
  5
8C
330
70
100
AcDbEntity
  8
1
 62
     7
370
    35
100
AcDbLine
 10
733.0524357122885
 20
643.593151002784
 30
0.0
 11
519.6822133326341
 21
578.4017896533496
 31
0.0
  0
LINE
  5
8D
330
70
100
AcDbEntity
  8
1
 62
     7
370
    35
100
AcDbLine
 10
517.6748144055563
 20
575.6894622165455
 30
0.0
 11
517.6748144055563
 21
565.174843115371
 31
0.0
  0
LINE
  5
8E
330
70
100
AcDbEntity
  8
1
 62
     7
370
    35
100
AcDbLine
 10
652.0224417965619
 20
156.3697329986789
 30
0.0
 11
652.0224417965619
 21
187.4754807593872
 31
0.0
  0
LINE
  5
8F
330
70
100
AcDbEntity
  8
1
 62
     7
370
    35
100
AcDbLine
 10
652.0224417965619
 20
187.4754807593872
 30
0.0
 11
518.9508325085917
 21
248.8604716828304
 31
0.0
  0
LINE
  5
90
330
70
100
AcDbEntity
  8
1
 62
     7
370
    35
100
AcDbLine
 10
662.3966190654337
 20
194.3989105646542
 30
0.0
 11
670.7198325319768
 21
190.5594712006441
 31
0.0
  0
LINE
  5
91
330
70
100
AcDbEntity
  8
1
 62
     7
370
    35
100
AcDbLine
 10
660.4545984119986
 20
187.4231168806927
 30
0.0
 11
651.9692039260662
 21
191.3373692811055
 31
0.0
  0
LINE
  5
92
330
70
100
AcDbEntity
  8
1
 62
     7
370
    35
100
AcDbLine
 10
652.0224417965619
 20
156.3697329986789
 30
0.0
 11
670.7198325319768
 21
162.0823778607137
 31
0.0
  0
LINE
  5
93
330
70
100
AcDbEntity
  8
1
 62
     7
370
    35
100
AcDbLine
 10
670.7198325319768
 20
162.0823778607137
 30
0.0
 11
670.7198325319768
 21
190.5594712006441
 31
0.0
  0
LINE
  5
94
330
70
100
AcDbEntity
  8
1
 62
     7
370
    35
100
AcDbLine
 10
660.4545984119986
 20
187.4231168806927
 30
0.0
 11
670.7198325319768
 21
190.5594712006441
 31
0.0
  0
LINE
  5
95
330
70
100
AcDbEntity
  8
1
 62
     7
370
    35
100
AcDbLine
 10
522.2503723003801
 20
249.8685855376207
 30
0.0
 11
655.3219815883503
 21
188.4835946141811
 31
0.0
  0
LINE
  5
96
330
70
100
AcDbEntity
  8
1
 62
     7
370
    35
100
AcDbLine
 10
518.9508325085917
 20
248.8604716828304
 30
0.0
 11
522.2503723003801
 21
249.8685855376207
 31
0.0
  0
LINE
  5
97
330
70
100
AcDbEntity
  8
1
 62
     7
370
    35
100
AcDbLine
 10
652.0224417965619
 20
187.4754807593872
 30
0.0
 11
655.3219815883503
 21
188.4835946141811
 31
0.0
  0
LINE
  5
98
330
70
100
AcDbEntity
  8
1
 62
     7
370
    35
100
AcDbLine
 10
866.3560134850285
 20
579.7711012997888
 30
0.0
 11
652.9857911053714
 21
514.5797399503535
 31
0.0
  0
LINE
  5
99
330
70
100
AcDbEntity
  8
1
 62
     7
370
    35
100
AcDbLine
 10
651.1955902488935
 20
518.0342017609428
 30
0.0
 11
864.5658126285525
 21
583.2255631103771
 31
0.0
  0
LINE
  5
9A
330
70
100
AcDbEntity
  8
1
 62
     7
370
    35
100
AcDbLine
 10
652.9857911053714
 20
514.5797399503535
 30
0.0
 11
652.9857911053714
 21
504.0651208491808
 31
0.0
  0
LINE
  5
9B
330
70
100
AcDbEntity
  8
1
 62
     7
370
    35
100
AcDbLine
 10
648.9958970543693
 20
504.2188521782309
 30
0.0
 11
648.9958970543693
 21
514.7334712794054
 31
0.0
  0
LINE
  5
9C
330
70
100
AcDbEntity
  8
1
 62
     7
370
    35
100
AcDbLine
 10
689.6521597318842
 20
166.9930730874966
 30
0.0
 11
688.81010762806
 21
167.3815059573407
 31
0.0
  0
LINE
  5
9D
330
70
100
AcDbEntity
  8
1
 62
     7
370
    35
100
AcDbLine
 10
689.6521597318842
 20
166.9930730874966
 30
0.0
 11
689.6521597318842
 21
167.6380246779954
 31
0.0
  0
LINE
  5
9E
330
70
100
AcDbEntity
  8
1
 62
     7
370
    35
100
AcDbLine
 10
838.1314380725688
 20
212.358195607796
 30
0.0
 11
689.6521597318842
 21
166.9930730874966
 31
0.0
  0
LINE
  5
9F
330
70
100
AcDbEntity
  8
1
 62
     7
370
    35
100
AcDbLine
 10
838.1314380725688
 20
212.358195607796
 30
0.0
 11
838.1314380725688
 21
213.0031471982966
 31
0.0
  0
LINE
  5
A0
330
70
100
AcDbEntity
  8
1
 62
     7
370
    35
100
AcDbLine
 10
734.7841060610662
 20
639.4382577933347
 30
0.0
 11
734.7841060610662
 21
638.2553630676421
 31
0.0
  0
LINE
  5
A1
330
70
100
AcDbEntity
  8
1
 62
     7
370
    35
100
AcDbLine
 10
730.7942120100615
 20
639.5919891223857
 30
0.0
 11
730.7942120100615
 21
638.409094396693
 31
0.0
  0
LINE
  5
A2
330
70
100
AcDbEntity
  8
1
 62
     7
370
    35
100
AcDbLine
 10
854.1308411706705
 20
584.3844540223144
 30
0.0
 11
854.1308411706705
 21
583.2015592966208
 31
0.0
  0
LINE
  5
A3
330
70
100
AcDbEntity
  8
1
 62
     7
370
    35
100
AcDbLine
 10
548.9529228976207
 20
584.0337157712683
 30
0.0
 11
548.9529228976207
 21
582.8508210455748
 31
0.0
  0
LINE
  5
A4
330
70
100
AcDbEntity
  8
1
 62
     7
370
    35
100
AcDbLine
 10
539.9983805791953
 20
553.5270612654421
 30
0.0
 11
539.9983805791953
 21
553.4749365645994
 31
0.0
  0
LINE
  5
A5
330
70
100
AcDbEntity
  8
1
 62
     7
370
    35
100
AcDbLine
 10
541.7544574680705
 20
552.6389570257633
 30
0.0
 11
541.5711493867384
 21
552.5829506479749
 31
0.0
  0
LINE
  5
A6
330
70
100
AcDbEntity
  8
1
 62
     7
370
    35
100
AcDbLine
 10
539.7809485302604
 20
553.4087575650983
 30
0.0
 11
540.0666110251068
 21
553.4960366835839
 31
0.0
  0
LINE
  5
A7
330
70
100
AcDbEntity
  8
1
 62
     7
370
    35
100
AcDbLine
 10
548.1266451877254
 20
528.3629768337796
 30
0.0
 11
547.9774615466777
 21
528.3173964360648
 31
0.0
  0
LINE
  5
A8
330
70
100
AcDbEntity
  8
1
 62
     7
370
    35
100
AcDbLine
 10
541.7203330277861
 20
537.1803137838615
 30
0.0
 11
541.3537173378053
 21
537.0683015009708
 31
0.0
  0
LINE
  5
A9
330
70
100
AcDbEntity
  8
1
 62
     7
370
    35
100
AcDbLine
 10
548.3440767639749
 20
534.1248280486988
 30
0.0
 11
547.9774615466777
 21
534.0128152931247
 31
0.0
  0
LINE
  5
AA
330
70
100
AcDbEntity
  8
1
 62
     7
370
    35
100
AcDbLine
 10
541.3537173378053
 20
531.372882643911
 30
0.0
 11
541.3537173378053
 21
537.0683015009708
 31
0.0
  0
LINE
  5
AB
330
70
100
AcDbEntity
  8
1
 62
     7
370
    35
100
AcDbLine
 10
541.3537173378053
 20
531.372882643911
 30
0.0
 11
547.9774615466777
 21
528.3173964360648
 31
0.0
  0
LINE
  5
AC
330
70
100
AcDbEntity
  8
1
 62
     7
370
    35
100
AcDbLine
 10
547.9774615466777
 20
534.0128152931247
 30
0.0
 11
547.9774615466777
 21
528.3173964360648
 31
0.0
  0
LINE
  5
AD
330
70
100
AcDbEntity
  8
1
 62
     7
370
    35
100
AcDbLine
 10
547.9774615466777
 20
534.0128152931247
 30
0.0
 11
541.3537173378053
 21
537.0683015009708
 31
0.0
  0
LINE
  5
AE
330
70
100
AcDbEntity
  8
1
 62
     7
370
    35
100
AcDbLine
 10
548.4932604050236
 20
534.0560105298719
 30
0.0
 11
548.126644715041
 21
533.9439977742986
 31
0.0
  0
LINE
  5
AF
330
70
100
AcDbEntity
  8
1
 62
     7
370
    35
100
AcDbLine
 10
554.8995725649628
 20
525.2386735797918
 30
0.0
 11
554.7503884512307
 21
525.193093182077
 31
0.0
  0
LINE
  5
B0
330
70
100
AcDbEntity
  8
1
 62
     7
370
    35
100
AcDbLine
 10
555.1170041412115
 20
531.0005243220257
 30
0.0
 11
554.7503884512307
 21
530.888512039136
 31
0.0
  0
LINE
  5
B1
330
70
100
AcDbEntity
  8
1
 62
     7
370
    35
100
AcDbLine
 10
548.126644715041
 20
528.2485793899232
 30
0.0
 11
548.126644715041
 21
533.9439977742986
 31
0.0
  0
LINE
  5
B2
330
70
100
AcDbEntity
  8
1
 62
     7
370
    35
100
AcDbLine
 10
548.126644715041
 20
528.2485793899232
 30
0.0
 11
554.7503884512307
 21
525.193093182077
 31
0.0
  0
LINE
  5
B3
330
70
100
AcDbEntity
  8
1
 62
     7
370
    35
100
AcDbLine
 10
554.7503884512307
 20
530.888512039136
 30
0.0
 11
554.7503884512307
 21
525.193093182077
 31
0.0
  0
LINE
  5
B4
330
70
100
AcDbEntity
  8
1
 62
     7
370
    35
100
AcDbLine
 10
554.7503884512307
 20
530.888512039136
 30
0.0
 11
548.126644715041
 21
533.9439977742986
 31
0.0
  0
LINE
  5
B5
330
70
100
AcDbEntity
  8
1
 62
     7
370
    35
100
AcDbLine
 10
561.6724994695159
 20
522.1143703258021
 30
0.0
 11
561.5233158284682
 21
522.0687899280874
 31
0.0
  0
LINE
  5
B6
330
70
100
AcDbEntity
  8
1
 62
     7
370
    35
100
AcDbLine
 10
554.8995720922794
 20
525.1242761359353
 30
0.0
 11
554.8995720922794
 21
530.8196945203089
 31
0.0
  0
LINE
  5
B7
330
70
100
AcDbEntity
  8
1
 62
     7
370
    35
100
AcDbLine
 10
554.8995720922794
 20
525.1242761359353
 30
0.0
 11
561.5233158284682
 21
522.0687899280874
 31
0.0
  0
LINE
  5
B8
330
70
100
AcDbEntity
  8
1
 62
     7
370
    35
100
AcDbLine
 10
561.5233158284682
 20
527.7642083124629
 30
0.0
 11
561.5233158284682
 21
522.0687899280874
 31
0.0
  0
LINE
  5
B9
330
70
100
AcDbEntity
  8
1
 62
     7
370
    35
100
AcDbLine
 10
555.2661873095776
 20
530.931707275884
 30
0.0
 11
554.8995720922794
 21
530.8196945203089
 31
0.0
  0
LINE
  5
BA
330
70
100
AcDbEntity
  8
1
 62
     7
370
    35
100
AcDbLine
 10
561.5233158284682
 20
527.7642083124629
 30
0.0
 11
554.8995720922794
 21
530.8196945203089
 31
0.0
  0
LINE
  5
BB
330
70
100
AcDbEntity
  8
1
 62
     7
370
    35
100
AcDbLine
 10
561.8899310457663
 20
527.8762210680379
 30
0.0
 11
561.5233158284682
 21
527.7642083124629
 31
0.0
  0
LINE
  5
BC
330
70
100
AcDbEntity
  8
1
 62
     7
370
    35
100
AcDbLine
 10
606.5170353202484
 20
501.4279037667038
 30
0.0
 11
606.3678512065162
 21
501.3823233689909
 31
0.0
  0
LINE
  5
BD
330
70
100
AcDbEntity
  8
1
 62
     7
370
    35
100
AcDbLine
 10
561.6724989968333
 20
521.9999724092622
 30
0.0
 11
561.6724989968333
 21
527.6953912663211
 31
0.0
  0
LINE
  5
BE
330
70
100
AcDbEntity
  8
1
 62
     7
370
    35
100
AcDbLine
 10
561.6724989968333
 20
521.9999724092622
 30
0.0
 11
606.3678512065162
 21
501.3823233689909
 31
0.0
  0
LINE
  5
BF
330
70
100
AcDbEntity
  8
1
 62
     7
370
    35
100
AcDbLine
 10
606.3678512065162
 20
507.0777417533645
 30
0.0
 11
606.3678512065162
 21
501.3823233689909
 31
0.0
  0
LINE
  5
C0
330
70
100
AcDbEntity
  8
1
 62
     7
370
    35
100
AcDbLine
 10
562.0391146868151
 20
527.8074040218962
 30
0.0
 11
561.6724989968333
 21
527.6953912663211
 31
0.0
  0
LINE
  5
C1
330
70
100
AcDbEntity
  8
1
 62
     7
370
    35
100
AcDbLine
 10
606.3678512065162
 20
507.0777417533645
 30
0.0
 11
561.6724989968333
 21
527.6953912663211
 31
0.0
  0
LINE
  5
C2
330
70
100
AcDbEntity
  8
1
 62
     7
370
    35
100
AcDbLine
 10
606.7344668964988
 20
507.1897545089386
 30
0.0
 11
606.3678512065162
 21
507.0777417533645
 31
0.0
  0
LINE
  5
C3
330
70
100
AcDbEntity
  8
1
 62
     7
370
    35
100
AcDbLine
 10
613.2899622248023
 20
498.3036000400334
 30
0.0
 11
613.1407785837527
 21
498.2580196423177
 31
0.0
  0
LINE
  5
C4
330
70
100
AcDbEntity
  8
1
 62
     7
370
    35
100
AcDbLine
 10
606.8836500648631
 20
507.1209369901116
 30
0.0
 11
606.5170348475649
 21
507.0089247072228
 31
0.0
  0
LINE
  5
C5
330
70
100
AcDbEntity
  8
1
 62
     7
370
    35
100
AcDbLine
 10
613.5073942737354
 20
504.065451254949
 30
0.0
 11
613.1407785837527
 21
503.9534384993767
 31
0.0
  0
LINE
  5
C6
330
70
100
AcDbEntity
  8
1
 62
     7
370
    35
100
AcDbLine
 10
606.5170348475649
 20
501.3135058501639
 30
0.0
 11
606.5170348475649
 21
507.0089247072228
 31
0.0
  0
LINE
  5
C7
330
70
100
AcDbEntity
  8
1
 62
     7
370
    35
100
AcDbLine
 10
606.5170348475649
 20
501.3135058501639
 30
0.0
 11
613.1407785837527
 21
498.2580196423177
 31
0.0
  0
LINE
  5
C8
330
70
100
AcDbEntity
  8
1
 62
     7
370
    35
100
AcDbLine
 10
613.1407785837527
 20
503.9534384993767
 30
0.0
 11
613.1407785837527
 21
498.2580196423177
 31
0.0
  0
LINE
  5
C9
330
70
100
AcDbEntity
  8
1
 62
     7
370
    35
100
AcDbLine
 10
613.1407785837527
 20
503.9534384993767
 30
0.0
 11
606.5170348475649
 21
507.0089247072228
 31
0.0
  0
LINE
  5
CA
330
70
100
AcDbEntity
  8
1
 62
     7
370
    35
100
AcDbLine
 10
550.2636146991726
 20
509.8482655106372
 30
0.0
 11
550.2636146991726
 21
514.4006846025185
 31
0.0
  0
LINE
  5
CB
330
70
100
AcDbEntity
  8
1
 62
     7
370
    35
100
AcDbLine
 10
629.141550100604
 20
473.4624321809879
 30
0.0
 11
550.2636146991726
 21
509.8482655106372
 31
0.0
  0
LINE
  5
CC
330
70
100
AcDbEntity
  8
1
 62
     7
370
    35
100
AcDbLine
 10
539.6317653618953
 20
506.5998984351108
 30
0.0
 11
550.2636146991726
 21
509.8482655106372
 31
0.0
  0
LINE
  5
CD
330
70
100
AcDbEntity
  8
1
 62
     7
370
    35
100
AcDbLine
 10
613.2899617521188
 20
498.189202596176
 30
0.0
 11
613.2899617521188
 21
503.8846209805524
 31
0.0
  0
LINE
  5
CE
330
70
100
AcDbEntity
  8
1
 62
     7
370
    35
100
AcDbLine
 10
613.2899617521188
 20
498.189202596176
 30
0.0
 11
619.9137059609893
 21
495.1337163883299
 31
0.0
  0
LINE
  5
CF
330
70
100
AcDbEntity
  8
1
 62
     7
370
    35
100
AcDbLine
 10
613.6565774420996
 20
503.9966337361238
 30
0.0
 11
613.2899617521188
 21
503.8846209805524
 31
0.0
  0
LINE
  5
D0
330
70
100
AcDbEntity
  8
1
 62
     7
370
    35
100
AcDbLine
 10
619.9137059609893
 20
500.8291352453889
 30
0.0
 11
613.2899617521188
 21
503.8846209805524
 31
0.0
  0
LINE
  5
D1
330
70
100
AcDbEntity
  8
1
 62
     7
370
    35
100
AcDbLine
 10
619.9137059609893
 20
500.8291352453889
 30
0.0
 11
619.9137059609893
 21
495.1337163883299
 31
0.0
  0
LINE
  5
D2
330
70
100
AcDbEntity
  8
1
 62
     7
370
    35
100
AcDbLine
 10
620.0628896020389
 20
495.1792967860428
 30
0.0
 11
619.9137059609893
 21
495.1337163883299
 31
0.0
  0
LINE
  5
D3
330
70
100
AcDbEntity
  8
1
 62
     7
370
    35
100
AcDbLine
 10
620.2803211782884
 20
500.9411475282777
 30
0.0
 11
619.9137059609893
 21
500.8291352453889
 31
0.0
  0
LINE
  5
D4
330
70
100
AcDbEntity
  8
1
 62
     7
370
    35
100
AcDbLine
 10
620.0628891293545
 20
495.0648993421855
 30
0.0
 11
620.0628891293545
 21
500.7603177265628
 31
0.0
  0
LINE
  5
D5
330
70
100
AcDbEntity
  8
1
 62
     7
370
    35
100
AcDbLine
 10
620.0628891293545
 20
495.0648993421855
 30
0.0
 11
626.6866328655432
 21
492.0094131343403
 31
0.0
  0
LINE
  5
D6
330
70
100
AcDbEntity
  8
1
 62
     7
370
    35
100
AcDbLine
 10
626.6866328655432
 20
497.7048315187166
 30
0.0
 11
626.6866328655432
 21
492.0094131343403
 31
0.0
  0
LINE
  5
D7
330
70
100
AcDbEntity
  8
1
 62
     7
370
    35
100
AcDbLine
 10
627.0532485555259
 20
492.1214258899144
 30
0.0
 11
626.6866328655432
 21
492.0094131343403
 31
0.0
  0
LINE
  5
D8
330
70
100
AcDbEntity
  8
1
 62
     7
370
    35
100
AcDbLine
 10
627.2024321965736
 20
492.1670062876292
 30
0.0
 11
627.0532485555259
 21
492.1214258899144
 31
0.0
  0
LINE
  5
D9
330
70
100
AcDbEntity
  8
1
 62
     7
370
    35
100
AcDbLine
 10
620.4295048193371
 20
500.8723304821369
 30
0.0
 11
620.0628891293545
 21
500.7603177265628
 31
0.0
  0
LINE
  5
DA
330
70
100
AcDbEntity
  8
1
 62
     7
370
    35
100
AcDbLine
 10
626.6866328655432
 20
497.7048315187166
 30
0.0
 11
620.0628891293545
 21
500.7603177265628
 31
0.0
  0
LINE
  5
DB
330
70
100
AcDbEntity
  8
1
 62
     7
370
    35
100
AcDbLine
 10
627.0532485555259
 20
497.8168442742899
 30
0.0
 11
626.6866328655432
 21
497.7048315187166
 31
0.0
  0
LINE
  5
DC
330
70
100
AcDbEntity
  8
1
 62
     7
370
    35
100
AcDbLine
 10
541.5711493867384
 20
537.9062951442238
 30
0.0
 11
541.7544574680705
 21
537.9623010493268
 31
0.0
  0
LINE
  5
DD
330
70
100
AcDbEntity
  8
1
 62
     7
370
    35
100
AcDbLine
 10
541.7544574680705
 20
537.9623010493268
 30
0.0
 11
541.7544574680705
 21
552.6389570257633
 31
0.0
  0
LINE
  5
DE
330
70
100
AcDbEntity
  8
1
 62
     7
370
    35
100
AcDbLine
 10
627.2010973383548
 20
498.546371233624
 30
0.0
 11
541.7544574680705
 21
537.9623010493268
 31
0.0
  0
LINE
  5
DF
330
70
100
AcDbEntity
  8
1
 62
     7
370
    35
100
AcDbLine
 10
541.7544574680705
 20
552.6389570257633
 30
0.0
 11
541.7544574680705
 21
552.7174470671525
 31
0.0
  0
LINE
  5
E0
330
70
100
AcDbEntity
  8
1
 62
     7
370
    35
100
AcDbLine
 10
627.3857398052232
 20
513.216342992614
 30
0.0
 11
627.3857398052232
 21
513.137852951224
 31
0.0
  0
LINE
  5
E1
330
70
100
AcDbEntity
  8
1
 62
     7
370
    35
100
AcDbLine
 10
627.0532485555259
 20
492.1214258899144
 30
0.0
 11
627.202431723891
 21
492.0526083710883
 31
0.0
  0
LINE
  5
E2
330
70
100
AcDbEntity
  8
1
 62
     7
370
    35
100
AcDbLine
 10
627.0532485555259
 20
497.8168442742899
 30
0.0
 11
620.4295048193371
 21
500.8723304821369
 31
0.0
  0
LINE
  5
E3
330
70
100
AcDbEntity
  8
1
 62
     7
370
    35
100
AcDbLine
 10
627.202431723891
 20
497.7480272281472
 30
0.0
 11
627.0532485555259
 21
497.8168442742899
 31
0.0
  0
LINE
  5
E4
330
70
100
AcDbEntity
  8
1
 62
     7
370
    35
100
AcDbLine
 10
627.202431723891
 20
492.0526083710883
 30
0.0
 11
627.202431723891
 21
497.7480272281472
 31
0.0
  0
LINE
  5
E5
330
70
100
AcDbEntity
  8
1
 62
     7
370
    35
100
AcDbLine
 10
627.202431723891
 20
498.4051905970009
 30
0.0
 11
627.202431723891
 21
513.0818465734383
 31
0.0
  0
LINE
  5
E6
330
70
100
AcDbEntity
  8
1
 62
     7
370
    35
100
AcDbLine
 10
541.5711493867384
 20
537.9062951442238
 30
0.0
 11
627.202431723891
 21
498.4051905970009
 31
0.0
  0
LINE
  5
E7
330
70
100
AcDbEntity
  8
1
 62
     7
370
    35
100
AcDbLine
 10
541.5711493867384
 20
552.5829506479749
 30
0.0
 11
541.5711493867384
 21
537.9062951442238
 31
0.0
  0
LINE
  5
E8
330
70
100
AcDbEntity
  8
1
 62
     7
370
    35
100
AcDbLine
 10
539.7809485302604
 20
553.4087575650983
 30
0.0
 11
541.5711493867384
 21
552.5829506479749
 31
0.0
  0
LINE
  5
E9
330
70
100
AcDbEntity
  8
1
 62
     7
370
    35
100
AcDbLine
 10
539.7809485302604
 20
519.2362458407951
 30
0.0
 11
539.7809485302604
 21
553.4087575650983
 31
0.0
  0
LINE
  5
EA
330
70
100
AcDbEntity
  8
1
 62
     7
370
    35
100
AcDbLine
 10
628.9926330530533
 20
478.0835279320099
 30
0.0
 11
539.7809485302604
 21
519.2362458407951
 31
0.0
  0
LINE
  5
EB
330
70
100
AcDbEntity
  8
1
 62
     7
370
    35
100
AcDbLine
 10
620.2803211782884
 20
500.9411475282777
 30
0.0
 11
613.6565774420996
 21
503.9966337361238
 31
0.0
  0
LINE
  5
EC
330
70
100
AcDbEntity
  8
1
 62
     7
370
    35
100
AcDbLine
 10
620.2803211782884
 20
500.9411475282777
 30
0.0
 11
620.2803211782884
 21
500.82670517949
 31
0.0
  0
LINE
  5
ED
330
70
100
AcDbEntity
  8
1
 62
     7
370
    35
100
AcDbLine
 10
613.5073942737354
 20
504.065451254949
 30
0.0
 11
606.8836500648631
 21
507.1209369901116
 31
0.0
  0
LINE
  5
EE
330
70
100
AcDbEntity
  8
1
 62
     7
370
    35
100
AcDbLine
 10
613.5073942737354
 20
504.065451254949
 30
0.0
 11
613.5073942737354
 21
503.9510089061614
 31
0.0
  0
LINE
  5
EF
330
70
100
AcDbEntity
  8
1
 62
     7
370
    35
100
AcDbLine
 10
606.7344668964988
 20
507.1897545089386
 30
0.0
 11
562.0391146868151
 21
527.8074040218962
 31
0.0
  0
LINE
  5
F0
330
70
100
AcDbEntity
  8
1
 62
     7
370
    35
100
AcDbLine
 10
606.7344668964988
 20
507.1897545089386
 30
0.0
 11
606.7344668964988
 21
507.0753121601501
 31
0.0
  0
LINE
  5
F1
330
70
100
AcDbEntity
  8
1
 62
     7
370
    35
100
AcDbLine
 10
561.8899310457663
 20
527.8762210680379
 30
0.0
 11
555.2661873095776
 21
530.931707275884
 31
0.0
  0
LINE
  5
F2
330
70
100
AcDbEntity
  8
1
 62
     7
370
    35
100
AcDbLine
 10
561.8899310457663
 20
527.8762210680379
 30
0.0
 11
561.8899310457663
 21
527.7617787192466
 31
0.0
  0
LINE
  5
F3
330
70
100
AcDbEntity
  8
1
 62
     7
370
    35
100
AcDbLine
 10
555.1170041412115
 20
531.0005243220257
 30
0.0
 11
548.4932604050236
 21
534.0560105298719
 31
0.0
  0
LINE
  5
F4
330
70
100
AcDbEntity
  8
1
 62
     7
370
    35
100
AcDbLine
 10
555.1170041412115
 20
531.0005243220257
 30
0.0
 11
555.1170041412115
 21
530.8860819732363
 31
0.0
  0
LINE
  5
F5
330
70
100
AcDbEntity
  8
1
 62
     7
370
    35
100
AcDbLine
 10
541.5711493867384
 20
537.2491313026857
 30
0.0
 11
541.5711493867384
 21
537.1346889538972
 31
0.0
  0
LINE
  5
F6
330
70
100
AcDbEntity
  8
1
 62
     7
370
    35
100
AcDbLine
 10
541.7203330277861
 20
537.1803137838615
 30
0.0
 11
541.5711493867384
 21
537.2491313026857
 31
0.0
  0
LINE
  5
F7
330
70
100
AcDbEntity
  8
1
 62
     7
370
    35
100
AcDbLine
 10
548.3440767639749
 20
534.1248280486988
 30
0.0
 11
541.7203330277861
 21
537.1803137838615
 31
0.0
  0
LINE
  5
F8
330
70
100
AcDbEntity
  8
1
 62
     7
370
    35
100
AcDbLine
 10
548.3440767639749
 20
534.1248280486988
 30
0.0
 11
548.3440767639749
 21
534.0103856999085
 31
0.0
  0
LINE
  5
F9
330
70
100
AcDbEntity
  8
1
 62
     7
370
    35
100
AcDbLine
 10
628.9926330530533
 20
512.2560391836304
 30
0.0
 11
628.9926330530533
 21
478.0835279320099
 31
0.0
  0
LINE
  5
FA
330
70
100
AcDbEntity
  8
1
 62
     7
370
    35
100
AcDbLine
 10
629.1418166941002
 20
478.1291083297237
 30
0.0
 11
628.9926330530533
 21
478.0835279320099
 31
0.0
  0
LINE
  5
FB
330
70
100
AcDbEntity
  8
1
 62
     7
370
    35
100
AcDbLine
 10
627.202431723891
 20
513.0818465734383
 30
0.0
 11
628.9926330530533
 21
512.2560391836304
 31
0.0
  0
LINE
  5
FC
330
70
100
AcDbEntity
  8
1
 62
     7
370
    35
100
AcDbLine
 10
628.9926330530533
 20
512.2560391836304
 30
0.0
 11
629.1418166941002
 21
512.3016195813452
 31
0.0
  0
LINE
  5
FD
330
70
100
AcDbEntity
  8
1
 62
     7
370
    35
100
AcDbLine
 10
627.3857398052232
 20
513.137852951224
 30
0.0
 11
627.4880942187373
 21
513.1691252192394
 31
0.0
  0
LINE
  5
FE
330
70
100
AcDbEntity
  8
1
 62
     7
370
    35
100
AcDbLine
 10
627.3857398052232
 20
513.137852951224
 30
0.0
 11
627.202431723891
 21
513.0818465734383
 31
0.0
  0
LINE
  5
FF
330
70
100
AcDbEntity
  8
1
 62
     7
370
    35
100
AcDbLine
 10
521.33776745658
 20
512.8455355453088
 30
0.0
 11
521.33776745658
 21
250.8261595993663
 31
0.0
  0
LINE
  5
100
330
70
100
AcDbEntity
  8
1
 62
     7
370
    35
100
AcDbLine
 10
521.33776745658
 20
250.8261595993663
 30
0.0
 11
649.6355073212598
 21
191.6433207700429
 31
0.0
  0
LINE
  5
101
330
70
100
AcDbEntity
  8
1
 62
     7
370
    35
100
AcDbLine
 10
667.9916545991946
 20
458.3981861293969
 30
0.0
 11
667.9916545991946
 21
196.1077299747376
 31
0.0
  0
LINE
  5
102
330
70
100
AcDbEntity
  8
1
 62
     7
370
    35
100
AcDbLine
 10
652.9604188728671
 20
191.5152112503856
 30
0.0
 11
667.9916545991946
 21
196.1077299747376
 31
0.0
  0
LINE
  5
103
330
70
100
AcDbEntity
  8
1
 62
     7
370
    35
100
AcDbLine
 10
652.9604188728671
 20
453.805667405044
 30
0.0
 11
652.9604188728671
 21
191.5152112503856
 31
0.0
  0
LINE
  5
104
330
70
100
AcDbEntity
  8
1
 62
     7
370
    35
100
AcDbLine
 10
649.6355073212598
 20
191.6433207700429
 30
0.0
 11
649.6355073212598
 21
453.6955548371597
 31
0.0
  0
LINE
  5
105
330
70
100
AcDbEntity
  8
1
 62
     7
370
    35
100
AcDbLine
 10
548.9529228976207
 20
582.8508210455748
 30
0.0
 11
730.7942120100615
 21
638.409094396693
 31
0.0
  0
LINE
  5
106
330
70
100
AcDbEntity
  8
1
 62
     7
370
    35
100
AcDbLine
 10
734.7841060610662
 20
638.2553630676421
 30
0.0
 11
854.1308411706705
 21
583.2015592966208
 31
0.0
  0
LINE
  5
107
330
70
100
AcDbEntity
  8
1
 62
     7
370
    35
100
AcDbLine
 10
667.9916304923363
 20
197.2516977957366
 30
0.0
 11
668.3328980566739
 21
197.3559656320776
 31
0.0
  0
LINE
  5
108
330
70
100
AcDbEntity
  8
1
 62
     7
370
    35
100
AcDbLine
 10
842.227639116556
 20
214.2546500440221
 30
0.0
 11
671.5681226400211
 21
162.1127624291057
 31
0.0
  0
LINE
  5
109
330
70
100
AcDbEntity
  8
1
 62
     7
370
    35
100
AcDbLine
 10
842.227639116556
 20
214.2546500440221
 30
0.0
 11
842.227639116556
 21
245.1923072961617
 31
0.0
  0
LINE
  5
10A
330
70
100
AcDbEntity
  8
1
 62
     7
370
    35
100
AcDbLine
 10
845.5601263666975
 20
250.9564737148885
 30
0.0
 11
860.9250293792847
 21
258.8885151106788
 31
0.0
  0
LINE
  5
10B
330
70
100
AcDbEntity
  8
1
 62
     7
370
    35
100
AcDbLine
 10
860.9250293792847
 20
258.8885151106788
 30
0.0
 11
860.9250293792847
 21
567.5942362942869
 31
0.0
  0
LINE
  5
10C
330
70
100
AcDbEntity
  8
1
 62
     7
370
    35
100
AcDbLine
 10
671.5681226400211
 20
509.7376892402353
 30
0.0
 11
671.5681226400211
 21
162.1127624291057
 31
0.0
  0
LINE
  5
10D
330
70
100
AcDbEntity
  8
1
 62
     7
370
    35
100
AcDbLine
 10
670.5706493636134
 20
190.6321217100103
 30
0.0
 11
670.5706493636134
 21
509.4336989151634
 31
0.0
  0
LINE
  5
10E
330
70
100
AcDbEntity
  8
1
 62
     7
370
    35
100
AcDbLine
 10
629.1418162214177
 20
512.4062769088959
 30
0.0
 11
539.6317653618953
 21
553.696629382648
 31
0.0
  0
LINE
  5
10F
330
70
100
AcDbEntity
  8
1
 62
     7
370
    35
100
AcDbLine
 10
629.1418162214177
 20
465.3095459613596
 30
0.0
 11
629.1418162214177
 21
512.4062769088959
 31
0.0
  0
LINE
  5
110
330
70
100
AcDbEntity
  8
1
 62
     7
370
    35
100
AcDbLine
 10
539.6317653618953
 20
506.5998984351108
 30
0.0
 11
629.1418162214177
 21
465.3095459613596
 31
0.0
  0
LINE
  5
111
330
70
100
AcDbEntity
  8
1
 62
     7
370
    35
100
AcDbLine
 10
539.6317653618953
 20
553.696629382648
 30
0.0
 11
539.6317653618953
 21
506.5998984351108
 31
0.0
  0
LINE
  5
112
330
70
100
AcDbEntity
  8
1
 62
     7
370
    35
100
AcDbLine
 10
519.4920035994418
 20
563.6441223417068
 30
0.0
 11
519.4920035994418
 21
513.6996822019819
 31
0.0
  0
LINE
  5
113
330
70
100
AcDbEntity
  8
1
 62
     7
370
    35
100
AcDbLine
 10
519.4920035994418
 20
513.6996822019819
 30
0.0
 11
649.2815779838702
 21
453.8286710205039
 31
0.0
  0
LINE
  5
114
330
70
100
AcDbEntity
  8
1
 62
     7
370
    35
100
AcDbLine
 10
668.7375718590683
 20
508.5735581589615
 30
0.0
 11
668.7375718590683
 21
458.6291180192366
 31
0.0
  0
LINE
  5
115
330
70
100
AcDbEntity
  8
1
 62
     7
370
    35
100
AcDbLine
 10
652.6064895354775
 20
453.7005615008483
 30
0.0
 11
668.7375718590683
 21
458.6291180192366
 31
0.0
  0
LINE
  5
116
330
70
100
AcDbEntity
  8
1
 62
     7
370
    35
100
AcDbLine
 10
652.6064895354775
 20
503.6450016405724
 30
0.0
 11
652.6064895354775
 21
453.7005615008483
 31
0.0
  0
LINE
  5
117
330
70
100
AcDbEntity
  8
1
 62
     7
370
    35
100
AcDbLine
 10
649.2815779838702
 20
453.8286710205039
 30
0.0
 11
649.2815779838702
 21
503.773111160227
 31
0.0
  0
LINE
  5
118
330
70
100
AcDbEntity
  8
1
 62
     7
370
    35
100
AcDbLine
 10
652.6064895354775
 20
503.6450016405724
 30
0.0
 11
668.7375718590683
 21
508.5735581589615
 31
0.0
  0
LINE
  5
119
330
70
100
AcDbEntity
  8
1
 62
     7
370
    35
100
AcDbLine
 10
668.3408254317383
 20
508.7565745945712
 30
0.0
 11
668.7375718590683
 21
508.5735581589615
 31
0.0
  0
LINE
  5
11A
330
70
100
AcDbEntity
  8
1
 62
     7
370
    35
100
AcDbLine
 10
864.5658126285525
 20
583.2255631103771
 30
0.0
 11
733.8811378158843
 21
643.5094779867595
 31
0.0
  0
LINE
  5
11B
330
70
100
AcDbEntity
  8
1
 62
     7
370
    35
100
AcDbLine
 10
733.8811378158843
 20
643.5094779867595
 30
0.0
 11
520.5109154362262
 21
578.318116637326
 31
0.0
  0
LINE
  5
11C
330
70
100
AcDbEntity
  8
1
 62
     7
370
    35
100
AcDbLine
 10
730.7942120100615
 20
639.5919891223857
 30
0.0
 11
548.9529228976207
 21
584.0337157712683
 31
0.0
  0
LINE
  5
11D
330
70
100
AcDbEntity
  8
1
 62
     7
370
    35
100
AcDbLine
 10
854.1308411706705
 20
584.3844540223144
 30
0.0
 11
734.7841060610662
 21
639.4382577933347
 31
0.0
  0
LINE
  5
11E
330
70
100
AcDbEntity
  8
1
 62
     7
370
    35
100
AcDbLine
 10
671.8800597201825
 20
527.328297693316
 30
0.0
 11
853.7213488326234
 21
582.8865710444333
 31
0.0
  0
LINE
  5
11F
330
70
100
AcDbEntity
  8
1
 62
     7
370
    35
100
AcDbLine
 10
548.5434310322562
 20
582.5358327933882
 30
0.0
 11
667.8901656691796
 21
527.482029022367
 31
0.0
  0
LINE
  5
120
330
70
100
AcDbEntity
  8
1
 62
     7
370
    35
100
AcDbLine
 10
518.3112222417003
 20
575.0173861557887
 30
0.0
 11
518.3112222417003
 21
564.5027670546141
 31
0.0
  0
LINE
  5
121
330
70
100
AcDbEntity
  8
1
 62
     7
370
    35
100
AcDbLine
 10
518.3112222417003
 20
564.5027670546141
 30
0.0
 11
648.9958970543693
 21
504.2188521782309
 31
0.0
  0
LINE
  5
122
330
70
100
AcDbEntity
  8
1
 62
     7
370
    35
100
AcDbLine
 10
652.9857911053714
 20
504.0651208491808
 30
0.0
 11
866.3560134850285
 21
569.2564821986151
 31
0.0
  0
LINE
  5
123
330
70
100
AcDbEntity
  8
1
 62
     7
370
    35
100
AcDbLine
 10
866.3560134850285
 20
569.2564821986151
 30
0.0
 11
866.3560134850285
 21
579.7711012997888
 31
0.0
  0
LINE
  5
124
330
70
100
AcDbEntity
  8
1
 62
     7
370
    35
100
AcDbLine
 10
648.9958970543693
 20
514.7334712794054
 30
0.0
 11
518.3112222417003
 21
575.0173861557887
 31
0.0
  0
LINE
  5
125
330
70
100
AcDbEntity
  8
1
 62
     7
370
    35
100
AcDbLine
 10
518.9508325085917
 20
248.8604716828304
 30
0.0
 11
518.9508325085917
 21
217.7547239221203
 31
0.0
  0
LINE
  5
126
330
70
100
AcDbEntity
  8
1
 62
     7
370
    35
100
AcDbLine
 10
861.0993460749851
 20
258.7410241492598
 30
0.0
 11
861.0993460749851
 21
567.6495199389937
 31
0.0
  0
LINE
  5
127
330
70
100
AcDbEntity
  8
1
 62
     7
370
    35
100
AcDbLine
 10
649.2815779838702
 20
503.773111160227
 30
0.0
 11
519.4920035994418
 21
563.6441223417068
 31
0.0
  0
LINE
  5
128
330
70
100
AcDbEntity
  8
1
 62
     7
370
    35
100
AcDbLine
 10
865.7537825570399
 20
583.1722132138875
 30
0.0
 11
735.0691077443698
 21
643.4561280902717
 31
0.0
  0
LINE
  5
129
330
70
100
AcDbEntity
  8
1
 62
     7
370
    35
100
AcDbLine
 10
520.5109154362262
 20
578.318116637326
 30
0.0
 11
651.1955902488935
 21
518.0342017609428
 31
0.0
  0
LINE
  5
12A
330
70
100
AcDbEntity
  8
1
 62
     7
370
    35
100
AcDbLine
 10
518.9508325085917
 20
217.7547239221203
 30
0.0
 11
652.0224417965619
 21
156.3697329986789
 31
0.0
  0
LINE
  5
12B
330
70
100
AcDbEntity
  8
1
 62
     7
370
    35
100
AcDbLine
 10
668.3328980566739
 20
197.3559656320776
 30
0.0
 11
668.3328980566739
 21
458.5033676629536
 31
0.0
  0
SPLINE
  5
12C
330
70
100
AcDbEntity
  8
1
 62
     7
370
    35
100
AcDbSpline
210
0.0
220
0.0
230
1.0
 70
     8
 71
     3
 72
     8
 73
     4
 74
     0
 42
0.0000000001
 43
0.0000000001
 40
0.0
 40
0.0
 40
0.0
 40
0.0
 40
1.0
 40
1.0
 40
1.0
 40
1.0
 10
867.4019136592214
 20
580.5969082169122
 30
0.0
 10
867.4019136592214
 20
581.70333989144
 30
0.0
 10
866.7584714794029
 20
582.708757470611
 30
0.0
 10
865.7537826096705
 20
583.1722133211896
 30
0.0
  0
SPLINE
  5
12D
330
70
100
AcDbEntity
  8
1
 62
     7
370
    35
100
AcDbSpline
210
0.0
220
0.0
230
1.0
 70
     8
 71
     3
 72
     8
 73
     4
 74
     0
 42
0.0000000001
 43
0.0000000001
 40
0.0
 40
0.0
 40
0.0
 40
0.0
 40
1.0
 40
1.0
 40
1.0
 40
1.0
 10
519.6822133810091
 20
578.4017899916925
 30
0.0
 10
518.4895088447555
 20
578.0373809739049
 30
0.0
 10
517.6748144055563
 20
576.9365941434252
 30
0.0
 10
517.6748144055563
 20
575.6894622165455
 30
0.0
  0
SPLINE
  5
12E
330
70
100
AcDbEntity
  8
1
 62
     7
370
    35
100
AcDbSpline
210
0.0
220
0.0
230
1.0
 70
     8
 71
     3
 72
     8
 73
     4
 74
     0
 42
0.0000000001
 43
0.0000000001
 40
0.0
 40
0.0
 40
0.0
 40
0.0
 40
1.0
 40
1.0
 40
1.0
 40
1.0
 10
735.0691077970041
 20
643.4561281975739
 30
0.0
 10
734.4365269680383
 20
643.7479332478533
 30
0.0
 10
733.7186739277785
 20
643.7967077332923
 30
0.0
 10
733.0524357606663
 20
643.5931508684443
 30
0.0
  0
SPLINE
  5
12F
330
70
100
AcDbEntity
  8
1
 62
     7
370
    35
100
AcDbSpline
210
0.0
220
0.0
230
1.0
 70
     8
 71
     3
 72
     8
 73
     4
 74
     0
 42
0.0000000001
 43
0.0000000001
 40
0.0
 40
0.0
 40
0.0
 40
0.0
 40
1.0
 40
1.0
 40
1.0
 40
1.0
 10
525.0778952152159
 20
248.5642640951683
 30
0.0
 10
525.4535290582843
 20
248.5246555780286
 30
0.0
 10
525.8393578851601
 20
248.5261704431068
 30
0.0
 10
526.2313062103576
 20
248.5687926889768
 30
0.0
  0
SPLINE
  5
130
330
70
100
AcDbEntity
  8
1
 62
     7
370
    35
100
AcDbSpline
210
0.0
220
0.0
230
1.0
 70
     8
 71
     3
 72
     8
 73
     4
 74
     0
 42
0.0000000001
 43
0.0000000001
 40
0.0
 40
0.0
 40
0.0
 40
0.0
 40
1.0
 40
1.0
 40
1.0
 40
1.0
 10
655.3219815626753
 20
188.4835945302839
 30
0.0
 10
656.6597707890696
 20
187.2137265904584
 30
0.0
 10
658.5148034985786
 20
186.8304483371357
 30
0.0
 10
660.4545979963041
 20
187.4231171319225
 30
0.0
  0
SPLINE
  5
131
330
70
100
AcDbEntity
  8
1
 62
     7
370
    35
100
AcDbSpline
210
0.0
220
0.0
230
1.0
 70
     8
 71
     3
 72
     8
 73
     4
 74
     0
 42
0.0000000001
 43
0.0000000001
 40
0.0
 40
0.0
 40
0.0
 40
0.0
 40
1.0
 40
1.0
 40
1.0
 40
1.0
 10
866.3560145825723
 20
579.7711014467722
 30
0.0
 10
866.3560148511534
 20
581.2228674568505
 30
0.0
 10
865.5545143531853
 20
582.7694826246515
 30
0.0
 10
864.5658131148611
 20
583.225563110107
 30
0.0
  0
SPLINE
  5
132
330
70
100
AcDbEntity
  8
1
 62
     7
370
    35
100
AcDbSpline
210
0.0
220
0.0
230
1.0
 70
     8
 71
     3
 72
     8
 73
     4
 74
     0
 42
0.0000000001
 43
0.0000000001
 40
0.0
 40
0.0
 40
0.0
 40
0.0
 40
1.0
 40
1.0
 40
1.0
 40
1.0
 10
648.9958972352887
 20
504.2188527612061
 30
0.0
 10
649.9845979593183
 20
503.762772396517
 30
0.0
 10
651.7709343659789
 20
503.6939446503993
 30
0.0
 10
652.9857912717016
 20
504.065121687513
 30
0.0
  0
SPLINE
  5
133
330
70
100
AcDbEntity
  8
1
 62
     7
370
    35
100
AcDbSpline
210
0.0
220
0.0
230
1.0
 70
     8
 71
     3
 72
     8
 73
     4
 74
     0
 42
0.0000000001
 43
0.0000000001
 40
0.0
 40
0.0
 40
0.0
 40
0.0
 40
1.0
 40
1.0
 40
1.0
 40
1.0
 10
842.2276391442775
 20
214.2546501837442
 30
0.0
 10
842.3379337699042
 20
214.2883486647424
 30
0.0
 10
842.4019557219052
 20
214.338898147189
 30
0.0
 10
842.4019558122544
 20
214.3922844962453
 30
0.0
  0
SPLINE
  5
134
330
70
100
AcDbEntity
  8
1
 62
     7
370
    35
100
AcDbSpline
210
0.0
220
0.0
230
1.0
 70
     8
 71
     3
 72
     8
 73
     4
 74
     0
 42
0.0000000001
 43
0.0000000001
 40
0.0
 40
0.0
 40
0.0
 40
0.0
 40
1.0
 40
1.0
 40
1.0
 40
1.0
 10
842.2276391442775
 20
245.1923074358856
 30
0.0
 10
842.3377982391285
 20
245.225964507963
 30
0.0
 10
842.4018055630712
 20
245.2764337490226
 30
0.0
 10
842.4019555486939
 20
245.3297544668458
 30
0.0
  0
SPLINE
  5
135
330
70
100
AcDbEntity
  8
1
 62
     7
370
    35
100
AcDbSpline
210
0.0
220
0.0
230
1.0
 70
     8
 71
     3
 72
     8
 73
     4
 74
     0
 42
0.0000000001
 43
0.0000000001
 40
0.0
 40
0.0
 40
0.0
 40
0.0
 40
1.0
 40
1.0
 40
1.0
 40
1.0
 10
845.479084044533
 20
250.6743477662894
 30
0.0
 10
845.5510831089904
 20
250.7119285459757
 30
0.0
 10
845.581533637358
 20
250.8179332641921
 30
0.0
 10
845.5601265543409
 20
250.9564738533045
 30
0.0
  0
SPLINE
  5
136
330
70
100
AcDbEntity
  8
1
 62
     7
370
    35
100
AcDbSpline
210
0.0
220
0.0
230
1.0
 70
     8
 71
     3
 72
     8
 73
     4
 74
     0
 42
0.0000000001
 43
0.0000000001
 40
0.0
 40
0.0
 40
0.0
 40
0.0
 40
1.0
 40
1.0
 40
1.0
 40
1.0
 10
520.8074274355658
 20
251.3862234682765
 30
0.0
 10
520.8074270902762
 20
251.1821969679531
 30
0.0
 10
520.994722970222
 20
250.9844038991559
 30
0.0
 10
521.337767449786
 20
250.8261600063961
 30
0.0
  0
SPLINE
  5
137
330
70
100
AcDbEntity
  8
1
 62
     7
370
    35
100
AcDbSpline
210
0.0
220
0.0
230
1.0
 70
     8
 71
     3
 72
     8
 73
     4
 74
     0
 42
0.0000000001
 43
0.0000000001
 40
0.0
 40
0.0
 40
0.0
 40
0.0
 40
1.0
 40
1.0
 40
1.0
 40
1.0
 10
735.0691220499174
 20
643.4561216227121
 30
0.0
 10
734.7146467709844
 20
643.6196431557054
 30
0.0
 10
734.3023194300658
 20
643.6381620918618
 30
0.0
 10
733.8811379448925
 20
643.5094777783961
 30
0.0
  0
SPLINE
  5
138
330
70
100
AcDbEntity
  8
1
 62
     7
370
    35
100
AcDbSpline
210
0.0
220
0.0
230
1.0
 70
     8
 71
     3
 72
     8
 73
     4
 74
     0
 42
0.0000000001
 43
0.0000000001
 40
0.0
 40
0.0
 40
0.0
 40
0.0
 40
1.0
 40
1.0
 40
1.0
 40
1.0
 10
861.0993460822284
 20
258.7410241263242
 30
0.0
 10
861.099346034156
 20
258.7574481610645
 30
0.0
 10
861.0353241212068
 20
258.8116178302116
 30
0.0
 10
860.925029520582
 20
258.8885153529481
 30
0.0
  0
SPLINE
  5
139
330
70
100
AcDbEntity
  8
1
 62
     7
370
    35
100
AcDbSpline
210
0.0
220
0.0
230
1.0
 70
     8
 71
     3
 72
     8
 73
     4
 74
     0
 42
0.0000000001
 43
0.0000000001
 40
0.0
 40
0.0
 40
0.0
 40
0.0
 40
1.0
 40
1.0
 40
1.0
 40
1.0
 10
866.3560136513588
 20
569.256482564263
 30
0.0
 10
867.0177814051257
 20
569.4586734502381
 30
0.0
 10
867.4019131171208
 20
569.7619703449272
 30
0.0
 10
867.4019136592214
 20
570.0822884392636
 30
0.0
  0
SPLINE
  5
13A
330
70
100
AcDbEntity
  8
1
 62
     7
370
    35
100
AcDbSpline
210
0.0
220
0.0
230
1.0
 70
     8
 71
     3
 72
     8
 73
     4
 74
     0
 42
0.0000000001
 43
0.0000000001
 40
0.0
 40
0.0
 40
0.0
 40
0.0
 40
1.0
 40
1.0
 40
1.0
 40
1.0
 10
865.7537968625856
 20
583.1722067463288
 30
0.0
 10
865.3993215836527
 20
583.335728279324
 30
0.0
 10
864.986994242734
 20
583.3542472154777
 30
0.0
 10
864.5658127575588
 20
583.2255629020128
 30
0.0
  0
SPLINE
  5
13B
330
70
100
AcDbEntity
  8
1
 62
     7
370
    35
100
AcDbSpline
210
0.0
220
0.0
230
1.0
 70
     8
 71
     3
 72
     8
 73
     4
 74
     0
 42
0.0000000001
 43
0.0000000001
 40
0.0
 40
0.0
 40
0.0
 40
0.0
 40
1.0
 40
1.0
 40
1.0
 40
1.0
 10
866.3560136513588
 20
579.7711016654375
 30
0.0
 10
867.0177814051257
 20
579.9732925514127
 30
0.0
 10
867.4019131171208
 20
580.2765894461017
 30
0.0
 10
867.4019136592214
 20
580.5969075404382
 30
0.0
  0
SPLINE
  5
13C
330
70
100
AcDbEntity
  8
1
 62
     7
370
    35
100
AcDbSpline
210
0.0
220
0.0
230
1.0
 70
     8
 71
     3
 72
     8
 73
     4
 74
     0
 42
0.0000000001
 43
0.0000000001
 40
0.0
 40
0.0
 40
0.0
 40
0.0
 40
1.0
 40
1.0
 40
1.0
 40
1.0
 10
518.9616635784286
 20
514.2597460708929
 30
0.0
 10
518.9616632331399
 20
514.0557195705696
 30
0.0
 10
519.1489591130848
 20
513.8579265017733
 30
0.0
 10
519.4920035926489
 20
513.6996826090144
 30
0.0
  0
SPLINE
  5
13D
330
70
100
AcDbEntity
  8
1
 62
     7
370
    35
100
AcDbSpline
210
0.0
220
0.0
230
1.0
 70
     8
 71
     3
 72
     8
 73
     4
 74
     0
 42
0.0000000001
 43
0.0000000001
 40
0.0
 40
0.0
 40
0.0
 40
0.0
 40
1.0
 40
1.0
 40
1.0
 40
1.0
 10
733.881138302193
 20
643.5094779864884
 30
0.0
 10
733.5925498481429
 20
643.642601681614
 30
0.0
 10
733.3082388730836
 20
643.6713077267431
 30
0.0
 10
733.0524327660132
 20
643.5931499534772
 30
0.0
  0
SPLINE
  5
13E
330
70
100
AcDbEntity
  8
1
 62
     7
370
    35
100
AcDbSpline
210
0.0
220
0.0
230
1.0
 70
     8
 71
     3
 72
     8
 73
     4
 74
     0
 42
0.0000000001
 43
0.0000000001
 40
0.0
 40
0.0
 40
0.0
 40
0.0
 40
1.0
 40
1.0
 40
1.0
 40
1.0
 10
517.6748144055563
 20
565.1748437918449
 30
0.0
 10
517.6748139912105
 20
564.9300119914551
 30
0.0
 10
517.8995690471456
 20
564.6926603089013
 30
0.0
 10
518.3112224226224
 20
564.5027676375893
 30
0.0
  0
SPLINE
  5
13F
330
70
100
AcDbEntity
  8
1
 62
     7
370
    35
100
AcDbSpline
210
0.0
220
0.0
230
1.0
 70
     8
 71
     3
 72
     8
 73
     4
 74
     0
 42
0.0000000001
 43
0.0000000001
 40
0.0
 40
0.0
 40
0.0
 40
0.0
 40
1.0
 40
1.0
 40
1.0
 40
1.0
 10
520.5109159225357
 20
578.3181171097385
 30
0.0
 10
520.2223274682191
 20
578.4512408049859
 30
0.0
 10
519.9380164929088
 20
578.4799468500422
 30
0.0
 10
519.6822103856611
 20
578.4017890765134
 30
0.0
  0
SPLINE
  5
140
330
70
100
AcDbEntity
  8
1
 62
     7
370
    35
100
AcDbSpline
210
0.0
220
0.0
230
1.0
 70
     8
 71
     3
 72
     8
 73
     4
 74
     0
 42
0.0000000001
 43
0.0000000001
 40
0.0
 40
0.0
 40
0.0
 40
0.0
 40
1.0
 40
1.0
 40
1.0
 40
1.0
 10
517.6748144055563
 20
575.6894628930186
 30
0.0
 10
517.6748139912105
 20
575.4446310926304
 30
0.0
 10
517.8995690471456
 20
575.2072794100749
 30
0.0
 10
518.3112224226224
 20
575.0173867387629
 30
0.0
  0
SPLINE
  5
141
330
70
100
AcDbEntity
  8
1
 62
     7
370
    35
100
AcDbSpline
210
0.0
220
0.0
230
1.0
 70
     8
 71
     3
 72
     8
 73
     4
 74
     0
 42
0.0000000001
 43
0.0000000001
 40
0.0
 40
0.0
 40
0.0
 40
0.0
 40
1.0
 40
1.0
 40
1.0
 40
1.0
 10
649.6355073144659
 20
191.6433211770727
 30
0.0
 10
650.4594245844891
 20
191.2632542065002
 30
0.0
 10
651.9480382567071
 20
191.2058977514007
 30
0.0
 10
652.960419011476
 20
191.5152119489976
 30
0.0
  0
SPLINE
  5
142
330
70
100
AcDbEntity
  8
1
 62
     7
370
    35
100
AcDbSpline
210
0.0
220
0.0
230
1.0
 70
     8
 71
     3
 72
     8
 73
     4
 74
     0
 42
0.0000000001
 43
0.0000000001
 40
0.0
 40
0.0
 40
0.0
 40
0.0
 40
1.0
 40
1.0
 40
1.0
 40
1.0
 10
548.9529227312905
 20
582.8508206799251
 30
0.0
 10
548.7334829237361
 20
582.7837749091777
 30
0.0
 10
548.5420013575776
 20
582.7047793701104
 30
0.0
 10
548.3848382525848
 20
582.6164579653741
 30
0.0
  0
SPLINE
  5
143
330
70
100
AcDbEntity
  8
1
 62
     7
370
    35
100
AcDbSpline
210
0.0
220
0.0
230
1.0
 70
     8
 71
     3
 72
     8
 73
     4
 74
     0
 42
0.0000000001
 43
0.0000000001
 40
0.0
 40
0.0
 40
0.0
 40
0.0
 40
1.0
 40
1.0
 40
1.0
 40
1.0
 10
854.2894354795135
 20
583.1209264204844
 30
0.0
 10
854.239971718327
 20
583.1487237899081
 30
0.0
 10
854.1870482609883
 20
583.1756311859335
 30
0.0
 10
854.1308409897501
 20
583.2015591863282
 30
0.0
  0
SPLINE
  5
144
330
70
100
AcDbEntity
  8
1
 62
     7
370
    35
100
AcDbSpline
210
0.0
220
0.0
230
1.0
 70
     8
 71
     3
 72
     8
 73
     4
 74
     0
 42
0.0000000001
 43
0.0000000001
 40
0.0
 40
0.0
 40
0.0
 40
0.0
 40
1.0
 40
1.0
 40
1.0
 40
1.0
 10
734.7841063528266
 20
638.2553629573504
 30
0.0
 10
733.7954056287981
 20
638.7114433220403
 30
0.0
 10
732.0090692221383
 20
638.7802710681562
 30
0.0
 10
730.7942123164175
 20
638.4090940310434
 30
0.0
  0
SPLINE
  5
145
330
70
100
AcDbEntity
  8
1
 62
     7
370
    35
100
AcDbSpline
210
0.0
220
0.0
230
1.0
 70
     8
 71
     3
 72
     8
 73
     4
 74
     0
 42
0.0000000001
 43
0.0000000001
 40
0.0
 40
0.0
 40
0.0
 40
0.0
 40
1.0
 40
1.0
 40
1.0
 40
1.0
 10
845.5601263872614
 20
250.9564736940411
 30
0.0
 10
843.632781044198
 20
249.9614927902421
 30
0.0
 10
842.2276393013635
 20
247.5310346269216
 30
0.0
 10
842.2276391865816
 20
245.1923073653798
 30
0.0
  0
SPLINE
  5
146
330
70
100
AcDbEntity
  8
1
 62
     7
370
    35
100
AcDbSpline
210
0.0
220
0.0
230
1.0
 70
     8
 71
     3
 72
     8
 73
     4
 74
     0
 42
0.0000000001
 43
0.0000000001
 40
0.0
 40
0.0
 40
0.0
 40
0.0
 40
1.0
 40
1.0
 40
1.0
 40
1.0
 10
670.7198412024027
 20
162.0996239312862
 30
0.0
 10
670.9791083311174
 20
162.0329401670715
 30
0.0
 10
671.3243677350492
 20
162.0382876632302
 30
0.0
 10
671.5681224452619
 20
162.1127624023483
 30
0.0
  0
SPLINE
  5
147
330
70
100
AcDbEntity
  8
1
 62
     7
370
    35
100
AcDbSpline
210
0.0
220
0.0
230
1.0
 70
     8
 71
     3
 72
     8
 73
     4
 74
     0
 42
0.0000000001
 43
0.0000000001
 40
0.0
 40
0.0
 40
0.0
 40
0.0
 40
1.0
 40
1.0
 40
1.0
 40
1.0
 10
649.2815779770771
 20
453.8286714275364
 30
0.0
 10
650.1054952471013
 20
453.4486044569603
 30
0.0
 10
651.5941089193184
 20
453.3912480018625
 30
0.0
 10
652.6064896740881
 20
453.7005621994594
 30
0.0
  0
SPLINE
  5
148
330
70
100
AcDbEntity
  8
1
 62
     7
370
    35
100
AcDbSpline
210
0.0
220
0.0
230
1.0
 70
     8
 71
     3
 72
     8
 73
     4
 74
     0
 42
0.0000000001
 43
0.0000000001
 40
0.0
 40
0.0
 40
0.0
 40
0.0
 40
1.0
 40
1.0
 40
1.0
 40
1.0
 10
518.9616635784286
 20
564.2041862106171
 30
0.0
 10
518.9616632331399
 20
564.0001597102946
 30
0.0
 10
519.1489591130848
 20
563.8023666414983
 30
0.0
 10
519.4920035926489
 20
563.6441227487376
 30
0.0
  0
SPLINE
  5
149
330
70
100
AcDbEntity
  8
1
 62
     7
370
    35
100
AcDbSpline
210
0.0
220
0.0
230
1.0
 70
     8
 71
     3
 72
     8
 73
     4
 74
     0
 42
0.0000000001
 43
0.0000000001
 40
0.0
 40
0.0
 40
0.0
 40
0.0
 40
1.0
 40
1.0
 40
1.0
 40
1.0
 10
649.2815779770771
 20
503.7731115672577
 30
0.0
 10
650.1054952471013
 20
503.3930445966834
 30
0.0
 10
651.5941089193184
 20
503.3356881415866
 30
0.0
 10
652.6064896740881
 20
503.6450023391807
 30
0.0
  0
SPLINE
  5
14A
330
70
100
AcDbEntity
  8
1
 62
     7
370
    35
100
AcDbSpline
210
0.0
220
0.0
230
1.0
 70
     8
 71
     3
 72
     8
 73
     4
 74
     0
 42
0.0000000001
 43
0.0000000001
 40
0.0
 40
0.0
 40
0.0
 40
0.0
 40
1.0
 40
1.0
 40
1.0
 40
1.0
 10
734.7841063528266
 20
639.4382572103613
 30
0.0
 10
733.7954056287981
 20
639.8943375750495
 30
0.0
 10
732.0090692221383
 20
639.9631653211672
 30
0.0
 10
730.7942123164175
 20
639.5919882840517
 30
0.0
  0
SPLINE
  5
14B
330
70
100
AcDbEntity
  8
1
 62
     7
370
    35
100
AcDbSpline
210
0.0
220
0.0
230
1.0
 70
     8
 71
     3
 72
     8
 73
     4
 74
     0
 42
0.0000000001
 43
0.0000000001
 40
0.0
 40
0.0
 40
0.0
 40
0.0
 40
1.0
 40
1.0
 40
1.0
 40
1.0
 10
853.7213489989554
 20
582.8865718827674
 30
0.0
 10
854.936205904678
 20
583.2577489198802
 30
0.0
 10
855.1195417137805
 20
583.9283735473327
 30
0.0
 10
854.1308409897501
 20
584.3844539120227
 30
0.0
  0
SPLINE
  5
14C
330
70
100
AcDbEntity
  8
1
 62
     7
370
    35
100
AcDbSpline
210
0.0
220
0.0
230
1.0
 70
     8
 71
     3
 72
     8
 73
     4
 74
     0
 42
0.0000000001
 43
0.0000000001
 40
0.0
 40
0.0
 40
0.0
 40
0.0
 40
1.0
 40
1.0
 40
1.0
 40
1.0
 10
667.8901658500999
 20
527.4820296053421
 30
0.0
 10
668.8788665741303
 20
527.0259492406522
 30
0.0
 10
670.6652029807901
 20
526.9571214945353
 30
0.0
 10
671.8800598865128
 20
527.3282985316491
 30
0.0
  0
SPLINE
  5
14D
330
70
100
AcDbEntity
  8
1
 62
     7
370
    35
100
AcDbSpline
210
0.0
220
0.0
230
1.0
 70
     8
 71
     3
 72
     8
 73
     4
 74
     0
 42
0.0000000001
 43
0.0000000001
 40
0.0
 40
0.0
 40
0.0
 40
0.0
 40
1.0
 40
1.0
 40
1.0
 40
1.0
 10
548.9529227312905
 20
584.0337149329352
 30
0.0
 10
547.7380658255669
 20
583.6625378958215
 30
0.0
 10
547.5547300164653
 20
582.991913268369
 30
0.0
 10
548.5434307404939
 20
582.5358329036799
 30
0.0
  0
SPLINE
  5
14E
330
70
100
AcDbEntity
  8
1
 62
     7
370
    35
100
AcDbSpline
210
0.0
220
0.0
230
1.0
 70
     8
 71
     3
 72
     8
 73
     4
 74
     0
 42
0.0000000001
 43
0.0000000001
 40
0.0
 40
0.0
 40
0.0
 40
0.0
 40
1.0
 40
1.0
 40
1.0
 40
1.0
 10
520.5109155652335
 20
578.3181169016452
 30
0.0
 10
519.2960587705456
 20
577.9469395871456
 30
0.0
 10
518.311222694917
 20
576.4691521316653
 30
0.0
 10
518.311222623668
 20
575.0173862365127
 30
0.0
  0
SPLINE
  5
14F
330
70
100
AcDbEntity
  8
1
 62
     7
370
    35
100
AcDbSpline
210
0.0
220
0.0
230
1.0
 70
     8
 71
     3
 72
     8
 73
     4
 74
     0
 42
0.0000000001
 43
0.0000000001
 40
0.0
 40
0.0
 40
0.0
 40
0.0
 40
1.0
 40
1.0
 40
1.0
 40
1.0
 10
651.1955903779017
 20
518.0342015525784
 30
0.0
 10
649.9807335832137
 20
517.6630242380797
 30
0.0
 10
648.9958975075842
 20
516.1852367825986
 30
0.0
 10
648.9958974363344
 20
514.7334708874478
 30
0.0
  0
SPLINE
  5
150
330
70
100
AcDbEntity
  8
1
 62
     7
370
    35
100
AcDbSpline
210
0.0
220
0.0
230
1.0
 70
     8
 71
     3
 72
     8
 73
     4
 74
     0
 42
0.0000000001
 43
0.0000000001
 40
0.0
 40
0.0
 40
0.0
 40
0.0
 40
1.0
 40
1.0
 40
1.0
 40
1.0
 10
648.9958972352887
 20
514.7334713896971
 30
0.0
 10
649.9845979593183
 20
514.2773910250062
 30
0.0
 10
651.7709343659789
 20
514.2085632788912
 30
0.0
 10
652.9857912717016
 20
514.579740316004
 30
0.0
  0
SPLINE
  5
151
330
70
100
AcDbEntity
  8
1
 62
     7
370
    35
100
AcDbSpline
210
0.0
220
0.0
230
1.0
 70
     8
 71
     3
 72
     8
 73
     4
 74
     0
 42
0.0000000001
 43
0.0000000001
 40
0.0
 40
0.0
 40
0.0
 40
0.0
 40
1.0
 40
1.0
 40
1.0
 40
1.0
 10
652.9857922029141
 20
514.5797400973378
 30
0.0
 10
652.9857924714952
 20
516.0315061074179
 30
0.0
 10
652.1842919735245
 20
517.5781212752172
 30
0.0
 10
651.195590735203
 20
518.0342017606744
 30
0.0
  0
SPLINE
  5
152
330
70
100
AcDbEntity
  8
1
 62
     7
370
    35
100
AcDbSpline
210
0.0
220
0.0
230
1.0
 70
     8
 71
     3
 72
    35
 73
    31
 74
     0
 42
0.0000000001
 43
0.0000000001
 40
0.0
 40
0.0
 40
0.0
 40
0.0
 40
1.0
 40
1.0
 40
1.0
 40
2.0
 40
2.0
 40
2.0
 40
3.0
 40
3.0
 40
3.0
 40
4.0
 40
4.0
 40
4.0
 40
5.0
 40
5.0
 40
5.0
 40
6.0
 40
6.0
 40
6.0
 40
7.0
 40
7.0
 40
7.0
 40
8.0
 40
8.0
 40
8.0
 40
9.0
 40
9.0
 40
9.0
 40
10.0
 40
10.0
 40
10.0
 40
10.0
 10
842.4019556166859
 20
245.329941947286
 30
0.0
 10
842.4019553895067
 20
245.4486985552594
 30
0.0
 10
842.4059274683004
 20
245.5682450507793
 30
0.0
 10
842.4139016135068
 20
245.6890047690631
 30
0.0
 10
842.4294104167474
 20
245.9238686526023
 30
0.0
 10
842.4600573623319
 20
246.163321650105
 30
0.0
 10
842.5055594269725
 20
246.4033378229342
 30
0.0
 10
842.5511186477869
 20
246.6436554855282
 30
0.0
 10
842.611570330806
 20
246.8845377391699
 30
0.0
 10
842.6861875947997
 20
247.1230499090179
 30
0.0
 10
842.7608190754417
 20
247.3616075220143
 30
0.0
 10
842.8496215354497
 20
247.5977941479978
 30
0.0
 10
842.9514680445208
 20
247.8284811902376
 30
0.0
 10
843.0533075362927
 20
248.0591523379735
 30
0.0
 10
843.168189279704
 20
248.2843246597895
 30
0.0
 10
843.2946116709535
 20
248.501105042953
 30
0.0
 10
843.4209519026936
 20
248.7177445446687
 30
0.0
 10
843.5588177870485
 20
248.9260030117112
 30
0.0
 10
843.7063858121273
 20
249.1232028030609
 30
0.0
 10
843.8537596714631
 20
249.3201431246216
 30
0.0
 10
844.0108101567258
 20
249.5060538527214
 30
0.0
 10
844.1753483299835
 20
249.6785375350228
 30
0.0
 10
844.3396151171983
 20
249.8507367261118
 30
0.0
 10
844.5113449126893
 20
250.0095531274928
 30
0.0
 10
844.6883124460855
 20
250.1530765542611
 30
0.0
 10
844.8650178734951
 20
250.296387408991
 30
0.0
 10
845.0469455351139
 20
250.4244505563038
 30
0.0
 10
845.230820169063
 20
250.535448383931
 30
0.0
 10
845.3129330161209
 20
250.5850166547006
 30
0.0
 10
845.395434137221
 20
250.6311816820999
 30
0.0
 10
845.4785905051631
 20
250.6740916231483
 30
0.0
  0
LINE
  5
153
330
70
100
AcDbEntity
  8
1
 62
     7
370
    18
100
AcDbLine
 10
779.1699989377412
 20
657.3332179427406
 30
0.0
 11
911.7777777777773
 21
595.9259259259279
 31
0.0
  0
LINE
  5
154
330
70
100
AcDbEntity
  8
1
 62
     7
370
    18
100
AcDbLine
 10
874.7685185185183
 20
584.6782407407418
 30
0.0
 11
914.9629629629616
 21
596.8148148148157
 31
0.0
  0
LINE
  5
155
330
70
100
AcDbEntity
  8
1
 62
     7
370
    18
100
AcDbLine
 10
739.6944444444452
 20
645.7337962962983
 30
0.0
 11
783.1388888888905
 21
658.58101851852
 31
0.0
  0
MTEXT
  5
156
330
70
100
AcDbEntity
  8
1
100
AcDbMText
 10
828.6846553527285
 20
639.6392124562989
 30
0.0
 40
0.2
 41
0.0
 46
0.0
 71
     7
 72
     1
  1
\C7;\FTramontina SmCd Titulos|b0|i0|c1;\H15.176953;\W0.954430;450
 11
0.9129596398461076
 21
-0.4080498695160498
 31
0.0
 73
     1
 44
1.0
  0
LINE
  5
157
330
70
100
AcDbEntity
  8
1
 62
     7
370
    18
100
AcDbLine
 10
712.0921302572733
 20
649.618153097631
 30
0.0
 11
500.8253656867264
 21
585.0694650012601
 31
0.0
  0
LINE
  5
158
330
70
100
AcDbEntity
  8
1
 62
     7
370
    18
100
AcDbLine
 10
720.5536259173514
 20
645.9525697830913
 30
0.0
 11
708.928999983722
 21
651.3194194270381
 31
0.0
  0
LINE
  5
159
330
70
100
AcDbEntity
  8
1
 62
     7
370
    18
100
AcDbLine
 10
466.8869592506853
 20
600.9896068201324
 30
0.0
 11
683.8128851766123
 21
667.452569783094
 31
0.0
  0
LINE
  5
15A
330
70
100
AcDbEntity
  8
1
 62
     7
370
    18
100
AcDbLine
 10
727.701774065501
 20
647.4247920053175
 30
0.0
 11
681.535107398834
 21
668.6562734867993
 31
0.0
  0
LINE
  5
15B
330
70
100
AcDbEntity
  8
1
 62
     7
370
    18
100
AcDbLine
 10
510.9795518432783
 20
580.2303475608723
 30
0.0
 11
464.3314036951296
 21
602.1007179312419
 31
0.0
  0
MTEXT
  5
15C
330
70
100
AcDbEntity
  8
1
100
AcDbMText
 10
561.5957529197185
 20
634.6392640115227
 30
0.0
 40
0.2
 41
0.0
 46
0.0
 71
     7
 72
     1
  1
\C7;\FTramontina SmCd Titulos|b0|i0|c1;\H15.177026;\W0.954426;600
 11
0.9614639160752126
 21
0.2749311515367381
 31
0.0
 73
     1
 44
1.0
  0
MTEXT
  5
15D
330
70
100
AcDbEntity
  8
1
100
AcDbMText
 10
587.2582613652193
 20
615.7044153693131
 30
0.0
 40
0.2
 41
0.0
 46
0.0
 71
     7
 72
     1
  1
\C7;\FTramontina SmCd Titulos|b0|i0|c1;\H15.176908;\W0.954429;580
 11
0.9595905170280618
 21
0.2814001414886232
 31
0.0
 73
     1
 44
1.0
  0
LINE
  5
15E
330
70
100
AcDbEntity
  8
1
 62
     7
370
    18
100
AcDbLine
 10
466.8938259811511
 20
600.6614599996846
 30
0.0
 11
466.8938259811511
 21
241.6644349845756
 31
0.0
  0
LINE
  5
15F
330
70
100
AcDbEntity
  8
1
 62
     7
370
    18
100
AcDbLine
 10
510.0306320923091
 20
221.4866881484613
 30
0.0
 11
463.1751513278304
 21
243.4489592336449
 31
0.0
  0
LINE
  5
160
330
70
100
AcDbEntity
  8
1
 62
     7
370
    18
100
AcDbLine
 10
500.1072023789192
 20
572.6111111111113
 30
0.0
 11
500.1072023789192
 21
226.2222222222226
 31
0.0
  0
LINE
  5
161
330
70
100
AcDbEntity
  8
1
 62
     7
370
    20
100
AcDbLine
 10
509.9158920685713
 20
567.8563666410473
 30
0.0
 11
494.6877990373468
 21
575.3244119188848
 31
0.0
  0
MTEXT
  5
162
330
70
100
AcDbEntity
  8
1
100
AcDbMText
 10
462.5361467002658
 20
377.4151140012837
 30
0.0
 40
0.2
 41
0.0
 46
0.0
 71
     7
 72
     1
  1
\C7;\FTramontina SmCd Titulos|b0|i0|c1;\H14.757482;\W1.018310;845
 11
0.0000000000000001
 21
1.0
 31
0.0
 73
     1
 44
1.0
  0
MTEXT
  5
163
330
70
100
AcDbEntity
  8
1
100
AcDbMText
 10
495.9435601829318
 20
371.7854743757343
 30
0.0
 40
0.2
 41
0.0
 46
0.0
 71
     7
 72
     1
  1
\C7;\FTramontina SmCd Titulos|b0|i0|c1;\H14.757482;\W1.018310;815
 11
0.0000000000000001
 21
1.0
 31
0.0
 73
     1
 44
1.0
  0
INSERT
  5
165
330
70
100
AcDbEntity
  8
1
100
AcDbBlockReference
  2
Block_2
 10
0.0
 20
0.0
 30
0.0
  0
ENDSEC
  0
SECTION
  2
OBJECTS
  0
DICTIONARY
  5
C
330
0
100
AcDbDictionary
281
     1
  3
ACAD_COLOR
350
63
  3
ACAD_DETAILVIEWSTYLE
350
6A
  3
ACAD_GROUP
350
D
  3
ACAD_LAYOUT
350
62
  3
ACAD_MATERIAL
350
10
  3
ACAD_MLEADERSTYLE
350
66
  3
ACAD_MLINESTYLE
350
5F
  3
ACAD_PLOTSETTINGS
350
61
  3
ACAD_PLOTSTYLENAME
350
E
  3
ACAD_SCALELIST
350
42
  3
ACAD_SECTIONVIEWSTYLE
350
68
  3
ACAD_TABLESTYLE
350
64
  3
ACAD_VISUALSTYLE
350
29
  3
ACDB_RECOMPOSE_DATA
350
184
  3
AcDbVariableDictionary
350
17C
  0
DICTIONARY
  5
63
102
{ACAD_REACTORS
330
C
102
}
330
C
100
AcDbDictionary
281
     1
  0
DICTIONARY
  5
6A
102
{ACAD_REACTORS
330
C
102
}
330
C
100
AcDbDictionary
281
     1
  3
Imperial24
350
6B
  0
DICTIONARY
  5
D
102
{ACAD_REACTORS
330
C
102
}
330
C
100
AcDbDictionary
281
     1
  0
DICTIONARY
  5
62
102
{ACAD_REACTORS
330
C
102
}
330
C
100
AcDbDictionary
281
     1
  3
Layout1
350
6F
  3
Layout2
350
77
  3
Model
350
73
  0
DICTIONARY
  5
10
102
{ACAD_REACTORS
330
C
102
}
330
C
100
AcDbDictionary
281
     1
  3
ByBlock
350
19
  3
ByLayer
350
11
  3
Global
350
21
  0
DICTIONARY
  5
66
102
{ACAD_REACTORS
330
C
102
}
330
C
100
AcDbDictionary
281
     1
  3
Standard
350
67
  0
DICTIONARY
  5
5F
102
{ACAD_REACTORS
330
C
102
}
330
C
100
AcDbDictionary
281
     1
  3
Standard
350
60
  0
DICTIONARY
  5
61
102
{ACAD_REACTORS
330
C
102
}
330
C
100
AcDbDictionary
281
     1
  0
ACDBDICTIONARYWDFLT
  5
E
102
{ACAD_REACTORS
330
C
102
}
330
C
100
AcDbDictionary
281
     1
  3
Normal
350
F
100
AcDbDictionaryWithDefault
340
F
  0
DICTIONARY
  5
42
102
{ACAD_REACTORS
330
C
102
}
330
C
100
AcDbDictionary
281
     1
  3
A0
350
43
  3
A1
350
44
  3
A2
350
45
  3
A3
350
46
  3
A4
350
47
  3
A5
350
48
  3
A6
350
49
  3
A7
350
4A
  3
A8
350
4B
  3
A9
350
4C
  3
B0
350
4D
  3
B1
350
4E
  3
B2
350
4F
  3
B3
350
50
  3
B4
350
51
  3
B5
350
52
  3
B6
350
53
  0
DICTIONARY
  5
68
102
{ACAD_REACTORS
330
C
102
}
330
C
100
AcDbDictionary
281
     1
  3
Imperial24
350
69
  0
DICTIONARY
  5
64
102
{ACAD_REACTORS
330
C
102
}
330
C
100
AcDbDictionary
281
     1
  3
Standard
350
65
  0
DICTIONARY
  5
29
102
{ACAD_REACTORS
330
C
102
}
330
C
100
AcDbDictionary
281
     1
  3
2dWireframe
350
2F
  3
Basic
350
2E
  3
Brighten
350
35
  3
ColorChange
350
39
  3
Conceptual
350
32
  3
Dim
350
34
  3
EdgeColorOff
350
41
  3
Facepattern
350
38
  3
Flat
350
2A
  3
FlatWithEdges
350
2B
  3
Gouraud
350
2C
  3
GouraudWithEdges
350
2D
  3
Hidden
350
31
  3
JitterOff
350
3F
  3
Linepattern
350
37
  3
OverhangOff
350
40
  3
Realistic
350
33
  3
Shaded
350
3E
  3
Shaded with edges
350
3D
  3
Shades of Gray
350
3A
  3
Sketchy
350
3B
  3
Thicken
350
36
  3
Wireframe
350
30
  3
X-Ray
350
3C
  0
XRECORD
  5
184
102
{ACAD_REACTORS
330
C
102
}
330
C
100
AcDbXrecord
280
     1
 90
        1
330
65
  0
DICTIONARY
  5
17C
102
{ACAD_REACTORS
330
C
102
}
330
C
100
AcDbDictionary
281
     1
  3
CANNOSCALE
350
181
  3
CMLEADERSTYLE
350
17E
  3
CTABLESTYLE
350
17D
  3
CVIEWDETAILSTYLE
350
17F
  3
CVIEWSECTIONSTYLE
350
180
  0
ACDBDETAILVIEWSTYLE
  5
6B
102
{ACAD_REACTORS
330
6A
102
}
330
6A
100
AcDbModelDocViewStyle
 70
     0
  3
Imperial24
290
     1
300
Imperial24
 90
        0
100
AcDbDetailViewStyle
 70
     0
 71
     0
 90
        3
 71
     1
340
55
 62
   256
 40
0.24
340
0
 62
   256
 40
0.24
300

 40
0.36
280
     3
 71
     2
340
5D
 90
       25
 62
   256
 71
     3
340
55
 62
   256
 40
0.24
 90
        1
 40
0.75
 90
        1
300
%<\AcVar ViewType \f "%tc1">% %<\AcVar ViewDetailId>%\PSCALE %<\AcVar ViewScale \f "%sn">%
 71
     4
340
5D
 90
       25
 62
   256
340
5D
 90
       25
 62
   256
280
     0
  0
LAYOUT
  5
6F
102
{ACAD_REACTORS
330
62
102
}
330
62
100
AcDbPlotSettings
  1

  2

  4

  6

 40
0.0
 41
0.0
 42
0.0
 43
0.0
 44
0.0
 45
0.0
 46
0.0
 47
0.0
 48
0.0
 49
0.0
140
0.0
141
0.0
142
1.0
143
1.0
 70
   688
 72
     0
 73
     0
 74
     5
  7

 75
    16
147
1.0
 76
     0
 77
     2
 78
   300
148
0.0
149
0.0
100
AcDbLayout
  1
Layout1
 70
     1
 71
     1
 10
0.0
 20
0.0
 11
12.0
 21
9.0
 12
0.0
 22
0.0
 32
0.0
 14
0.0
 24
0.0
 34
0.0
 15
0.0
 25
0.0
 35
0.0
146
0.0
 13
0.0
 23
0.0
 33
0.0
 16
1.0
 26
0.0
 36
0.0
 17
0.0
 27
1.0
 37
0.0
 76
     0
330
6C
  0
LAYOUT
  5
77
102
{ACAD_REACTORS
330
62
102
}
330
62
100
AcDbPlotSettings
  1

  2

  4

  6

 40
0.0
 41
0.0
 42
0.0
 43
0.0
 44
0.0
 45
0.0
 46
0.0
 47
0.0
 48
0.0
 49
0.0
140
0.0
141
0.0
142
1.0
143
1.0
 70
   688
 72
     0
 73
     0
 74
     5
  7

 75
    16
147
1.0
 76
     0
 77
     2
 78
   300
148
0.0
149
0.0
100
AcDbLayout
  1
Layout2
 70
     1
 71
     2
 10
0.0
 20
0.0
 11
12.0
 21
9.0
 12
0.0
 22
0.0
 32
0.0
 14
0.0
 24
0.0
 34
0.0
 15
0.0
 25
0.0
 35
0.0
146
0.0
 13
0.0
 23
0.0
 33
0.0
 16
1.0
 26
0.0
 36
0.0
 17
0.0
 27
1.0
 37
0.0
 76
     0
330
74
  0
LAYOUT
  5
73
102
{ACAD_REACTORS
330
62
102
}
330
62
100
AcDbPlotSettings
  1

  2

  4

  6

 40
0.0
 41
0.0
 42
0.0
 43
0.0
 44
0.0
 45
0.0
 46
0.0
 47
0.0
 48
0.0
 49
0.0
140
0.0
141
0.0
142
1.0
143
1.0
 70
  1712
 72
     0
 73
     0
 74
     0
  7

 75
     0
147
1.0
 76
     0
 77
     2
 78
   300
148
0.0
149
0.0
100
AcDbLayout
  1
Model
 70
     1
 71
     0
 10
0.0
 20
0.0
 11
12.0
 21
9.0
 12
0.0
 22
0.0
 32
0.0
 14
0.0
 24
0.0
 34
0.0
 15
0.0
 25
0.0
 35
0.0
146
0.0
 13
0.0
 23
0.0
 33
0.0
 16
1.0
 26
0.0
 36
0.0
 17
0.0
 27
1.0
 37
0.0
 76
     0
330
70
  0
MATERIAL
  5
19
102
{ACAD_XDICTIONARY
360
1A
102
}
102
{ACAD_REACTORS
330
10
102
}
330
10
100
AcDbMaterial
  1
ByBlock
 72
     0
 43
0.0208333333333333
 43
0.0
 43
0.0
 43
0.0
 43
0.0
 43
0.0208333333333333
 43
0.0
 43
0.0
 43
0.0
 43
0.0
 43
1.0
 43
0.0
 43
0.0
 43
0.0
 43
0.0
 43
1.0
 77
     0
 47
0.0208333333333333
 47
0.0
 47
0.0
 47
0.0
 47
0.0
 47
0.0208333333333333
 47
0.0
 47
0.0
 47
0.0
 47
0.0
 47
1.0
 47
0.0
 47
0.0
 47
0.0
 47
0.0
 47
1.0
171
     0
 49
0.0208333333333333
 49
0.0
 49
0.0
 49
0.0
 49
0.0
 49
0.0208333333333333
 49
0.0
 49
0.0
 49
0.0
 49
0.0
 49
1.0
 49
0.0
 49
0.0
 49
0.0
 49
0.0
 49
1.0
175
     0
142
0.0208333333333333
142
0.0
142
0.0
142
0.0
142
0.0
142
0.0208333333333333
142
0.0
142
0.0
142
0.0
142
0.0
142
1.0
142
0.0
142
0.0
142
0.0
142
0.0
142
1.0
179
     0
144
0.0208333333333333
144
0.0
144
0.0
144
0.0
144
0.0
144
0.0208333333333333
144
0.0
144
0.0
144
0.0
144
0.0
144
1.0
144
0.0
144
0.0
144
0.0
144
0.0
144
1.0
147
0.0208333333333333
147
0.0
147
0.0
147
0.0
147
0.0
147
0.0208333333333333
147
0.0
147
0.0
147
0.0
147
0.0
147
1.0
147
0.0
147
0.0
147
0.0
147
0.0
147
1.0
  0
MATERIAL
  5
11
102
{ACAD_XDICTIONARY
360
12
102
}
102
{ACAD_REACTORS
330
10
102
}
330
10
100
AcDbMaterial
  1
ByLayer
 72
     0
 43
0.0208333333333333
 43
0.0
 43
0.0
 43
0.0
 43
0.0
 43
0.0208333333333333
 43
0.0
 43
0.0
 43
0.0
 43
0.0
 43
1.0
 43
0.0
 43
0.0
 43
0.0
 43
0.0
 43
1.0
 77
     0
 47
0.0208333333333333
 47
0.0
 47
0.0
 47
0.0
 47
0.0
 47
0.0208333333333333
 47
0.0
 47
0.0
 47
0.0
 47
0.0
 47
1.0
 47
0.0
 47
0.0
 47
0.0
 47
0.0
 47
1.0
171
     0
 49
0.0208333333333333
 49
0.0
 49
0.0
 49
0.0
 49
0.0
 49
0.0208333333333333
 49
0.0
 49
0.0
 49
0.0
 49
0.0
 49
1.0
 49
0.0
 49
0.0
 49
0.0
 49
0.0
 49
1.0
175
     0
142
0.0208333333333333
142
0.0
142
0.0
142
0.0
142
0.0
142
0.0208333333333333
142
0.0
142
0.0
142
0.0
142
0.0
142
1.0
142
0.0
142
0.0
142
0.0
142
0.0
142
1.0
179
     0
144
0.0208333333333333
144
0.0
144
0.0
144
0.0
144
0.0
144
0.0208333333333333
144
0.0
144
0.0
144
0.0
144
0.0
144
1.0
144
0.0
144
0.0
144
0.0
144
0.0
144
1.0
147
0.0208333333333333
147
0.0
147
0.0
147
0.0
147
0.0
147
0.0208333333333333
147
0.0
147
0.0
147
0.0
147
0.0
147
1.0
147
0.0
147
0.0
147
0.0
147
0.0
147
1.0
  0
MATERIAL
  5
21
102
{ACAD_XDICTIONARY
360
22
102
}
102
{ACAD_REACTORS
330
10
102
}
330
10
100
AcDbMaterial
  1
Global
 72
     0
 43
0.0208333333333333
 43
0.0
 43
0.0
 43
0.0
 43
0.0
 43
0.0208333333333333
 43
0.0
 43
0.0
 43
0.0
 43
0.0
 43
1.0
 43
0.0
 43
0.0
 43
0.0
 43
0.0
 43
1.0
 77
     0
 47
0.0208333333333333
 47
0.0
 47
0.0
 47
0.0
 47
0.0
 47
0.0208333333333333
 47
0.0
 47
0.0
 47
0.0
 47
0.0
 47
1.0
 47
0.0
 47
0.0
 47
0.0
 47
0.0
 47
1.0
171
     0
 49
0.0208333333333333
 49
0.0
 49
0.0
 49
0.0
 49
0.0
 49
0.0208333333333333
 49
0.0
 49
0.0
 49
0.0
 49
0.0
 49
1.0
 49
0.0
 49
0.0
 49
0.0
 49
0.0
 49
1.0
175
     0
142
0.0208333333333333
142
0.0
142
0.0
142
0.0
142
0.0
142
0.0208333333333333
142
0.0
142
0.0
142
0.0
142
0.0
142
1.0
142
0.0
142
0.0
142
0.0
142
0.0
142
1.0
179
     0
144
0.0208333333333333
144
0.0
144
0.0
144
0.0
144
0.0
144
0.0208333333333333
144
0.0
144
0.0
144
0.0
144
0.0
144
1.0
144
0.0
144
0.0
144
0.0
144
0.0
144
1.0
147
0.0208333333333333
147
0.0
147
0.0
147
0.0
147
0.0
147
0.0208333333333333
147
0.0
147
0.0
147
0.0
147
0.0
147
1.0
147
0.0
147
0.0
147
0.0
147
0.0
147
1.0
  0
MLEADERSTYLE
  5
67
102
{ACAD_REACTORS
330
66
102
}
330
66
100
AcDbMLeaderStyle
179
     2
170
     2
171
     1
172
     0
 90
        2
 40
0.0
 41
0.0
173
     1
 91
-1056964608
340
5B
 92
       -2
290
     1
 42
0.09
291
     1
 43
0.36
  3
Standard
 44
0.18
300

342
55
174
     1
178
     6
175
     1
176
     0
 93
-1056964608
 45
0.18
292
     0
297
     0
 46
0.18
 94
-1056964608
 47
1.0
 49
1.0
140
1.0
293
     1
141
0.0
294
     1
177
     0
142
1.0
295
     1
296
     0
143
0.125
271
     0
272
     9
273
     9
298
     1
  0
MLINESTYLE
  5
60
102
{ACAD_REACTORS
330
5F
102
}
330
5F
100
AcDbMlineStyle
  2
STANDARD
 70
     0
  3

 62
   256
 51
90.0
 52
90.0
 71
     2
 49
0.5
 62
   256
  6
BYLAYER
 49
-0.5
 62
   256
  6
BYLAYER
  0
ACDBPLACEHOLDER
  5
F
102
{ACAD_REACTORS
330
E
102
}
330
E
  0
SCALE
  5
43
102
{ACAD_REACTORS
330
42
102
}
330
42
100
AcDbScale
 70
     0
300
1:1
140
1.0
141
1.0
290
     1
  0
SCALE
  5
44
102
{ACAD_REACTORS
330
42
102
}
330
42
100
AcDbScale
 70
     0
300
1/128" = 1'-0"
140
0.0078125
141
12.0
290
     0
  0
SCALE
  5
45
102
{ACAD_REACTORS
330
42
102
}
330
42
100
AcDbScale
 70
     0
300
1/64" = 1'-0"
140
0.015625
141
12.0
290
     0
  0
SCALE
  5
46
102
{ACAD_REACTORS
330
42
102
}
330
42
100
AcDbScale
 70
     0
300
1/32" = 1'-0"
140
0.03125
141
12.0
290
     0
  0
SCALE
  5
47
102
{ACAD_REACTORS
330
42
102
}
330
42
100
AcDbScale
 70
     0
300
1/16" = 1'-0"
140
0.0625
141
12.0
290
     0
  0
SCALE
  5
48
102
{ACAD_REACTORS
330
42
102
}
330
42
100
AcDbScale
 70
     0
300
3/32" = 1'-0"
140
0.09375
141
12.0
290
     0
  0
SCALE
  5
49
102
{ACAD_REACTORS
330
42
102
}
330
42
100
AcDbScale
 70
     0
300
1/8" = 1'-0"
140
0.125
141
12.0
290
     0
  0
SCALE
  5
4A
102
{ACAD_REACTORS
330
42
102
}
330
42
100
AcDbScale
 70
     0
300
3/16" = 1'-0"
140
0.1875
141
12.0
290
     0
  0
SCALE
  5
4B
102
{ACAD_REACTORS
330
42
102
}
330
42
100
AcDbScale
 70
     0
300
1/4" = 1'-0"
140
0.25
141
12.0
290
     0
  0
SCALE
  5
4C
102
{ACAD_REACTORS
330
42
102
}
330
42
100
AcDbScale
 70
     0
300
3/8" = 1'-0"
140
0.375
141
12.0
290
     0
  0
SCALE
  5
4D
102
{ACAD_REACTORS
330
42
102
}
330
42
100
AcDbScale
 70
     0
300
1/2" = 1'-0"
140
0.5
141
12.0
290
     0
  0
SCALE
  5
4E
102
{ACAD_REACTORS
330
42
102
}
330
42
100
AcDbScale
 70
     0
300
3/4" = 1'-0"
140
0.75
141
12.0
290
     0
  0
SCALE
  5
4F
102
{ACAD_REACTORS
330
42
102
}
330
42
100
AcDbScale
 70
     0
300
1" = 1'-0"
140
1.0
141
12.0
290
     0
  0
SCALE
  5
50
102
{ACAD_REACTORS
330
42
102
}
330
42
100
AcDbScale
 70
     0
300
1-1/2" = 1'-0"
140
1.5
141
12.0
290
     0
  0
SCALE
  5
51
102
{ACAD_REACTORS
330
42
102
}
330
42
100
AcDbScale
 70
     0
300
3" = 1'-0"
140
3.0
141
12.0
290
     0
  0
SCALE
  5
52
102
{ACAD_REACTORS
330
42
102
}
330
42
100
AcDbScale
 70
     0
300
6" = 1'-0"
140
6.0
141
12.0
290
     0
  0
SCALE
  5
53
102
{ACAD_REACTORS
330
42
102
}
330
42
100
AcDbScale
 70
     0
300
1'-0" = 1'-0"
140
12.0
141
12.0
290
     0
  0
ACDBSECTIONVIEWSTYLE
  5
69
102
{ACAD_REACTORS
330
68
102
}
330
68
100
AcDbModelDocViewStyle
 70
     0
  3
Imperial24
290
     1
300
Imperial24
 90
        0
100
AcDbSectionViewStyle
 70
     0
 71
     0
 90
       78
 71
     1
340
55
 62
   256
 40
0.24
340
0
340
0
 62
   256
 40
0.24
300
I, O, Q, S, X, Z
 40
0.48
 90
        3
 40
0.18
 90
        1
 71
     2
340
5D
 90
       25
 62
   256
340
5D
 90
       50
 62
   256
 40
0.24
 40
0.0
 40
0.24
 71
     3
340
55
 62
   256
 40
0.24
 90
        1
 40
0.75
 90
        1
300
%<\AcVar ViewType \f "%tc1">% %<\AcVar ViewSectionStartId>%-%<\AcVar ViewSectionEndId>%\PSCALE %<\AcVar ViewScale \f "%sn">%
 71
     4
 62
   256
 62
   257
300
ANSI31
 40
1.0
 90
        0
290
     0
290
     0
 90
        6
 40
0.0
 40
1.570796326794896
 40
0.2617993877991494
 40
1.308996938995747
 40
-0.2617993877991494
 40
1.832595714594046
  0
TABLESTYLE
  5
65
102
{ACAD_XDICTIONARY
360
182
102
}
102
{ACAD_REACTORS
330
64
102
}
330
64
100
AcDbTableStyle
280
     0
  3
Standard
 70
     0
 71
     0
 40
0.06
 41
0.06
280
     0
281
     0
  7
Standard
140
0.18
170
     2
 62
     0
 63
     7
283
     0
 90
      512
 91
        0
  1

274
    -2
284
     1
 64
     0
275
    -2
285
     1
 65
     0
276
    -2
286
     1
 66
     0
277
    -2
287
     1
 67
     0
278
    -2
288
     1
 68
     0
279
    -2
289
     1
 69
     0
  7
Standard
140
0.25
170
     5
 62
     0
 63
     7
283
     0
 90
      512
 91
        0
  1

274
    -2
284
     1
 64
     0
275
    -2
285
     1
 65
     0
276
    -2
286
     1
 66
     0
277
    -2
287
     1
 67
     0
278
    -2
288
     1
 68
     0
279
    -2
289
     1
 69
     0
  7
Standard
140
0.18
170
     5
 62
     0
 63
     7
283
     0
 90
      512
 91
        0
  1

274
    -2
284
     1
 64
     0
275
    -2
285
     1
 65
     0
276
    -2
286
     1
 66
     0
277
    -2
287
     1
 67
     0
278
    -2
288
     1
 68
     0
279
    -2
289
     1
 69
     0
  0
VISUALSTYLE
  5
2F
102
{ACAD_REACTORS
330
29
102
}
330
29
100
AcDbVisualStyle
  2
2dWireframe
 70
     4
177
     3
291
     0
 70
    58
 90
        0
176
     1
 90
        2
176
     1
 90
        0
176
     1
 90
        0
176
     1
 40
0.6
176
     1
 40
30.0
176
     1
 62
     7
420
 16777215
176
     1
 90
        1
176
     1
 90
        4
176
     1
 62
     7
176
     1
 62
   257
176
     1
 90
        1
176
     1
 90
        1
176
     1
 40
1.0
176
     1
 90
        0
176
     1
 62
   257
176
     1
 40
1.0
176
     1
 90
        1
176
     1
 90
        6
176
     1
 90
        2
176
     1
 62
     7
176
     1
 90
        5
176
     1
 90
        0
176
     1
 90
        0
176
     1
290
     0
176
     1
 90
        1
176
     1
 40
0.0
176
     1
 90
        0
176
     1
290
     1
176
     1
290
     1
176
     1
290
     0
176
     1
290
     0
176
     1
290
     0
176
     1
290
     0
176
     1
290
     0
176
     1
290
     0
176
     1
290
     0
176
     1
 90
       50
176
     1
 40
0.0
176
     1
 40
1.0
176
     1
 90
        0
176
     1
 62
    18
420
        0
176
     1
 90
       50
176
     1
 90
        3
176
     1
 62
     5
420
      255
176
     1
290
     0
176
     1
 90
       50
176
     1
 90
       50
176
     1
 90
       50
176
     1
290
     0
176
     1
 90
       50
176
     1
 62
   256
176
     0
 40
1.0
176
     0
 90
        2
176
     1
  1
strokes_ogs.tif
176
     1
290
     0
176
     1
 40
1.0
176
     1
 40
1.0
176
     1
  0
VISUALSTYLE
  5
2E
102
{ACAD_REACTORS
330
29
102
}
330
29
100
AcDbVisualStyle
  2
Basic
 70
     7
177
     3
291
     1
 70
    58
 90
        1
176
     1
 90
        0
176
     1
 90
        1
176
     1
 90
        0
176
     1
 40
0.6
176
     1
 40
30.0
176
     1
 62
     7
420
 16777215
176
     1
 90
        0
176
     1
 90
        4
176
     1
 62
     7
176
     1
 62
   257
176
     1
 90
        1
176
     1
 90
        1
176
     1
 40
1.0
176
     1
 90
        8
176
     1
 62
     7
176
     1
 40
1.0
176
     1
 90
        1
176
     1
 90
        6
176
     1
 90
        2
176
     1
 62
     7
176
     1
 90
        5
176
     1
 90
        0
176
     1
 90
        0
176
     1
290
     0
176
     1
 90
        1
176
     1
 40
0.0
176
     1
 90
        0
176
     1
290
     0
176
     1
290
     1
176
     1
290
     1
176
     1
290
     0
176
     1
290
     0
176
     1
290
     0
176
     1
290
     0
176
     1
290
     0
176
     1
290
     0
176
     1
 90
       50
176
     1
 40
0.0
176
     1
 40
1.0
176
     1
 90
        0
176
     1
 62
    18
420
        0
176
     1
 90
       50
176
     1
 90
        3
176
     1
 62
     5
420
      255
176
     1
290
     0
176
     1
 90
       50
176
     1
 90
       50
176
     1
 90
       50
176
     1
290
     0
176
     1
 90
       50
176
     1
 62
   256
176
     0
 40
1.0
176
     0
 90
        2
176
     1
  1
strokes_ogs.tif
176
     1
290
     0
176
     1
 40
1.0
176
     1
 40
1.0
176
     1
  0
VISUALSTYLE
  5
35
102
{ACAD_REACTORS
330
29
102
}
330
29
100
AcDbVisualStyle
  2
Brighten
 70
    12
177
     3
291
     1
 70
    58
 90
        2
176
     1
 90
        2
176
     1
 90
        0
176
     1
 90
        0
176
     1
 40
0.6
176
     1
 40
30.0
176
     1
 62
     7
420
 16777215
176
     1
 90
        1
176
     1
 90
        4
176
     1
 62
     7
176
     1
 62
   257
176
     1
 90
        1
176
     1
 90
        1
176
     1
 40
1.0
176
     1
 90
        8
176
     1
 62
     7
176
     1
 40
1.0
176
     1
 90
        1
176
     1
 90
        6
176
     1
 90
        2
176
     1
 62
     7
176
     1
 90
        5
176
     1
 90
        0
176
     1
 90
        0
176
     1
290
     0
176
     1
 90
        1
176
     1
 40
50.0
176
     1
 90
        0
176
     1
290
     0
176
     1
290
     1
176
     1
290
     1
176
     1
290
     0
176
     1
290
     0
176
     1
290
     0
176
     1
290
     0
176
     1
290
     0
176
     1
290
     0
176
     1
 90
       50
176
     1
 40
0.0
176
     1
 40
1.0
176
     1
 90
        0
176
     1
 62
    18
420
        0
176
     1
 90
       50
176
     1
 90
        3
176
     1
 62
     5
420
      255
176
     1
290
     0
176
     1
 90
       50
176
     1
 90
       50
176
     1
 90
       50
176
     1
290
     0
176
     1
 90
       50
176
     1
 62
   256
176
     0
 40
1.0
176
     0
 90
        2
176
     1
  1
strokes_ogs.tif
176
     1
290
     0
176
     1
 40
1.0
176
     1
 40
1.0
176
     1
  0
VISUALSTYLE
  5
39
102
{ACAD_REACTORS
330
29
102
}
330
29
100
AcDbVisualStyle
  2
ColorChange
 70
    16
177
     3
291
     1
 70
    58
 90
        2
176
     1
 90
        2
176
     1
 90
        3
176
     1
 90
        0
176
     1
 40
0.6
176
     1
 40
30.0
176
     1
 62
     8
420
  8421504
176
     1
 90
        1
176
     1
 90
        4
176
     1
 62
     7
176
     1
 62
   257
176
     1
 90
        1
176
     1
 90
        1
176
     1
 40
1.0
176
     1
 90
        8
176
     1
 62
     8
420
  8421504
176
     1
 40
1.0
176
     1
 90
        1
176
     1
 90
        6
176
     1
 90
        2
176
     1
 62
     7
176
     1
 90
        5
176
     1
 90
        0
176
     1
 90
        0
176
     1
290
     0
176
     1
 90
        1
176
     1
 40
0.0
176
     1
 90
        0
176
     1
290
     0
176
     1
290
     1
176
     1
290
     1
176
     1
290
     0
176
     1
290
     0
176
     1
290
     0
176
     1
290
     0
176
     1
290
     0
176
     1
290
     0
176
     1
 90
       50
176
     1
 40
0.0
176
     1
 40
1.0
176
     1
 90
        0
176
     1
 62
    18
420
        0
176
     1
 90
       50
176
     1
 90
        3
176
     1
 62
     5
420
      255
176
     1
290
     0
176
     1
 90
       50
176
     1
 90
       50
176
     1
 90
       50
176
     1
290
     0
176
     1
 90
       50
176
     1
 62
   256
176
     0
 40
1.0
176
     0
 90
        2
176
     1
  1
strokes_ogs.tif
176
     1
290
     0
176
     1
 40
1.0
176
     1
 40
1.0
176
     1
  0
VISUALSTYLE
  5
32
102
{ACAD_REACTORS
330
29
102
}
330
29
100
AcDbVisualStyle
  2
Conceptual
 70
     9
177
     3
291
     0
 70
    58
 90
        3
176
     1
 90
        2
176
     1
 90
        0
176
     1
 90
        0
176
     1
 40
0.6
176
     1
 40
30.0
176
     1
 62
     7
420
 16777215
176
     1
 90
        2
176
     1
 90
        2
176
     1
 62
     7
176
     1
 62
   257
176
     1
 90
        1
176
     1
 90
        1
176
     1
 40
179.0
176
     1
 90
        8
176
     1
 62
     7
176
     1
 40
1.0
176
     1
 90
        1
176
     1
 90
        6
176
     1
 90
        2
176
     1
 62
     7
176
     1
 90
        3
176
     1
 90
        0
176
     1
 90
        0
176
     1
290
     0
176
     1
 90
        1
176
     1
 40
0.0
176
     1
 90
        0
176
     1
290
     0
176
     1
290
     1
176
     1
290
     1
176
     1
290
     0
176
     1
290
     0
176
     1
290
     0
176
     1
290
     0
176
     1
290
     0
176
     1
290
     0
176
     1
 90
       50
176
     1
 40
0.0
176
     1
 40
1.0
176
     1
 90
        0
176
     1
 62
    18
420
        0
176
     1
 90
       50
176
     1
 90
        3
176
     1
 62
     5
420
      255
176
     1
290
     0
176
     1
 90
       50
176
     1
 90
       50
176
     1
 90
       50
176
     1
290
     0
176
     1
 90
       50
176
     1
 62
   256
176
     0
 40
1.0
176
     0
 90
        2
176
     1
  1
strokes_ogs.tif
176
     1
290
     0
176
     1
 40
1.0
176
     1
 40
1.0
176
     1
  0
VISUALSTYLE
  5
34
102
{ACAD_REACTORS
330
29
102
}
330
29
100
AcDbVisualStyle
  2
Dim
 70
    11
177
     3
291
     1
 70
    58
 90
        2
176
     1
 90
        2
176
     1
 90
        0
176
     1
 90
        0
176
     1
 40
0.6
176
     1
 40
30.0
176
     1
 62
     7
420
 16777215
176
     1
 90
        1
176
     1
 90
        4
176
     1
 62
     7
176
     1
 62
   257
176
     1
 90
        1
176
     1
 90
        1
176
     1
 40
1.0
176
     1
 90
        8
176
     1
 62
     7
176
     1
 40
1.0
176
     1
 90
        1
176
     1
 90
        6
176
     1
 90
        2
176
     1
 62
     7
176
     1
 90
        5
176
     1
 90
        0
176
     1
 90
        0
176
     1
290
     0
176
     1
 90
        1
176
     1
 40
-50.0
176
     1
 90
        0
176
     1
290
     0
176
     1
290
     1
176
     1
290
     1
176
     1
290
     0
176
     1
290
     0
176
     1
290
     0
176
     1
290
     0
176
     1
290
     0
176
     1
290
     0
176
     1
 90
       50
176
     1
 40
0.0
176
     1
 40
1.0
176
     1
 90
        0
176
     1
 62
    18
420
        0
176
     1
 90
       50
176
     1
 90
        3
176
     1
 62
     5
420
      255
176
     1
290
     0
176
     1
 90
       50
176
     1
 90
       50
176
     1
 90
       50
176
     1
290
     0
176
     1
 90
       50
176
     1
 62
   256
176
     0
 40
1.0
176
     0
 90
        2
176
     1
  1
strokes_ogs.tif
176
     1
290
     0
176
     1
 40
1.0
176
     1
 40
1.0
176
     1
  0
VISUALSTYLE
  5
41
102
{ACAD_REACTORS
330
29
102
}
330
29
100
AcDbVisualStyle
  2
EdgeColorOff
 70
    22
177
     3
291
     1
 70
    58
 90
        2
176
     0
 90
        2
176
     0
 90
        0
176
     0
 90
        0
176
     0
 40
0.6
176
     0
 40
30.0
176
     0
 62
     7
420
 16777215
176
     0
 90
        1
176
     0
 90
        4
176
     0
 62
     7
176
     0
 62
   257
176
     0
 90
        1
176
     0
 90
        1
176
     0
 40
1.0
176
     0
 90
        8
176
     2
 62
     7
176
     0
 40
1.0
176
     0
 90
        1
176
     0
 90
        6
176
     0
 90
        2
176
     0
 62
     7
176
     0
 90
        5
176
     0
 90
        0
176
     0
 90
        0
176
     0
290
     0
176
     0
 90
        1
176
     0
 40
0.0
176
     0
 90
        0
176
     0
290
     0
176
     0
290
     1
176
     0
290
     1
176
     0
290
     0
176
     0
290
     0
176
     0
290
     0
176
     0
290
     0
176
     0
290
     0
176
     0
290
     0
176
     0
 90
       50
176
     0
 40
0.0
176
     0
 40
1.0
176
     0
 90
        0
176
     0
 62
    18
420
        0
176
     0
 90
       50
176
     0
 90
        3
176
     0
 62
     5
420
      255
176
     0
290
     0
176
     0
 90
       50
176
     0
 90
       50
176
     0
 90
       50
176
     0
290
     0
176
     0
 90
       50
176
     0
 62
   256
176
     0
 40
1.0
176
     0
 90
        2
176
     0
  1
strokes_ogs.tif
176
     0
290
     0
176
     0
 40
1.0
176
     0
 40
1.0
176
     0
  0
VISUALSTYLE
  5
38
102
{ACAD_REACTORS
330
29
102
}
330
29
100
AcDbVisualStyle
  2
Facepattern
 70
    15
177
     3
291
     1
 70
    58
 90
        2
176
     1
 90
        2
176
     1
 90
        0
176
     1
 90
        0
176
     1
 40
0.6
176
     1
 40
30.0
176
     1
 62
     7
420
 16777215
176
     1
 90
        1
176
     1
 90
        4
176
     1
 62
     7
176
     1
 62
   257
176
     1
 90
        1
176
     1
 90
        1
176
     1
 40
1.0
176
     1
 90
        8
176
     1
 62
     7
176
     1
 40
1.0
176
     1
 90
        1
176
     1
 90
        6
176
     1
 90
        2
176
     1
 62
     7
176
     1
 90
        5
176
     1
 90
        0
176
     1
 90
        0
176
     1
290
     0
176
     1
 90
        1
176
     1
 40
0.0
176
     1
 90
        0
176
     1
290
     0
176
     1
290
     1
176
     1
290
     1
176
     1
290
     0
176
     1
290
     0
176
     1
290
     0
176
     1
290
     0
176
     1
290
     0
176
     1
290
     0
176
     1
 90
       50
176
     1
 40
0.0
176
     1
 40
1.0
176
     1
 90
        0
176
     1
 62
    18
420
        0
176
     1
 90
       50
176
     1
 90
        3
176
     1
 62
     5
420
      255
176
     1
290
     0
176
     1
 90
       50
176
     1
 90
       50
176
     1
 90
       50
176
     1
290
     0
176
     1
 90
       50
176
     1
 62
   256
176
     0
 40
1.0
176
     0
 90
        2
176
     1
  1
strokes_ogs.tif
176
     1
290
     0
176
     1
 40
1.0
176
     1
 40
1.0
176
     1
  0
VISUALSTYLE
  5
2A
102
{ACAD_REACTORS
330
29
102
}
330
29
100
AcDbVisualStyle
  2
Flat
 70
     0
177
     3
291
     1
 70
    58
 90
        2
176
     1
 90
        1
176
     1
 90
        1
176
     1
 90
        2
176
     1
 40
0.6
176
     1
 40
30.0
176
     1
 62
     7
420
 16777215
176
     1
 90
        0
176
     1
 90
        0
176
     1
 62
     7
176
     1
 62
   257
176
     1
 90
        1
176
     1
 90
        1
176
     1
 40
1.0
176
     1
 90
        8
176
     1
 62
     7
176
     1
 40
1.0
176
     1
 90
        1
176
     1
 90
        6
176
     1
 90
        2
176
     1
 62
     7
176
     1
 90
        5
176
     1
 90
        0
176
     1
 90
        0
176
     1
290
     0
176
     1
 90
       13
176
     1
 40
0.0
176
     1
 90
        0
176
     1
290
     0
176
     1
290
     1
176
     1
290
     1
176
     1
290
     0
176
     1
290
     0
176
     1
290
     0
176
     1
290
     0
176
     1
290
     0
176
     1
290
     0
176
     1
 90
       50
176
     1
 40
0.0
176
     1
 40
1.0
176
     1
 90
        0
176
     1
 62
    18
420
        0
176
     1
 90
       50
176
     1
 90
        3
176
     1
 62
     5
420
      255
176
     1
290
     0
176
     1
 90
       50
176
     1
 90
       50
176
     1
 90
       50
176
     1
290
     0
176
     1
 90
       50
176
     1
 62
   256
176
     0
 40
1.0
176
     0
 90
        2
176
     1
  1
strokes_ogs.tif
176
     1
290
     0
176
     1
 40
1.0
176
     1
 40
1.0
176
     1
  0
VISUALSTYLE
  5
2B
102
{ACAD_REACTORS
330
29
102
}
330
29
100
AcDbVisualStyle
  2
FlatWithEdges
 70
     1
177
     3
291
     1
 70
    58
 90
        2
176
     1
 90
        1
176
     1
 90
        1
176
     1
 90
        2
176
     1
 40
0.6
176
     1
 40
30.0
176
     1
 62
     7
420
 16777215
176
     1
 90
        1
176
     1
 90
        0
176
     1
 62
     7
176
     1
 62
   257
176
     1
 90
        1
176
     1
 90
        1
176
     1
 40
1.0
176
     1
 90
        0
176
     1
 62
   257
176
     1
 40
1.0
176
     1
 90
        1
176
     1
 90
        6
176
     1
 90
        2
176
     1
 62
     7
176
     1
 90
        5
176
     1
 90
        0
176
     1
 90
        0
176
     1
290
     0
176
     1
 90
       13
176
     1
 40
0.0
176
     1
 90
        0
176
     1
290
     0
176
     1
290
     1
176
     1
290
     1
176
     1
290
     0
176
     1
290
     0
176
     1
290
     0
176
     1
290
     0
176
     1
290
     0
176
     1
290
     0
176
     1
 90
       50
176
     1
 40
0.0
176
     1
 40
1.0
176
     1
 90
        0
176
     1
 62
    18
420
        0
176
     1
 90
       50
176
     1
 90
        3
176
     1
 62
     5
420
      255
176
     1
290
     0
176
     1
 90
       50
176
     1
 90
       50
176
     1
 90
       50
176
     1
290
     0
176
     1
 90
       50
176
     1
 62
   256
176
     0
 40
1.0
176
     0
 90
        2
176
     1
  1
strokes_ogs.tif
176
     1
290
     0
176
     1
 40
1.0
176
     1
 40
1.0
176
     1
  0
VISUALSTYLE
  5
2C
102
{ACAD_REACTORS
330
29
102
}
330
29
100
AcDbVisualStyle
  2
Gouraud
 70
     2
177
     3
291
     1
 70
    58
 90
        2
176
     1
 90
        2
176
     1
 90
        1
176
     1
 90
        2
176
     1
 40
0.6
176
     1
 40
30.0
176
     1
 62
     7
420
 16777215
176
     1
 90
        0
176
     1
 90
        0
176
     1
 62
     7
176
     1
 62
   257
176
     1
 90
        1
176
     1
 90
        1
176
     1
 40
1.0
176
     1
 90
        0
176
     1
 62
     7
176
     1
 40
1.0
176
     1
 90
        1
176
     1
 90
        6
176
     1
 90
        2
176
     1
 62
     7
176
     1
 90
        5
176
     1
 90
        0
176
     1
 90
        0
176
     1
290
     0
176
     1
 90
       13
176
     1
 40
0.0
176
     1
 90
        0
176
     1
290
     0
176
     1
290
     1
176
     1
290
     1
176
     1
290
     0
176
     1
290
     0
176
     1
290
     0
176
     1
290
     0
176
     1
290
     0
176
     1
290
     0
176
     1
 90
       50
176
     1
 40
0.0
176
     1
 40
1.0
176
     1
 90
        0
176
     1
 62
    18
420
        0
176
     1
 90
       50
176
     1
 90
        3
176
     1
 62
     5
420
      255
176
     1
290
     0
176
     1
 90
       50
176
     1
 90
       50
176
     1
 90
       50
176
     1
290
     0
176
     1
 90
       50
176
     1
 62
   256
176
     0
 40
1.0
176
     0
 90
        2
176
     1
  1
strokes_ogs.tif
176
     1
290
     0
176
     1
 40
1.0
176
     1
 40
1.0
176
     1
  0
VISUALSTYLE
  5
2D
102
{ACAD_REACTORS
330
29
102
}
330
29
100
AcDbVisualStyle
  2
GouraudWithEdges
 70
     3
177
     3
291
     1
 70
    58
 90
        2
176
     1
 90
        2
176
     1
 90
        1
176
     1
 90
        2
176
     1
 40
0.6
176
     1
 40
30.0
176
     1
 62
     7
420
 16777215
176
     1
 90
        1
176
     1
 90
        0
176
     1
 62
     7
176
     1
 62
   257
176
     1
 90
        1
176
     1
 90
        1
176
     1
 40
1.0
176
     1
 90
        0
176
     1
 62
   257
176
     1
 40
1.0
176
     1
 90
        1
176
     1
 90
        6
176
     1
 90
        2
176
     1
 62
     7
176
     1
 90
        5
176
     1
 90
        0
176
     1
 90
        0
176
     1
290
     0
176
     1
 90
       13
176
     1
 40
0.0
176
     1
 90
        0
176
     1
290
     0
176
     1
290
     1
176
     1
290
     1
176
     1
290
     0
176
     1
290
     0
176
     1
290
     0
176
     1
290
     0
176
     1
290
     0
176
     1
290
     0
176
     1
 90
       50
176
     1
 40
0.0
176
     1
 40
1.0
176
     1
 90
        0
176
     1
 62
    18
420
        0
176
     1
 90
       50
176
     1
 90
        3
176
     1
 62
     5
420
      255
176
     1
290
     0
176
     1
 90
       50
176
     1
 90
       50
176
     1
 90
       50
176
     1
290
     0
176
     1
 90
       50
176
     1
 62
   256
176
     0
 40
1.0
176
     0
 90
        2
176
     1
  1
strokes_ogs.tif
176
     1
290
     0
176
     1
 40
1.0
176
     1
 40
1.0
176
     1
  0
VISUALSTYLE
  5
31
102
{ACAD_REACTORS
330
29
102
}
330
29
100
AcDbVisualStyle
  2
Hidden
 70
     6
177
     3
291
     0
 70
    58
 90
        1
176
     1
 90
        2
176
     1
 90
        2
176
     1
 90
        0
176
     1
 40
0.6
176
     1
 40
30.0
176
     1
 62
     7
420
 16777215
176
     1
 90
        2
176
     1
 90
        2
176
     1
 62
     7
176
     1
 62
   257
176
     1
 90
        2
176
     1
 90
        1
176
     1
 40
40.0
176
     1
 90
        0
176
     1
 62
   257
176
     1
 40
1.0
176
     1
 90
        1
176
     1
 90
        6
176
     1
 90
        2
176
     1
 62
     7
176
     1
 90
        3
176
     1
 90
        0
176
     1
 90
        0
176
     1
290
     0
176
     1
 90
        1
176
     1
 40
0.0
176
     1
 90
        0
176
     1
290
     0
176
     1
290
     1
176
     1
290
     1
176
     1
290
     0
176
     1
290
     0
176
     1
290
     0
176
     1
290
     0
176
     1
290
     0
176
     1
290
     0
176
     1
 90
       50
176
     1
 40
0.0
176
     1
 40
1.0
176
     1
 90
        0
176
     1
 62
    18
420
        0
176
     1
 90
       50
176
     1
 90
        3
176
     1
 62
     5
420
      255
176
     1
290
     0
176
     1
 90
       50
176
     1
 90
       50
176
     1
 90
       50
176
     1
290
     0
176
     1
 90
       50
176
     1
 62
   256
176
     0
 40
1.0
176
     0
 90
        2
176
     1
  1
strokes_ogs.tif
176
     1
290
     0
176
     1
 40
1.0
176
     1
 40
1.0
176
     1
  0
VISUALSTYLE
  5
3F
102
{ACAD_REACTORS
330
29
102
}
330
29
100
AcDbVisualStyle
  2
JitterOff
 70
    20
177
     3
291
     1
 70
    58
 90
        2
176
     0
 90
        2
176
     0
 90
        0
176
     0
 90
        0
176
     0
 40
0.6
176
     0
 40
30.0
176
     0
 62
     7
420
 16777215
176
     0
 90
        1
176
     0
 90
        4
176
     0
 62
     7
176
     0
 62
   257
176
     0
 90
        1
176
     0
 90
        1
176
     0
 40
1.0
176
     0
 90
       10
176
     2
 62
     7
176
     0
 40
1.0
176
     0
 90
        1
176
     0
 90
        6
176
     0
 90
        2
176
     0
 62
     7
176
     0
 90
        5
176
     0
 90
        0
176
     0
 90
        0
176
     0
290
     0
176
     0
 90
        1
176
     0
 40
0.0
176
     0
 90
        0
176
     0
290
     0
176
     0
290
     1
176
     0
290
     1
176
     0
290
     0
176
     0
290
     0
176
     0
290
     0
176
     0
290
     0
176
     0
290
     0
176
     0
290
     0
176
     0
 90
       50
176
     0
 40
0.0
176
     0
 40
1.0
176
     0
 90
        0
176
     0
 62
    18
420
        0
176
     0
 90
       50
176
     0
 90
        3
176
     0
 62
     5
420
      255
176
     0
290
     0
176
     0
 90
       50
176
     0
 90
       50
176
     0
 90
       50
176
     0
290
     0
176
     0
 90
       50
176
     0
 62
   256
176
     0
 40
1.0
176
     0
 90
        2
176
     0
  1
strokes_ogs.tif
176
     0
290
     0
176
     0
 40
1.0
176
     0
 40
1.0
176
     0
  0
VISUALSTYLE
  5
37
102
{ACAD_REACTORS
330
29
102
}
330
29
100
AcDbVisualStyle
  2
Linepattern
 70
    14
177
     3
291
     1
 70
    58
 90
        2
176
     1
 90
        2
176
     1
 90
        0
176
     1
 90
        0
176
     1
 40
0.6
176
     1
 40
30.0
176
     1
 62
     7
420
 16777215
176
     1
 90
        1
176
     1
 90
        4
176
     1
 62
     7
176
     1
 62
   257
176
     1
 90
        7
176
     1
 90
        7
176
     1
 40
1.0
176
     1
 90
        8
176
     1
 62
     7
176
     1
 40
1.0
176
     1
 90
        1
176
     1
 90
        6
176
     1
 90
        2
176
     1
 62
     7
176
     1
 90
        5
176
     1
 90
        0
176
     1
 90
        0
176
     1
290
     0
176
     1
 90
        1
176
     1
 40
0.0
176
     1
 90
        0
176
     1
290
     0
176
     1
290
     1
176
     1
290
     1
176
     1
290
     0
176
     1
290
     0
176
     1
290
     0
176
     1
290
     0
176
     1
290
     0
176
     1
290
     0
176
     1
 90
       50
176
     1
 40
0.0
176
     1
 40
1.0
176
     1
 90
        0
176
     1
 62
    18
420
        0
176
     1
 90
       50
176
     1
 90
        3
176
     1
 62
     5
420
      255
176
     1
290
     0
176
     1
 90
       50
176
     1
 90
       50
176
     1
 90
       50
176
     1
290
     0
176
     1
 90
       50
176
     1
 62
   256
176
     0
 40
1.0
176
     0
 90
        2
176
     1
  1
strokes_ogs.tif
176
     1
290
     0
176
     1
 40
1.0
176
     1
 40
1.0
176
     1
  0
VISUALSTYLE
  5
40
102
{ACAD_REACTORS
330
29
102
}
330
29
100
AcDbVisualStyle
  2
OverhangOff
 70
    21
177
     3
291
     1
 70
    58
 90
        2
176
     0
 90
        2
176
     0
 90
        0
176
     0
 90
        0
176
     0
 40
0.6
176
     0
 40
30.0
176
     0
 62
     7
420
 16777215
176
     0
 90
        1
176
     0
 90
        4
176
     0
 62
     7
176
     0
 62
   257
176
     0
 90
        1
176
     0
 90
        1
176
     0
 40
1.0
176
     0
 90
        9
176
     2
 62
     7
176
     0
 40
1.0
176
     0
 90
        1
176
     0
 90
        6
176
     0
 90
        2
176
     0
 62
     7
176
     0
 90
        5
176
     0
 90
        0
176
     0
 90
        0
176
     0
290
     0
176
     0
 90
        1
176
     0
 40
0.0
176
     0
 90
        0
176
     0
290
     0
176
     0
290
     1
176
     0
290
     1
176
     0
290
     0
176
     0
290
     0
176
     0
290
     0
176
     0
290
     0
176
     0
290
     0
176
     0
290
     0
176
     0
 90
       50
176
     0
 40
0.0
176
     0
 40
1.0
176
     0
 90
        0
176
     0
 62
    18
420
        0
176
     0
 90
       50
176
     0
 90
        3
176
     0
 62
     5
420
      255
176
     0
290
     0
176
     0
 90
       50
176
     0
 90
       50
176
     0
 90
       50
176
     0
290
     0
176
     0
 90
       50
176
     0
 62
   256
176
     0
 40
1.0
176
     0
 90
        2
176
     0
  1
strokes_ogs.tif
176
     0
290
     0
176
     0
 40
1.0
176
     0
 40
1.0
176
     0
  0
VISUALSTYLE
  5
33
102
{ACAD_REACTORS
330
29
102
}
330
29
100
AcDbVisualStyle
  2
Realistic
 70
     8
177
     3
291
     0
 70
    58
 90
        2
176
     1
 90
        3
176
     1
 90
        0
176
     1
 90
        2
176
     1
 40
0.6
176
     1
 40
30.0
176
     1
 62
     7
420
 16777215
176
     1
 90
        0
176
     1
 90
        0
176
     1
 62
     7
176
     1
 62
   257
176
     1
 90
        1
176
     1
 90
        1
176
     1
 40
1.0
176
     1
 90
        8
176
     1
 62
   257
176
     1
 40
1.0
176
     1
 90
        1
176
     1
 90
        6
176
     1
 90
        2
176
     1
 62
     7
176
     1
 90
        3
176
     1
 90
        0
176
     1
 90
        0
176
     1
290
     0
176
     1
 90
       13
176
     1
 40
0.0
176
     1
 90
        0
176
     1
290
     0
176
     1
290
     1
176
     1
290
     1
176
     1
290
     0
176
     1
290
     0
176
     1
290
     0
176
     1
290
     0
176
     1
290
     0
176
     1
290
     0
176
     1
 90
       50
176
     1
 40
0.0
176
     1
 40
1.0
176
     1
 90
        0
176
     1
 62
    18
420
        0
176
     1
 90
       50
176
     1
 90
        3
176
     1
 62
     5
420
      255
176
     1
290
     0
176
     1
 90
       50
176
     1
 90
       50
176
     1
 90
       50
176
     1
290
     0
176
     1
 90
       50
176
     1
 62
   256
176
     0
 40
1.0
176
     0
 90
        2
176
     1
  1
strokes_ogs.tif
176
     1
290
     0
176
     1
 40
1.0
176
     1
 40
1.0
176
     1
  0
VISUALSTYLE
  5
3E
102
{ACAD_REACTORS
330
29
102
}
330
29
100
AcDbVisualStyle
  2
Shaded
 70
    27
177
     3
291
     0
 70
    58
 90
        2
176
     1
 90
        2
176
     1
 90
        1
176
     1
 90
        2
176
     1
 40
0.6
176
     1
 40
30.0
176
     1
 62
     7
420
 16777215
176
     1
 90
        0
176
     1
 90
        4
176
     1
 62
     7
176
     1
 62
   257
176
     1
 90
        1
176
     1
 90
        1
176
     1
 40
1.0
176
     1
 90
        8
176
     1
 62
   257
176
     1
 40
1.0
176
     1
 90
        1
176
     1
 90
        6
176
     1
 90
        2
176
     1
 62
     8
420
  7895160
176
     1
 90
        3
176
     1
 90
        0
176
     1
 90
        0
176
     1
290
     0
176
     1
 90
        5
176
     1
 40
0.0
176
     1
 90
        0
176
     1
290
     0
176
     1
290
     1
176
     1
290
     1
176
     1
290
     0
176
     1
290
     0
176
     1
290
     0
176
     1
290
     0
176
     1
290
     0
176
     1
290
     0
176
     1
 90
       50
176
     1
 40
0.0
176
     1
 40
1.0
176
     1
 90
        0
176
     1
 62
    18
420
        0
176
     1
 90
       50
176
     1
 90
        3
176
     1
 62
     5
420
      255
176
     1
290
     0
176
     1
 90
       50
176
     1
 90
       50
176
     1
 90
       50
176
     1
290
     0
176
     1
 90
       50
176
     1
 62
   256
176
     0
 40
1.0
176
     0
 90
        2
176
     1
  1
strokes_ogs.tif
176
     1
290
     0
176
     1
 40
1.0
176
     1
 40
1.0
176
     1
  0
VISUALSTYLE
  5
3D
102
{ACAD_REACTORS
330
29
102
}
330
29
100
AcDbVisualStyle
  2
Shaded with edges
 70
    26
177
     3
291
     0
 70
    58
 90
        2
176
     1
 90
        2
176
     1
 90
        1
176
     1
 90
        2
176
     1
 40
0.6
176
     1
 40
30.0
176
     1
 62
     7
420
 16777215
176
     1
 90
        1
176
     1
 90
        2
176
     1
 62
     7
176
     1
 62
   257
176
     1
 90
        2
176
     1
 90
        1
176
     1
 40
1.0
176
     1
 90
        8
176
     1
 62
   257
176
     1
 40
1.0
176
     1
 90
        1
176
     1
 90
        6
176
     1
 90
        2
176
     1
 62
     7
176
     1
 90
        3
176
     1
 90
        0
176
     1
 90
        0
176
     1
290
     0
176
     1
 90
        5
176
     1
 40
0.0
176
     1
 90
        0
176
     1
290
     0
176
     1
290
     1
176
     1
290
     1
176
     1
290
     0
176
     1
290
     0
176
     1
290
     0
176
     1
290
     0
176
     1
290
     0
176
     1
290
     0
176
     1
 90
       50
176
     1
 40
0.0
176
     1
 40
1.0
176
     1
 90
        0
176
     1
 62
    18
420
        0
176
     1
 90
       50
176
     1
 90
        3
176
     1
 62
     5
420
      255
176
     1
290
     0
176
     1
 90
       50
176
     1
 90
       50
176
     1
 90
       50
176
     1
290
     0
176
     1
 90
       50
176
     1
 62
   256
176
     0
 40
1.0
176
     0
 90
        2
176
     1
  1
strokes_ogs.tif
176
     1
290
     0
176
     1
 40
1.0
176
     1
 40
1.0
176
     1
  0
VISUALSTYLE
  5
3A
102
{ACAD_REACTORS
330
29
102
}
330
29
100
AcDbVisualStyle
  2
Shades of Gray
 70
    23
177
     3
291
     0
 70
    58
 90
        2
176
     1
 90
        2
176
     1
 90
        3
176
     1
 90
        0
176
     1
 40
0.6
176
     1
 40
30.0
176
     1
 62
     7
420
 16777215
176
     1
 90
        2
176
     1
 90
        2
176
     1
 62
     7
176
     1
 62
     7
176
     1
 90
        1
176
     1
 90
        1
176
     1
 40
40.0
176
     1
 90
        8
176
     1
 62
     7
176
     1
 40
1.0
176
     1
 90
        1
176
     1
 90
        6
176
     1
 90
        2
176
     1
 62
     7
176
     1
 90
        3
176
     1
 90
        0
176
     1
 90
        0
176
     1
290
     0
176
     1
 90
        1
176
     1
 40
0.0
176
     1
 90
        0
176
     1
290
     0
176
     1
290
     1
176
     1
290
     1
176
     1
290
     0
176
     1
290
     0
176
     1
290
     0
176
     1
290
     0
176
     1
290
     0
176
     1
290
     0
176
     1
 90
       50
176
     1
 40
0.0
176
     1
 40
1.0
176
     1
 90
        0
176
     1
 62
    18
420
        0
176
     1
 90
       50
176
     1
 90
        3
176
     1
 62
     5
420
      255
176
     1
290
     0
176
     1
 90
       50
176
     1
 90
       50
176
     1
 90
       50
176
     1
290
     0
176
     1
 90
       50
176
     1
 62
   256
176
     0
 40
1.0
176
     0
 90
        2
176
     1
  1
strokes_ogs.tif
176
     1
290
     0
176
     1
 40
1.0
176
     1
 40
1.0
176
     1
  0
VISUALSTYLE
  5
3B
102
{ACAD_REACTORS
330
29
102
}
330
29
100
AcDbVisualStyle
  2
Sketchy
 70
    24
177
     3
291
     0
 70
    58
 90
        1
176
     1
 90
        2
176
     1
 90
        2
176
     1
 90
        0
176
     1
 40
0.6
176
     1
 40
30.0
176
     1
 62
     7
420
 16777215
176
     1
 90
        2
176
     1
 90
        2
176
     1
 62
     7
176
     1
 62
     7
176
     1
 90
        1
176
     1
 90
        1
176
     1
 40
40.0
176
     1
 90
       11
176
     1
 62
     7
176
     1
 40
1.0
176
     1
 90
        1
176
     1
 90
        6
176
     1
 90
        2
176
     1
 62
     7
176
     1
 90
        6
176
     1
 90
        0
176
     1
 90
        0
176
     1
290
     0
176
     1
 90
        1
176
     1
 40
0.0
176
     1
 90
        0
176
     1
290
     0
176
     1
290
     1
176
     1
290
     1
176
     1
290
     0
176
     1
290
     0
176
     1
290
     0
176
     1
290
     0
176
     1
290
     0
176
     1
290
     0
176
     1
 90
       50
176
     1
 40
0.0
176
     1
 40
1.0
176
     1
 90
        0
176
     1
 62
    18
420
        0
176
     1
 90
       50
176
     1
 90
        3
176
     1
 62
     5
420
      255
176
     1
290
     0
176
     1
 90
       50
176
     1
 90
       50
176
     1
 90
       50
176
     1
290
     0
176
     1
 90
       50
176
     1
 62
   256
176
     0
 40
1.0
176
     0
 90
        2
176
     1
  1
strokes_ogs.tif
176
     1
290
     0
176
     1
 40
1.0
176
     1
 40
1.0
176
     1
  0
VISUALSTYLE
  5
36
102
{ACAD_REACTORS
330
29
102
}
330
29
100
AcDbVisualStyle
  2
Thicken
 70
    13
177
     3
291
     1
 70
    58
 90
        2
176
     1
 90
        2
176
     1
 90
        0
176
     1
 90
        0
176
     1
 40
0.6
176
     1
 40
30.0
176
     1
 62
     7
420
 16777215
176
     1
 90
        1
176
     1
 90
        4
176
     1
 62
     7
176
     1
 62
   257
176
     1
 90
        1
176
     1
 90
        1
176
     1
 40
1.0
176
     1
 90
       12
176
     1
 62
     7
176
     1
 40
1.0
176
     1
 90
        1
176
     1
 90
        6
176
     1
 90
        2
176
     1
 62
     7
176
     1
 90
        5
176
     1
 90
        0
176
     1
 90
        0
176
     1
290
     0
176
     1
 90
        1
176
     1
 40
0.0
176
     1
 90
        0
176
     1
290
     0
176
     1
290
     1
176
     1
290
     1
176
     1
290
     0
176
     1
290
     0
176
     1
290
     0
176
     1
290
     0
176
     1
290
     0
176
     1
290
     0
176
     1
 90
       50
176
     1
 40
0.0
176
     1
 40
1.0
176
     1
 90
        0
176
     1
 62
    18
420
        0
176
     1
 90
       50
176
     1
 90
        3
176
     1
 62
     5
420
      255
176
     1
290
     0
176
     1
 90
       50
176
     1
 90
       50
176
     1
 90
       50
176
     1
290
     0
176
     1
 90
       50
176
     1
 62
   256
176
     0
 40
1.0
176
     0
 90
        2
176
     1
  1
strokes_ogs.tif
176
     1
290
     0
176
     1
 40
1.0
176
     1
 40
1.0
176
     1
  0
VISUALSTYLE
  5
30
102
{ACAD_REACTORS
330
29
102
}
330
29
100
AcDbVisualStyle
  2
Wireframe
 70
     5
177
     3
291
     0
 70
    58
 90
        0
176
     1
 90
        2
176
     1
 90
        0
176
     1
 90
        0
176
     1
 40
0.6
176
     1
 40
30.0
176
     1
 62
     7
420
 16777215
176
     1
 90
        1
176
     1
 90
        4
176
     1
 62
     7
176
     1
 62
   257
176
     1
 90
        1
176
     1
 90
        1
176
     1
 40
1.0
176
     1
 90
        0
176
     1
 62
   257
176
     1
 40
1.0
176
     1
 90
        1
176
     1
 90
        6
176
     1
 90
        2
176
     1
 62
     7
176
     1
 90
        3
176
     1
 90
        0
176
     1
 90
        0
176
     1
290
     0
176
     1
 90
        1
176
     1
 40
0.0
176
     1
 90
        0
176
     1
290
     0
176
     1
290
     1
176
     1
290
     1
176
     1
290
     0
176
     1
290
     0
176
     1
290
     0
176
     1
290
     0
176
     1
290
     0
176
     1
290
     0
176
     1
 90
       50
176
     1
 40
0.0
176
     1
 40
1.0
176
     1
 90
        0
176
     1
 62
    18
420
        0
176
     1
 90
       50
176
     1
 90
        3
176
     1
 62
     5
420
      255
176
     1
290
     0
176
     1
 90
       50
176
     1
 90
       50
176
     1
 90
       50
176
     1
290
     0
176
     1
 90
       50
176
     1
 62
   256
176
     0
 40
1.0
176
     0
 90
        2
176
     1
  1
strokes_ogs.tif
176
     1
290
     0
176
     1
 40
1.0
176
     1
 40
1.0
176
     1
  0
VISUALSTYLE
  5
3C
102
{ACAD_REACTORS
330
29
102
}
330
29
100
AcDbVisualStyle
  2
X-Ray
 70
    25
177
     3
291
     0
 70
    58
 90
        2
176
     1
 90
        2
176
     1
 90
        1
176
     1
 90
        1
176
     1
 40
0.5
176
     1
 40
30.0
176
     1
 62
     7
420
 16777215
176
     1
 90
        1
176
     1
 90
        0
176
     1
 62
     7
176
     1
 62
   257
176
     1
 90
        1
176
     1
 90
        1
176
     1
 40
1.0
176
     1
 90
        8
176
     1
 62
     7
176
     1
 40
1.0
176
     1
 90
        1
176
     1
 90
        6
176
     1
 90
        2
176
     1
 62
     7
176
     1
 90
        3
176
     1
 90
        0
176
     1
 90
        0
176
     1
290
     0
176
     1
 90
       13
176
     1
 40
0.0
176
     1
 90
        0
176
     1
290
     0
176
     1
290
     1
176
     1
290
     1
176
     1
290
     0
176
     1
290
     0
176
     1
290
     0
176
     1
290
     0
176
     1
290
     0
176
     1
290
     0
176
     1
 90
       50
176
     1
 40
0.0
176
     1
 40
1.0
176
     1
 90
        0
176
     1
 62
    18
420
        0
176
     1
 90
       50
176
     1
 90
        3
176
     1
 62
     5
420
      255
176
     1
290
     0
176
     1
 90
       50
176
     1
 90
       50
176
     1
 90
       50
176
     1
290
     0
176
     1
 90
       50
176
     1
 62
   256
176
     0
 40
1.0
176
     0
 90
        2
176
     1
  1
strokes_ogs.tif
176
     1
290
     0
176
     1
 40
1.0
176
     1
 40
1.0
176
     1
  0
DICTIONARYVAR
  5
181
102
{ACAD_REACTORS
330
17C
102
}
330
17C
100
DictionaryVariables
280
     0
  1
1:1
  0
DICTIONARYVAR
  5
17E
102
{ACAD_REACTORS
330
17C
102
}
330
17C
100
DictionaryVariables
280
     0
  1
STANDARD
  0
DICTIONARYVAR
  5
17D
102
{ACAD_REACTORS
330
17C
102
}
330
17C
100
DictionaryVariables
280
     0
  1
STANDARD
  0
DICTIONARYVAR
  5
17F
102
{ACAD_REACTORS
330
17C
102
}
330
17C
100
DictionaryVariables
280
     0
  1
Imperial24
  0
DICTIONARYVAR
  5
180
102
{ACAD_REACTORS
330
17C
102
}
330
17C
100
DictionaryVariables
280
     0
  1
Imperial24
  0
DICTIONARY
  5
1A
330
19
100
AcDbDictionary
280
     1
281
     1
  3
BUMPTILE
360
1C
  3
DIFFUSETILE
360
1B
  3
OPACITYTILE
360
1F
  3
REFLECTIONTILE
360
1E
  3
REFRACTIONTILE
360
20
  3
SPECULARTILE
360
1D
  0
DICTIONARY
  5
12
330
11
100
AcDbDictionary
280
     1
281
     1
  3
BUMPTILE
360
14
  3
DIFFUSETILE
360
13
  3
OPACITYTILE
360
17
  3
REFLECTIONTILE
360
16
  3
REFRACTIONTILE
360
18
  3
SPECULARTILE
360
15
  0
DICTIONARY
  5
22
330
21
100
AcDbDictionary
280
     1
281
     1
  3
BUMPTILE
360
24
  3
DIFFUSETILE
360
23
  3
OPACITYTILE
360
27
  3
REFLECTIONTILE
360
26
  3
REFRACTIONTILE
360
28
  3
SPECULARTILE
360
25
  0
DICTIONARY
  5
182
330
65
100
AcDbDictionary
280
     1
281
     1
  3
ACAD_ROUNDTRIP_2008_TABLESTYLE_CELLSTYLEMAP
360
183
  0
XRECORD
  5
1C
102
{ACAD_REACTORS
330
1A
102
}
330
1A
100
AcDbXrecord
280
     1
270
     1
271
     1
  0
XRECORD
  5
1B
102
{ACAD_REACTORS
330
1A
102
}
330
1A
100
AcDbXrecord
280
     1
270
     1
271
     1
  0
XRECORD
  5
1F
102
{ACAD_REACTORS
330
1A
102
}
330
1A
100
AcDbXrecord
280
     1
270
     1
271
     1
  0
XRECORD
  5
1E
102
{ACAD_REACTORS
330
1A
102
}
330
1A
100
AcDbXrecord
280
     1
270
     1
271
     1
  0
XRECORD
  5
20
102
{ACAD_REACTORS
330
1A
102
}
330
1A
100
AcDbXrecord
280
     1
270
     1
271
     1
  0
XRECORD
  5
1D
102
{ACAD_REACTORS
330
1A
102
}
330
1A
100
AcDbXrecord
280
     1
270
     1
271
     1
  0
XRECORD
  5
14
102
{ACAD_REACTORS
330
12
102
}
330
12
100
AcDbXrecord
280
     1
270
     1
271
     1
  0
XRECORD
  5
13
102
{ACAD_REACTORS
330
12
102
}
330
12
100
AcDbXrecord
280
     1
270
     1
271
     1
  0
XRECORD
  5
17
102
{ACAD_REACTORS
330
12
102
}
330
12
100
AcDbXrecord
280
     1
270
     1
271
     1
  0
XRECORD
  5
16
102
{ACAD_REACTORS
330
12
102
}
330
12
100
AcDbXrecord
280
     1
270
     1
271
     1
  0
XRECORD
  5
18
102
{ACAD_REACTORS
330
12
102
}
330
12
100
AcDbXrecord
280
     1
270
     1
271
     1
  0
XRECORD
  5
15
102
{ACAD_REACTORS
330
12
102
}
330
12
100
AcDbXrecord
280
     1
270
     1
271
     1
  0
XRECORD
  5
24
102
{ACAD_REACTORS
330
22
102
}
330
22
100
AcDbXrecord
280
     1
270
     1
271
     1
  0
XRECORD
  5
23
102
{ACAD_REACTORS
330
22
102
}
330
22
100
AcDbXrecord
280
     1
270
     1
271
     1
  0
XRECORD
  5
27
102
{ACAD_REACTORS
330
22
102
}
330
22
100
AcDbXrecord
280
     1
270
     1
271
     1
  0
XRECORD
  5
26
102
{ACAD_REACTORS
330
22
102
}
330
22
100
AcDbXrecord
280
     1
270
     1
271
     1
  0
XRECORD
  5
28
102
{ACAD_REACTORS
330
22
102
}
330
22
100
AcDbXrecord
280
     1
270
     1
271
     1
  0
XRECORD
  5
25
102
{ACAD_REACTORS
330
22
102
}
330
22
100
AcDbXrecord
280
     1
270
     1
271
     1
  0
CELLSTYLEMAP
  5
183
102
{ACAD_REACTORS
330
182
102
}
330
182
100
AcDbCellStyleMap
 90
        3
300
CELLSTYLE
  1
TABLEFORMAT_BEGIN
 90
        5
170
     1
 91
        0
 92
    32768
 62
   257
 93
        1
300
CONTENTFORMAT
  1
CONTENTFORMAT_BEGIN
 90
        0
 91
        0
 92
      512
 93
        0
300

 40
0.0
140
1.0
 94
        5
 62
     0
340
55
144
0.25
309
CONTENTFORMAT_END
171
     0
 94
        0
309
TABLEFORMAT_END
  1
CELLSTYLE_BEGIN
 90
        1
 91
        1
300
_TITLE
309
CELLSTYLE_END
300
CELLSTYLE
  1
TABLEFORMAT_BEGIN
 90
        5
170
     1
 91
        0
 92
        0
 62
   257
 93
        1
300
CONTENTFORMAT
  1
CONTENTFORMAT_BEGIN
 90
        0
 91
        0
 92
      512
 93
        0
300

 40
0.0
140
1.0
 94
        5
 62
     0
340
55
144
0.18
309
CONTENTFORMAT_END
171
     0
 94
        0
309
TABLEFORMAT_END
  1
CELLSTYLE_BEGIN
 90
        2
 91
        1
300
_HEADER
309
CELLSTYLE_END
300
CELLSTYLE
  1
TABLEFORMAT_BEGIN
 90
        5
170
     1
 91
        0
 92
        0
 62
   257
 93
        1
300
CONTENTFORMAT
  1
CONTENTFORMAT_BEGIN
 90
        0
 91
        0
 92
      512
 93
        0
300

 40
0.0
140
1.0
 94
        2
 62
     0
340
55
144
0.18
309
CONTENTFORMAT_END
171
     0
 94
        0
309
TABLEFORMAT_END
  1
CELLSTYLE_BEGIN
 90
        3
 91
        2
300
_DATA
309
CELLSTYLE_END
  0
ENDSEC
  0
EOF
