  0
SECTION
  2
HEADER
  9
$ACADVER
  1
AC1032
  9
$ACADMAINTVER
 90
      228
  9
$DWGCODEPAGE
  3
ANSI_1252
  9
$REQUIREDVERSIONS
160
                 0
  9
$INSBASE
 10
0.0
 20
0.0
 30
0.0
  9
$EXTMIN
 10
1.000000000000000E+20
 20
1.000000000000000E+20
 30
1.000000000000000E+20
  9
$EXTMAX
 10
-1.000000000000000E+20
 20
-1.000000000000000E+20
 30
-1.000000000000000E+20
  9
$LIMMIN
 10
0.0
 20
0.0
  9
$LIMMAX
 10
12.0
 20
9.0
  9
$ORTHOMODE
 70
     0
  9
$REGENMODE
 70
     1
  9
$FILLMODE
 70
     1
  9
$QTEXTMODE
 70
     0
  9
$MIRRTEXT
 70
     0
  9
$LTSCALE
 40
1.0
  9
$ATTMODE
 70
     1
  9
$TEXTSIZE
 40
0.2
  9
$TRACEWID
 40
0.05
  9
$TEXTSTYLE
  7
Standard
  9
$CLAYER
  8
0
  9
$CELTYPE
  6
ByLayer
  9
$CECOLOR
 62
   256
  9
$CELTSCALE
 40
1.0
  9
$DISPSILH
 70
     0
  9
$DIMSCALE
 40
1.0
  9
$DIMASZ
 40
0.18
  9
$DIMEXO
 40
0.0625
  9
$DIMDLI
 40
0.38
  9
$DIMRND
 40
0.0
  9
$DIMDLE
 40
0.0
  9
$DIMEXE
 40
0.18
  9
$DIMTP
 40
0.0
  9
$DIMTM
 40
0.0
  9
$DIMTXT
 40
0.18
  9
$DIMCEN
 40
0.09
  9
$DIMTSZ
 40
0.0
  9
$DIMTOL
 70
     0
  9
$DIMLIM
 70
     0
  9
$DIMTIH
 70
     1
  9
$DIMTOH
 70
     1
  9
$DIMSE1
 70
     0
  9
$DIMSE2
 70
     0
  9
$DIMTAD
 70
     0
  9
$DIMZIN
 70
     0
  9
$DIMBLK
  1

  9
$DIMASO
 70
     1
  9
$DIMSHO
 70
     1
  9
$DIMPOST
  1

  9
$DIMAPOST
  1

  9
$DIMALT
 70
     0
  9
$DIMALTD
 70
     2
  9
$DIMALTF
 40
25.4
  9
$DIMLFAC
 40
1.0
  9
$DIMTOFL
 70
     0
  9
$DIMTVP
 40
0.0
  9
$DIMTIX
 70
     0
  9
$DIMSOXD
 70
     0
  9
$DIMSAH
 70
     0
  9
$DIMBLK1
  1

  9
$DIMBLK2
  1

  9
$DIMSTYLE
  2
Standard
  9
$DIMCLRD
 70
     0
  9
$DIMCLRE
 70
     0
  9
$DIMCLRT
 70
     0
  9
$DIMTFAC
 40
1.0
  9
$DIMGAP
 40
0.09
  9
$DIMJUST
 70
     0
  9
$DIMSD1
 70
     0
  9
$DIMSD2
 70
     0
  9
$DIMTOLJ
 70
     1
  9
$DIMTZIN
 70
     0
  9
$DIMALTZ
 70
     0
  9
$DIMALTTZ
 70
     0
  9
$DIMUPT
 70
     0
  9
$DIMDEC
 70
     4
  9
$DIMTDEC
 70
     4
  9
$DIMALTU
 70
     2
  9
$DIMALTTD
 70
     2
  9
$DIMTXSTY
  7
Standard
  9
$DIMAUNIT
 70
     0
  9
$DIMADEC
 70
     0
  9
$DIMALTRND
 40
0.0
  9
$DIMAZIN
 70
     0
  9
$DIMDSEP
 70
    46
  9
$DIMATFIT
 70
     3
  9
$DIMFRAC
 70
     0
  9
$DIMLDRBLK
  1

  9
$DIMLUNIT
 70
     2
  9
$DIMLWD
 70
    -2
  9
$DIMLWE
 70
    -2
  9
$DIMTMOVE
 70
     0
  9
$DIMFXL
 40
1.0
  9
$DIMFXLON
 70
     0
  9
$DIMJOGANG
 40
0.7853981633974483
  9
$DIMTFILL
 70
     0
  9
$DIMTFILLCLR
 70
     0
  9
$DIMARCSYM
 70
     0
  9
$DIMLTYPE
  6

  9
$DIMLTEX1
  6

  9
$DIMLTEX2
  6

  9
$DIMTXTDIRECTION
 70
     0
  9
$LUNITS
 70
     2
  9
$LUPREC
 70
     4
  9
$SKETCHINC
 40
0.1
  9
$FILLETRAD
 40
0.0
  9
$AUNITS
 70
     0
  9
$AUPREC
 70
     0
  9
$MENU
  1
.
  9
$ELEVATION
 40
0.0
  9
$PELEVATION
 40
0.0
  9
$THICKNESS
 40
0.0
  9
$LIMCHECK
 70
     0
  9
$CHAMFERA
 40
0.0
  9
$CHAMFERB
 40
0.0
  9
$CHAMFERC
 40
0.0
  9
$CHAMFERD
 40
0.0
  9
$SKPOLY
 70
     0
  9
$TDCREATE
 40
2459838.586446760
  9
$TDUCREATE
 40
2459838.711446759
  9
$TDUPDATE
 40
2459838.586446760
  9
$TDUUPDATE
 40
2459838.711446759
  9
$TDINDWG
 40
0.0000000000
  9
$TDUSRTIMER
 40
0.0000000000
  9
$USRTIMER
 70
     1
  9
$ANGBASE
 50
0.0
  9
$ANGDIR
 70
     0
  9
$PDMODE
 70
     0
  9
$PDSIZE
 40
0.0
  9
$PLINEWID
 40
0.0
  9
$SPLFRAME
 70
     0
  9
$SPLINETYPE
 70
     6
  9
$SPLINESEGS
 70
     8
  9
$HANDSEED
  5
342
  9
$SURFTAB1
 70
     6
  9
$SURFTAB2
 70
     6
  9
$SURFTYPE
 70
     6
  9
$SURFU
 70
     6
  9
$SURFV
 70
     6
  9
$UCSBASE
  2

  9
$UCSNAME
  2

  9
$UCSORG
 10
0.0
 20
0.0
 30
0.0
  9
$UCSXDIR
 10
1.0
 20
0.0
 30
0.0
  9
$UCSYDIR
 10
0.0
 20
1.0
 30
0.0
  9
$UCSORTHOREF
  2

  9
$UCSORTHOVIEW
 70
     0
  9
$UCSORGTOP
 10
0.0
 20
0.0
 30
0.0
  9
$UCSORGBOTTOM
 10
0.0
 20
0.0
 30
0.0
  9
$UCSORGLEFT
 10
0.0
 20
0.0
 30
0.0
  9
$UCSORGRIGHT
 10
0.0
 20
0.0
 30
0.0
  9
$UCSORGFRONT
 10
0.0
 20
0.0
 30
0.0
  9
$UCSORGBACK
 10
0.0
 20
0.0
 30
0.0
  9
$PUCSBASE
  2

  9
$PUCSNAME
  2

  9
$PUCSORG
 10
0.0
 20
0.0
 30
0.0
  9
$PUCSXDIR
 10
1.0
 20
0.0
 30
0.0
  9
$PUCSYDIR
 10
0.0
 20
1.0
 30
0.0
  9
$PUCSORTHOREF
  2

  9
$PUCSORTHOVIEW
 70
     0
  9
$PUCSORGTOP
 10
0.0
 20
0.0
 30
0.0
  9
$PUCSORGBOTTOM
 10
0.0
 20
0.0
 30
0.0
  9
$PUCSORGLEFT
 10
0.0
 20
0.0
 30
0.0
  9
$PUCSORGRIGHT
 10
0.0
 20
0.0
 30
0.0
  9
$PUCSORGFRONT
 10
0.0
 20
0.0
 30
0.0
  9
$PUCSORGBACK
 10
0.0
 20
0.0
 30
0.0
  9
$USERI1
 70
     0
  9
$USERI2
 70
     0
  9
$USERI3
 70
     0
  9
$USERI4
 70
     0
  9
$USERI5
 70
     0
  9
$USERR1
 40
0.0
  9
$USERR2
 40
0.0
  9
$USERR3
 40
0.0
  9
$USERR4
 40
0.0
  9
$USERR5
 40
0.0
  9
$WORLDVIEW
 70
     1
  9
$SHADEDGE
 70
     3
  9
$SHADEDIF
 70
    70
  9
$TILEMODE
 70
     1
  9
$MAXACTVP
 70
    64
  9
$PINSBASE
 10
0.0
 20
0.0
 30
0.0
  9
$PLIMCHECK
 70
     0
  9
$PEXTMIN
 10
1.000000000000000E+20
 20
1.000000000000000E+20
 30
1.000000000000000E+20
  9
$PEXTMAX
 10
-1.000000000000000E+20
 20
-1.000000000000000E+20
 30
-1.000000000000000E+20
  9
$PLIMMIN
 10
0.0
 20
0.0
  9
$PLIMMAX
 10
12.0
 20
9.0
  9
$UNITMODE
 70
     0
  9
$VISRETAIN
 70
     1
  9
$PLINEGEN
 70
     0
  9
$PSLTSCALE
 70
     1
  9
$TREEDEPTH
 70
  3020
  9
$CMLSTYLE
  2
Standard
  9
$CMLJUST
 70
     0
  9
$CMLSCALE
 40
1.0
  9
$PROXYGRAPHICS
 70
     1
  9
$MEASUREMENT
 70
     0
  9
$CELWEIGHT
370
    -1
  9
$ENDCAPS
280
     0
  9
$JOINSTYLE
280
     0
  9
$LWDISPLAY
290
     1
  9
$INSUNITS
 70
     0
  9
$HYPERLINKBASE
  1

  9
$STYLESHEET
  1

  9
$XEDIT
290
     1
  9
$CEPSNTYPE
380
     0
  9
$PSTYLEMODE
290
     1
  9
$FINGERPRINTGUID
  2
{FE993B19-A10F-D146-8B85-CCC0BAD758DB}
  9
$VERSIONGUID
  2
{EE24F5DF-82E0-9D4E-8935-EA3E1F47F580}
  9
$EXTNAMES
290
     1
  9
$PSVPSCALE
 40
0.0
  9
$OLESTARTUP
290
     0
  9
$SORTENTS
280
   127
  9
$INDEXCTL
280
     0
  9
$HIDETEXT
280
     1
  9
$XCLIPFRAME
280
     2
  9
$HALOGAP
280
     0
  9
$OBSCOLOR
 70
   257
  9
$OBSLTYPE
280
     0
  9
$INTERSECTIONDISPLAY
280
     0
  9
$INTERSECTIONCOLOR
 70
   257
  9
$DIMASSOC
280
     2
  9
$PROJECTNAME
  1

  9
$CAMERADISPLAY
290
     0
  9
$LENSLENGTH
 40
50.0
  9
$CAMERAHEIGHT
 40
0.0
  9
$STEPSPERSEC
 40
2.0
  9
$STEPSIZE
 40
6.0
  9
$3DDWFPREC
 40
2.0
  9
$PSOLWIDTH
 40
0.25
  9
$PSOLHEIGHT
 40
4.0
  9
$LOFTANG1
 40
1.570796326794896
  9
$LOFTANG2
 40
1.570796326794896
  9
$LOFTMAG1
 40
0.0
  9
$LOFTMAG2
 40
0.0
  9
$LOFTPARAM
 70
     7
  9
$LOFTNORMALS
280
     1
  9
$LATITUDE
 40
37.795
  9
$LONGITUDE
 40
-122.394
  9
$NORTHDIRECTION
 40
0.0
  9
$TIMEZONE
 70
 -8000
  9
$LIGHTGLYPHDISPLAY
280
     1
  9
$TILEMODELIGHTSYNCH
280
     1
  9
$CMATERIAL
347
11
  9
$SOLIDHIST
280
     0
  9
$SHOWHIST
280
     1
  9
$DWFFRAME
280
     2
  9
$DGNFRAME
280
     0
  9
$REALWORLDSCALE
290
     1
  9
$INTERFERECOLOR
 62
     1
  9
$INTERFEREOBJVS
345
33
  9
$INTERFEREVPVS
346
30
  9
$CSHADOW
280
     0
  9
$SHADOWPLANELOCATION
 40
0.0
  0
ENDSEC
  0
SECTION
  2
CLASSES
  0
CLASS
  1
ACDBDICTIONARYWDFLT
  2
AcDbDictionaryWithDefault
  3
ObjectDBX Classes
 90
        0
 91
        1
280
     0
281
     0
  0
CLASS
  1
MATERIAL
  2
AcDbMaterial
  3
ObjectDBX Classes
 90
     1153
 91
        3
280
     0
281
     0
  0
CLASS
  1
VISUALSTYLE
  2
AcDbVisualStyle
  3
ObjectDBX Classes
 90
     4095
 91
       24
280
     0
281
     0
  0
CLASS
  1
SCALE
  2
AcDbScale
  3
ObjectDBX Classes
 90
     1153
 91
       17
280
     0
281
     0
  0
CLASS
  1
TABLESTYLE
  2
AcDbTableStyle
  3
ObjectDBX Classes
 90
     4095
 91
        1
280
     0
281
     0
  0
CLASS
  1
MLEADERSTYLE
  2
AcDbMLeaderStyle
  3
ACDB_MLEADERSTYLE_CLASS
 90
     4095
 91
        1
280
     0
281
     0
  0
CLASS
  1
ACDBSECTIONVIEWSTYLE
  2
AcDbSectionViewStyle
  3
ObjectDBX Classes
 90
     1025
 91
        1
280
     0
281
     0
  0
CLASS
  1
ACDBDETAILVIEWSTYLE
  2
AcDbDetailViewStyle
  3
ObjectDBX Classes
 90
     1025
 91
        1
280
     0
281
     0
  0
CLASS
  1
DICTIONARYVAR
  2
AcDbDictionaryVar
  3
ObjectDBX Classes
 90
        0
 91
        5
280
     0
281
     0
  0
CLASS
  1
CELLSTYLEMAP
  2
AcDbCellStyleMap
  3
ObjectDBX Classes
 90
     1152
 91
        1
280
     0
281
     0
  0
ENDSEC
  0
SECTION
  2
TABLES
  0
TABLE
  2
VPORT
  5
8
330
0
100
AcDbSymbolTable
 70
     1
  0
VPORT
  5
57
330
8
100
AcDbSymbolTableRecord
100
AcDbViewportTableRecord
  2
*Active
 70
     0
 10
0.0
 20
0.0
 11
1.0
 21
1.0
 12
0.0
 22
0.0
 13
0.0
 23
0.0
 14
1.0
 24
1.0
 15
0.0
 25
0.0
 16
0.0
 26
0.0
 36
1.0
 17
216.304666666666
 27
544.9449999999997
 37
0.0
 40
418.9944666666677
 41
1.053144027200353
 42
50.0
 43
0.0
 44
0.0
 50
0.0
 51
0.0
 71
     0
 72
   100
 73
     1
 74
     1
 75
     0
 76
     0
 77
     0
 78
     0
281
     0
 65
     1
110
0.0
120
0.0
130
0.0
111
1.0
121
0.0
131
0.0
112
0.0
122
1.0
132
0.0
 79
     0
146
0.0
 60
     3
 61
     5
292
     1
282
     1
141
0.0
142
0.0
 63
   250
421
  3355443
  0
ENDTAB
  0
TABLE
  2
LTYPE
  5
5
330
0
100
AcDbSymbolTable
 70
     1
  0
LTYPE
  5
5B
330
5
100
AcDbSymbolTableRecord
100
AcDbLinetypeTableRecord
  2
ByBlock
 70
     0
  3

 72
    65
 73
     0
 40
0.0
  0
LTYPE
  5
5C
330
5
100
AcDbSymbolTableRecord
100
AcDbLinetypeTableRecord
  2
ByLayer
 70
     0
  3

 72
    65
 73
     0
 40
0.0
  0
LTYPE
  5
5D
330
5
100
AcDbSymbolTableRecord
100
AcDbLinetypeTableRecord
  2
Continuous
 70
     0
  3
Solid line
 72
    65
 73
     0
 40
0.0
  0
ENDTAB
  0
TABLE
  2
LAYER
  5
2
330
0
100
AcDbSymbolTable
 70
     1
  0
LAYER
  5
54
330
2
100
AcDbSymbolTableRecord
100
AcDbLayerTableRecord
  2
0
 70
     0
 62
     7
  6
Continuous
370
     0
390
F
347
21
348
0
  0
ENDTAB
  0
TABLE
  2
STYLE
  5
3
330
0
100
AcDbSymbolTable
 70
     2
  0
STYLE
  5
55
330
3
100
AcDbSymbolTableRecord
100
AcDbTextStyleTableRecord
  2
Standard
 70
     0
 40
0.0
 41
1.0
 50
0.0
 71
     0
 42
0.2
  3
txt
  4

  0
STYLE
  5
5A
330
3
100
AcDbSymbolTableRecord
100
AcDbTextStyleTableRecord
  2
Annotative
 70
     0
 40
0.0
 41
1.0
 50
0.0
 71
     0
 42
0.2
  3
txt
  4

1001
AcadAnnotative
1000
AnnotativeData
1002
{
1070
     1
1070
     1
1002
}
  0
ENDTAB
  0
TABLE
  2
VIEW
  5
6
330
0
100
AcDbSymbolTable
 70
     0
  0
ENDTAB
  0
TABLE
  2
UCS
  5
7
330
0
100
AcDbSymbolTable
 70
     0
  0
ENDTAB
  0
TABLE
  2
APPID
  5
9
330
0
100
AcDbSymbolTable
 70
     2
  0
APPID
  5
56
330
9
100
AcDbSymbolTableRecord
100
AcDbRegAppTableRecord
  2
ACAD
 70
     0
  0
APPID
  5
5E
330
9
100
AcDbSymbolTableRecord
100
AcDbRegAppTableRecord
  2
AcadAnnotative
 70
     0
  0
ENDTAB
  0
TABLE
  2
DIMSTYLE
  5
A
330
0
100
AcDbSymbolTable
 70
     2
100
AcDbDimStyleTable
 71
     0
  0
DIMSTYLE
105
58
330
A
100
AcDbSymbolTableRecord
100
AcDbDimStyleTableRecord
  2
Standard
 70
     0
340
55
  0
DIMSTYLE
105
59
330
A
100
AcDbSymbolTableRecord
100
AcDbDimStyleTableRecord
  2
Annotative
 70
     0
340
55
1001
AcadAnnotative
1000
AnnotativeData
1002
{
1070
     1
1070
     1
1002
}
  0
ENDTAB
  0
TABLE
  2
BLOCK_RECORD
  5
1
330
0
100
AcDbSymbolTable
 70
     5
  0
BLOCK_RECORD
  5
70
330
1
100
AcDbSymbolTableRecord
100
AcDbBlockTableRecord
  2
*Model_Space
340
73
 70
     0
280
     1
281
     0
  0
BLOCK_RECORD
  5
6C
330
1
100
AcDbSymbolTableRecord
100
AcDbBlockTableRecord
  2
*Paper_Space
340
6F
 70
     0
280
     1
281
     0
  0
BLOCK_RECORD
  5
74
330
1
100
AcDbSymbolTableRecord
100
AcDbBlockTableRecord
  2
*Paper_Space0
340
77
 70
     0
280
     1
281
     0
  0
BLOCK_RECORD
  5
115
330
1
100
AcDbSymbolTableRecord
100
AcDbBlockTableRecord
  2
Block_0
340
0
102
{BLKREFS
331
116
102
}
 70
     0
280
     1
281
     0
  0
BLOCK_RECORD
  5
11B
330
1
100
AcDbSymbolTableRecord
100
AcDbBlockTableRecord
  2
Block_1
340
0
102
{BLKREFS
331
11C
102
}
 70
     0
280
     1
281
     0
  0
BLOCK_RECORD
  5
121
330
1
100
AcDbSymbolTableRecord
100
AcDbBlockTableRecord
  2
Block_2
340
0
102
{BLKREFS
331
122
102
}
 70
     0
280
     1
281
     0
  0
BLOCK_RECORD
  5
330
330
1
100
AcDbSymbolTableRecord
100
AcDbBlockTableRecord
  2
Block_3
340
0
102
{BLKREFS
331
331
102
}
 70
     0
280
     1
281
     0
  0
ENDTAB
  0
ENDSEC
  0
SECTION
  2
BLOCKS
  0
BLOCK
  5
71
330
70
100
AcDbEntity
  8
0
100
AcDbBlockBegin
  2
*Model_Space
 70
     0
 10
0.0
 20
0.0
 30
0.0
  3
*Model_Space
  1

  0
ENDBLK
  5
72
330
70
100
AcDbEntity
  8
0
100
AcDbBlockEnd
  0
BLOCK
  5
6D
330
6C
100
AcDbEntity
 67
     1
  8
0
100
AcDbBlockBegin
  2
*Paper_Space
 70
     0
 10
0.0
 20
0.0
 30
0.0
  3
*Paper_Space
  1

  0
ENDBLK
  5
6E
330
6C
100
AcDbEntity
 67
     1
  8
0
100
AcDbBlockEnd
  0
BLOCK
  5
75
330
74
100
AcDbEntity
 67
     1
  8
0
100
AcDbBlockBegin
  2
*Paper_Space0
 70
     0
 10
0.0
 20
0.0
 30
0.0
  3
*Paper_Space0
  1

  0
ENDBLK
  5
76
330
74
100
AcDbEntity
 67
     1
  8
0
100
AcDbBlockEnd
  0
BLOCK
  5
117
330
115
100
AcDbEntity
  8
0
100
AcDbBlockBegin
  2
Block_0
 70
     0
 10
0.0
 20
0.0
 30
0.0
  3
Block_0
  1

  0
LINE
  5
119
330
115
100
AcDbEntity
  8
0
 62
     7
370
     9
100
AcDbLine
 10
76.7024859721705
 20
408.960388551899
 30
0.0
 11
76.7024859721705
 21
395.1650990651142
 31
0.0
  0
LINE
  5
11A
330
115
100
AcDbEntity
  8
0
 62
     7
370
     9
100
AcDbLine
 10
303.6296296296296
 20
408.960388551899
 30
0.0
 11
303.6296296296296
 21
395.1650990651142
 31
0.0
  0
ENDBLK
  5
118
330
115
100
AcDbEntity
  8
0
100
AcDbBlockEnd
  0
BLOCK
  5
11D
330
11B
100
AcDbEntity
  8
0
100
AcDbBlockBegin
  2
Block_1
 70
     0
 10
0.0
 20
0.0
 30
0.0
  3
Block_1
  1

  0
LINE
  5
11F
330
11B
100
AcDbEntity
  8
0
 62
     7
370
     9
100
AcDbLine
 10
72.35515515255702
 20
412.8790718071686
 30
0.0
 11
56.99813478047599
 21
412.8790718071686
 31
0.0
  0
LINE
  5
120
330
11B
100
AcDbEntity
  8
0
 62
     7
370
     9
100
AcDbLine
 10
72.35515515255702
 20
612.8826560476746
 30
0.0
 11
56.99813478047599
 21
612.8826560476746
 31
0.0
  0
ENDBLK
  5
11E
330
11B
100
AcDbEntity
  8
0
100
AcDbBlockEnd
  0
BLOCK
  5
123
330
121
100
AcDbEntity
  8
0
100
AcDbBlockBegin
  2
Block_2
 70
     0
 10
0.0
 20
0.0
 30
0.0
  3
Block_2
  1

  0
LINE
  5
125
330
121
100
AcDbEntity
  8
0
 62
     7
370
     9
100
AcDbLine
 10
90.96578153567135
 20
670.7650035255883
 30
0.0
 11
56.7984149318363
 21
670.7650035255883
 31
0.0
  0
LINE
  5
126
330
121
100
AcDbEntity
  8
0
 62
     7
370
     9
100
AcDbLine
 10
72.7971145679885
 20
693.4192556635998
 30
0.0
 11
56.7984149318363
 21
693.4192556635998
 31
0.0
  0
ENDBLK
  5
124
330
121
100
AcDbEntity
  8
0
100
AcDbBlockEnd
  0
BLOCK
  5
332
330
330
100
AcDbEntity
  8
0
100
AcDbBlockBegin
  2
Block_3
 70
     0
 10
0.0
 20
0.0
 30
0.0
  3
Block_3
  1

  0
SPLINE
  5
334
330
330
100
AcDbEntity
  8
0
 62
   251
370
    18
100
AcDbSpline
210
0.0
220
0.0
230
1.0
 70
     9
 71
     3
 72
    29
 73
    25
 74
     0
 42
0.0000000001
 43
0.0000000001
 40
0.0
 40
0.0
 40
0.0
 40
0.0
 40
1.0
 40
1.0
 40
1.0
 40
2.0
 40
2.0
 40
2.0
 40
3.0
 40
3.0
 40
3.0
 40
4.0
 40
4.0
 40
4.0
 40
5.0
 40
5.0
 40
5.0
 40
6.0
 40
6.0
 40
6.0
 40
7.0
 40
7.0
 40
7.0
 40
8.0
 40
8.0
 40
8.0
 40
8.0
 10
404.3387527395989
 20
399.6215760526938
 30
0.0
 10
404.3387527395989
 20
398.2626295627269
 30
0.0
 10
403.2275844262458
 20
397.1514626232202
 30
0.0
 10
401.8676789934943
 20
397.1514626232202
 30
0.0
 10
401.8676789934943
 20
397.1514626232202
 30
0.0
 10
387.3447185533696
 20
397.1514626232202
 30
0.0
 10
387.3447185533696
 20
397.1514626232202
 30
0.0
 10
385.9876926966626
 20
397.1514626232202
 30
0.0
 10
384.8755645246256
 20
398.2626295627269
 30
0.0
 10
384.8755645246256
 20
399.6215760526938
 30
0.0
 10
384.8755645246256
 20
399.6215760526938
 30
0.0
 10
384.8755645246256
 20
414.1464555232596
 30
0.0
 10
384.8755645246256
 20
414.1464555232596
 30
0.0
 10
384.8755645246256
 20
415.5034832117562
 30
0.0
 10
385.9876926966626
 20
416.6156095520018
 30
0.0
 10
387.3447185533696
 20
416.6156095520018
 30
0.0
 10
387.3447185533696
 20
416.6156095520018
 30
0.0
 10
401.8676789934943
 20
416.6156095520018
 30
0.0
 10
401.8676789934943
 20
416.6156095520018
 30
0.0
 10
403.2275844262458
 20
416.6156095520018
 30
0.0
 10
404.3387527395989
 20
415.5034832117562
 30
0.0
 10
404.3387527395989
 20
414.1464555232596
 30
0.0
 10
404.3387527395989
 20
414.1464555232596
 30
0.0
 10
404.3387527395989
 20
399.6215760526938
 30
0.0
 10
404.3387527395989
 20
399.6215760526938
 30
0.0
  0
LWPOLYLINE
  5
335
330
330
100
AcDbEntity
  8
0
100
AcDbPolyline
 90
        4
 70
     1
 43
0.0
 10
384.4790219907427
 20
396.7551112825604
 10
404.8151998451722
 20
396.7551112825604
 10
404.8151998451722
 20
417.0115769033909
 10
384.4790219907427
 20
417.0115769033909
  0
ENDBLK
  5
333
330
330
100
AcDbEntity
  8
0
100
AcDbBlockEnd
  0
ENDSEC
  0
SECTION
  2
ENTITIES
  0
SPLINE
  5
78
330
70
100
AcDbEntity
  8
0
 62
     7
370
     5
100
AcDbSpline
210
0.0
220
0.0
230
1.0
 70
    11
 71
     3
 72
    29
 73
    25
 74
     0
 42
0.0000000001
 43
0.0000000001
 40
0.0
 40
0.0
 40
0.0
 40
0.0
 40
1.0
 40
1.0
 40
1.0
 40
2.0
 40
2.0
 40
2.0
 40
3.0
 40
3.0
 40
3.0
 40
4.0
 40
4.0
 40
4.0
 40
5.0
 40
5.0
 40
5.0
 40
6.0
 40
6.0
 40
6.0
 40
7.0
 40
7.0
 40
7.0
 40
8.0
 40
8.0
 40
8.0
 40
8.0
 10
126.5348944648904
 20
530.8389454346088
 30
0.0
 10
126.4589642070759
 20
530.7634900506127
 30
0.0
 10
126.3662358043402
 20
530.725929596766
 30
0.0
 10
126.2568579128456
 20
530.725929596766
 30
0.0
 10
126.1474800213518
 20
530.725929596766
 30
0.0
 10
126.0547516186152
 20
530.7634900506127
 30
0.0
 10
125.9788048434666
 20
530.8389454346088
 30
0.0
 10
125.902858068318
 20
530.9144008186049
 30
0.0
 10
125.865066371558
 20
531.0046681361982
 30
0.0
 10
125.865066371558
 20
531.1097515166929
 30
0.0
 10
125.865066371558
 20
531.2139677363393
 30
0.0
 10
125.902858068318
 20
531.3041359498092
 30
0.0
 10
125.9788048434666
 20
531.3796945672529
 30
0.0
 10
126.0547516186152
 20
531.4552531846938
 30
0.0
 10
126.1474800213518
 20
531.4930448814175
 30
0.0
 10
126.2568579128456
 20
531.4930448814175
 30
0.0
 10
126.3662358043402
 20
531.4930448814175
 30
0.0
 10
126.4589642070759
 20
531.4552531846938
 30
0.0
 10
126.5348944648904
 20
531.3796945672529
 30
0.0
 10
126.6108247227048
 20
531.3041359498092
 30
0.0
 10
126.6486164194266
 20
531.2139677363393
 30
0.0
 10
126.6486164194266
 20
531.1097515166929
 30
0.0
 10
126.6486164194266
 20
531.0046681361982
 30
0.0
 10
126.6108247227048
 20
530.9144008186049
 30
0.0
 10
126.5348944648904
 20
530.8389454346088
 30
0.0
  0
SPLINE
  5
79
330
70
100
AcDbEntity
  8
0
 62
     7
370
     5
100
AcDbSpline
210
0.0
220
0.0
230
1.0
 70
     9
 71
     3
 72
    17
 73
    13
 74
     0
 42
0.0000000001
 43
0.0000000001
 40
0.0
 40
0.0
 40
0.0
 40
0.0
 40
1.0
 40
1.0
 40
1.0
 40
2.0
 40
2.0
 40
2.0
 40
3.0
 40
3.0
 40
3.0
 40
4.0
 40
4.0
 40
4.0
 40
4.0
 10
289.2017518650764
 20
422.0537454115201
 30
0.0
 10
289.2017518650764
 20
421.6521170769483
 30
0.0
 10
289.5245065672771
 20
421.3248461608891
 30
0.0
 10
289.9259527073937
 20
421.3248461608891
 30
0.0
 10
290.3293864232801
 20
421.3248461608891
 30
0.0
 10
290.6604613385498
 20
421.6501295011376
 30
0.0
 10
290.6604613385498
 20
422.0573616952133
 30
0.0
 10
290.6604613385498
 20
422.4588133563884
 30
0.0
 10
290.3351779983013
 20
422.7877129803673
 30
0.0
 10
289.9339140526045
 20
422.7877129803673
 30
0.0
 10
289.5304748156568
 20
422.7877129803673
 30
0.0
 10
289.2017518650764
 20
422.460800932161
 30
0.0
 10
289.2017518650764
 20
422.0537454115201
 30
0.0
  0
SPLINE
  5
7A
330
70
100
AcDbEntity
  8
0
 62
     7
370
     5
100
AcDbSpline
210
0.0
220
0.0
230
1.0
 70
     9
 71
     3
 72
    17
 73
    13
 74
     0
 42
0.0000000001
 43
0.0000000001
 40
0.0
 40
0.0
 40
0.0
 40
0.0
 40
1.0
 40
1.0
 40
1.0
 40
2.0
 40
2.0
 40
2.0
 40
3.0
 40
3.0
 40
3.0
 40
4.0
 40
4.0
 40
4.0
 40
4.0
 10
203.6278109205168
 20
426.0716888803008
 30
0.0
 10
202.6309679279029
 20
426.0716888803008
 30
0.0
 10
201.8200309194662
 20
426.8824933827109
 30
0.0
 10
201.8200309194662
 20
427.8792701222701
 30
0.0
 10
201.8200309194662
 20
428.8760468618311
 30
0.0
 10
202.6309679279029
 20
429.6869838703059
 30
0.0
 10
203.6278109204968
 20
429.6869838703059
 30
0.0
 10
204.6246539130907
 20
429.6869838703059
 30
0.0
 10
205.4355909215656
 20
428.8760468618311
 30
0.0
 10
205.4355909215656
 20
427.8792701222701
 30
0.0
 10
205.4355909215656
 20
426.8824933827109
 30
0.0
 10
204.6246539130907
 20
426.0716888803008
 30
0.0
 10
203.6278109205168
 20
426.0716888803008
 30
0.0
  0
SPLINE
  5
7B
330
70
100
AcDbEntity
  8
0
 62
     7
370
     5
100
AcDbSpline
210
0.0
220
0.0
230
1.0
 70
     9
 71
     3
 72
    53
 73
    49
 74
     0
 42
0.0000000001
 43
0.0000000001
 40
0.0
 40
0.0
 40
0.0
 40
0.0
 40
1.0
 40
1.0
 40
1.0
 40
2.0
 40
2.0
 40
2.0
 40
3.0
 40
3.0
 40
3.0
 40
4.0
 40
4.0
 40
4.0
 40
5.0
 40
5.0
 40
5.0
 40
6.0
 40
6.0
 40
6.0
 40
7.0
 40
7.0
 40
7.0
 40
8.0
 40
8.0
 40
8.0
 40
9.0
 40
9.0
 40
9.0
 40
10.0
 40
10.0
 40
10.0
 40
11.0
 40
11.0
 40
11.0
 40
12.0
 40
12.0
 40
12.0
 40
13.0
 40
13.0
 40
13.0
 40
14.0
 40
14.0
 40
14.0
 40
15.0
 40
15.0
 40
15.0
 40
16.0
 40
16.0
 40
16.0
 40
16.0
 10
201.8630934615694
 20
434.6681511942143
 30
0.0
 10
201.8630973080617
 20
434.6681511942143
 30
0.0
 10
203.4784761956526
 20
434.6681544756575
 30
0.0
 10
203.4784769338184
 20
434.6681501205412
 30
0.0
 10
203.4784767490473
 20
434.6681462733568
 30
0.0
 10
203.4784766053899
 20
433.0527718968842
 30
0.0
 10
203.4784766053899
 20
433.0527680502773
 30
0.0
 10
203.4784766053899
 20
432.9890345649264
 30
0.0
 10
203.5301539637631
 20
432.9373572065142
 30
0.0
 10
203.5938893724396
 20
432.9373572065142
 30
0.0
 10
203.6576247811136
 20
432.9373572065142
 30
0.0
 10
203.7093021394876
 20
432.9890345649264
 30
0.0
 10
203.7093021394876
 20
433.0527680502773
 30
0.0
 10
203.7093021394876
 20
433.0527718968842
 30
0.0
 10
203.7092988580444
 20
434.668150784476
 30
0.0
 10
203.7093032131606
 20
434.6681515226046
 30
0.0
 10
203.7093070603451
 20
434.6681513378325
 30
0.0
 10
205.3246814368149
 20
434.6681511942143
 30
0.0
 10
205.3246852834227
 20
434.6681511942143
 30
0.0
 10
205.3884187687754
 20
434.6681511942143
 30
0.0
 10
205.4400961271876
 20
434.7198285525864
 30
0.0
 10
205.4400961271876
 20
434.7835639612622
 30
0.0
 10
205.4400961271876
 20
434.8472993699387
 30
0.0
 10
205.3884187687754
 20
434.8989767283101
 30
0.0
 10
205.3246852834227
 20
434.8989767283101
 30
0.0
 10
205.3246814368149
 20
434.8989767283101
 30
0.0
 10
203.7093025492259
 20
434.8989734468668
 30
0.0
 10
203.7093018110972
 20
434.8989778019459
 30
0.0
 10
203.7093019958693
 20
434.8989816491293
 30
0.0
 10
203.7093021394876
 20
436.5143560256401
 30
0.0
 10
203.7093021394876
 20
436.514359872247
 30
0.0
 10
203.7093021394876
 20
436.5780933575988
 30
0.0
 10
203.6576247811136
 20
436.6297707159729
 30
0.0
 10
203.5938893724396
 20
436.6297707159729
 30
0.0
 10
203.5301539637631
 20
436.6297707159729
 30
0.0
 10
203.4784766053899
 20
436.5780933575988
 30
0.0
 10
203.4784766053899
 20
436.514359872247
 30
0.0
 10
203.4784766053899
 20
436.5143560256401
 30
0.0
 10
203.478479886834
 20
434.8989771380484
 30
0.0
 10
203.4784755317178
 20
434.8989763998815
 30
0.0
 10
203.4784716845333
 20
434.8989765846545
 30
0.0
 10
201.8630973080617
 20
434.8989767283101
 30
0.0
 10
201.8630934614548
 20
434.8989767283101
 30
0.0
 10
201.7993599761021
 20
434.8989767283101
 30
0.0
 10
201.7476826177289
 20
434.8472993699387
 30
0.0
 10
201.7476826177289
 20
434.7835639612622
 30
0.0
 10
201.7476826177289
 20
434.7198285525864
 30
0.0
 10
201.7993599761021
 20
434.6681511942143
 30
0.0
 10
201.8630934615694
 20
434.6681511942143
 30
0.0
  0
SPLINE
  5
7C
330
70
100
AcDbEntity
  8
0
 62
     7
370
     5
100
AcDbSpline
210
0.0
220
0.0
230
1.0
 70
     9
 71
     3
 72
    35
 73
    31
 74
     0
 42
0.0000000001
 43
0.0000000001
 40
0.0
 40
0.0
 40
0.0
 40
0.0
 40
1.0
 40
1.0
 40
1.0
 40
2.0
 40
2.0
 40
2.0
 40
3.0
 40
3.0
 40
3.0
 40
4.0
 40
4.0
 40
4.0
 40
5.0
 40
5.0
 40
5.0
 40
6.0
 40
6.0
 40
6.0
 40
7.0
 40
7.0
 40
7.0
 40
8.0
 40
8.0
 40
8.0
 40
9.0
 40
9.0
 40
9.0
 40
10.0
 40
10.0
 40
10.0
 40
10.0
 10
284.1202493556475
 20
422.5098241975474
 30
0.0
 10
284.1202543700074
 20
422.159337343629
 30
0.0
 10
284.1202546264358
 20
421.8088457317417
 30
0.0
 10
284.1202548378232
 20
421.4583541198544
 30
0.0
 10
284.1202548829015
 20
421.3836397567911
 30
0.0
 10
284.1535412562316
 20
421.3505355779197
 30
0.0
 10
284.2280789458946
 20
421.3505355779197
 30
0.0
 10
284.2280827925042
 20
421.3505355779197
 30
0.0
 10
284.3984985198876
 20
421.3505322964383
 30
0.0
 10
284.3984992580163
 20
421.3505366515546
 30
0.0
 10
284.3984990732442
 20
421.350540498739
 30
0.0
 10
284.3984956481445
 20
422.5098273917965
 30
0.0
 10
284.3985000032608
 20
422.5098281299251
 30
0.0
 10
284.3985038504452
 20
422.5098279451531
 30
0.0
 10
284.7881848366041
 20
422.5098245200915
 30
0.0
 10
284.7881855747319
 20
422.5098288751696
 30
0.0
 10
284.788185389958
 20
422.509832722354
 30
0.0
 10
284.7881885277848
 20
422.7621998270333
 30
0.0
 10
284.7881841726685
 20
422.7622005652001
 30
0.0
 10
284.7881803254841
 20
422.7622003804281
 30
0.0
 10
283.730568975885
 20
422.7622035182148
 30
0.0
 10
283.7305682377573
 20
422.7621991630985
 30
0.0
 10
283.7305684225312
 20
422.7621953159141
 30
0.0
 10
283.7305685661477
 20
422.6172913222608
 30
0.0
 10
283.7305685661477
 20
422.6172874756521
 30
0.0
 10
283.7305685661477
 20
422.543114174864
 30
0.0
 10
283.7638549395151
 20
422.5098278015348
 30
0.0
 10
283.8383871081205
 20
422.5098278015348
 30
0.0
 10
283.8383909547292
 20
422.5098278015348
 30
0.0
 10
284.1202493555711
 20
422.5098289554798
 30
0.0
 10
284.1202493556475
 20
422.5098241975474
 30
0.0
  0
SPLINE
  5
7D
330
70
100
AcDbEntity
  8
0
 62
     7
370
     5
100
AcDbSpline
210
0.0
220
0.0
230
1.0
 70
     9
 71
     3
 72
    26
 73
    22
 74
     0
 42
0.0000000001
 43
0.0000000001
 40
0.0
 40
0.0
 40
0.0
 40
0.0
 40
1.0
 40
1.0
 40
1.0
 40
2.0
 40
2.0
 40
2.0
 40
3.0
 40
3.0
 40
3.0
 40
4.0
 40
4.0
 40
4.0
 40
5.0
 40
5.0
 40
5.0
 40
6.0
 40
6.0
 40
6.0
 40
7.0
 40
7.0
 40
7.0
 40
7.0
 10
123.5975517223887
 20
530.8372451187524
 30
0.0
 10
123.5291827388482
 20
530.7691885363501
 30
0.0
 10
123.4321598251508
 20
530.7348489657624
 30
0.0
 10
123.3065638191674
 20
530.7341965503783
 30
0.0
 10
123.306559972676
 20
530.7341965304167
 30
0.0
 10
123.1474011213704
 20
530.7341932489726
 30
0.0
 10
123.1474003832418
 20
530.7341976040889
 30
0.0
 10
123.1474005680138
 20
530.7342014512733
 30
0.0
 10
123.147397430228
 20
531.4826385411952
 30
0.0
 10
123.1474017853052
 20
531.482639279362
 30
0.0
 10
123.1474056324896
 20
531.48263909459
 30
0.0
 10
123.306559972676
 20
531.4826389509716
 30
0.0
 10
123.3065638191292
 20
531.4826389277023
 30
0.0
 10
123.4321598251508
 20
531.4818791528169
 30
0.0
 10
123.5299425369648
 20
531.4467797841508
 30
0.0
 10
123.5996756044505
 20
531.3769909046659
 30
0.0
 10
123.6744032797906
 20
531.3022034198693
 30
0.0
 10
123.7118646295157
 20
531.2125720202494
 30
0.0
 10
123.7118646295157
 20
531.1085705261821
 30
0.0
 10
123.7118646295157
 20
531.0037101298749
 30
0.0
 10
123.6737756205039
 20
530.9131207239724
 30
0.0
 10
123.5975517223887
 20
530.8372451187524
 30
0.0
  0
SPLINE
  5
7E
330
70
100
AcDbEntity
  8
0
 62
     7
370
     5
100
AcDbSpline
210
0.0
220
0.0
230
1.0
 70
     8
 71
     3
 72
    89
 73
    85
 74
     0
 42
0.0000000001
 43
0.0000000001
 40
0.0
 40
0.0
 40
0.0
 40
0.0
 40
1.0
 40
1.0
 40
1.0
 40
2.0
 40
2.0
 40
2.0
 40
3.0
 40
3.0
 40
3.0
 40
4.0
 40
4.0
 40
4.0
 40
5.0
 40
5.0
 40
5.0
 40
6.0
 40
6.0
 40
6.0
 40
7.0
 40
7.0
 40
7.0
 40
8.0
 40
8.0
 40
8.0
 40
9.0
 40
9.0
 40
9.0
 40
10.0
 40
10.0
 40
10.0
 40
11.0
 40
11.0
 40
11.0
 40
12.0
 40
12.0
 40
12.0
 40
13.0
 40
13.0
 40
13.0
 40
14.0
 40
14.0
 40
14.0
 40
15.0
 40
15.0
 40
15.0
 40
16.0
 40
16.0
 40
16.0
 40
17.0
 40
17.0
 40
17.0
 40
18.0
 40
18.0
 40
18.0
 40
19.0
 40
19.0
 40
19.0
 40
20.0
 40
20.0
 40
20.0
 40
21.0
 40
21.0
 40
21.0
 40
22.0
 40
22.0
 40
22.0
 40
23.0
 40
23.0
 40
23.0
 40
24.0
 40
24.0
 40
24.0
 40
25.0
 40
25.0
 40
25.0
 40
26.0
 40
26.0
 40
26.0
 40
27.0
 40
27.0
 40
27.0
 40
28.0
 40
28.0
 40
28.0
 40
28.0
 10
188.3882927616878
 20
428.1877118906459
 30
0.0
 10
188.3882894882063
 20
428.1877086176628
 30
0.0
 10
187.7717411666553
 20
427.5712528907716
 30
0.0
 10
187.7717383573363
 20
427.5712502631477
 30
0.0
 10
187.7716072961803
 20
427.5711355912854
 30
0.0
 10
187.7714747901127
 20
427.5711107464167
 30
0.0
 10
187.7713422840643
 20
427.5709948036274
 30
0.0
 10
187.7712097780167
 20
427.5708788608381
 30
0.0
 10
187.7712097780167
 20
427.5707215099045
 30
0.0
 10
187.7710787165533
 20
427.5706068381569
 30
0.0
 10
187.7710759076181
 20
427.5706042101091
 30
0.0
 10
187.4694286158328
 20
427.2690231636643
 30
0.0
 10
187.4693948092454
 20
427.2689893572314
 30
0.0
 10
187.4693610026597
 20
427.2689555507986
 30
0.0
 10
187.469294749626
 20
427.268947269189
 30
0.0
 10
187.4692284966122
 20
427.2688810161562
 30
0.0
 10
187.4691622435975
 20
427.2688147631215
 30
0.0
 10
187.4691622435975
 20
427.2687319468295
 30
0.0
 10
187.469128437011
 20
427.2686981404158
 30
0.0
 10
187.4690946304245
 20
427.2686643340021
 30
0.0
 10
187.1045732150332
 20
426.9042257342498
 30
0.0
 10
187.1045704950611
 20
426.9042230143168
 30
0.0
 10
187.0595197988668
 20
426.8591723183917
 30
0.0
 10
187.0595197988668
 20
426.7860289804048
 30
0.0
 10
187.104571854893
 20
426.7409769243804
 30
0.0
 10
187.1270978829261
 20
426.7184508963473
 30
0.0
 10
187.1566467314287
 20
426.707187882349
 30
0.0
 10
187.1861955799322
 20
426.707187882349
 30
0.0
 10
187.2157444284348
 20
426.707187882349
 30
0.0
 10
187.2452932769756
 20
426.7184508963473
 30
0.0
 10
187.2678179451377
 20
426.7409755642402
 30
0.0
 10
187.2678206651098
 20
426.7409782842114
 30
0.0
 10
187.5508827378316
 20
427.0239870254772
 30
0.0
 10
187.5508863397808
 20
427.0239844695861
 30
0.0
 10
187.5508889291732
 20
427.0239816182274
 30
0.0
 10
187.7281439527778
 20
426.8467181100086
 30
0.0
 10
187.72814667275
 20
426.8467153900364
 30
0.0
 10
187.7506713407201
 20
426.8241907219517
 30
0.0
 10
187.7802201892227
 20
426.8129277079542
 30
0.0
 10
187.8097690377453
 20
426.8129277079542
 30
0.0
 10
187.8393178862661
 20
426.8129277079542
 30
0.0
 10
187.8688667347696
 20
426.8241907219517
 30
0.0
 10
187.8913927628027
 20
426.8467167499848
 30
0.0
 10
187.9364448188289
 20
426.89176880601
 30
0.0
 10
187.9364448188289
 20
426.9649121440352
 30
0.0
 10
187.8913941227492
 20
427.0099628400366
 30
0.0
 10
187.891391402778
 20
427.0099655600079
 30
0.0
 10
187.7141307636111
 20
427.1872132740964
 30
0.0
 10
187.7141333264253
 20
427.1872168737009
 30
0.0
 10
187.7141361772465
 20
427.1872194635543
 30
0.0
 10
187.8529965274001
 20
427.3260345665903
 30
0.0
 10
187.8530001261188
 20
427.3260320019289
 30
0.0
 10
187.8530027153956
 20
427.3260291506458
 30
0.0
 10
188.0975708127334
 20
427.0812538139789
 30
0.0
 10
188.0975735327047
 20
427.0812510940077
 30
0.0
 10
188.1200982001364
 20
427.0587264253854
 30
0.0
 10
188.149647048639
 20
427.0474634113879
 30
0.0
 10
188.1791958971616
 20
427.0474634113879
 30
0.0
 10
188.2087447456843
 20
427.0474634113879
 30
0.0
 10
188.2382935941859
 20
427.0587264253854
 30
0.0
 10
188.2608196221808
 20
427.0812524534167
 30
0.0
 10
188.305871678207
 20
427.1263045094437
 30
0.0
 10
188.305871678207
 20
427.1993153413996
 30
0.0
 10
188.2608209787049
 20
427.2444985400461
 30
0.0
 10
188.2608182627327
 20
427.2445012639791
 30
0.0
 10
188.0162445598335
 20
427.4892608064019
 30
0.0
 10
188.0162471112253
 20
427.4892644095817
 30
0.0
 10
188.0162499635071
 20
427.4892669981282
 30
0.0
 10
188.5515697404862
 20
428.024482292004
 30
0.0
 10
188.5515728821583
 20
428.0244788923673
 30
0.0
 10
188.6414432425981
 20
427.9657137547819
 30
0.0
 10
188.7463217788836
 20
427.9336969811293
 30
0.0
 10
188.8563018199766
 20
427.9337391513845
 30
0.0
 10
189.0055036071117
 20
427.9337963606785
 30
0.0
 10
189.1458275109944
 20
427.9919665153702
 30
0.0
 10
189.2514348307177
 20
428.0975738350734
 30
0.0
 10
189.3570421501463
 20
428.203181154483
 30
0.0
 10
189.4152123048379
 20
428.3436375644696
 30
0.0
 10
189.4152123048379
 20
428.4928393735299
 30
0.0
 10
189.4152123048379
 20
428.6420411825875
 30
0.0
 10
189.3570421501463
 20
428.7823650865093
 30
0.0
 10
189.2515010836032
 20
428.8879061530496
 30
0.0
 10
189.1459600170601
 20
428.9934472195946
 30
0.0
 10
189.005636113141
 20
429.0516173742853
 30
0.0
 10
188.856301798015
 20
429.0516173742853
 30
0.0
  0
LWPOLYLINE
  5
7F
330
70
100
AcDbEntity
  8
0
 62
     7
370
     5
100
AcDbPolyline
 90
        8
 70
     1
 43
0.0
 10
256.4296233045316
 20
431.2180715037448
 10
256.2501490234645
 20
431.2180649346646
 10
256.25014827822
 20
430.5513098136725
 10
256.1558019204495
 20
430.5513112157359
 10
256.1558011752049
 20
431.2180663367289
 10
255.9756967363837
 20
431.2180670819734
 10
255.9756981384453
 20
431.2997528910082
 10
256.4296272050633
 20
431.2997514889448
  0
SPLINE
  5
80
330
70
100
AcDbEntity
  8
0
 62
     7
370
     5
100
AcDbSpline
210
0.0
220
0.0
230
1.0
 70
     8
 71
     3
 72
    17
 73
    13
 74
     0
 42
0.0000000001
 43
0.0000000001
 40
0.0
 40
0.0
 40
0.0
 40
0.0
 40
1.0
 40
1.0
 40
1.0
 40
2.0
 40
2.0
 40
2.0
 40
3.0
 40
3.0
 40
3.0
 40
4.0
 40
4.0
 40
4.0
 40
4.0
 10
128.8641873624492
 20
431.2616130951255
 30
0.0
 10
128.7948882951259
 20
431.3225229103754
 30
0.0
 10
128.7233350296747
 20
431.3528750768137
 30
0.0
 10
128.649462908359
 20
431.3528750768137
 30
0.0
 10
128.5689654847365
 20
431.3528750768137
 30
0.0
 10
128.4993335569861
 20
431.3236989015658
 30
0.0
 10
128.4407327576346
 20
431.26547077547
 30
0.0
 10
128.3821319582839
 20
431.2072426493741
 30
0.0
 10
128.3527156158088
 20
431.1361034653045
 30
0.0
 10
128.3527156158088
 20
431.0516101561879
 30
0.0
 10
128.3527156158088
 20
430.9671168470694
 30
0.0
 10
128.3821319582839
 20
430.8956546795216
 30
0.0
 10
128.4407429568755
 20
430.8375779389252
 30
0.0
  0
SPLINE
  5
81
330
70
100
AcDbEntity
  8
0
 62
     7
370
     5
100
AcDbSpline
210
0.0
220
0.0
230
1.0
 70
     9
 71
     3
 72
    26
 73
    22
 74
     0
 42
0.0000000001
 43
0.0000000001
 40
0.0
 40
0.0
 40
0.0
 40
0.0
 40
1.0
 40
1.0
 40
1.0
 40
2.0
 40
2.0
 40
2.0
 40
3.0
 40
3.0
 40
3.0
 40
4.0
 40
4.0
 40
4.0
 40
5.0
 40
5.0
 40
5.0
 40
6.0
 40
6.0
 40
6.0
 40
7.0
 40
7.0
 40
7.0
 40
7.0
 10
127.4339808817731
 20
430.7797662298508
 30
0.0
 10
127.365413058631
 20
430.7114961188918
 30
0.0
 10
127.2681536200025
 20
430.6770611099018
 30
0.0
 10
127.1422085454169
 20
430.6764068812545
 30
0.0
 10
127.1422046989246
 20
430.6764068612519
 30
0.0
 10
126.9826034981543
 20
430.6764035798096
 30
0.0
 10
126.9826027600256
 20
430.676407934964
 30
0.0
 10
126.9826029447977
 20
430.6764117821485
 30
0.0
 10
126.9825998070109
 20
431.4269289841559
 30
0.0
 10
126.982604162089
 20
431.4269297223226
 30
0.0
 10
126.9826080092734
 20
431.4269295375488
 30
0.0
 10
127.1422046989246
 20
431.4269293939323
 30
0.0
 10
127.1422085454169
 20
431.4269293709312
 30
0.0
 10
127.2681536200025
 20
431.4261757657341
 30
0.0
 10
127.366208094917
 20
431.3909788469755
 30
0.0
 10
127.4361125417053
 20
431.3209984518253
 30
0.0
 10
127.511037204421
 20
431.2459923865344
 30
0.0
 10
127.5486026687804
 20
431.1561118784502
 30
0.0
 10
127.5486026687804
 20
431.0518296193513
 30
0.0
 10
127.5486026687804
 20
430.9466695076753
 30
0.0
 10
127.5103746742015
 20
430.8558283307593
 30
0.0
 10
127.4339808817731
 20
430.7797662298508
 30
0.0
  0
SPLINE
  5
82
330
70
100
AcDbEntity
  8
0
 62
     7
370
     5
100
AcDbSpline
210
0.0
220
0.0
230
1.0
 70
     9
 71
     3
 72
    29
 73
    25
 74
     0
 42
0.0000000001
 43
0.0000000001
 40
0.0
 40
0.0
 40
0.0
 40
0.0
 40
1.0
 40
1.0
 40
1.0
 40
2.0
 40
2.0
 40
2.0
 40
3.0
 40
3.0
 40
3.0
 40
4.0
 40
4.0
 40
4.0
 40
5.0
 40
5.0
 40
5.0
 40
6.0
 40
6.0
 40
6.0
 40
7.0
 40
7.0
 40
7.0
 40
8.0
 40
8.0
 40
8.0
 40
8.0
 10
297.1867468553774
 20
423.7020475306644
 30
0.0
 10
297.5937937212839
 20
423.7020475306644
 30
0.0
 10
297.86027794461
 20
423.4357455017962
 30
0.0
 10
297.86027794461
 20
423.0285097099649
 30
0.0
 10
297.86027794461
 20
423.0285058633562
 30
0.0
 10
297.86027794461
 20
421.2448812851162
 30
0.0
 10
297.86027794461
 20
421.2448774385093
 30
0.0
 10
297.86027794461
 20
420.8374649733196
 30
0.0
 10
297.5937937212839
 20
420.5715218123068
 30
0.0
 10
297.1867401239105
 20
420.5715218123068
 30
0.0
 10
297.1867362773019
 20
420.5715218123068
 30
0.0
 10
283.1489340413218
 20
420.5715218123068
 30
0.0
 10
283.1489301947149
 20
420.5715218123068
 30
0.0
 10
282.741876597378
 20
420.5715218123068
 30
0.0
 10
282.4753868530315
 20
420.8374649733196
 30
0.0
 10
282.4753868530315
 20
421.2448774385093
 30
0.0
 10
282.4753868530315
 20
421.2448812851162
 30
0.0
 10
282.4753868530315
 20
423.0285058633562
 30
0.0
 10
282.4753868530315
 20
423.0285097099649
 30
0.0
 10
282.4753868530315
 20
423.4357455017962
 30
0.0
 10
282.741876597378
 20
423.7020475306644
 30
0.0
 10
283.1489301947149
 20
423.7020475306644
 30
0.0
 10
283.1489340413218
 20
423.7020475306644
 30
0.0
 10
297.1867420472145
 20
423.7020475306644
 30
0.0
 10
297.1867468553774
 20
423.7020475306644
 30
0.0
  0
SPLINE
  5
83
330
70
100
AcDbEntity
  8
0
 62
     7
370
     5
100
AcDbSpline
210
0.0
220
0.0
230
1.0
 70
     8
 71
     3
 72
    26
 73
    22
 74
     0
 42
0.0000000001
 43
0.0000000001
 40
0.0
 40
0.0
 40
0.0
 40
0.0
 40
1.0
 40
1.0
 40
1.0
 40
2.0
 40
2.0
 40
2.0
 40
3.0
 40
3.0
 40
3.0
 40
4.0
 40
4.0
 40
4.0
 40
5.0
 40
5.0
 40
5.0
 40
6.0
 40
6.0
 40
6.0
 40
7.0
 40
7.0
 40
7.0
 40
7.0
 10
285.8903125819725
 20
422.3119094217399
 30
0.0
 10
285.8903125819725
 20
422.5901534684271
 30
0.0
 10
285.6965515481807
 20
422.7622002367716
 30
0.0
 10
285.4284405402414
 20
422.7622002367716
 30
0.0
 10
285.4284366936345
 20
422.7622002367716
 30
0.0
 10
284.9566161406565
 20
422.7622035182148
 30
0.0
 10
284.9566154025279
 20
422.7621991630985
 30
0.0
 10
284.9566155872999
 20
422.7621953159141
 30
0.0
 10
284.9566157309182
 20
421.4583579664613
 30
0.0
 10
284.9566157309182
 20
421.4583541198544
 30
0.0
 10
284.9566157309182
 20
421.3836397567911
 30
0.0
 10
284.9897254308889
 20
421.3505355779197
 30
0.0
 10
285.0644397939495
 20
421.3505355779197
 30
0.0
 10
285.0644436405564
 20
421.3505355779197
 30
0.0
 10
285.220929774312
 20
421.3505322964383
 30
0.0
 10
285.2209305124016
 20
421.3505366515546
 30
0.0
 10
285.2209303276295
 20
421.350540498739
 30
0.0
 10
285.220926902568
 20
421.8715671179952
 30
0.0
 10
285.220931257646
 20
421.8715678561238
 30
0.0
 10
285.2209351048305
 20
421.87156767139
 30
0.0
 10
285.4031104201494
 20
421.871568011973
 30
0.0
 10
285.403114337104
 20
421.871568011973
 30
0.0
  0
LWPOLYLINE
  5
84
330
70
100
AcDbEntity
  8
0
 62
     7
370
     5
100
AcDbPolyline
 90
        4
 70
     1
 43
0.0
 10
129.6110557187185
 20
430.6764123581205
 10
129.51625088731
 20
430.676407934964
 10
129.5162522893734
 20
431.4270291018337
 10
129.6110596208655
 20
431.4270276997704
  0
SPLINE
  5
85
330
70
100
AcDbEntity
  8
0
 62
     7
370
     5
100
AcDbSpline
210
0.0
220
0.0
230
1.0
 70
     8
 71
     3
 72
    11
 73
     7
 74
     0
 42
0.0000000001
 43
0.0000000001
 40
0.0
 40
0.0
 40
0.0
 40
0.0
 40
1.0
 40
1.0
 40
1.0
 40
2.0
 40
2.0
 40
2.0
 40
2.0
 10
251.7155769555893
 20
523.1793196085163
 30
0.0
 10
251.7741675556999
 20
523.1212630804384
 30
0.0
 10
251.8437994834512
 20
523.0920869051915
 30
0.0
 10
251.9242969071111
 20
523.0920869051915
 30
0.0
 10
251.9981690283885
 20
523.0920869051915
 30
0.0
 10
252.0697222938407
 20
523.1225632960468
 30
0.0
 10
252.1390220760995
 20
523.1834773310265
 30
0.0
  0
LWPOLYLINE
  5
86
330
70
100
AcDbEntity
  8
0
 62
     7
370
     5
100
AcDbPolyline
 90
        4
 70
     0
 43
0.0
 10
127.2612777653194
 20
530.8844633847156
 10
127.2612790381499
 20
531.482639279362
 10
127.3559557429553
 20
531.4826378772595
 10
127.3559565685082
 20
530.7341972997364
  0
SPLINE
  5
87
330
70
100
AcDbEntity
  8
0
 62
     7
370
     5
100
AcDbSpline
210
0.0
220
0.0
230
1.0
 70
     9
 71
     3
 72
    17
 73
    13
 74
     0
 42
0.0000000001
 43
0.0000000001
 40
0.0
 40
0.0
 40
0.0
 40
0.0
 40
1.0
 40
1.0
 40
1.0
 40
2.0
 40
2.0
 40
2.0
 40
3.0
 40
3.0
 40
3.0
 40
4.0
 40
4.0
 40
4.0
 40
4.0
 10
205.3246526343382
 20
442.7644221499104
 30
0.0
 10
205.3246526343382
 20
442.3926074474711
 30
0.0
 10
205.0232644891967
 20
442.0912193023668
 30
0.0
 10
204.6514552087574
 20
442.0912193023878
 30
0.0
 10
204.2796459283199
 20
442.091219302405
 30
0.0
 10
203.9784746638352
 20
442.3926074475093
 30
0.0
 10
203.9784746638352
 20
442.7644221499877
 30
0.0
 10
203.9784746638352
 20
443.136236852466
 30
0.0
 10
204.2796459283581
 20
443.4376249975684
 30
0.0
 10
204.6514552088165
 20
443.4376249975485
 30
0.0
 10
205.0232644892749
 20
443.4376249975294
 30
0.0
 10
205.3246526343774
 20
443.1362368523886
 30
0.0
 10
205.3246526343382
 20
442.7644221499104
 30
0.0
  0
SPLINE
  5
88
330
70
100
AcDbEntity
  8
0
 62
     7
370
     9
100
AcDbSpline
210
0.0
220
0.0
230
1.0
 70
     9
 71
     3
 72
    29
 73
    25
 74
     0
 42
0.0000000001
 43
0.0000000001
 40
0.0
 40
0.0
 40
0.0
 40
0.0
 40
1.0
 40
1.0
 40
1.0
 40
2.0
 40
2.0
 40
2.0
 40
3.0
 40
3.0
 40
3.0
 40
4.0
 40
4.0
 40
4.0
 40
5.0
 40
5.0
 40
5.0
 40
6.0
 40
6.0
 40
6.0
 40
7.0
 40
7.0
 40
7.0
 40
8.0
 40
8.0
 40
8.0
 40
8.0
 10
149.2542615879347
 20
589.2100668488965
 30
0.0
 10
142.7162319841436
 20
595.7480964526885
 30
0.0
 10
134.0233489032862
 20
599.3488787460728
 30
0.0
 10
124.7770685290616
 20
599.3488787460728
 30
0.0
 10
115.5307881548378
 20
599.3488787460728
 30
0.0
 10
106.8380372128094
 20
595.7480964526885
 30
0.0
 10
100.2999415396034
 20
589.2100668488974
 30
0.0
 10
93.76184586639737
 20
582.6720372451054
 30
0.0
 10
90.16106357301305
 20
573.979154164248
 30
0.0
 10
90.16106357301305
 20
564.7328737900243
 30
0.0
 10
90.16106357301305
 20
555.4865934157996
 30
0.0
 10
93.76184586639737
 20
546.7938424737712
 30
0.0
 10
100.2999415396034
 20
540.2557468005661
 30
0.0
 10
106.8380372128094
 20
533.7176511273601
 30
0.0
 10
115.5307881548378
 20
530.1168688339749
 30
0.0
 10
124.7770685290616
 20
530.1168688339749
 30
0.0
 10
134.0233489032862
 20
530.1168688339749
 30
0.0
 10
142.7162319841436
 20
533.7176511273601
 30
0.0
 10
149.2542615879347
 20
540.2557468005661
 30
0.0
 10
155.7922911917267
 20
546.7938424737712
 30
0.0
 10
159.393073485111
 20
555.4865934157996
 30
0.0
 10
159.393073485111
 20
564.7328737900243
 30
0.0
 10
159.393073485111
 20
573.979154164248
 30
0.0
 10
155.7922911917267
 20
582.6720372451054
 30
0.0
 10
149.2542615879347
 20
589.2100668488965
 30
0.0
  0
LWPOLYLINE
  5
89
330
70
100
AcDbEntity
  8
0
 62
     7
370
     5
100
AcDbPolyline
 90
        4
 70
     1
 43
0.0
 10
256.6048723861886
 20
430.551315638816
 10
256.5103303202177
 20
430.5513112157359
 10
256.5103317222429
 20
431.2998519950924
 10
256.6048762882592
 20
431.299850593029
  0
LWPOLYLINE
  5
8A
330
70
100
AcDbEntity
  8
0
 62
     7
370
     5
100
AcDbPolyline
 90
        4
 70
     1
 43
0.0
 10
252.8858897174341
 20
523.0181540277099
 10
252.7910848860238
 20
523.0181496045534
 10
252.7910862880872
 20
523.7687707714631
 10
252.8858936195811
 20
523.7687693693596
  0
SPLINE
  5
8B
330
70
100
AcDbEntity
  8
0
 62
     7
370
     5
100
AcDbSpline
210
0.0
220
0.0
230
1.0
 70
     9
 71
     3
 72
    29
 73
    25
 74
     0
 42
0.0000000001
 43
0.0000000001
 40
0.0
 40
0.0
 40
0.0
 40
0.0
 40
1.0
 40
1.0
 40
1.0
 40
2.0
 40
2.0
 40
2.0
 40
3.0
 40
3.0
 40
3.0
 40
4.0
 40
4.0
 40
4.0
 40
5.0
 40
5.0
 40
5.0
 40
6.0
 40
6.0
 40
6.0
 40
7.0
 40
7.0
 40
7.0
 40
8.0
 40
8.0
 40
8.0
 40
8.0
 10
253.3755362618304
 20
523.6966540268749
 30
0.0
 10
253.294806952591
 20
523.6966540268749
 30
0.0
 10
253.2251750248415
 20
523.6673867537255
 30
0.0
 10
253.1664085929442
 20
523.6087735319406
 30
0.0
 10
253.1076421610478
 20
523.5501603101547
 30
0.0
 10
253.0782258185727
 20
523.4788223670229
 30
0.0
 10
253.0782258185727
 20
523.3943828884857
 30
0.0
 10
253.0782258185727
 20
523.3099434099495
 30
0.0
 10
253.1076421610478
 20
523.2382659200784
 30
0.0
 10
253.1664085929442
 20
523.1798183308383
 30
0.0
 10
253.2251750248415
 20
523.1213707415982
 30
0.0
 10
253.294806952591
 20
523.0920869051915
 30
0.0
 10
253.3755362618113
 20
523.0920869051915
 30
0.0
 10
253.4562655710324
 20
523.0920869051915
 30
0.0
 10
253.5258974988219
 20
523.1213707415982
 30
0.0
 10
253.5847633102485
 20
523.1798183308383
 30
0.0
 10
253.6436291216769
 20
523.2382659200784
 30
0.0
 10
253.6730454641502
 20
523.3099434099495
 30
0.0
 10
253.6730454641502
 20
523.3943828884857
 30
0.0
 10
253.6730454641502
 20
523.4788223670229
 30
0.0
 10
253.6436291216769
 20
523.5501603101547
 30
0.0
 10
253.5847633102485
 20
523.6087735319406
 30
0.0
 10
253.5258974988219
 20
523.6673867537255
 30
0.0
 10
253.4562655710324
 20
523.6966540268749
 30
0.0
 10
253.3755362618304
 20
523.6966540268749
 30
0.0
  0
SPLINE
  5
8C
330
70
100
AcDbEntity
  8
0
 62
     7
370
     5
100
AcDbSpline
210
0.0
220
0.0
230
1.0
 70
     9
 71
     3
 72
    47
 73
    43
 74
     0
 42
0.0000000001
 43
0.0000000001
 40
0.0
 40
0.0
 40
0.0
 40
0.0
 40
1.0
 40
1.0
 40
1.0
 40
2.0
 40
2.0
 40
2.0
 40
3.0
 40
3.0
 40
3.0
 40
4.0
 40
4.0
 40
4.0
 40
5.0
 40
5.0
 40
5.0
 40
6.0
 40
6.0
 40
6.0
 40
7.0
 40
7.0
 40
7.0
 40
8.0
 40
8.0
 40
8.0
 40
9.0
 40
9.0
 40
9.0
 40
10.0
 40
10.0
 40
10.0
 40
11.0
 40
11.0
 40
11.0
 40
12.0
 40
12.0
 40
12.0
 40
13.0
 40
13.0
 40
13.0
 40
14.0
 40
14.0
 40
14.0
 40
14.0
 10
255.157492953681
 20
430.7702637838283
 30
0.0
 10
255.149334045811
 20
430.711668834293
 30
0.0
 10
255.1239964309325
 20
430.6611174846757
 30
0.0
 10
255.0815933166459
 20
430.6188441602553
 30
0.0
 10
255.0322590692249
 20
430.569660917924
 30
0.0
 10
254.9713761172261
 20
430.5449757383912
 30
0.0
 10
254.8988319161708
 20
430.5449757383912
 30
0.0
 10
254.8254288129147
 20
430.5449757383912
 30
0.0
 10
254.7639182016283
 20
430.5698756434658
 30
0.0
 10
254.7140027700043
 20
430.6196754536149
 30
0.0
 10
254.6640873383785
 20
430.6694752637622
 30
0.0
 10
254.6390800705349
 20
430.7284091684878
 30
0.0
 10
254.6390800705349
 20
430.7967725566968
 30
0.0
 10
254.6390800705349
 20
430.7967764033037
 30
0.0
 10
254.6390767890898
 20
431.2997521528796
 30
0.0
 10
254.6390811442061
 20
431.2997528910082
 30
0.0
 10
254.6390849913923
 20
431.2997527062361
 30
0.0
 10
254.733856214968
 20
431.2997558440629
 30
0.0
 10
254.7338569530966
 20
431.2997514889448
 30
0.0
 10
254.7338567683246
 20
431.2997476417604
 30
0.0
 10
254.7338566246681
 20
430.7967764033037
 30
0.0
 10
254.7338566246681
 20
430.7967725566968
 30
0.0
 10
254.7338566246681
 20
430.7489071997915
 30
0.0
 10
254.7502748705501
 20
430.7086544178873
 30
0.0
 10
254.7830618102135
 20
430.6758674782249
 30
0.0
 10
254.8158487499232
 20
430.6430805385152
 30
0.0
 10
254.854499348844
 20
430.6267613967547
 30
0.0
 10
254.8986667427034
 20
430.6267613967547
 30
0.0
 10
254.9428341364983
 20
430.6267613967547
 30
0.0
 10
254.9810552843001
 20
430.6430805385152
 30
0.0
 10
255.0136770504896
 20
430.6758674782013
 30
0.0
 10
255.0462988166764
 20
430.7086544178873
 30
0.0
 10
255.0627170625585
 20
430.7489071997915
 30
0.0
 10
255.0627170625585
 20
430.7967725566968
 30
0.0
 10
255.0627170625585
 20
430.7967764033037
 30
0.0
 10
255.0627137811152
 20
431.2997521528796
 30
0.0
 10
255.0627181362315
 20
431.2997528910082
 30
0.0
 10
255.0627219834159
 20
431.2997527062361
 30
0.0
 10
255.1574932069934
 20
431.2997558440629
 30
0.0
 10
255.1574939450838
 20
431.2997514889448
 30
0.0
 10
255.15749376035
 20
431.2997476417604
 30
0.0
 10
255.1574936166935
 20
430.7702685453741
 30
0.0
 10
255.157492953681
 20
430.7702637838283
 30
0.0
  0
SPLINE
  5
8D
330
70
100
AcDbEntity
  8
0
 62
     7
370
     5
100
AcDbSpline
210
0.0
220
0.0
230
1.0
 70
     8
 71
     3
 72
    17
 73
    13
 74
     0
 42
0.0000000001
 43
0.0000000001
 40
0.0
 40
0.0
 40
0.0
 40
0.0
 40
1.0
 40
1.0
 40
1.0
 40
2.0
 40
2.0
 40
2.0
 40
3.0
 40
3.0
 40
3.0
 40
4.0
 40
4.0
 40
4.0
 40
4.0
 10
254.1422401066857
 20
431.2165629294786
 30
0.0
 10
254.1422362601552
 20
431.2165629294786
 30
0.0
 10
254.0784816222322
 20
431.2165662109983
 30
0.0
 10
254.078480884179
 20
431.2165618558055
 30
0.0
 10
254.0784810689129
 20
431.2165580086212
 30
0.0
 10
254.0784779311262
 20
430.6340542164861
 30
0.0
 10
254.0784822862042
 20
430.6340534783576
 30
0.0
 10
254.0784861333886
 20
430.6340536631296
 30
0.0
 10
254.1422362601552
 20
430.6340538067479
 30
0.0
 10
254.1422401067621
 20
430.6340538067479
 30
0.0
 10
254.2359245924781
 20
430.6340538067479
 30
0.0
 10
254.3093607304418
 20
430.6595978884815
 30
0.0
 10
254.3628108749308
 20
430.7109090361773
 30
0.0
  0
LWPOLYLINE
  5
8E
330
70
100
AcDbEntity
  8
0
 62
     7
370
     5
100
AcDbPolyline
 90
        5
 70
     0
 43
0.0
 10
257.6693202603401
 20
431.134347557223
 10
257.669318987626
 20
430.5513098136725
 10
257.5746422828197
 20
430.5513112157359
 10
257.5746436849222
 20
431.2997528910082
 10
257.6682304802334
 20
431.2997531213604
  0
SPLINE
  5
8F
330
70
100
AcDbEntity
  8
0
 62
     7
370
     9
100
AcDbSpline
210
0.0
220
0.0
230
1.0
 70
     9
 71
     3
 72
    29
 73
    25
 74
     0
 42
0.0000000001
 43
0.0000000001
 40
0.0
 40
0.0
 40
0.0
 40
0.0
 40
1.0
 40
1.0
 40
1.0
 40
2.0
 40
2.0
 40
2.0
 40
3.0
 40
3.0
 40
3.0
 40
4.0
 40
4.0
 40
4.0
 40
5.0
 40
5.0
 40
5.0
 40
6.0
 40
6.0
 40
6.0
 40
7.0
 40
7.0
 40
7.0
 40
8.0
 40
8.0
 40
8.0
 40
8.0
 10
155.7905440369541
 20
495.7742136804808
 30
0.0
 10
148.5259662558173
 20
503.0387914616166
 30
0.0
 10
138.8672029619974
 20
507.0395465427509
 30
0.0
 10
128.5936116095126
 20
507.0395465427509
 30
0.0
 10
118.3200202570269
 20
507.0395465427509
 30
0.0
 10
108.661256963207
 20
503.0387914616166
 30
0.0
 10
101.3967454351032
 20
495.7742136804808
 30
0.0
 10
94.13223390700023
 20
488.5096358993423
 30
0.0
 10
90.13134631979937
 20
478.8508726055225
 30
0.0
 10
90.13134631979937
 20
468.5772812530367
 30
0.0
 10
90.13134631979937
 20
458.3036899005537
 30
0.0
 10
94.13223390700023
 20
448.644926606732
 30
0.0
 10
101.3967454351032
 20
441.3803488255953
 30
0.0
 10
108.661256963207
 20
434.1157710444595
 30
0.0
 10
118.3200202570269
 20
430.1150159633253
 30
0.0
 10
128.5936116095126
 20
430.1150159633253
 30
0.0
 10
138.8672029619974
 20
430.1150159633253
 30
0.0
 10
148.5259662558173
 20
434.1157710444595
 30
0.0
 10
155.7905440369541
 20
441.3803488255953
 30
0.0
 10
163.0551218180908
 20
448.644926606732
 30
0.0
 10
167.055876899225
 20
458.3036899005537
 30
0.0
 10
167.055876899225
 20
468.5772812530367
 30
0.0
 10
167.055876899225
 20
478.8508726055225
 30
0.0
 10
163.0551218180908
 20
488.5096358993423
 30
0.0
 10
155.7905440369541
 20
495.7742136804808
 30
0.0
  0
SPLINE
  5
90
330
70
100
AcDbEntity
  8
0
 62
     7
370
     5
100
AcDbSpline
210
0.0
220
0.0
230
1.0
 70
     9
 71
     3
 72
    17
 73
    13
 74
     0
 42
0.0000000001
 43
0.0000000001
 40
0.0
 40
0.0
 40
0.0
 40
0.0
 40
1.0
 40
1.0
 40
1.0
 40
2.0
 40
2.0
 40
2.0
 40
3.0
 40
3.0
 40
3.0
 40
4.0
 40
4.0
 40
4.0
 40
4.0
 10
186.4972824783863
 20
442.7797794071629
 30
0.0
 10
186.4972824783863
 20
442.4079647046847
 30
0.0
 10
186.7986706234896
 20
442.1065765595831
 30
0.0
 10
187.170479903928
 20
442.1065765595831
 30
0.0
 10
187.5422891843664
 20
442.1065765595831
 30
0.0
 10
187.8434604488893
 20
442.4079647046847
 30
0.0
 10
187.8434604488893
 20
442.7797794071438
 30
0.0
 10
187.8434604488893
 20
443.1515941096031
 30
0.0
 10
187.5422891843664
 20
443.4529822547438
 30
0.0
 10
187.170479903928
 20
443.4529822547438
 30
0.0
 10
186.7986706234896
 20
443.4529822547438
 30
0.0
 10
186.4972824783863
 20
443.1515941096031
 30
0.0
 10
186.4972824783863
 20
442.7797794071629
 30
0.0
  0
SPLINE
  5
91
330
70
100
AcDbEntity
  8
0
 62
     7
370
     5
100
AcDbSpline
210
0.0
220
0.0
230
1.0
 70
     8
 71
     3
 72
    17
 73
    13
 74
     0
 42
0.0000000001
 43
0.0000000001
 40
0.0
 40
0.0
 40
0.0
 40
0.0
 40
1.0
 40
1.0
 40
1.0
 40
2.0
 40
2.0
 40
2.0
 40
3.0
 40
3.0
 40
3.0
 40
4.0
 40
4.0
 40
4.0
 40
4.0
 10
252.1390213611639
 20
523.6033547647157
 30
0.0
 10
252.0697222938407
 20
523.6642645799657
 30
0.0
 10
251.9981690283885
 20
523.6946167464029
 30
0.0
 10
251.9242969071111
 20
523.6946167464029
 30
0.0
 10
251.8437994834512
 20
523.6946167464029
 30
0.0
 10
251.7741675556999
 20
523.665440571156
 30
0.0
 10
251.7155667563484
 20
523.6072124450601
 30
0.0
 10
251.6569659569996
 20
523.5489843189643
 30
0.0
 10
251.6275496145236
 20
523.4778451349338
 30
0.0
 10
251.6275496145236
 20
523.3933518258163
 30
0.0
 10
251.6275496145236
 20
523.3088585166979
 30
0.0
 10
251.6569659569996
 20
523.2373963491499
 30
0.0
 10
251.7155769555893
 20
523.1793196085163
 30
0.0
  0
LWPOLYLINE
  5
92
330
70
100
AcDbEntity
  8
0
 62
     7
370
     5
100
AcDbPolyline
 90
        8
 70
     1
 43
0.0
 10
125.5933193577657
 20
531.4009578920595
 10
125.4138450766968
 20
531.4009513230185
 10
125.4138443314532
 20
530.7341962020254
 10
125.3194979736445
 20
530.7341976040889
 10
125.3194972284009
 20
531.4009527250828
 10
125.1393927895778
 20
531.4009534703254
 10
125.1393941916421
 20
531.482639279362
 10
125.5933232582965
 20
531.4826378772595
  0
LWPOLYLINE
  5
93
330
70
100
AcDbEntity
  8
0
 62
     7
370
     5
100
AcDbPolyline
 90
        4
 70
     1
 43
0.0
 10
122.2930206934279
 20
530.7342020272454
 10
122.1982473845837
 20
530.7341976040889
 10
122.1982487866471
 20
531.4827383834454
 10
122.2930245955358
 20
531.482736981381
  0
LWPOLYLINE
  5
94
330
70
100
AcDbEntity
  8
0
 62
     7
370
     5
100
AcDbPolyline
 90
        4
 70
     0
 43
0.0
 10
258.0975817121234
 20
430.7015769964009
 10
258.0975829849549
 20
431.2997528910082
 10
258.1922596897221
 20
431.2997514889448
 10
258.1922605153131
 20
430.5513109114236
  0
SPLINE
  5
95
330
70
100
AcDbEntity
  8
0
 62
     7
370
     5
100
AcDbSpline
210
0.0
220
0.0
230
1.0
 70
     9
 71
     3
 72
    47
 73
    43
 74
     0
 42
0.0000000001
 43
0.0000000001
 40
0.0
 40
0.0
 40
0.0
 40
0.0
 40
1.0
 40
1.0
 40
1.0
 40
2.0
 40
2.0
 40
2.0
 40
3.0
 40
3.0
 40
3.0
 40
4.0
 40
4.0
 40
4.0
 40
5.0
 40
5.0
 40
5.0
 40
6.0
 40
6.0
 40
6.0
 40
7.0
 40
7.0
 40
7.0
 40
8.0
 40
8.0
 40
8.0
 40
9.0
 40
9.0
 40
9.0
 40
10.0
 40
10.0
 40
10.0
 40
11.0
 40
11.0
 40
11.0
 40
12.0
 40
12.0
 40
12.0
 40
13.0
 40
13.0
 40
13.0
 40
14.0
 40
14.0
 40
14.0
 40
14.0
 10
128.1596536395072
 20
430.8959690552319
 30
0.0
 10
128.1514389302156
 20
430.8372112311235
 30
0.0
 10
128.1260640222053
 20
430.7865193864508
 30
0.0
 10
128.0835395555523
 20
430.744140341866
 30
0.0
 10
128.0340385724512
 20
430.6948086386055
 30
0.0
 10
127.9730195377433
 20
430.6700631342973
 30
0.0
 10
127.9002737178825
 20
430.6700631342973
 30
0.0
 10
127.8266666087011
 20
430.6700631342973
 30
0.0
 10
127.7649850437356
 20
430.6950239609268
 30
0.0
 10
127.7149308844327
 20
430.7449663182451
 30
0.0
 10
127.6648767251299
 20
430.7949086755625
 30
0.0
 10
127.6397668292156
 20
430.8539980909599
 30
0.0
 10
127.6397668292156
 20
430.9225597654148
 30
0.0
 10
127.6397668292156
 20
430.9225636120218
 30
0.0
 10
127.6397635477724
 20
431.4269289841559
 30
0.0
 10
127.6397679028496
 20
431.4269297223226
 30
0.0
 10
127.6397717500349
 20
431.4269295375488
 30
0.0
 10
127.734839508309
 20
431.4269326753755
 30
0.0
 10
127.7348402464376
 20
431.4269283202593
 30
0.0
 10
127.7348400616656
 20
431.4269244730748
 30
0.0
 10
127.7348399180473
 20
430.9225636120218
 30
0.0
 10
127.7348399180473
 20
430.9225597654148
 30
0.0
 10
127.7348399180473
 20
430.8745530915157
 30
0.0
 10
127.7512706678853
 20
430.8341884369147
 30
0.0
 10
127.784165294056
 20
430.8013103740031
 30
0.0
 10
127.8170599202713
 20
430.7684323110443
 30
0.0
 10
127.8558179390802
 20
430.7520678142018
 30
0.0
 10
127.9001080853495
 20
430.7520678142018
 30
0.0
 10
127.9443982315551
 20
430.7520678142018
 30
0.0
 10
127.9826924792069
 20
430.7684323110443
 30
0.0
 10
128.0154214728354
 20
430.8013103739795
 30
0.0
 10
128.048150466464
 20
430.8341884369147
 30
0.0
 10
128.0645812163402
 20
430.8745530915157
 30
0.0
 10
128.0645812163402
 20
430.9225597654148
 30
0.0
 10
128.0645812163402
 20
430.9225636120218
 30
0.0
 10
128.0645779348979
 20
431.4269289841559
 30
0.0
 10
128.0645822899751
 20
431.4269297223226
 30
0.0
 10
128.0645861371595
 20
431.4269295375488
 30
0.0
 10
128.1596538954345
 20
431.4269326753755
 30
0.0
 10
128.1596546335631
 20
431.4269283202593
 30
0.0
 10
128.1596544487902
 20
431.4269244730748
 30
0.0
 10
128.1596543051337
 20
430.8959738164321
 30
0.0
 10
128.1596536395072
 20
430.8959690552319
 30
0.0
  0
SPLINE
  5
96
330
70
100
AcDbEntity
  8
0
 62
     7
370
     5
100
AcDbSpline
210
0.0
220
0.0
230
1.0
 70
     9
 71
     3
 72
    26
 73
    22
 74
     0
 42
0.0000000001
 43
0.0000000001
 40
0.0
 40
0.0
 40
0.0
 40
0.0
 40
1.0
 40
1.0
 40
1.0
 40
2.0
 40
2.0
 40
2.0
 40
3.0
 40
3.0
 40
3.0
 40
4.0
 40
4.0
 40
4.0
 40
5.0
 40
5.0
 40
5.0
 40
6.0
 40
6.0
 40
6.0
 40
7.0
 40
7.0
 40
7.0
 40
7.0
 10
250.7088148804878
 20
523.1215078994418
 30
0.0
 10
250.6402470573448
 20
523.0532377885192
 30
0.0
 10
250.5429876187554
 20
523.0188027794902
 30
0.0
 10
250.4170425441316
 20
523.0181485508428
 30
0.0
 10
250.4170386976393
 20
523.0181485308821
 30
0.0
 10
250.257437496869
 20
523.018145249437
 30
0.0
 10
250.2574367587385
 20
523.0181496045534
 30
0.0
 10
250.2574369435106
 20
523.0181534517396
 30
0.0
 10
250.2574338057239
 20
523.7686706537833
 30
0.0
 10
250.2574381608019
 20
523.768671391912
 30
0.0
 10
250.2574420079863
 20
523.76867120714
 30
0.0
 10
250.4170386976393
 20
523.7686710635216
 30
0.0
 10
250.4170425441316
 20
523.7686710405214
 30
0.0
 10
250.5429876187554
 20
523.7679174353624
 30
0.0
 10
250.6410420936299
 20
523.732720516602
 30
0.0
 10
250.7109465404201
 20
523.6627401214154
 30
0.0
 10
250.7858712031348
 20
523.5877340561255
 30
0.0
 10
250.823436667496
 20
523.4978535480413
 30
0.0
 10
250.823436667496
 20
523.3935712889424
 30
0.0
 10
250.823436667496
 20
523.2884111773037
 30
0.0
 10
250.7852086729163
 20
523.1975700003495
 30
0.0
 10
250.7088148804878
 20
523.1215078994418
 30
0.0
  0
SPLINE
  5
97
330
70
100
AcDbEntity
  8
0
 62
     7
370
     5
100
AcDbSpline
210
0.0
220
0.0
230
1.0
 70
     8
 71
     3
 72
    17
 73
    13
 74
     0
 42
0.0000000001
 43
0.0000000001
 40
0.0
 40
0.0
 40
0.0
 40
0.0
 40
1.0
 40
1.0
 40
1.0
 40
2.0
 40
2.0
 40
2.0
 40
3.0
 40
3.0
 40
3.0
 40
4.0
 40
4.0
 40
4.0
 40
4.0
 10
250.4163800139131
 20
523.6852502252004
 30
0.0
 10
250.4163761673808
 20
523.6852502252004
 30
0.0
 10
250.3524443326287
 20
523.6852535067209
 30
0.0
 10
250.3524435945392
 20
523.6852491515283
 30
0.0
 10
250.3524437793112
 20
523.685245304343
 30
0.0
 10
250.3524406415245
 20
523.1011225710035
 30
0.0
 10
250.3524449966026
 20
523.1011218328749
 30
0.0
 10
250.352448843787
 20
523.1011220176469
 30
0.0
 10
250.4163761673808
 20
523.1011221612643
 30
0.0
 10
250.4163800139904
 20
523.1011221612643
 30
0.0
 10
250.5103911311353
 20
523.1011221613035
 30
0.0
 10
250.5839319872839
 20
523.1267455181505
 30
0.0
 10
250.6375969363917
 20
523.178190990945
 30
0.0
  0
LWPOLYLINE
  5
98
330
70
100
AcDbEntity
  8
0
 62
     7
370
     5
100
AcDbPolyline
 90
        5
 70
     0
 43
0.0
 10
126.8330163135351
 20
531.317233945575
 10
126.8330150408201
 20
530.7341962020254
 10
126.7383383360529
 20
530.7341976040889
 10
126.7383397381172
 20
531.482639279362
 10
126.8319265334667
 20
531.4826395096734
  0
LWPOLYLINE
  5
99
330
70
100
AcDbEntity
  8
0
 62
     7
370
     5
100
AcDbPolyline
 90
        4
 70
     1
 43
0.0
 10
126.1258154139104
 20
430.6764123581587
 10
126.0308118234779
 20
430.676407934964
 10
126.0308132255404
 20
431.4270291018337
 10
126.1258193160956
 20
431.4270276997704
  0
SPLINE
  5
9A
330
70
100
AcDbEntity
  8
0
 62
     7
370
     5
100
AcDbSpline
210
0.0
220
0.0
230
1.0
 70
     8
 71
     3
 72
    17
 73
    13
 74
     0
 42
0.0000000001
 43
0.0000000001
 40
0.0
 40
0.0
 40
0.0
 40
0.0
 40
1.0
 40
1.0
 40
1.0
 40
2.0
 40
2.0
 40
2.0
 40
3.0
 40
3.0
 40
3.0
 40
4.0
 40
4.0
 40
4.0
 40
4.0
 10
125.0238031069939
 20
531.3177808387608
 30
0.0
 10
124.9546630759432
 20
531.3785218354087
 30
0.0
 10
124.8833081240846
 20
531.4087898792231
 30
0.0
 10
124.8096737779151
 20
531.4087898792231
 30
0.0
 10
124.7293664223516
 20
531.4087898792231
 30
0.0
 10
124.6599274830987
 20
531.3796945672329
 30
0.0
 10
124.601489098889
 20
531.321627823414
 30
0.0
 10
124.5430507146793
 20
531.2635610795959
 30
0.0
 10
124.5137489358349
 20
531.1926190614822
 30
0.0
 10
124.5137489358349
 20
531.1083599299463
 30
0.0
 10
124.5137489358349
 20
531.0241007984095
 30
0.0
 10
124.5430507146793
 20
530.9528366919867
 30
0.0
 10
124.6014972064767
 20
530.8949188287397
 30
0.0
  0
SPLINE
  5
9B
330
70
100
AcDbEntity
  8
0
 62
     7
370
     5
100
AcDbSpline
210
0.0
220
0.0
230
1.0
 70
     9
 71
     3
 72
    26
 73
    22
 74
     0
 42
0.0000000001
 43
0.0000000001
 40
0.0
 40
0.0
 40
0.0
 40
0.0
 40
1.0
 40
1.0
 40
1.0
 40
2.0
 40
2.0
 40
2.0
 40
3.0
 40
3.0
 40
3.0
 40
4.0
 40
4.0
 40
4.0
 40
5.0
 40
5.0
 40
5.0
 40
6.0
 40
6.0
 40
6.0
 40
7.0
 40
7.0
 40
7.0
 40
7.0
 10
189.0881873804928
 20
428.2608212849836
 30
0.0
 10
188.9641617203833
 20
428.1367956248723
 30
0.0
 10
188.7481768635516
 20
428.1367956248723
 30
0.0
 10
188.6244162155362
 20
428.2605562728895
 30
0.0
 10
188.562403385481
 20
428.3225691029819
 30
0.0
 10
188.5282168253279
 20
428.4049878642681
 30
0.0
 10
188.5282168253279
 20
428.4926406144168
 30
0.0
 10
188.5282168253279
 20
428.5802933646273
 30
0.0
 10
188.562403385481
 20
428.6627121259516
 30
0.0
 10
188.6243499625434
 20
428.7246587030158
 30
0.0
 10
188.686296539563
 20
428.7866052800336
 30
0.0
 10
188.7687153008491
 20
428.8207918401885
 30
0.0
 10
188.8563017979841
 20
428.8207918401885
 30
0.0
 10
188.9438882951799
 20
428.8207918401885
 30
0.0
 10
189.0263070565051
 20
428.7866052800336
 30
0.0
 10
189.0882536335484
 20
428.7246587029712
 30
0.0
 10
189.150200210549
 20
428.6627121259516
 30
0.0
 10
189.1843867707412
 20
428.5804258706948
 30
0.0
 10
189.1843867707412
 20
428.4928393735599
 30
0.0
 10
189.1843867707412
 20
428.405252876365
 30
0.0
 10
189.150200210549
 20
428.3228341150389
 30
0.0
 10
189.0881873804928
 20
428.2608212849836
 30
0.0
  0
LWPOLYLINE
  5
9C
330
70
100
AcDbEntity
  8
0
 62
     7
370
     5
100
AcDbPolyline
 90
        4
 70
     1
 43
0.0
 10
253.1293246401947
 20
430.5513156388924
 10
253.0345513313878
 20
430.5513112157359
 10
253.0345527334521
 20
431.2998519950924
 10
253.1293285423398
 20
431.299850593029
  0
SPLINE
  5
9D
330
70
100
AcDbEntity
  8
0
 62
     7
370
     5
100
AcDbSpline
210
0.0
220
0.0
230
1.0
 70
     8
 71
     3
 72
    14
 73
    10
 74
     0
 42
0.0000000001
 43
0.0000000001
 40
0.0
 40
0.0
 40
0.0
 40
0.0
 40
1.0
 40
1.0
 40
1.0
 40
2.0
 40
2.0
 40
2.0
 40
3.0
 40
3.0
 40
3.0
 40
3.0
 10
285.4031143372576
 20
421.8715680115874
 30
0.0
 10
285.403116258447
 20
421.8715642464048
 30
0.0
 10
285.6279848306349
 20
421.4308629579964
 30
0.0
 10
285.6279865466677
 20
421.4308595155499
 30
0.0
 10
285.6572969264735
 20
421.3720621278489
 30
0.0
 10
285.6965515481807
 20
421.3505355779197
 30
0.0
 10
285.7629456981749
 20
421.3505355779197
 30
0.0
 10
285.7629495447845
 20
421.3505355779197
 30
0.0
 10
285.9747944885394
 20
421.3505360198123
 30
0.0
 10
285.9748004876083
 20
421.3505360198123
 30
0.0
  0
LWPOLYLINE
  5
9E
330
70
100
AcDbEntity
  8
0
 62
     7
370
     5
100
AcDbPolyline
 90
        8
 70
     1
 43
0.0
 10
252.7101204474548
 20
523.686762977003
 10
252.5301804791952
 20
523.6867564078465
 10
252.5301797339507
 20
523.0181482024899
 10
252.435571161559
 20
523.0181496045534
 10
252.4355704163145
 20
523.6867578099109
 10
252.254965419329
 20
523.6867585551535
 10
252.2549668213542
 20
523.768671391912
 10
252.7101243480247
 20
523.7686699898495
  0
SPLINE
  5
9F
330
70
100
AcDbEntity
  8
0
 62
     7
370
     5
100
AcDbSpline
210
0.0
220
0.0
230
1.0
 70
     9
 71
     3
 72
    29
 73
    25
 74
     0
 42
0.0000000001
 43
0.0000000001
 40
0.0
 40
0.0
 40
0.0
 40
0.0
 40
1.0
 40
1.0
 40
1.0
 40
2.0
 40
2.0
 40
2.0
 40
3.0
 40
3.0
 40
3.0
 40
4.0
 40
4.0
 40
4.0
 40
5.0
 40
5.0
 40
5.0
 40
6.0
 40
6.0
 40
6.0
 40
7.0
 40
7.0
 40
7.0
 40
8.0
 40
8.0
 40
8.0
 40
8.0
 10
257.0931618596514
 20
431.2279268662459
 30
0.0
 10
257.0126562958821
 20
431.2279268662459
 30
0.0
 10
256.9432173566283
 20
431.19874070886
 30
0.0
 10
256.8846137989212
 20
431.1402940659818
 30
0.0
 10
256.8260102412114
 20
431.0818474231045
 30
0.0
 10
256.7966754276595
 20
431.0107071967868
 30
0.0
 10
256.7966754276595
 20
430.926501746655
 30
0.0
 10
256.7966754276595
 20
430.8422962965214
 30
0.0
 10
256.8260102412114
 20
430.7708092058328
 30
0.0
 10
256.8846137989212
 20
430.7125277364748
 30
0.0
 10
256.9432173566283
 20
430.6542462671159
 30
0.0
 10
257.0126562958821
 20
430.6250435923539
 30
0.0
 10
257.0931618596323
 20
430.6250435923539
 30
0.0
 10
257.1736674233816
 20
430.6250435923539
 30
0.0
 10
257.2431063626718
 20
430.6542462671159
 30
0.0
 10
257.3018090244632
 20
430.7125277364748
 30
0.0
 10
257.3605116862573
 20
430.7708092058328
 30
0.0
 10
257.3898134651017
 20
430.8422962965214
 30
0.0
 10
257.3898134651017
 20
430.926501746655
 30
0.0
 10
257.3898134651017
 20
431.0107071967868
 30
0.0
 10
257.3605116862573
 20
431.0818474231045
 30
0.0
 10
257.3018090244632
 20
431.1402940659818
 30
0.0
 10
257.2431063626718
 20
431.19874070886
 30
0.0
 10
257.1736674233816
 20
431.2279268662459
 30
0.0
 10
257.0931618596514
 20
431.2279268662459
 30
0.0
  0
SPLINE
  5
A0
330
70
100
AcDbEntity
  8
0
 62
     7
370
     5
100
AcDbSpline
210
0.0
220
0.0
230
1.0
 70
     8
 71
     3
 72
    11
 73
     7
 74
     0
 42
0.0000000001
 43
0.0000000001
 40
0.0
 40
0.0
 40
0.0
 40
0.0
 40
1.0
 40
1.0
 40
1.0
 40
2.0
 40
2.0
 40
2.0
 40
2.0
 10
128.4407429568755
 20
430.8375779389252
 30
0.0
 10
128.4993335569861
 20
430.7795214108491
 30
0.0
 10
128.5689654847365
 20
430.7503452356013
 30
0.0
 10
128.649462908359
 20
430.7503452356013
 30
0.0
 10
128.7233350296747
 20
430.7503452356013
 30
0.0
 10
128.7948882951259
 20
430.7808216264565
 30
0.0
 10
128.8641880773848
 20
430.8417356614354
 30
0.0
  0
SPLINE
  5
A1
330
70
100
AcDbEntity
  8
0
 62
     7
370
     5
100
AcDbSpline
210
0.0
220
0.0
230
1.0
 70
     8
 71
     3
 72
    23
 73
    19
 74
     0
 42
0.0000000001
 43
0.0000000001
 40
0.0
 40
0.0
 40
0.0
 40
0.0
 40
1.0
 40
1.0
 40
1.0
 40
2.0
 40
2.0
 40
2.0
 40
3.0
 40
3.0
 40
3.0
 40
4.0
 40
4.0
 40
4.0
 40
5.0
 40
5.0
 40
5.0
 40
6.0
 40
6.0
 40
6.0
 40
6.0
 10
255.925912074159
 20
430.657895497513
 30
0.0
 10
255.8412128013515
 20
430.5812560976064
 30
0.0
 10
255.7477246004983
 20
430.5430432084504
 30
0.0
 10
255.645977724681
 20
430.5430432084504
 30
0.0
 10
255.5364016249805
 20
430.5430432084504
 30
0.0
 10
255.4436401875764
 20
430.5804962994898
 30
0.0
 10
255.3681228635314
 20
430.6555263617065
 30
0.0
 10
255.292605539441
 20
430.7305564239677
 30
0.0
 10
255.2547477733024
 20
430.8207163787919
 30
0.0
 10
255.2547477733024
 20
430.9256841378291
 30
0.0
 10
255.2547477733024
 20
431.0296856318955
 30
0.0
 10
255.292605539441
 20
431.1196391198664
 30
0.0
 10
255.3681228635314
 20
431.1952059959985
 30
0.0
 10
255.4436401875764
 20
431.2707728720843
 30
0.0
 10
255.5364016249805
 20
431.3086554142428
 30
0.0
 10
255.645977724681
 20
431.3086554142428
 30
0.0
 10
255.7477246004983
 20
431.3086554142428
 30
0.0
 10
255.8412128013515
 20
431.2701204367385
 30
0.0
 10
255.9259177151844
 20
431.1931581842763
 30
0.0
  0
LWPOLYLINE
  5
A2
330
70
100
AcDbEntity
  8
0
 62
     7
370
     5
100
AcDbPolyline
 90
      259
 70
     0
 43
0.0
 10
288.4006691885452
 20
421.4679451956572
 10
288.3985072970954
 20
421.4679209653968
 10
288.3963266162982
 20
421.4678962729331
 10
288.3941299749185
 20
421.4678709175586
 10
288.3919200099681
 20
421.4678447176675
 10
288.3874697311339
 20
421.467789152728
 10
288.3829932466742
 20
421.4677285028692
 10
288.3740180949171
 20
421.4675891339384
 10
288.369541447928
 20
421.467509739512
 10
288.3650829826174
 20
421.4674239018377
 10
288.3606482924733
 20
421.4673319979656
 10
288.3562411163366
 20
421.4672346840006
 10
288.3518635117325
 20
421.4671328912727
 10
288.3475160282296
 20
421.4670278225448
 10
288.3431978807739
 20
421.4669209482053
 10
288.3389071230267
 20
421.4668140024587
 10
288.3346408207144
 20
421.4667089795157
 10
288.3303952249725
 20
421.4666081297982
 10
288.3261659456839
 20
421.4665139561211
 10
288.3219481248188
 20
421.4664292098932
 10
288.3177366097843
 20
421.4663568873056
 10
288.3135261267653
 20
421.466300225532
 10
288.3093114540616
 20
421.4662626989183
 10
288.3050875954341
 20
421.466248015171
 10
288.3008499534572
 20
421.4662601115633
 10
288.2987246787188
 20
421.4662774945408
 10
288.2965945028391
 20
421.4663031511172
 10
288.2944590404932
 20
421.4663376363187
 10
288.2923179637874
 20
421.4663815188077
 10
288.290171007664
 20
421.4664353807592
 10
288.2880179753365
 20
421.4664998177441
 10
288.2858587436867
 20
421.4665754386133
 10
288.2836932686969
 20
421.4666628653731
 10
288.2815215908531
 20
421.46676273307
 10
288.2793438396866
 20
421.4668756895262
 10
288.2771602335688
 20
421.4670023943553
 10
288.2749710756707
 20
421.4671435173368
 10
288.272776749538
 20
421.4672997367688
 10
288.2705777146339
 20
421.4674717378001
 10
288.2683745019003
 20
421.4676602107529
 10
288.2661677093283
 20
421.4678658494695
 10
288.2639579974966
 20
421.4680893496406
 10
288.2617460851416
 20
421.4683314071399
 10
288.2595327447161
 20
421.4685927163555
 10
288.2573187979433
 20
421.4688739685325
 10
288.2551051113733
 20
421.4691758501003
 10
288.2528925919478
 20
421.4694990410043
 10
288.25068218255
 20
421.4698442130484
 10
288.2484748575734
 20
421.470212028219
 10
288.2462716184682
 20
421.4706031370351
 10
288.2440734893034
 20
421.4710181768569
 10
288.2418815123301
 20
421.4714577702498
 10
288.2396967435352
 20
421.4719225232947
 10
288.2375202481962
 20
421.472413023931
 10
288.2353530964474
 20
421.4729298402971
 10
288.2331963588276
 20
421.4734735190513
 10
288.2310511018495
 20
421.4740445837178
 10
288.2289183835528
 20
421.4746435330153
 10
288.2267992490561
 20
421.4752708391852
 10
288.2246947261201
 20
421.4759269463429
 10
288.2226058207161
 20
421.4766122687942
 10
288.2205335125627
 20
421.4773271893773
 10
288.2184787507049
 20
421.4780720577964
 10
288.2164424490547
 20
421.4788471889542
 10
288.2154314957079
 20
421.4792461915431
 10
288.2144254819587
 20
421.4796528612923
 10
288.2134245101907
 20
421.4800672270321
 10
288.2124286797571
 20
421.480489315114
 10
288.2114380868461
 20
421.4809191493396
 10
288.2104528243381
 20
421.481356750929
 10
288.2094729816708
 20
421.4818021384489
 10
288.208498644698
 20
421.4822553277799
 10
288.2075298955488
 20
421.4827163320469
 10
288.2065668124942
 20
421.4831851615835
 10
288.2056094698064
 20
421.4836618238605
 10
288.2046579376265
 20
421.4841463234624
 10
288.2037122819347
 20
421.4846386620693
 10
288.2027725645994
 20
421.4851388385023
 10
288.2018388434417
 20
421.4856468487887
 10
288.2009111723037
 20
421.4861626861984
 10
288.199989601113
 20
421.4866863412963
 10
288.1990741759482
 20
421.4872178020049
 10
288.1981649391055
 20
421.4877570536418
 10
288.1972619291655
 20
421.4883040789772
 10
288.1963651810538
 20
421.4888588582843
 10
288.195474726117
 20
421.4894213693915
 10
288.1945905921748
 20
421.4899915877303
 10
288.1937128035979
 20
421.4905694863882
 10
288.1928413813703
 20
421.4911550361603
 10
288.1919763431488
 20
421.4917482055998
 10
288.1911177033416
 20
421.4923489610682
 10
288.1902654731602
 20
421.4929572667906
 10
288.1894196606909
 20
421.4935730848947
 10
288.1885802709657
 20
421.4941963754772
 10
288.1877473060212
 20
421.4948270966479
 10
288.1869207649697
 20
421.4954652045789
 10
288.1861006440595
 20
421.4961106535574
 10
288.1852869367394
 20
421.4967633960386
 10
288.1844796337364
 20
421.4974233826933
 10
288.1836787231086
 20
421.4980905624588
 10
288.1828841903189
 20
421.4987648825972
 10
288.182096018294
 20
421.4994462887352
 10
288.1813141874991
 20
421.5001347249272
 10
288.1805386759943
 20
421.5008301336938
 10
288.1797694595089
 20
421.5015324560854
 10
288.1790065114983
 20
421.5022416317205
 10
288.1782498032198
 20
421.5029575988465
 10
288.1774993037898
 20
421.5036802943895
 10
288.176016797649
 20
421.50514561211
 10
288.1745587057767
 20
421.5066370557433
 10
288.173124710871
 20
421.5081540782511
 10
288.1717144677623
 20
421.5096961163172
 10
288.1703276054986
 20
421.5112625919873
 10
288.1689637294639
 20
421.512852914303
 10
288.167622423478
 20
421.5144664809258
 10
288.1663032519009
 20
421.5161026797813
 10
288.1650057617435
 20
421.5177608906915
 10
288.1637294847778
 20
421.5194404869989
 10
288.1624739396266
 20
421.5211408372097
 10
288.161238633892
 20
421.5228613066174
 10
288.1600230662371
 20
421.5246012589496
 10
288.1588267285096
 20
421.5263600579901
 10
288.1576491078458
 20
421.5281370692137
 10
288.1564896887694
 20
421.5299316614236
 10
288.1553479552986
 20
421.5317432083812
 10
288.1542233930604
 20
421.5335710904419
 10
288.1531154913846
 20
421.5354146961844
 10
288.1520237454224
 20
421.5372734240508
 10
288.1509476581596
 20
421.5391466839055
 10
288.1498867416303
 20
421.5410338979618
 10
288.1488405170494
 20
421.5429345008151
 10
288.1478085147282
 20
421.5448479393453
 10
288.1467902739914
 20
421.5467736725813
 10
288.1457853431011
 20
421.5487111715901
 10
288.1447932791725
 20
421.5506599193595
 10
288.1438136480865
 20
421.5526194106687
 10
288.1428460244151
 20
421.5545891519822
 10
288.1418899913388
 20
421.556568661319
 10
288.1409451405543
 20
421.5585574681417
 10
288.1400110722125
 20
421.5605551132366
 10
288.1390873948103
 20
421.562561148583
 10
288.1381737251341
 20
421.5645751372512
 10
288.1372696881608
 20
421.5665966532724
 10
288.1363749169841
 20
421.568625281523
 10
288.1354890527291
 20
421.5706606176017
 10
288.1346117444673
 20
421.5727022677165
 10
288.1337426491464
 20
421.5747498485625
 10
288.1328814314902
 20
421.5768029871988
 10
288.132027763937
 20
421.578861320936
 10
288.1303418068956
 20
421.582992173473
 10
288.1286823084502
 20
421.5871397050887
 10
288.1270469170586
 20
421.5913013710433
 10
288.1254333965644
 20
421.595474779122
 10
288.1238396235867
 20
421.5996576858296
 10
288.1222635848899
 20
421.6038479925727
 10
288.1207033747632
 20
421.6080437418413
 10
288.1191571923928
 20
421.6122431134008
 10
288.1176233392398
 20
421.6164444204696
 10
288.1161002164226
 20
421.6206461059163
 10
288.1130802487569
 20
421.6290450087226
 10
288.1100863916263
 20
421.6374298126456
 10
288.1071091737549
 20
421.6457923386688
 10
288.104140466392
 20
421.6541261158763
 10
288.1011733993573
 20
421.662426259375
 10
288.0996886575003
 20
421.6665625955957
 10
288.0982022770549
 20
421.6706893482405
 10
288.0967137158268
 20
421.6748062984079
 10
288.0952224945358
 20
421.6789133034471
 10
288.0937281942006
 20
421.6830102931208
 10
288.0922304535088
 20
421.6870972658061
 10
288.0907289661873
 20
421.6911742846832
 10
288.0892234783914
 20
421.6952414739044
 10
288.0877137860652
 20
421.6992990147919
 10
288.0861997323336
 20
421.7033471420245
 10
288.0846812048676
 20
421.7073861398148
 10
288.0831581332623
 20
421.7114163380983
 10
288.0816304864202
 20
421.7154381087238
 10
288.080098269912
 20
421.7194518616288
 10
288.0770203178617
 20
421.7274571216357
 10
288.0739249555627
 20
421.7354360145845
 10
288.0708132803866
 20
421.7433928023165
 10
288.0676867246466
 20
421.7513319900008
 10
288.0645469716455
 20
421.7592582040479
 10
288.0613958717022
 20
421.767176070065
 10
288.0550673635571
 20
421.7830045239761
 10
288.0487161803921
 20
421.7988497462101
 10
288.0455362421271
 20
421.8067869587539
 10
288.042355316391
 20
421.8147374424025
 10
288.0391746517243
 20
421.8227033205839
 10
288.0359953560756
 20
421.8306863176712
 10
288.0328184024492
 20
421.8386877792354
 10
288.0296446345446
 20
421.8467086922991
 10
288.0264747724095
 20
421.8547497055769
 10
288.0233094180658
 20
421.8628111497355
 10
288.0201490611744
 20
421.8708930576394
 10
288.0169940846545
 20
421.8789951845955
 10
288.013844770353
 20
421.8871170286156
 10
288.0107013046636
 20
421.8952578506523
 10
288.0075637841865
 20
421.9034166948577
 10
288.0044322213653
 20
421.911592408831
 10
288.0013065501307
 20
421.9197836638704
 10
287.9981866315447
 20
421.9279889752187
 10
287.9950722594403
 20
421.9362067223128
 10
287.9919631660723
 20
421.9444351690426
 10
287.985759470509
 20
421.9609167606868
 10
287.9795723856678
 20
421.9774183196741
 10
287.9733981282198
 20
421.9939238626666
 10
287.9672324712664
 20
422.0104175014694
 10
287.9610709249355
 20
422.0268840910166
 10
287.9579902626992
 20
422.0351028721579
 10
287.9549089169577
 20
422.0433098773801
 10
287.9518263329282
 20
422.051503711119
 10
287.9487419732568
 20
422.0596831457523
 10
287.9456553236523
 20
422.0678471418596
 10
287.9425658985356
 20
422.075994868459
 10
287.9394732466826
 20
422.084125723266
 10
287.9363769568627
 20
422.0922393529408
 10
287.9332766634862
 20
422.1003356733408
 10
287.9301720522508
 20
422.1084148897634
 10
287.9270628657741
 20
422.1164775172046
 10
287.9239489092506
 20
422.1245244006049
 10
287.920830056084
 20
422.1325567350959
 10
287.9177062535327
 20
422.1405760862553
 10
287.9145775283642
 20
422.1485844103572
 10
287.9114439924761
 20
422.1565840746179
 10
287.905163395747
 20
422.1725690687008
 10
287.8988672758951
 20
422.1885589946132
 10
287.895714740037
 20
422.19656666845
 10
287.8925601688725
 20
422.20458963706
 10
287.8894044273711
 20
422.2126334847471
 10
287.886248507667
 20
422.2207036184545
 10
287.8830935320784
 20
422.2288046608627
 10
287.8799407561237
 20
422.2369398416649
 10
287.876791571538
 20
422.2451103888379
 10
287.8736475093056
 20
422.2533149199198
 10
287.8705102426565
 20
422.2615488332785
 10
287.8673815901029
 20
422.2698036993851
 10
287.8642635184469
 20
422.2780666520939
 10
287.8611581458072
 20
422.2863197799015
 10
287.859610925645
 20
422.2904355327354
 10
287.8580677446253
 20
422.29453951724
 10
287.8565289114149
 20
422.2986278043999
 10
287.8549947447009
 20
422.3026960357274
 10
287.8534655732837
 20
422.3067394042463
 10
287.8519417227417
 20
422.3107526707718
 10
287.851179997484
 20
422.3127512358514
 10
287.8507949879177
 20
422.3137592448365
 10
287.8504014090122
 20
422.3147882055209
 10
287.8501990699561
 20
422.3153166515048
 10
287.8499913488677
 20
422.3158588117785
 10
287.8497766721393
 20
422.3164188082209
 10
287.8495531898098
 20
422.3170014884035
 10
287.849318753194
 20
422.317612484353
 10
287.849196668376
 20
422.3179305897074
 10
287.8490708925065
 20
422.3182582713052
 10
287.8489410630237
 20
422.3185964799422
 10
287.8488067944945
 20
422.318946226459
 10
287.8486676779285
 20
422.3193085835764
 10
287.8485232800649
 20
422.3196846877327
  0
SPLINE
  5
A3
330
70
100
AcDbEntity
  8
0
 62
     7
370
     5
100
AcDbSpline
210
0.0
220
0.0
230
1.0
 70
     9
 71
     3
 72
    26
 73
    22
 74
     0
 42
0.0000000001
 43
0.0000000001
 40
0.0
 40
0.0
 40
0.0
 40
0.0
 40
1.0
 40
1.0
 40
1.0
 40
2.0
 40
2.0
 40
2.0
 40
3.0
 40
3.0
 40
3.0
 40
4.0
 40
4.0
 40
4.0
 40
5.0
 40
5.0
 40
5.0
 40
6.0
 40
6.0
 40
6.0
 40
7.0
 40
7.0
 40
7.0
 40
7.0
 10
254.4338556691946
 20
430.6543587304395
 30
0.0
 10
254.3654866856532
 20
430.5863021479963
 30
0.0
 10
254.2684637719176
 20
430.5519625774086
 30
0.0
 10
254.1428677659733
 20
430.5513101620626
 30
0.0
 10
254.142863919441
 20
430.5513101420628
 30
0.0
 10
253.9837050681363
 20
430.5513068606196
 30
0.0
 10
253.9837043300458
 20
430.5513112157359
 30
0.0
 10
253.9837045147797
 20
430.5513150629203
 30
0.0
 10
253.9837013769929
 20
431.2997521528796
 30
0.0
 10
253.9837057321101
 20
431.2997528910082
 30
0.0
 10
253.9837095792937
 20
431.2997527062361
 30
0.0
 10
254.1428639194792
 20
431.2997525626179
 30
0.0
 10
254.1428677659351
 20
431.2997525393493
 30
0.0
 10
254.2684637719176
 20
431.2989927645012
 30
0.0
 10
254.3662464837307
 20
431.2638933957996
 30
0.0
 10
254.4359795512564
 20
431.1941045163503
 30
0.0
 10
254.5107072265573
 20
431.1193170315155
 30
0.0
 10
254.5481685763198
 20
431.0296856318955
 30
0.0
 10
254.5481685763198
 20
430.9256841378291
 30
0.0
 10
254.5481685763198
 20
430.8208237415601
 30
0.0
 10
254.5100795672697
 20
430.7302343356577
 30
0.0
 10
254.4338556691946
 20
430.6543587304395
 30
0.0
  0
LWPOLYLINE
  5
A4
330
70
100
AcDbEntity
  8
0
 62
     7
370
     5
100
AcDbPolyline
 90
        5
 70
     0
 43
0.0
 10
126.342069055674
 20
431.261064686606
 10
126.3420677829581
 20
430.6764065328616
 10
126.2470616924047
 20
430.676407934964
 10
126.2470630944681
 20
431.4269297223226
 10
126.3410756252551
 20
431.4269299526731
  0
SPLINE
  5
A5
330
70
100
AcDbEntity
  8
0
 62
     7
370
     5
100
AcDbSpline
210
0.0
220
0.0
230
1.0
 70
     9
 71
     3
 72
    29
 73
    25
 74
     0
 42
0.0000000001
 43
0.0000000001
 40
0.0
 40
0.0
 40
0.0
 40
0.0
 40
1.0
 40
1.0
 40
1.0
 40
2.0
 40
2.0
 40
2.0
 40
3.0
 40
3.0
 40
3.0
 40
4.0
 40
4.0
 40
4.0
 40
5.0
 40
5.0
 40
5.0
 40
6.0
 40
6.0
 40
6.0
 40
7.0
 40
7.0
 40
7.0
 40
8.0
 40
8.0
 40
8.0
 40
8.0
 10
130.3794949862895
 20
430.7814551709643
 30
0.0
 10
130.303337135705
 20
430.7057900772497
 30
0.0
 10
130.2103841436355
 20
430.6681169517278
 30
0.0
 10
130.1007022631165
 20
430.6681169517278
 30
0.0
 10
129.9910203825975
 20
430.6681169517278
 30
0.0
 10
129.8980011374951
 20
430.7057900772497
 30
0.0
 10
129.8218764134271
 20
430.7814551709834
 30
0.0
 10
129.7457516893582
 20
430.8571202647199
 30
0.0
 10
129.7077887068362
 20
430.9476301765443
 30
0.0
 10
129.7077887068362
 20
431.0530056105035
 30
0.0
 10
129.7077887068362
 20
431.1575114735715
 30
0.0
 10
129.7457516893582
 20
431.2479302874562
 30
0.0
 10
129.8218764134271
 20
431.3236989015467
 30
0.0
 10
129.8980011374951
 20
431.3994675156354
 30
0.0
 10
129.9910203825975
 20
431.4373642451264
 30
0.0
 10
130.1007022631165
 20
431.4373642451264
 30
0.0
 10
130.2103841436355
 20
431.4373642451264
 30
0.0
 10
130.303337135705
 20
431.3994675156354
 30
0.0
 10
130.3794949862895
 20
431.3236989015467
 30
0.0
 10
130.4556528368748
 20
431.2479302874562
 30
0.0
 10
130.493549566363
 20
431.1575114735715
 30
0.0
 10
130.493549566363
 20
431.0530056105035
 30
0.0
 10
130.493549566363
 20
430.9476301765443
 30
0.0
 10
130.4556528368748
 20
430.8571202647199
 30
0.0
 10
130.3794949862895
 20
430.7814551709643
 30
0.0
  0
SPLINE
  5
A6
330
70
100
AcDbEntity
  8
0
 62
     7
370
     5
100
AcDbSpline
210
0.0
220
0.0
230
1.0
 70
     8
 71
     3
 72
    17
 73
    13
 74
     0
 42
0.0000000001
 43
0.0000000001
 40
0.0
 40
0.0
 40
0.0
 40
0.0
 40
1.0
 40
1.0
 40
1.0
 40
2.0
 40
2.0
 40
2.0
 40
3.0
 40
3.0
 40
3.0
 40
4.0
 40
4.0
 40
4.0
 40
4.0
 10
293.9813092497252
 20
422.7622013907548
 30
0.0
 10
293.9813089932595
 20
422.3275856337877
 30
0.0
 10
293.9813087368311
 20
421.8929698768197
 30
0.0
 10
293.9813085180213
 20
421.4583541198544
 30
0.0
 10
293.9813084804036
 20
421.3836397567911
 30
0.0
 10
294.0146003747941
 20
421.3505355779197
 30
0.0
 10
294.088773675543
 20
421.3505355779197
 30
0.0
 10
294.0887775221518
 20
421.3505355779197
 30
0.0
 10
294.2374845051509
 20
421.3505322964383
 30
0.0
 10
294.2374852432404
 20
421.3505366515546
 30
0.0
 10
294.2374850584684
 20
421.350540498739
 30
0.0
 10
294.2374849011958
 20
422.3314408847618
 30
0.0
 10
294.2374849011958
 20
422.3314480803128
 30
0.0
  0
SPLINE
  5
A7
330
70
100
AcDbEntity
  8
0
 62
     7
370
     5
100
AcDbSpline
210
0.0
220
0.0
230
1.0
 70
     9
 71
     3
 72
    53
 73
    49
 74
     0
 42
0.0000000001
 43
0.0000000001
 40
0.0
 40
0.0
 40
0.0
 40
0.0
 40
1.0
 40
1.0
 40
1.0
 40
2.0
 40
2.0
 40
2.0
 40
3.0
 40
3.0
 40
3.0
 40
4.0
 40
4.0
 40
4.0
 40
5.0
 40
5.0
 40
5.0
 40
6.0
 40
6.0
 40
6.0
 40
7.0
 40
7.0
 40
7.0
 40
8.0
 40
8.0
 40
8.0
 40
9.0
 40
9.0
 40
9.0
 40
10.0
 40
10.0
 40
10.0
 40
11.0
 40
11.0
 40
11.0
 40
12.0
 40
12.0
 40
12.0
 40
13.0
 40
13.0
 40
13.0
 40
14.0
 40
14.0
 40
14.0
 40
15.0
 40
15.0
 40
15.0
 40
16.0
 40
16.0
 40
16.0
 40
16.0
 10
201.8630934615694
 20
441.5914596509264
 30
0.0
 10
201.8630973080617
 20
441.5914596509264
 30
0.0
 10
203.4784761956526
 20
441.5914629323688
 30
0.0
 10
203.4784769338184
 20
441.5914585772907
 30
0.0
 10
203.4784767490473
 20
441.5914547301071
 30
0.0
 10
203.4784766053899
 20
439.9760803536365
 30
0.0
 10
203.4784766053899
 20
439.9760765070295
 30
0.0
 10
203.4784766053899
 20
439.9123430216377
 30
0.0
 10
203.5301539637631
 20
439.8606656632655
 30
0.0
 10
203.5938893724396
 20
439.8606656632655
 30
0.0
 10
203.6576247811136
 20
439.8606656632655
 30
0.0
 10
203.7093021394876
 20
439.9123430216377
 30
0.0
 10
203.7093021394876
 20
439.9760765070295
 30
0.0
 10
203.7093021394876
 20
439.9760803536365
 30
0.0
 10
203.7092988580444
 20
441.5914592412264
 30
0.0
 10
203.7093032131606
 20
441.591459979355
 30
0.0
 10
203.7093070603451
 20
441.591459794582
 30
0.0
 10
205.3246814368149
 20
441.5914596509264
 30
0.0
 10
205.3246852834227
 20
441.5914596509264
 30
0.0
 10
205.3884187687754
 20
441.5914596509264
 30
0.0
 10
205.4400961271876
 20
441.6431370093378
 30
0.0
 10
205.4400961271876
 20
441.7068724180144
 30
0.0
 10
205.4400961271876
 20
441.7706078266892
 30
0.0
 10
205.3884187687754
 20
441.8222851850623
 30
0.0
 10
205.3246852834227
 20
441.8222851850623
 30
0.0
 10
205.3246814368149
 20
441.8222851850623
 30
0.0
 10
203.7093025492259
 20
441.82228190362
 30
0.0
 10
203.7093018110972
 20
441.8222862586971
 30
0.0
 10
203.7093019958693
 20
441.8222901058798
 30
0.0
 10
203.7093021394876
 20
443.4376644823523
 30
0.0
 10
203.7093021394876
 20
443.4376683289592
 30
0.0
 10
203.7093021394876
 20
443.5014018143511
 30
0.0
 10
203.6576247811136
 20
443.5530791727224
 30
0.0
 10
203.5938893724396
 20
443.5530791727224
 30
0.0
 10
203.5301539637631
 20
443.5530791727224
 30
0.0
 10
203.4784766053899
 20
443.5014018143511
 30
0.0
 10
203.4784766053899
 20
443.4376683289592
 30
0.0
 10
203.4784766053899
 20
443.4376644823523
 30
0.0
 10
203.478479886834
 20
441.8222855948006
 30
0.0
 10
203.4784755317178
 20
441.8222848566338
 30
0.0
 10
203.4784716845333
 20
441.8222850414058
 30
0.0
 10
201.8630973080617
 20
441.8222851850623
 30
0.0
 10
201.8630934614548
 20
441.8222851850623
 30
0.0
 10
201.7993599761021
 20
441.8222851850623
 30
0.0
 10
201.7476826177289
 20
441.7706078266892
 30
0.0
 10
201.7476826177289
 20
441.7068724180144
 30
0.0
 10
201.7476826177289
 20
441.6431370093378
 30
0.0
 10
201.7993599761021
 20
441.5914596509264
 30
0.0
 10
201.8630934615694
 20
441.5914596509264
 30
0.0
  0
LWPOLYLINE
  5
A8
330
70
100
AcDbEntity
  8
0
 62
     7
370
     5
100
AcDbPolyline
 90
        3
 70
     0
 43
0.0
 10
287.6742984055318
 20
422.7622001527306
 10
287.4550328037912
 20
421.3505355871129
 10
287.7213405133771
 20
421.3505358666171
  0
SPLINE
  5
A9
330
70
100
AcDbEntity
  8
0
 62
     7
370
     5
100
AcDbSpline
210
0.0
220
0.0
230
1.0
 70
     8
 71
     3
 72
    23
 73
    19
 74
     0
 42
0.0000000001
 43
0.0000000001
 40
0.0
 40
0.0
 40
0.0
 40
0.0
 40
1.0
 40
1.0
 40
1.0
 40
2.0
 40
2.0
 40
2.0
 40
3.0
 40
3.0
 40
3.0
 40
4.0
 40
4.0
 40
4.0
 40
5.0
 40
5.0
 40
5.0
 40
6.0
 40
6.0
 40
6.0
 40
6.0
 10
294.2374849011958
 20
422.3314480803128
 30
0.0
 10
294.2374871165439
 20
422.3314448906021
 30
0.0
 10
294.8507779312549
 20
421.4484087018545
 30
0.0
 10
294.8507801246415
 20
421.4484055418734
 30
0.0
 10
294.8996292243283
 20
421.3780303762651
 30
0.0
 10
294.9464863234334
 20
421.3505355779197
 30
0.0
 10
295.0190309162663
 20
421.3505355779197
 30
0.0
 10
295.0190347628723
 20
421.3505355779197
 30
0.0
 10
295.1699115161036
 20
421.3505322964383
 30
0.0
 10
295.1699122541914
 20
421.3505366515546
 30
0.0
 10
295.1699120694211
 20
421.350540498739
 30
0.0
 10
295.1699152072442
 20
422.7621998270333
 30
0.0
 10
295.169910852128
 20
422.7622005652001
 30
0.0
 10
295.1699070049453
 20
422.7622003804281
 30
0.0
 10
294.913194838783
 20
422.7622035182148
 30
0.0
 10
294.9131941006162
 20
422.7621991630985
 30
0.0
 10
294.9131942853883
 20
422.7621953159141
 30
0.0
 10
294.9131944451992
 20
421.7637490589159
 30
0.0
 10
294.9131944451992
 20
421.7637418495177
 30
0.0
  0
LWPOLYLINE
  5
AA
330
70
100
AcDbEntity
  8
0
 62
     7
370
     5
100
AcDbPolyline
 90
        5
 70
     0
 43
0.0
 10
253.3449458994701
 20
431.134347557223
 10
253.3449446267559
 20
430.5513098136725
 10
253.2502018525738
 20
430.5513112157359
 10
253.2502032546372
 20
431.2997528910082
 10
253.3439882581551
 20
431.2997531213604
  0
SPLINE
  5
AB
330
70
100
AcDbEntity
  8
0
 62
     7
370
     5
100
AcDbSpline
210
0.0
220
0.0
230
1.0
 70
     9
 71
     3
 72
    17
 73
    13
 74
     0
 42
0.0000000001
 43
0.0000000001
 40
0.0
 40
0.0
 40
0.0
 40
0.0
 40
1.0
 40
1.0
 40
1.0
 40
2.0
 40
2.0
 40
2.0
 40
3.0
 40
3.0
 40
3.0
 40
4.0
 40
4.0
 40
4.0
 40
4.0
 10
289.4874161947019
 20
422.0554624561382
 30
0.0
 10
289.4874161947019
 20
422.3099163249062
 30
0.0
 10
289.6849757066411
 20
422.5196000491242
 30
0.0
 10
289.9299333799991
 20
422.5196000491242
 30
0.0
 10
290.174891053357
 20
422.5196000491242
 30
0.0
 10
290.3744381410689
 20
422.3099163249062
 30
0.0
 10
290.3744381410689
 20
422.0554624561382
 30
0.0
 10
290.3744381410689
 20
421.8010085873693
 30
0.0
 10
290.174891053357
 20
421.593500154443
 30
0.0
 10
289.9299333799991
 20
421.593500154443
 30
0.0
 10
289.6849757066411
 20
421.593500154443
 30
0.0
 10
289.4874161947019
 20
421.8010085873693
 30
0.0
 10
289.4874161947019
 20
422.0554624561382
 30
0.0
  0
SPLINE
  5
AC
330
70
100
AcDbEntity
  8
0
 62
     7
370
     9
100
AcDbSpline
210
0.0
220
0.0
230
1.0
 70
     9
 71
     3
 72
    26
 73
    22
 74
     0
 42
0.0000000001
 43
0.0000000001
 40
0.0
 40
0.0
 40
0.0
 40
0.0
 40
1.0
 40
1.0
 40
1.0
 40
2.0
 40
2.0
 40
2.0
 40
3.0
 40
3.0
 40
3.0
 40
4.0
 40
4.0
 40
4.0
 40
5.0
 40
5.0
 40
5.0
 40
6.0
 40
6.0
 40
6.0
 40
7.0
 40
7.0
 40
7.0
 40
7.0
 10
261.2545380082565
 20
524.3512129029158
 30
0.0
 10
261.2545341616478
 20
524.3512129029158
 30
0.0
 10
242.4809306329343
 20
524.3512130940352
 30
0.0
 10
242.4809267863275
 20
524.3512130940352
 30
0.0
 10
241.1167487977091
 20
524.3512131079196
 30
0.0
 10
239.7608817053369
 20
524.586600598579
 30
0.0
 10
238.4833630894618
 20
525.0650700523274
 30
0.0
 10
223.9627667878858
 20
530.5034736060806
 30
0.0
 10
213.5987012180422
 20
544.5231858492961
 30
0.0
 10
213.5985792238562
 20
560.9187333254185
 30
0.0
 10
213.5984219671918
 20
582.0534167571504
 30
0.0
 10
230.8632838299264
 20
599.2589922489587
 30
0.0
 10
251.9978502819831
 20
599.1886739218307
 30
0.0
 10
273.0407040922401
 20
599.1186607384015
 30
0.0
 10
290.138312117484
 20
581.977989487581
 30
0.0
 10
290.138312117484
 20
560.9190229226469
 30
0.0
 10
290.138312117484
 20
544.5340905584107
 30
0.0
 10
279.7877829742629
 20
530.5218732848188
 30
0.0
 10
265.2820567498657
 20
525.0757683461269
 30
0.0
 10
263.9949300788812
 20
524.5925228462875
 30
0.0
 10
262.6293892699168
 20
524.3512128889542
 30
0.0
 10
261.2545380082565
 20
524.3512129029158
 30
0.0
  0
SPLINE
  5
AD
330
70
100
AcDbEntity
  8
0
 62
     7
370
     5
100
AcDbSpline
210
0.0
220
0.0
230
1.0
 70
     8
 71
     3
 72
    14
 73
    10
 74
     0
 42
0.0000000001
 43
0.0000000001
 40
0.0
 40
0.0
 40
0.0
 40
0.0
 40
1.0
 40
1.0
 40
1.0
 40
2.0
 40
2.0
 40
2.0
 40
3.0
 40
3.0
 40
3.0
 40
3.0
 10
188.856301798015
 20
429.0516173742853
 30
0.0
 10
188.706967482889
 20
429.0516173742853
 30
0.0
 10
188.5666435789689
 20
428.9934472195946
 30
0.0
 10
188.4611025124413
 20
428.887906153067
 30
0.0
 10
188.3555614458837
 20
428.7823650865093
 30
0.0
 10
188.297391291192
 20
428.6420411825875
 30
0.0
 10
188.297391291192
 20
428.4927068675005
 30
0.0
 10
188.297391291192
 20
428.3826771585936
 30
0.0
 10
188.3294577546203
 20
428.277715806018
 30
0.0
 10
188.3882927616878
 20
428.1877118906459
 30
0.0
  0
SPLINE
  5
AE
330
70
100
AcDbEntity
  8
0
 62
     7
370
     5
100
AcDbSpline
210
0.0
220
0.0
230
1.0
 70
     8
 71
     3
 72
    11
 73
     7
 74
     0
 42
0.0000000001
 43
0.0000000001
 40
0.0
 40
0.0
 40
0.0
 40
0.0
 40
1.0
 40
1.0
 40
1.0
 40
2.0
 40
2.0
 40
2.0
 40
2.0
 10
123.5265069281649
 20
530.8937954245302
 30
0.0
 10
123.5853086940606
 20
530.95239898222
 30
0.0
 10
123.6149408199016
 20
531.0241007984095
 30
0.0
 10
123.6149408199016
 20
531.1083599299463
 30
0.0
 10
123.6149408199016
 20
531.1926190614822
 30
0.0
 10
123.5853086940606
 20
531.2642052562551
 30
0.0
 10
123.5265069281649
 20
531.3234447319164
 30
0.0
  0
LWPOLYLINE
  5
AF
330
70
100
AcDbEntity
  8
0
 62
     7
370
     5
100
AcDbPolyline
 90
      301
 70
     0
 43
0.0
 10
289.1214253250528
 20
421.3505411339029
 10
289.1209986709728
 20
421.353298576575
 10
289.1205760366747
 20
421.3560566471314
 10
289.1201567628659
 20
421.3588152425982
 10
289.1197402391153
 20
421.3615742676384
 10
289.1189132704858
 20
421.3670932673285
 10
289.118091295567
 20
421.3726130472114
 10
289.1164507009735
 20
421.383653131812
 10
289.1156278964645
 20
421.389172782925
 10
289.114801563087
 20
421.3946918831489
 10
289.113970892472
 20
421.4002103062175
 10
289.1131354522449
 20
421.405727984591
 10
289.1122951095667
 20
421.4112448975111
 10
289.1114499546666
 20
421.4167610590512
 10
289.1106002243932
 20
421.4222765061931
 10
289.1097462262187
 20
421.4277912869411
 10
289.1088882770473
 20
421.4333054507751
 10
289.1080266840154
 20
421.4388190456539
 10
289.1071617437901
 20
421.4443321178951
 10
289.1062937427205
 20
421.4498447122086
 10
289.1054229569663
 20
421.4553568717183
 10
289.1045496526695
 20
421.4608686379697
 10
289.1027965036765
 20
421.4718911492346
 10
289.1010362296802
 20
421.4829125479627
 10
289.0992706133793
 20
421.4939331125005
 10
289.097501290893
 20
421.5049530983097
 10
289.0939573667911
 20
421.5269922454981
 10
289.0904147911715
 20
421.54903160303
 10
289.0886466742886
 20
421.5600517768243
 10
289.0868818498339
 20
421.5710724646442
 10
289.0851210579231
 20
421.5820937820499
 10
289.0833649292672
 20
421.5931158275234
 10
289.081613989797
 20
421.6041386831821
 10
289.0798686653316
 20
421.6151624155181
 10
289.078129286213
 20
421.6261870761099
 10
289.0763960919521
 20
421.637212702356
 10
289.0746692358798
 20
421.6482393182004
 10
289.0729487897888
 20
421.6592669348547
 10
289.0712347485851
 20
421.6702955515284
 10
289.0695270349315
 20
421.681325156147
 10
289.0678255038929
 20
421.692355726086
 10
289.0661299475851
 20
421.7033872288866
 10
289.064440099818
 20
421.7144196229892
 10
289.062755640748
 20
421.7254528584598
 10
289.0610762015203
 20
421.7364868777085
 10
289.0594013689088
 20
421.7475216162156
 10
289.0577306899777
 20
421.758557003266
 10
289.0560636767168
 20
421.7695929626643
 10
289.0543998106868
 20
421.7806294134661
 10
289.0527385476735
 20
421.7916662706993
 10
289.0494215528242
 20
421.8137408488192
 10
289.0461079994293
 20
421.8358159643285
 10
289.0427930796641
 20
421.8578908665604
 10
289.0394720192917
 20
421.8799648100957
 10
289.0378077402047
 20
421.8910011965554
 10
289.0361402263506
 20
421.9020370779726
 10
289.0344689566127
 20
421.9130723729803
 10
289.0327934398465
 20
421.9241070048956
 10
289.0311132195357
 20
421.9351409024421
 10
289.0294278784313
 20
421.9461740004662
 10
289.0277370432013
 20
421.9572062406841
 10
289.0260403890834
 20
421.9682375723814
 10
289.0243376445196
 20
421.9792679531665
 10
289.022628595807
 20
421.9902973496637
 10
289.0209130917519
 20
422.0013257382688
 10
289.0191910483018
 20
422.0123531058589
 10
289.0174624532083
 20
422.0233794505193
 10
289.0157273706573
 20
422.0344047822709
 10
289.0139859455567
 20
422.0454291237329
 10
289.012238403975
 20
422.056452510199
 10
289.0104850484804
 20
422.0674749888712
 10
289.0087262524412
 20
422.0784966179681
 10
289.006962454333
 20
422.0895174658089
 10
289.0051941520296
 20
422.1005376099092
 10
289.0034218971041
 20
422.1115571360715
 10
289.001646289129
 20
422.1225761374681
 10
288.9980876181034
 20
422.1446129701062
 10
288.990960414274
 20
422.1886850441487
 10
288.9891809574992
 20
422.1997034099449
 10
288.9874039880051
 20
422.2107221529022
 10
288.9856302807766
 20
422.2217413916933
 10
288.9838606017857
 20
422.23276124328
 10
288.9820957022812
 20
422.2437818220077
 10
288.980336313095
 20
422.2548032386903
 10
288.9785831389354
 20
422.2658255997076
 10
288.9768368526929
 20
422.2768490060907
 10
288.975098089727
 20
422.2878735526192
 10
288.9733674421705
 20
422.2988993269109
 10
288.9716454532354
 20
422.3099264085067
 10
288.9707878607232
 20
422.3154404619681
 10
288.9699326115005
 20
422.3209548679705
 10
288.969079757172
 20
422.3264696337746
 10
288.9682293452088
 20
422.3319847659768
 10
288.9673814187863
 20
422.337500270467
 10
288.9665360165818
 20
422.3430161524029
 10
288.965693172625
 20
422.3485324161829
 10
288.9648529160986
 20
422.3540490654167
 10
288.9640152711681
 20
422.3595661028975
 10
288.9631802568029
 20
422.3650835305743
 10
288.9623478866024
 20
422.3706013495193
 10
288.9615181686095
 20
422.3761195599045
 10
288.9606911051351
 20
422.3816381609704
 10
288.9598666925867
 20
422.3871571510025
 10
288.9590449212792
 20
422.3926765272962
 10
288.9582257752664
 20
422.3981962861271
 10
288.9574092321563
 20
422.4037164227374
 10
288.9565952629364
 20
422.4092369312847
 10
288.9557838317969
 20
422.4147578048323
 10
288.9549748959471
 20
422.4202790353156
 10
288.9541684054402
 20
422.4258006135114
 10
288.9533643030008
 20
422.4313225290043
 10
288.9517629954498
 20
422.4423673241499
 10
288.950170361607
 20
422.453413312669
 10
288.9485856610336
 20
422.4644603656834
 10
288.9470080188348
 20
422.4755083326162
 10
288.9454364199728
 20
422.4865570402717
 10
288.9438697035475
 20
422.4976062919413
 10
288.9407455109486
 20
422.5197055174203
 10
288.9376230201442
 20
422.5418039304249
 10
288.9360577984844
 20
422.5528520646694
 10
288.9344871116755
 20
422.5638990178468
 10
288.9329086182042
 20
422.5749444031571
 10
288.9321156600518
 20
422.5804663785929
 10
288.9313197850916
 20
422.585987803015
 10
288.9305206458557
 20
422.591508619258
 10
288.9297178821889
 20
422.597028768132
 10
288.9289111210782
 20
422.6025481883689
 10
288.9280999764796
 20
422.608066816616
 10
288.9272840491303
 20
422.6135845873905
 10
288.9264629263789
 20
422.6191014330598
 10
288.9256361820017
 20
422.6246172838118
 10
288.9248033760286
 20
422.6301320676257
 10
288.9239640545629
 20
422.6356457102438
 10
288.9231177495994
 20
422.6411581351467
 10
288.9222639788559
 20
422.6466692635158
 10
288.9214022455826
 20
422.6521790142141
 10
288.9205320383981
 20
422.6576873037502
 10
288.9196528321845
 20
422.6631940416182
 10
288.9192096918014
 20
422.6659467760182
 10
288.9187641152403
 20
422.6686990135894
 10
288.9183160556677
 20
422.6714506438748
 10
288.9178654799171
 20
422.6742014938253
 10
288.9174123720831
 20
422.6769513123917
 10
288.9169567371364
 20
422.6796997550918
 10
288.9164986045153
 20
422.6824463686043
 10
288.9160380317435
 20
422.6851905753401
 10
288.9155751080252
 20
422.6879316580334
 10
288.9151099578576
 20
422.6906687443106
 10
288.9146427446322
 20
422.6934007912786
 10
288.9141736742376
 20
422.6961265701065
 10
288.9137029986695
 20
422.6988446506038
 10
288.9134671511883
 20
422.7002002981898
 10
288.913231019631
 20
422.7015533857993
 10
288.9129946500725
 20
422.702903671161
 10
288.9127580921386
 20
422.7042508965241
 10
288.9125213991329
 20
422.7055947881863
 10
288.9122846281307
 20
422.7069350559986
 10
288.9120478401137
 20
422.7082713928921
 10
288.9118111000671
 20
422.7096034743999
 10
288.9115744770934
 20
422.7109309581628
 10
288.911338044536
 20
422.7122534834579
 10
288.9111018800759
 20
422.7135706707104
 10
288.9108660658585
 20
422.7148821210212
 10
288.9106306886006
 20
422.7161874156709
 10
288.9103958396999
 20
422.7174861156536
 10
288.9101616153539
 20
422.718777761178
 10
288.9099281166627
 20
422.7200618712013
 10
288.909695449759
 20
422.7213379429376
 10
288.9094637259004
 20
422.7226054513803
 10
288.9093482538137
 20
422.7232358241081
 10
288.9092330615958
 20
422.7238638488179
 10
288.9091181646481
 20
422.7244894534269
 10
288.9090035787158
 20
422.7251125643588
 10
288.9088893198877
 20
422.7257331065529
 10
288.9087754046004
 20
422.7263510034345
 10
288.9086618496485
 20
422.7269661769059
 10
288.908548672177
 20
422.7275785473339
 10
288.9084358896925
 20
422.7281880335231
 10
288.9083235200669
 20
422.7287945527122
 10
288.9082115815354
 20
422.7293980205595
 10
288.9081000927063
 20
422.7299983511157
 10
288.9079890725607
 20
422.7305954568219
 10
288.9078785404554
 20
422.7311892484886
 10
288.9077685161274
 20
422.7317796352817
 10
288.9076590197028
 20
422.7323665247058
 10
288.9075500716899
 20
422.7329498225917
 10
288.9074416929925
 20
422.7335294330778
 10
288.9073339049073
 20
422.7341052586016
 10
288.9072267291313
 20
422.73467719988
 10
288.9071201877559
 20
422.735245155889
 10
288.9070143032895
 20
422.7358090238594
 10
288.9069090986414
 20
422.7363686992585
 10
288.9068045971344
 20
422.7369240757671
 10
288.906700822512
 20
422.7374750452745
 10
288.9065977989267
 20
422.7380214978611
 10
288.9064955509693
 20
422.7385633217763
 10
288.906394103642
 20
422.7391004034352
 10
288.9062934823897
 20
422.7396326273919
 10
288.9061937130782
 20
422.7401598763335
 10
288.9060948220203
 20
422.7406820310561
 10
288.9059968359697
 20
422.7411989704632
 10
288.9058997821139
 20
422.7417105715385
 10
288.9058036880988
 20
422.742216709329
 10
288.9057085820186
 20
422.7427172569459
 10
288.9056144924198
 20
422.7432120855346
 10
288.9055214483051
 20
422.7437010642579
 10
288.9054294791476
 20
422.7441840603014
 10
288.9053386148771
 20
422.7446609388307
 10
288.905248885897
 20
422.7451315630005
 10
288.9051603230801
 20
422.7455957939209
 10
288.9050729577757
 20
422.7460534906586
 10
288.9049868218135
 20
422.7465045102053
 10
288.9049019475087
 20
422.7469487074795
 10
288.9048183676068
 20
422.7473859355513
 10
288.9047360691538
 20
422.747816286529
 10
288.9046544716894
 20
422.7482428156045
 10
288.9046133173133
 20
422.7484578837302
 10
288.9045712675042
 20
422.7486775953293
 10
288.9045496763747
 20
422.7487903964174
 10
288.904527552756
 20
422.7489059707595
 10
288.9045047581358
 20
422.7490250418886
 10
288.9044811346612
 20
422.7491484342236
 10
288.9044565039185
 20
422.7492770796198
 10
288.9044306656379
 20
422.7494120239498
 10
288.9044033964574
 20
422.7495544336661
 10
288.9043891488563
 20
422.7496288371476
 10
288.9043744486671
 20
422.7497056023675
 10
288.9043592609096
 20
422.7497849119718
 10
288.9043435489321
 20
422.7498669573724
 10
288.9043272743556
 20
422.749951938953
 10
288.9043103970489
 20
422.7500400662793
 10
288.9042928750823
 20
422.7501315582976
 10
288.9042746646892
 20
422.7502266435431
 10
288.9042557202247
 20
422.750325560345
 10
288.9042359941295
 20
422.7504285570358
 10
288.9042154368917
 20
422.7505358921453
 10
288.9041939970029
 20
422.7506478346213
 10
288.904171620924
 20
422.7507646640169
 10
288.904148253041
 20
422.7508866707148
 10
288.9041238356258
 20
422.7510141561179
 10
288.9040983088035
 20
422.7511474328602
 10
288.9040716105082
 20
422.7512868250141
 10
288.9040436764426
 20
422.751432668293
 10
288.9040144400378
 20
422.7515853102532
 10
288.9039838324197
 20
422.7517451105068
 10
288.9039517823658
 20
422.7519124409218
 10
288.903918216266
 20
422.7520876858252
 10
288.9038830580812
 20
422.7522712422159
 10
288.9038462293129
 20
422.752463519967
 10
288.9038271632435
 20
422.7525630610053
 10
288.9038076489514
 20
422.7526649420224
 10
288.903787675913
 20
422.7527692179637
 10
288.9037672334453
 20
422.7528759446158
 10
288.9037463106951
 20
422.7529851786185
 10
288.9037248966579
 20
422.7530969774661
 10
288.9037029801484
 20
422.7532113995139
 10
288.903680549829
 20
422.7533285039863
 10
288.9036575941846
 20
422.7534483509844
 10
288.903634101539
 20
422.7535710014899
 10
288.9036100600397
 20
422.753696517373
 10
288.9035854576651
 20
422.7538249613962
 10
288.9035602822196
 20
422.7539563972222
 10
288.9035345213406
 20
422.7540908894261
 10
288.9035081624807
 20
422.7542285034924
 10
288.9034811929241
 20
422.754369305826
 10
288.9034535997707
 20
422.7545133637586
 10
288.9034253699492
 20
422.754660745556
 10
288.903396490201
 20
422.754811520419
 10
288.9033669470946
 20
422.7549657584986
 10
288.9033367270049
 20
422.7551235308974
 10
288.9033058161358
 20
422.7552849096755
 10
288.9032742004956
 20
422.755449967858
 10
288.9032418659135
 20
422.7556187794379
 10
288.9032087980304
 20
422.7557914193912
 10
288.903174982298
 20
422.7559679636779
 10
288.9031404039725
 20
422.7561484892448
 10
288.9031050481299
 20
422.7563330740377
 10
288.9030688996427
 20
422.7565217970059
 10
288.9030319432013
 20
422.7567147381059
 10
288.9029941632943
 20
422.7569119783184
 10
288.9029555442139
 20
422.7571135996368
 10
288.9029160700593
 20
422.7573196850862
 10
288.9028757247279
 20
422.7575303187313
 10
288.9028344919188
 20
422.7577455856789
 10
288.902792355133
 20
422.7579655720756
 10
288.902749297662
 20
422.7581903651317
 10
288.9027053026048
 20
422.7584200531127
 10
288.9026603528455
 20
422.7586547253586
 10
288.9026144310692
 20
422.7588944722765
 10
288.9025675197499
 20
422.7591393853563
 10
288.9025196011562
 20
422.7593895571735
 10
288.9024706573491
 20
422.7596450813998
 10
288.9024206701724
 20
422.7599060528046
 10
288.9023696212644
 20
422.760172567262
 10
288.9023174920467
 20
422.76044472176
 10
288.9022642637283
 20
422.7607226144082
 10
288.9022099173025
 20
422.7610063444335
 10
288.9021544335428
 20
422.7612960122033
 10
288.9020977930113
 20
422.7615917192179
 10
288.9020399760466
 20
422.7618935681257
 10
288.9019809627635
 20
422.7622016627192
  0
SPLINE
  5
B0
330
70
100
AcDbEntity
  8
0
 62
     7
370
     5
100
AcDbSpline
210
0.0
220
0.0
230
1.0
 70
     9
 71
     3
 72
    20
 73
    16
 74
     0
 42
0.0000000001
 43
0.0000000001
 40
0.0
 40
0.0
 40
0.0
 40
0.0
 40
1.0
 40
1.0
 40
1.0
 40
2.0
 40
2.0
 40
2.0
 40
3.0
 40
3.0
 40
3.0
 40
4.0
 40
4.0
 40
4.0
 40
5.0
 40
5.0
 40
5.0
 40
5.0
 10
293.7128330980122
 20
422.7621947302496
 30
0.0
 10
293.7117509548107
 20
422.7621994832579
 30
0.0
 10
293.4351341051697
 20
422.7622035097156
 30
0.0
 10
293.4351333684645
 20
422.7621991630985
 30
0.0
 10
293.4351335532365
 20
422.7621953159141
 30
0.0
 10
293.435133696893
 20
421.4583579664613
 30
0.0
 10
293.435133696893
 20
421.4583541198544
 30
0.0
 10
293.435133696893
 20
421.3836397567911
 30
0.0
 10
293.4684200702222
 20
421.3505355779197
 30
0.0
 10
293.5424111765542
 20
421.3505355779197
 30
0.0
 10
293.5424150231611
 20
421.3505355779197
 30
0.0
 10
293.7128362715693
 20
421.3505322964383
 30
0.0
 10
293.712837009698
 20
421.3505366515546
 30
0.0
 10
293.7128368249232
 20
421.350540498739
 30
0.0
 10
293.7128378352881
 20
422.7621947094421
 30
0.0
 10
293.7128330980122
 20
422.7621947302496
 30
0.0
  0
LWPOLYLINE
  5
B1
330
70
100
AcDbEntity
  8
0
 62
     7
370
     5
100
AcDbPolyline
 90
        8
 70
     1
 43
0.0
 10
129.4352864487409
 20
431.3450213073738
 10
129.2553464804805
 20
431.3450147382172
 10
129.2553457352369
 20
430.6764065328998
 10
129.1607371628442
 20
430.676407934964
 10
129.1607364176007
 20
431.3450161402816
 10
128.9801314206151
 20
431.345016885526
 10
128.9801328226404
 20
431.4269297223226
 10
129.43529034931
 20
431.4269283202593
  0
SPLINE
  5
B2
330
70
100
AcDbEntity
  8
0
 62
     7
370
     9
100
AcDbSpline
210
0.0
220
0.0
230
1.0
 70
     9
 71
     3
 72
    29
 73
    25
 74
     0
 42
0.0000000001
 43
0.0000000001
 40
0.0
 40
0.0
 40
0.0
 40
0.0
 40
1.0
 40
1.0
 40
1.0
 40
2.0
 40
2.0
 40
2.0
 40
3.0
 40
3.0
 40
3.0
 40
4.0
 40
4.0
 40
4.0
 40
5.0
 40
5.0
 40
5.0
 40
6.0
 40
6.0
 40
6.0
 40
7.0
 40
7.0
 40
7.0
 40
8.0
 40
8.0
 40
8.0
 40
8.0
 10
279.0653780356688
 20
588.1159553500692
 30
0.0
 10
271.8008002545312
 20
595.3805331312069
 30
0.0
 10
262.1420369607112
 20
599.3812882123411
 30
0.0
 10
251.8684456082255
 20
599.3812882123411
 30
0.0
 10
241.5948542557426
 20
599.3812882123411
 30
0.0
 10
231.9360909619218
 20
595.3805331312069
 30
0.0
 10
224.6715794338188
 20
588.1159553500692
 30
0.0
 10
217.4070679057158
 20
580.8513775689334
 30
0.0
 10
213.4061803185141
 20
571.1926142751517
 30
0.0
 10
213.4061803185141
 20
560.9190229226469
 30
0.0
 10
213.4061803185141
 20
550.6454315701439
 30
0.0
 10
217.4070679057158
 20
540.9866682763613
 30
0.0
 10
224.6715794338188
 20
533.7220904952054
 30
0.0
 10
231.9360909619218
 20
526.4575127140497
 30
0.0
 10
241.5948542557426
 20
522.4567576329154
 30
0.0
 10
251.8684456082255
 20
522.4567576329154
 30
0.0
 10
262.1420369607112
 20
522.4567576329154
 30
0.0
 10
271.8008002545312
 20
526.4575127140497
 30
0.0
 10
279.0653780356688
 20
533.7220904952054
 30
0.0
 10
286.3299558168055
 20
540.9866682763613
 30
0.0
 10
290.3307108979397
 20
550.6454315701439
 30
0.0
 10
290.3307108979397
 20
560.9190229226469
 30
0.0
 10
290.3307108979397
 20
571.1926142751517
 30
0.0
 10
286.3299558168055
 20
580.8513775689334
 30
0.0
 10
279.0653780356688
 20
588.1159553500692
 30
0.0
  0
LWPOLYLINE
  5
B3
330
70
100
AcDbEntity
  8
0
 62
     7
370
     5
100
AcDbPolyline
 90
        5
 70
     0
 43
0.0
 10
130.6784619541949
 20
431.261064686606
 10
130.6784606814799
 20
430.6764065328616
 10
130.5835208439585
 20
430.676407934964
 10
130.5835222460227
 20
431.4269297223226
 10
130.6773360177476
 20
431.4269299526731
  0
SPLINE
  5
B4
330
70
100
AcDbEntity
  8
0
 62
     7
370
     5
100
AcDbSpline
210
0.0
220
0.0
230
1.0
 70
     9
 71
     3
 72
    47
 73
    43
 74
     0
 42
0.0000000001
 43
0.0000000001
 40
0.0
 40
0.0
 40
0.0
 40
0.0
 40
1.0
 40
1.0
 40
1.0
 40
2.0
 40
2.0
 40
2.0
 40
3.0
 40
3.0
 40
3.0
 40
4.0
 40
4.0
 40
4.0
 40
5.0
 40
5.0
 40
5.0
 40
6.0
 40
6.0
 40
6.0
 40
7.0
 40
7.0
 40
7.0
 40
8.0
 40
8.0
 40
8.0
 40
9.0
 40
9.0
 40
9.0
 40
10.0
 40
10.0
 40
10.0
 40
11.0
 40
11.0
 40
11.0
 40
12.0
 40
12.0
 40
12.0
 40
13.0
 40
13.0
 40
13.0
 40
14.0
 40
14.0
 40
14.0
 40
14.0
 10
251.4344876382211
 20
523.2377107248603
 30
0.0
 10
251.4262729289303
 20
523.1789529007146
 30
0.0
 10
251.4008980209192
 20
523.1282610560793
 30
0.0
 10
251.358373554267
 20
523.0858820114563
 30
0.0
 10
251.3088725711659
 20
523.0365503081957
 30
0.0
 10
251.2478535364589
 20
523.0118048038893
 30
0.0
 10
251.1751077165973
 20
523.0118048038893
 30
0.0
 10
251.1015006074158
 20
523.0118048038893
 30
0.0
 10
251.0398190424494
 20
523.036765630517
 30
0.0
 10
250.9897648831484
 20
523.0867079878534
 30
0.0
 10
250.9397107238446
 20
523.1366503451917
 30
0.0
 10
250.9146008279294
 20
523.1957397605874
 30
0.0
 10
250.9146008279294
 20
523.2643014350433
 30
0.0
 10
250.9146008279294
 20
523.2643052816511
 30
0.0
 10
250.9145975464862
 20
523.7686706537833
 30
0.0
 10
250.9146019015643
 20
523.768671391912
 30
0.0
 10
250.9146057487487
 20
523.76867120714
 30
0.0
 10
251.0096735070238
 20
523.7686743449658
 30
0.0
 10
251.0096742451524
 20
523.7686699898495
 30
0.0
 10
251.0096740603803
 20
523.7686661426651
 30
0.0
 10
251.009673916762
 20
523.2643052816511
 30
0.0
 10
251.009673916762
 20
523.2643014350433
 30
0.0
 10
251.009673916762
 20
523.2162947611441
 30
0.0
 10
251.026104666601
 20
523.175930106543
 30
0.0
 10
251.0589992927698
 20
523.1430520436124
 30
0.0
 10
251.091893918986
 20
523.1101739806354
 30
0.0
 10
251.130651937794
 20
523.0938094838302
 30
0.0
 10
251.1749420840624
 20
523.0938094838302
 30
0.0
 10
251.2192322302708
 20
523.0938094838302
 30
0.0
 10
251.2575264779207
 20
523.1101739806354
 30
0.0
 10
251.2902554715511
 20
523.1430520435887
 30
0.0
 10
251.3229844651787
 20
523.175930106543
 30
0.0
 10
251.339415215054
 20
523.2162947611441
 30
0.0
 10
251.339415215054
 20
523.2643014350433
 30
0.0
 10
251.339415215054
 20
523.2643052816511
 30
0.0
 10
251.3394119336108
 20
523.7686706537833
 30
0.0
 10
251.3394162886889
 20
523.768671391912
 30
0.0
 10
251.3394201358733
 20
523.76867120714
 30
0.0
 10
251.4344878941483
 20
523.7686743449658
 30
0.0
 10
251.434488632277
 20
523.7686699898495
 30
0.0
 10
251.4344884475049
 20
523.7686661426651
 30
0.0
 10
251.4344883038484
 20
523.2377154860223
 30
0.0
 10
251.4344876382211
 20
523.2377107248603
 30
0.0
  0
LWPOLYLINE
  5
B5
330
70
100
AcDbEntity
  8
0
 62
     7
370
     5
100
AcDbPolyline
 90
        4
 70
     1
 43
0.0
 10
125.7685684394219
 20
530.7342020271689
 10
125.6740263734136
 20
530.7341976040889
 10
125.6740277754779
 20
531.4827383834454
 10
125.7685723414533
 20
531.482736981381
  0
LWPOLYLINE
  5
B6
330
70
100
AcDbEntity
  8
0
 62
     7
370
     5
100
AcDbPolyline
 90
        5
 70
     0
 43
0.0
 10
122.5086419527042
 20
531.317233945575
 10
122.5086406799901
 20
530.7341962020254
 10
122.4138979058079
 20
530.7341976040889
 10
122.4138993078713
 20
531.482639279362
 10
122.5076843113884
 20
531.4826395096734
  0
SPLINE
  5
B7
330
70
100
AcDbEntity
  8
0
 62
     7
370
     5
100
AcDbSpline
210
0.0
220
0.0
230
1.0
 70
     8
 71
     3
 72
    11
 73
     7
 74
     0
 42
0.0000000001
 43
0.0000000001
 40
0.0
 40
0.0
 40
0.0
 40
0.0
 40
1.0
 40
1.0
 40
1.0
 40
2.0
 40
2.0
 40
2.0
 40
2.0
 10
124.6014972064767
 20
530.8949188287397
 30
0.0
 10
124.6599274830987
 20
530.837017033973
 30
0.0
 10
124.7293664223516
 20
530.8079299807077
 30
0.0
 10
124.8096737779151
 20
530.8079299807077
 30
0.0
 10
124.8833081240846
 20
530.8079299807077
 30
0.0
 10
124.9546630759432
 20
530.8383219046263
 30
0.0
 10
125.0238038223524
 20
530.8990671193887
 30
0.0
  0
SPLINE
  5
B8
330
70
100
AcDbEntity
  8
0
 62
     7
370
     5
100
AcDbSpline
210
0.0
220
0.0
230
1.0
 70
     9
 71
     3
 72
    23
 73
    19
 74
     0
 42
0.0000000001
 43
0.0000000001
 40
0.0
 40
0.0
 40
0.0
 40
0.0
 40
1.0
 40
1.0
 40
1.0
 40
2.0
 40
2.0
 40
2.0
 40
3.0
 40
3.0
 40
3.0
 40
4.0
 40
4.0
 40
4.0
 40
5.0
 40
5.0
 40
5.0
 40
6.0
 40
6.0
 40
6.0
 40
6.0
 10
203.6031647957588
 20
429.2083720280434
 30
0.0
 10
203.539429387064
 20
429.2083720280434
 30
0.0
 10
203.4877520286918
 20
429.1566946696711
 30
0.0
 10
203.4877520286918
 20
429.0929611843175
 30
0.0
 10
203.4877520286918
 20
429.0929573377106
 30
0.0
 10
203.4877520286918
 20
426.6657154128961
 30
0.0
 10
203.4877520286918
 20
426.6657115662892
 30
0.0
 10
203.4877520286918
 20
426.6019780809356
 30
0.0
 10
203.539429387064
 20
426.5503007225252
 30
0.0
 10
203.6031647957397
 20
426.5503007225252
 30
0.0
 10
203.6669002044146
 20
426.5503007225252
 30
0.0
 10
203.7185775627877
 20
426.6019780809356
 30
0.0
 10
203.7185775627877
 20
426.6657115662892
 30
0.0
 10
203.7185775627877
 20
426.6657154128961
 30
0.0
 10
203.7185775627877
 20
429.0929573377106
 30
0.0
 10
203.7185775627877
 20
429.0929611843175
 30
0.0
 10
203.7185775627877
 20
429.1566946696711
 30
0.0
 10
203.6669002044146
 20
429.2083720280434
 30
0.0
 10
203.6031647957588
 20
429.2083720280434
 30
0.0
  0
SPLINE
  5
B9
330
70
100
AcDbEntity
  8
0
 62
     7
370
     5
100
AcDbSpline
210
0.0
220
0.0
230
1.0
 70
     9
 71
     3
 72
    20
 73
    16
 74
     0
 42
0.0000000001
 43
0.0000000001
 40
0.0
 40
0.0
 40
0.0
 40
0.0
 40
1.0
 40
1.0
 40
1.0
 40
2.0
 40
2.0
 40
2.0
 40
3.0
 40
3.0
 40
3.0
 40
4.0
 40
4.0
 40
4.0
 40
5.0
 40
5.0
 40
5.0
 40
5.0
 10
285.2209337876539
 20
422.5195945222176
 30
0.0
 10
285.2823203826392
 20
422.5195995362683
 30
0.0
 10
285.3437117352878
 20
422.5195997926967
 30
0.0
 10
285.4051030879373
 20
422.5195998904282
 30
0.0
 10
285.5047836112617
 20
422.5196000491242
 30
0.0
 10
285.6184011725427
 20
422.472560755561
 30
0.0
 10
285.6184011725427
 20
422.3138969975143
 30
0.0
 10
285.6184011725427
 20
422.1590372386745
 30
0.0
 10
285.5047836112617
 20
422.1119979451113
 30
0.0
 10
285.4051030879373
 20
422.1119979451113
 30
0.0
 10
285.4050992413304
 20
422.1119979451113
 30
0.0
 10
285.2209305937113
 20
422.1119946636681
 30
0.0
 10
285.2209298555827
 20
422.1119990187844
 30
0.0
 10
285.2209300403547
 20
422.1120028659688
 30
0.0
 10
285.2209290300298
 20
422.5195945218338
 30
0.0
 10
285.2209337876539
 20
422.5195945222176
 30
0.0
  0
SPLINE
  5
BA
330
70
100
AcDbEntity
  8
0
 62
     7
370
     9
100
AcDbSpline
210
0.0
220
0.0
230
1.0
 70
     9
 71
     3
 72
    29
 73
    25
 74
     0
 42
0.0000000001
 43
0.0000000001
 40
0.0
 40
0.0
 40
0.0
 40
0.0
 40
1.0
 40
1.0
 40
1.0
 40
2.0
 40
2.0
 40
2.0
 40
3.0
 40
3.0
 40
3.0
 40
4.0
 40
4.0
 40
4.0
 40
5.0
 40
5.0
 40
5.0
 40
6.0
 40
6.0
 40
6.0
 40
7.0
 40
7.0
 40
7.0
 40
8.0
 40
8.0
 40
8.0
 40
8.0
 10
280.0905655347023
 20
489.0271804605817
 30
0.0
 10
273.5525359309095
 20
495.5652100643728
 30
0.0
 10
264.8596528500902
 20
499.165992357759
 30
0.0
 10
255.6133724758665
 20
499.165992357759
 30
0.0
 10
246.367092101641
 20
499.165992357759
 30
0.0
 10
237.6743411595762
 20
495.5652100643728
 30
0.0
 10
231.1362454863893
 20
489.0271804605626
 30
0.0
 10
224.5981498132023
 20
482.4891508567534
 30
0.0
 10
220.9973675198171
 20
473.7962677759351
 30
0.0
 10
220.9973675198171
 20
464.5499874017087
 30
0.0
 10
220.9973675198171
 20
455.3037070274849
 30
0.0
 10
224.5981498132023
 20
446.6109560854201
 30
0.0
 10
231.1362454863893
 20
440.0728604122313
 30
0.0
 10
237.6743411595762
 20
433.5347647390444
 30
0.0
 10
246.367092101641
 20
429.933982445661
 30
0.0
 10
255.6133724758665
 20
429.933982445661
 30
0.0
 10
264.8596528500902
 20
429.933982445661
 30
0.0
 10
273.5525359309095
 20
433.5347647390444
 30
0.0
 10
280.0905655347023
 20
440.0728604122313
 30
0.0
 10
286.6285951384925
 20
446.6109560854201
 30
0.0
 10
290.2293774319169
 20
455.3037070274849
 30
0.0
 10
290.2293774319169
 20
464.5499874017087
 30
0.0
 10
290.2293774319169
 20
473.7962677759351
 30
0.0
 10
286.6285951384925
 20
482.4891508567534
 30
0.0
 10
280.0905655347023
 20
489.0271804605817
 30
0.0
  0
SPLINE
  5
BB
330
70
100
AcDbEntity
  8
0
 62
     7
370
     5
100
AcDbSpline
210
0.0
220
0.0
230
1.0
 70
     9
 71
     3
 72
    23
 73
    19
 74
     0
 42
0.0000000001
 43
0.0000000001
 40
0.0
 40
0.0
 40
0.0
 40
0.0
 40
1.0
 40
1.0
 40
1.0
 40
2.0
 40
2.0
 40
2.0
 40
3.0
 40
3.0
 40
3.0
 40
4.0
 40
4.0
 40
4.0
 40
5.0
 40
5.0
 40
5.0
 40
6.0
 40
6.0
 40
6.0
 40
6.0
 10
197.5551932095459
 20
438.3606972097005
 30
0.0
 10
197.5551893630545
 20
438.3606972097005
 30
0.0
 10
194.2858715087277
 20
438.3606972097005
 30
0.0
 10
194.2858676621208
 20
438.3606972097005
 30
0.0
 10
194.2221341767299
 20
438.3606972097005
 30
0.0
 10
194.1704568183568
 20
438.3090198513282
 30
0.0
 10
194.1704568183568
 20
438.2452844426715
 30
0.0
 10
194.1704568183568
 20
438.1815490339777
 30
0.0
 10
194.2221341767299
 20
438.1298716756036
 30
0.0
 10
194.2858676621208
 20
438.1298716756036
 30
0.0
 10
194.2858715087277
 20
438.1298716756036
 30
0.0
 10
197.5551893630545
 20
438.1298716756036
 30
0.0
 10
197.5551932096623
 20
438.1298716756036
 30
0.0
 10
197.6189266950532
 20
438.1298716756036
 30
0.0
 10
197.6706040534254
 20
438.1815490339777
 30
0.0
 10
197.6706040534254
 20
438.2452844426325
 30
0.0
 10
197.6706040534254
 20
438.3090198513282
 30
0.0
 10
197.6189266950532
 20
438.3606972097005
 30
0.0
 10
197.5551932095459
 20
438.3606972097005
 30
0.0
  0
SPLINE
  5
BC
330
70
100
AcDbEntity
  8
0
 62
     7
370
     5
100
AcDbSpline
210
0.0
220
0.0
230
1.0
 70
     8
 71
     3
 72
    17
 73
    13
 74
     0
 42
0.0000000001
 43
0.0000000001
 40
0.0
 40
0.0
 40
0.0
 40
0.0
 40
1.0
 40
1.0
 40
1.0
 40
2.0
 40
2.0
 40
2.0
 40
3.0
 40
3.0
 40
3.0
 40
4.0
 40
4.0
 40
4.0
 40
4.0
 10
127.1415460151975
 20
431.3435085556111
 30
0.0
 10
127.141542168667
 20
431.3435085556111
 30
0.0
 10
127.077610333914
 20
431.3435118371317
 30
0.0
 10
127.0776095958245
 20
431.3435074819381
 30
0.0
 10
127.0776097805965
 20
431.3435036347536
 30
0.0
 10
127.0776066428098
 20
430.7593809014124
 30
0.0
 10
127.0776109978878
 20
430.7593801632838
 30
0.0
 10
127.0776148450722
 20
430.7593803480558
 30
0.0
 10
127.141542168667
 20
430.7593804916741
 30
0.0
 10
127.1415460152748
 20
430.7593804916741
 30
0.0
 10
127.2355571324215
 20
430.7593804916741
 30
0.0
 10
127.3090979885692
 20
430.7850038485603
 30
0.0
 10
127.3627629376769
 20
430.8364493213539
 30
0.0
  0
SPLINE
  5
BD
330
70
100
AcDbEntity
  8
0
 62
     7
370
     5
100
AcDbSpline
210
0.0
220
0.0
230
1.0
 70
     8
 71
     3
 72
    11
 73
     7
 74
     0
 42
0.0000000001
 43
0.0000000001
 40
0.0
 40
0.0
 40
0.0
 40
0.0
 40
1.0
 40
1.0
 40
1.0
 40
2.0
 40
2.0
 40
2.0
 40
2.0
 10
255.4378011532426
 20
430.7120324403858
 30
0.0
 10
255.4962314298655
 20
430.6541306456583
 30
0.0
 10
255.5656703691575
 20
430.6250435923539
 30
0.0
 10
255.645977724681
 20
430.6250435923539
 30
0.0
 10
255.7196120708513
 20
430.6250435923539
 30
0.0
 10
255.7909670227091
 20
430.6554355163134
 30
0.0
 10
255.8601077691573
 20
430.716180731074
 30
0.0
  0
SPLINE
  5
BE
330
70
100
AcDbEntity
  8
0
 62
     7
370
     9
100
AcDbSpline
210
0.0
220
0.0
230
1.0
 70
     9
 71
     3
 72
    26
 73
    22
 74
     0
 42
0.0000000001
 43
0.0000000001
 40
0.0
 40
0.0
 40
0.0
 40
0.0
 40
1.0
 40
1.0
 40
1.0
 40
2.0
 40
2.0
 40
2.0
 40
3.0
 40
3.0
 40
3.0
 40
4.0
 40
4.0
 40
4.0
 40
5.0
 40
5.0
 40
5.0
 40
6.0
 40
6.0
 40
6.0
 40
7.0
 40
7.0
 40
7.0
 40
7.0
 10
137.7720950570828
 20
532.8579195435186
 30
0.0
 10
136.3925315135502
 20
532.2934674022708
 30
0.0
 10
134.9151536628678
 20
532.0061398408761
 30
0.0
 10
133.4245638554921
 20
532.0061398408761
 30
0.0
 10
133.4245600088852
 20
532.0061398408761
 30
0.0
 10
116.1256128852365
 20
532.0061398408761
 30
0.0
 10
116.1256090386286
 20
532.0061398408761
 30
0.0
 10
114.6765768838104
 20
532.0061398408761
 30
0.0
 10
113.2361318276507
 20
532.2686831186529
 30
0.0
 10
111.8931343326057
 20
532.8126866981765
 30
0.0
 10
99.23975891446572
 20
537.9381478742661
 30
0.0
 10
90.3014940824587
 20
550.3761666285627
 30
0.0
 10
90.35315999228078
 20
564.857761474429
 30
0.0
 10
90.41989044703404
 20
583.5618434053312
 30
0.0
 10
105.5617085459516
 20
598.8794474012575
 30
0.0
 10
124.2639075135721
 20
599.1532545978552
 30
0.0
 10
143.4795647956252
 20
599.434579016397
 30
0.0
 10
159.2012079478654
 20
583.8852448590478
 30
0.0
 10
159.2012079478654
 20
564.7328737900243
 30
0.0
 10
159.2012079478654
 20
550.3470713166107
 30
0.0
 10
150.3303339037529
 20
537.9961568073759
 30
0.0
 10
137.7720950570828
 20
532.8579195435186
 30
0.0
  0
SPLINE
  5
BF
330
70
100
AcDbEntity
  8
0
 62
     7
370
     5
100
AcDbSpline
210
0.0
220
0.0
230
1.0
 70
     9
 71
     3
 72
    29
 73
    25
 74
     0
 42
0.0000000001
 43
0.0000000001
 40
0.0
 40
0.0
 40
0.0
 40
0.0
 40
1.0
 40
1.0
 40
1.0
 40
2.0
 40
2.0
 40
2.0
 40
3.0
 40
3.0
 40
3.0
 40
4.0
 40
4.0
 40
4.0
 40
5.0
 40
5.0
 40
5.0
 40
6.0
 40
6.0
 40
6.0
 40
7.0
 40
7.0
 40
7.0
 40
8.0
 40
8.0
 40
8.0
 40
8.0
 10
130.1007022631165
 20
431.3549123572839
 30
0.0
 10
130.0199729538763
 20
431.3549123572839
 30
0.0
 10
129.9503410261259
 20
431.3256450841354
 30
0.0
 10
129.8915745942295
 20
431.2670318623304
 30
0.0
 10
129.832808162334
 20
431.2084186405264
 30
0.0
 10
129.8033918198589
 20
431.1370806974337
 30
0.0
 10
129.8033918198589
 20
431.0526412188965
 30
0.0
 10
129.8033918198589
 20
430.9682017403592
 30
0.0
 10
129.832808162334
 20
430.8965242504891
 30
0.0
 10
129.8915745942295
 20
430.838076661249
 30
0.0
 10
129.9503410261259
 20
430.7796290720089
 30
0.0
 10
130.0199729538763
 20
430.7503452356013
 30
0.0
 10
130.1007022630974
 20
430.7503452356013
 30
0.0
 10
130.1814315723186
 20
430.7503452356013
 30
0.0
 10
130.2510635001072
 20
430.7796290720089
 30
0.0
 10
130.3099293115338
 20
430.838076661249
 30
0.0
 10
130.3687951229612
 20
430.8965242504891
 30
0.0
 10
130.3982114654363
 20
430.9682017403592
 30
0.0
 10
130.3982114654363
 20
431.0526412188965
 30
0.0
 10
130.3982114654363
 20
431.1370806974337
 30
0.0
 10
130.3687951229612
 20
431.2084186405264
 30
0.0
 10
130.3099293115338
 20
431.2670318623304
 30
0.0
 10
130.2510635001072
 20
431.3256450841354
 30
0.0
 10
130.1814315723186
 20
431.3549123572839
 30
0.0
 10
130.1007022631165
 20
431.3549123572839
 30
0.0
  0
SPLINE
  5
C0
330
70
100
AcDbEntity
  8
0
 62
     7
370
     5
100
AcDbSpline
210
0.0
220
0.0
230
1.0
 70
     8
 71
     3
 72
    23
 73
    19
 74
     0
 42
0.0000000001
 43
0.0000000001
 40
0.0
 40
0.0
 40
0.0
 40
0.0
 40
1.0
 40
1.0
 40
1.0
 40
2.0
 40
2.0
 40
2.0
 40
3.0
 40
3.0
 40
3.0
 40
4.0
 40
4.0
 40
4.0
 40
5.0
 40
5.0
 40
5.0
 40
6.0
 40
6.0
 40
6.0
 40
6.0
 10
128.9301752714336
 20
430.7832884476265
 30
0.0
 10
128.845240593022
 20
430.7064360442109
 30
0.0
 10
128.7514925646664
 20
430.6681169517278
 30
0.0
 10
128.649462908359
 20
430.6681169517278
 30
0.0
 10
128.5396153952952
 20
430.6681169517278
 30
0.0
 10
128.446596150231
 20
430.7056741344394
 30
0.0
 10
128.3708689443101
 20
430.7809127243181
 30
0.0
 10
128.2951417383419
 20
430.8561513142385
 30
0.0
 10
128.2571787558199
 20
430.9465618465146
 30
0.0
 10
128.2571787558199
 20
431.0518296193513
 30
0.0
 10
128.2571787558199
 20
431.1561118784502
 30
0.0
 10
128.2951417383419
 20
431.2463236516641
 30
0.0
 10
128.3708689443101
 20
431.3220964065631
 30
0.0
 10
128.446596150231
 20
431.3978691614147
 30
0.0
 10
128.5396153952952
 20
431.4358569888063
 30
0.0
 10
128.649462908359
 20
431.4358569888063
 30
0.0
 10
128.7514925646664
 20
431.4358569888063
 30
0.0
 10
128.845240593022
 20
431.3972149128439
 30
0.0
 10
128.9301809124572
 20
431.3200387617034
 30
0.0
  0
SPLINE
  5
C1
330
70
100
AcDbEntity
  8
0
 62
     7
370
     5
100
AcDbSpline
210
0.0
220
0.0
230
1.0
 70
     9
 71
     3
 72
    47
 73
    43
 74
     0
 42
0.0000000001
 43
0.0000000001
 40
0.0
 40
0.0
 40
0.0
 40
0.0
 40
1.0
 40
1.0
 40
1.0
 40
2.0
 40
2.0
 40
2.0
 40
3.0
 40
3.0
 40
3.0
 40
4.0
 40
4.0
 40
4.0
 40
5.0
 40
5.0
 40
5.0
 40
6.0
 40
6.0
 40
6.0
 40
7.0
 40
7.0
 40
7.0
 40
8.0
 40
8.0
 40
8.0
 40
9.0
 40
9.0
 40
9.0
 40
10.0
 40
10.0
 40
10.0
 40
11.0
 40
11.0
 40
11.0
 40
12.0
 40
12.0
 40
12.0
 40
13.0
 40
13.0
 40
13.0
 40
14.0
 40
14.0
 40
14.0
 40
14.0
 10
124.321189006876
 20
530.953150172143
 30
0.0
 10
124.3130300990069
 20
530.8945552226086
 30
0.0
 10
124.2876924841657
 20
530.8440038730295
 30
0.0
 10
124.2452893698801
 20
530.8017305486082
 30
0.0
 10
124.1959551224208
 20
530.7525473062396
 30
0.0
 10
124.1350721704593
 20
530.7278621267051
 30
0.0
 10
124.0625279693649
 20
530.7278621267051
 30
0.0
 10
123.9891248661097
 20
530.7278621267051
 30
0.0
 10
123.9276142548233
 20
530.7527620317805
 30
0.0
 10
123.8776988232175
 20
530.8025618419478
 30
0.0
 10
123.8277833916127
 20
530.8523616521161
 30
0.0
 10
123.8027761237681
 20
530.9112955568025
 30
0.0
 10
123.8027761237681
 20
530.9796589450115
 30
0.0
 10
123.8027761237681
 20
530.9796627916184
 30
0.0
 10
123.8027728423249
 20
531.4826385411952
 30
0.0
 10
123.802777197402
 20
531.482639279362
 30
0.0
 10
123.8027810445865
 20
531.48263909459
 30
0.0
 10
123.897552268163
 20
531.4826422324149
 30
0.0
 10
123.8975530062917
 20
531.4826378772595
 30
0.0
 10
123.8975528215187
 20
531.4826340301142
 30
0.0
 10
123.8975526779013
 20
530.9796627916184
 30
0.0
 10
123.8975526779013
 20
530.9796589450115
 30
0.0
 10
123.8975526779013
 20
530.9317935881063
 30
0.0
 10
123.9139709237461
 20
530.8915408062412
 30
0.0
 10
123.9467578634094
 20
530.8587538665769
 30
0.0
 10
123.9795448031182
 20
530.8259669268681
 30
0.0
 10
124.0181954020791
 20
530.8096477851076
 30
0.0
 10
124.0623627959166
 20
530.8096477851076
 30
0.0
 10
124.1065301896933
 20
530.8096477851076
 30
0.0
 10
124.1447513375342
 20
530.8259669268681
 30
0.0
 10
124.1773731037219
 20
530.8587538665551
 30
0.0
 10
124.2099948699097
 20
530.8915408062412
 30
0.0
 10
124.2264131157935
 20
530.9317935881063
 30
0.0
 10
124.2264131157935
 20
530.9796589450115
 30
0.0
 10
124.2264131157935
 20
530.9796627916184
 30
0.0
 10
124.2264098343494
 20
531.4826385411952
 30
0.0
 10
124.2264141894275
 20
531.482639279362
 30
0.0
 10
124.2264180366119
 20
531.48263909459
 30
0.0
 10
124.3211892601884
 20
531.4826422324149
 30
0.0
 10
124.3211899983171
 20
531.4826378772595
 30
0.0
 10
124.3211898135441
 20
531.4826340301142
 30
0.0
 10
124.3211896698876
 20
530.9531549336898
 30
0.0
 10
124.321189006876
 20
530.953150172143
 30
0.0
  0
SPLINE
  5
C2
330
70
100
AcDbEntity
  8
0
 62
     7
370
     5
100
AcDbSpline
210
0.0
220
0.0
230
1.0
 70
     8
 71
     3
 72
    11
 73
     7
 74
     0
 42
0.0000000001
 43
0.0000000001
 40
0.0
 40
0.0
 40
0.0
 40
0.0
 40
1.0
 40
1.0
 40
1.0
 40
2.0
 40
2.0
 40
2.0
 40
2.0
 10
287.0611821057173
 20
421.446602644527
 30
0.0
 10
287.0847020813307
 20
421.3820110488723
 30
0.0
 10
287.1239622240992
 20
421.3505355779197
 30
0.0
 10
287.1885454717185
 20
421.3505355779197
 30
0.0
 10
287.1885493183272
 20
421.3505355779197
 30
0.0
 10
287.3786807444185
 20
421.350536340703
 30
0.0
 10
287.3786860621285
 20
421.3505363407421
 30
0.0
  0
SPLINE
  5
C3
330
70
100
AcDbEntity
  8
0
 62
     7
370
     9
100
AcDbSpline
210
0.0
220
0.0
230
1.0
 70
     9
 71
     3
 72
    26
 73
    22
 74
     0
 42
0.0000000001
 43
0.0000000001
 40
0.0
 40
0.0
 40
0.0
 40
0.0
 40
1.0
 40
1.0
 40
1.0
 40
2.0
 40
2.0
 40
2.0
 40
3.0
 40
3.0
 40
3.0
 40
4.0
 40
4.0
 40
4.0
 40
5.0
 40
5.0
 40
5.0
 40
6.0
 40
6.0
 40
6.0
 40
7.0
 40
7.0
 40
7.0
 40
7.0
 10
137.9797031206026
 20
432.0094711229394
 30
0.0
 10
137.9796992739948
 20
432.0094711229394
 30
0.0
 10
119.2060966342196
 20
432.0094711082856
 30
0.0
 10
119.2060927876127
 20
432.0094711082856
 30
0.0
 10
117.8419163055214
 20
432.0094711072479
 30
0.0
 10
116.4860507288304
 20
432.2448583489386
 30
0.0
 10
115.2085334601343
 20
432.7233271043296
 30
0.0
 10
100.6879592509158
 20
438.161720180934
 30
0.0
 10
90.32390206795298
 20
452.1813955105253
 30
0.0
 10
90.32374528391301
 20
468.5769090458871
 30
0.0
 10
90.32354318055968
 20
489.711638390403
 30
0.0
 10
107.5884868523362
 20
506.9172953782099
 30
0.0
 10
128.7230990674834
 20
506.8469318857723
 30
0.0
 10
149.7659150383697
 20
506.7768740106966
 30
0.0
 10
166.8634781187693
 20
489.6362201388792
 30
0.0
 10
166.8634781187693
 20
468.5772812530204
 30
0.0
 10
166.8634781187693
 20
452.1923483545797
 30
0.0
 10
156.5129483005748
 20
438.1801307014439
 30
0.0
 10
142.0072212307768
 20
432.7340263769147
 30
0.0
 10
140.7200947420278
 20
432.2507810281949
 30
0.0
 10
139.3545541585681
 20
432.0094711240153
 30
0.0
 10
137.9797031206026
 20
432.0094711229394
 30
0.0
  0
LWPOLYLINE
  5
C4
330
70
100
AcDbEntity
  8
0
 62
     7
370
     5
100
AcDbPolyline
 90
        4
 70
     0
 43
0.0
 10
254.382747653408
 20
523.168833014357
 10
254.3827489262776
 20
523.768671391912
 10
254.4776225107653
 20
523.7686699898495
 10
254.4776233363564
 20
523.0181493002028
  0
SPLINE
  5
C5
330
70
100
AcDbEntity
  8
0
 62
     7
370
     5
100
AcDbSpline
210
0.0
220
0.0
230
1.0
 70
     9
 71
     3
 72
    17
 73
    13
 74
     0
 42
0.0000000001
 43
0.0000000001
 40
0.0
 40
0.0
 40
0.0
 40
0.0
 40
1.0
 40
1.0
 40
1.0
 40
2.0
 40
2.0
 40
2.0
 40
3.0
 40
3.0
 40
3.0
 40
4.0
 40
4.0
 40
4.0
 40
4.0
 10
203.6278109205168
 20
429.9178094044028
 30
0.0
 10
202.5037621226866
 20
429.9178094044028
 30
0.0
 10
201.5892053853313
 20
429.0032526670848
 30
0.0
 10
201.5892053853313
 20
427.8792701222701
 30
0.0
 10
201.5892053853313
 20
426.7552875774554
 30
0.0
 10
202.5037621226866
 20
425.8408633461658
 30
0.0
 10
203.6278109205168
 20
425.8408633461658
 30
0.0
 10
204.7518597183453
 20
425.8408633461658
 30
0.0
 10
205.6664164556632
 20
426.7552875774554
 30
0.0
 10
205.6664164556632
 20
427.8792701222701
 30
0.0
 10
205.6664164556632
 20
429.0032526670848
 30
0.0
 10
204.7518597183453
 20
429.9178094044028
 30
0.0
 10
203.6278109205168
 20
429.9178094044028
 30
0.0
  0
SPLINE
  5
C6
330
70
100
AcDbEntity
  8
0
 62
     7
370
     5
100
AcDbSpline
210
0.0
220
0.0
230
1.0
 70
     9
 71
     3
 72
    17
 73
    13
 74
     0
 42
0.0000000001
 43
0.0000000001
 40
0.0
 40
0.0
 40
0.0
 40
0.0
 40
1.0
 40
1.0
 40
1.0
 40
2.0
 40
2.0
 40
2.0
 40
3.0
 40
3.0
 40
3.0
 40
4.0
 40
4.0
 40
4.0
 40
4.0
 10
186.4972824783863
 20
433.7260307925872
 30
0.0
 10
186.4972824783863
 20
434.0978454950628
 30
0.0
 10
186.7986706234896
 20
434.3992336401679
 30
0.0
 10
187.170479903928
 20
434.3992336401679
 30
0.0
 10
187.5422891843664
 20
434.3992336401679
 30
0.0
 10
187.8434604488893
 20
434.0978454950628
 30
0.0
 10
187.8434604488893
 20
433.7260307926044
 30
0.0
 10
187.8434604488893
 20
433.3542160901451
 30
0.0
 10
187.5422891843664
 20
433.0528279450446
 30
0.0
 10
187.170479903928
 20
433.0528279450446
 30
0.0
 10
186.7986706234896
 20
433.0528279450446
 30
0.0
 10
186.4972824783863
 20
433.3542160901451
 30
0.0
 10
186.4972824783863
 20
433.7260307925872
 30
0.0
  0
SPLINE
  5
C7
330
70
100
AcDbEntity
  8
0
 62
     7
370
     9
100
AcDbSpline
210
0.0
220
0.0
230
1.0
 70
     9
 71
     3
 72
    26
 73
    22
 74
     0
 42
0.0000000001
 43
0.0000000001
 40
0.0
 40
0.0
 40
0.0
 40
0.0
 40
1.0
 40
1.0
 40
1.0
 40
2.0
 40
2.0
 40
2.0
 40
3.0
 40
3.0
 40
3.0
 40
4.0
 40
4.0
 40
4.0
 40
5.0
 40
5.0
 40
5.0
 40
6.0
 40
6.0
 40
6.0
 40
7.0
 40
7.0
 40
7.0
 40
7.0
 10
268.6083990038887
 20
432.6750331551665
 30
0.0
 10
267.228835460317
 20
432.1105810139179
 30
0.0
 10
265.7514576096346
 20
431.8232534525241
 30
0.0
 10
264.2608678022971
 20
431.8232534525241
 30
0.0
 10
264.2608639556883
 20
431.8232534525241
 30
0.0
 10
246.9619168320414
 20
431.8232534525241
 30
0.0
 10
246.9619129854345
 20
431.8232534525241
 30
0.0
 10
245.5128808305762
 20
431.8232534525241
 30
0.0
 10
244.0724357744548
 20
432.0857967303009
 30
0.0
 10
242.7294382793725
 20
432.6298003098226
 30
0.0
 10
230.0760628612325
 20
437.7552614859514
 30
0.0
 10
221.1377980292255
 20
450.1932802402479
 30
0.0
 10
221.1894639390475
 20
464.6748750861161
 30
0.0
 10
221.256194393839
 20
483.3789570169792
 30
0.0
 10
236.3980124927184
 20
498.6965610129437
 30
0.0
 10
255.1002114603762
 20
498.9703682095023
 30
0.0
 10
274.3158687424293
 20
499.2516926280822
 30
0.0
 10
290.0375118946694
 20
483.7023584707339
 30
0.0
 10
290.0375118946694
 20
464.5499874017087
 30
0.0
 10
290.0375118946694
 20
450.1641849282568
 30
0.0
 10
281.1666378505197
 20
437.8132704190229
 30
0.0
 10
268.6083990038887
 20
432.6750331551665
 30
0.0
  0
SPLINE
  5
C8
330
70
100
AcDbEntity
  8
0
 62
     7
370
     5
100
AcDbSpline
210
0.0
220
0.0
230
1.0
 70
     9
 71
     3
 72
    29
 73
    25
 74
     0
 42
0.0000000001
 43
0.0000000001
 40
0.0
 40
0.0
 40
0.0
 40
0.0
 40
1.0
 40
1.0
 40
1.0
 40
2.0
 40
2.0
 40
2.0
 40
3.0
 40
3.0
 40
3.0
 40
4.0
 40
4.0
 40
4.0
 40
5.0
 40
5.0
 40
5.0
 40
6.0
 40
6.0
 40
6.0
 40
7.0
 40
7.0
 40
7.0
 40
8.0
 40
8.0
 40
8.0
 40
8.0
 10
257.3711984116562
 20
430.6560590462559
 30
0.0
 10
257.2952681538818
 20
430.5806036622588
 30
0.0
 10
257.2025397511443
 20
430.5430432084504
 30
0.0
 10
257.0931618596323
 20
430.5430432084504
 30
0.0
 10
256.9837839681177
 20
430.5430432084504
 30
0.0
 10
256.8910555654193
 20
430.5806036622588
 30
0.0
 10
256.8151087902515
 20
430.6560590462559
 30
0.0
 10
256.7391620150847
 20
430.7315144302529
 30
0.0
 10
256.701370318362
 20
430.8217817478452
 30
0.0
 10
256.701370318362
 20
430.92686512834
 30
0.0
 10
256.701370318362
 20
431.0310813479864
 30
0.0
 10
256.7391620150847
 20
431.1212495614563
 30
0.0
 10
256.8151087902515
 20
431.1968081789
 30
0.0
 10
256.8910555654193
 20
431.2723667963418
 30
0.0
 10
256.9837839681177
 20
431.3101584930645
 30
0.0
 10
257.0931618596323
 20
431.3101584930645
 30
0.0
 10
257.2025397511443
 20
431.3101584930645
 30
0.0
 10
257.2952681538818
 20
431.2723667963418
 30
0.0
 10
257.3711984116753
 20
431.1968081789
 30
0.0
 10
257.4471286694716
 20
431.1212495614563
 30
0.0
 10
257.4849203662306
 20
431.0310813479864
 30
0.0
 10
257.4849203662306
 20
430.92686512834
 30
0.0
 10
257.4849203662306
 20
430.8217817478452
 30
0.0
 10
257.4471286694716
 20
430.7315144302529
 30
0.0
 10
257.3711984116562
 20
430.6560590462559
 30
0.0
  0
SPLINE
  5
C9
330
70
100
AcDbEntity
  8
0
 62
     7
370
     5
100
AcDbSpline
210
0.0
220
0.0
230
1.0
 70
     8
 71
     3
 72
    17
 73
    13
 74
     0
 42
0.0000000001
 43
0.0000000001
 40
0.0
 40
0.0
 40
0.0
 40
0.0
 40
1.0
 40
1.0
 40
1.0
 40
2.0
 40
2.0
 40
2.0
 40
3.0
 40
3.0
 40
3.0
 40
4.0
 40
4.0
 40
4.0
 40
4.0
 10
255.8601070537979
 20
431.1348944504088
 30
0.0
 10
255.7909670227091
 20
431.1956354470558
 30
0.0
 10
255.7196120708513
 20
431.2259034908692
 30
0.0
 10
255.645977724681
 20
431.2259034908692
 30
0.0
 10
255.5656703691575
 20
431.2259034908692
 30
0.0
 10
255.4962314298655
 20
431.1968081789191
 30
0.0
 10
255.437793045674
 20
431.1387414350993
 30
0.0
 10
255.3793546614852
 20
431.0806746912803
 30
0.0
 10
255.3500528826389
 20
431.0097326731665
 30
0.0
 10
255.3500528826389
 20
430.9254735416307
 30
0.0
 10
255.3500528826389
 20
430.8412144100948
 30
0.0
 10
255.3793546614852
 20
430.7699503036328
 30
0.0
 10
255.4378011532426
 20
430.7120324403858
 30
0.0
  0
SPLINE
  5
CA
330
70
100
AcDbEntity
  8
0
 62
     7
370
     5
100
AcDbSpline
210
0.0
220
0.0
230
1.0
 70
     9
 71
     3
 72
    53
 73
    49
 74
     0
 42
0.0000000001
 43
0.0000000001
 40
0.0
 40
0.0
 40
0.0
 40
0.0
 40
1.0
 40
1.0
 40
1.0
 40
2.0
 40
2.0
 40
2.0
 40
3.0
 40
3.0
 40
3.0
 40
4.0
 40
4.0
 40
4.0
 40
5.0
 40
5.0
 40
5.0
 40
6.0
 40
6.0
 40
6.0
 40
7.0
 40
7.0
 40
7.0
 40
8.0
 40
8.0
 40
8.0
 40
9.0
 40
9.0
 40
9.0
 40
10.0
 40
10.0
 40
10.0
 40
11.0
 40
11.0
 40
11.0
 40
12.0
 40
12.0
 40
12.0
 40
13.0
 40
13.0
 40
13.0
 40
14.0
 40
14.0
 40
14.0
 40
15.0
 40
15.0
 40
15.0
 40
16.0
 40
16.0
 40
16.0
 40
16.0
 10
189.9588865394207
 20
434.8989767283101
 30
0.0
 10
189.9588826929284
 20
434.8989767283101
 30
0.0
 10
188.3435038053385
 20
434.8989734468668
 30
0.0
 10
188.343503067209
 20
434.8989778019459
 30
0.0
 10
188.3435032519819
 20
434.8989816491293
 30
0.0
 10
188.3435033956002
 20
436.5143560256401
 30
0.0
 10
188.3435033956002
 20
436.514359872247
 30
0.0
 10
188.3435033956002
 20
436.5780933575988
 30
0.0
 10
188.2918260372271
 20
436.6297707159729
 30
0.0
 10
188.2280906285514
 20
436.6297707159729
 30
0.0
 10
188.1643552198757
 20
436.6297707159729
 30
0.0
 10
188.1126778615034
 20
436.5780933575988
 30
0.0
 10
188.1126778615034
 20
436.514359872247
 30
0.0
 10
188.1126778615034
 20
436.5143560256401
 30
0.0
 10
188.1126811429458
 20
434.8989771380484
 30
0.0
 10
188.1126767878295
 20
434.8989763998815
 30
0.0
 10
188.112672940646
 20
434.8989765846545
 30
0.0
 10
186.4972985641752
 20
434.8989767283101
 30
0.0
 10
186.4972947175674
 20
434.8989767283101
 30
0.0
 10
186.4335612322147
 20
434.8989767283101
 30
0.0
 10
186.3818838738416
 20
434.8472993699387
 30
0.0
 10
186.3818838738416
 20
434.7835639612622
 30
0.0
 10
186.3818838738416
 20
434.7198285525864
 30
0.0
 10
186.4335612322147
 20
434.6681511942143
 30
0.0
 10
186.4972947175674
 20
434.6681511942143
 30
0.0
 10
186.4972985641752
 20
434.6681511942143
 30
0.0
 10
188.1126774517652
 20
434.6681544756575
 30
0.0
 10
188.112678189932
 20
434.6681501205412
 30
0.0
 10
188.11267800516
 20
434.6681462733568
 30
0.0
 10
188.1126778615034
 20
433.0527718968842
 30
0.0
 10
188.1126778615034
 20
433.0527680502773
 30
0.0
 10
188.1126778615034
 20
432.9890345649264
 30
0.0
 10
188.1643552198757
 20
432.9373572065142
 30
0.0
 10
188.2280906285514
 20
432.9373572065142
 30
0.0
 10
188.2918260372271
 20
432.9373572065142
 30
0.0
 10
188.3435033956002
 20
432.9890345649264
 30
0.0
 10
188.3435033956002
 20
433.0527680502773
 30
0.0
 10
188.3435033956002
 20
433.0527718968842
 30
0.0
 10
188.343500114157
 20
434.668150784476
 30
0.0
 10
188.3435044692733
 20
434.6681515226046
 30
0.0
 10
188.3435083164577
 20
434.6681513378325
 30
0.0
 10
189.9588826929284
 20
434.6681511942143
 30
0.0
 10
189.9588865395362
 20
434.6681511942143
 30
0.0
 10
190.0226200248889
 20
434.6681511942143
 30
0.0
 10
190.0742973832994
 20
434.7198285525864
 30
0.0
 10
190.0742973832994
 20
434.7835639612622
 30
0.0
 10
190.0742973832994
 20
434.8472993699387
 30
0.0
 10
190.0226200248889
 20
434.8989767283101
 30
0.0
 10
189.9588865394207
 20
434.8989767283101
 30
0.0
  0
SPLINE
  5
CB
330
70
100
AcDbEntity
  8
0
 62
     7
370
     5
100
AcDbSpline
210
0.0
220
0.0
230
1.0
 70
     8
 71
     3
 72
    11
 73
     7
 74
     0
 42
0.0000000001
 43
0.0000000001
 40
0.0
 40
0.0
 40
0.0
 40
0.0
 40
1.0
 40
1.0
 40
1.0
 40
2.0
 40
2.0
 40
2.0
 40
2.0
 10
254.3628108749308
 20
430.7109090361773
 30
0.0
 10
254.4216126408255
 20
430.7695125938671
 30
0.0
 10
254.4512447666666
 20
430.8412144100948
 30
0.0
 10
254.4512447666666
 20
430.9254735416307
 30
0.0
 10
254.4512447666666
 20
431.0097326731665
 30
0.0
 10
254.4216126408255
 20
431.0813188679012
 30
0.0
 10
254.3628108749308
 20
431.1405583436026
 30
0.0
  0
LWPOLYLINE
  5
CC
330
70
100
AcDbEntity
  8
0
 62
     7
370
     5
100
AcDbPolyline
 90
        4
 70
     0
 43
0.0
 10
131.1079136546941
 20
430.8270913447667
 10
131.1079149275629
 20
431.4269297223226
 10
131.2027885120506
 20
431.4269283202593
 10
131.2027893376426
 20
430.6764076306126
  0
SPLINE
  5
CD
330
70
100
AcDbEntity
  8
0
 62
     7
370
     5
100
AcDbSpline
210
0.0
220
0.0
230
1.0
 70
     8
 71
     3
 72
    23
 73
    19
 74
     0
 42
0.0000000001
 43
0.0000000001
 40
0.0
 40
0.0
 40
0.0
 40
0.0
 40
1.0
 40
1.0
 40
1.0
 40
2.0
 40
2.0
 40
2.0
 40
3.0
 40
3.0
 40
3.0
 40
4.0
 40
4.0
 40
4.0
 40
5.0
 40
5.0
 40
5.0
 40
6.0
 40
6.0
 40
6.0
 40
6.0
 10
252.2050092701466
 20
523.1250301172167
 30
0.0
 10
252.1200745917358
 20
523.0481777138392
 30
0.0
 10
252.0263265633821
 20
523.0098586213189
 30
0.0
 10
251.9242969071111
 20
523.0098586213189
 30
0.0
 10
251.8144493940081
 20
523.0098586213189
 30
0.0
 10
251.7214301489457
 20
523.0474158040688
 30
0.0
 10
251.645702943023
 20
523.1226543939264
 30
0.0
 10
251.5699757370557
 20
523.1978929838296
 30
0.0
 10
251.5320127545347
 20
523.2883035161048
 30
0.0
 10
251.5320127545347
 20
523.3935712889424
 30
0.0
 10
251.5320127545347
 20
523.4978535480413
 30
0.0
 10
251.5699757370557
 20
523.5880653212543
 30
0.0
 10
251.645702943023
 20
523.6638380761724
 30
0.0
 10
251.7214301489457
 20
523.7396108310449
 30
0.0
 10
251.8144493940081
 20
523.7775986584347
 30
0.0
 10
251.9242969071111
 20
523.7775986584347
 30
0.0
 10
252.0263265633821
 20
523.7775986584347
 30
0.0
 10
252.1200745917358
 20
523.7389565824351
 30
0.0
 10
252.2050149111719
 20
523.6617804312936
 30
0.0
  0
SPLINE
  5
CE
330
70
100
AcDbEntity
  8
0
 62
     7
370
     5
100
AcDbSpline
210
0.0
220
0.0
230
1.0
 70
     9
 71
     3
 72
    35
 73
    31
 74
     0
 42
0.0000000001
 43
0.0000000001
 40
0.0
 40
0.0
 40
0.0
 40
0.0
 40
1.0
 40
1.0
 40
1.0
 40
2.0
 40
2.0
 40
2.0
 40
3.0
 40
3.0
 40
3.0
 40
4.0
 40
4.0
 40
4.0
 40
5.0
 40
5.0
 40
5.0
 40
6.0
 40
6.0
 40
6.0
 40
7.0
 40
7.0
 40
7.0
 40
8.0
 40
8.0
 40
8.0
 40
9.0
 40
9.0
 40
9.0
 40
10.0
 40
10.0
 40
10.0
 40
10.0
 10
292.5870019771628
 20
422.5098241975474
 30
0.0
 10
292.5870069915236
 20
422.159337343629
 30
0.0
 10
292.5870072479893
 20
421.8088457317417
 30
0.0
 10
292.5870074593386
 20
421.4583541198544
 30
0.0
 10
292.5870075044177
 20
421.3836397567911
 30
0.0
 10
292.6202993988054
 20
421.3505355779197
 30
0.0
 10
292.6948315674108
 20
421.3505355779197
 30
0.0
 10
292.6948354140195
 20
421.3505355779197
 30
0.0
 10
292.8652566624641
 20
421.3505322964383
 30
0.0
 10
292.8652574005546
 20
421.3505366515546
 30
0.0
 10
292.8652572157816
 20
421.350540498739
 30
0.0
 10
292.865253790721
 20
422.5098273917965
 30
0.0
 10
292.8652581457991
 20
422.5098281299251
 30
0.0
 10
292.8652619929835
 20
422.5098279451531
 30
0.0
 10
293.2549429791779
 20
422.5098245200915
 30
0.0
 10
293.2549437173065
 20
422.5098288751696
 30
0.0
 10
293.2549435325345
 20
422.509832722354
 30
0.0
 10
293.2549466703213
 20
422.7621998270333
 30
0.0
 10
293.2549423152432
 20
422.7622005652001
 30
0.0
 10
293.2549384680588
 20
422.7622003804281
 30
0.0
 10
292.1975037918592
 20
422.7622035182148
 30
0.0
 10
292.1975030536923
 20
422.7621991630985
 30
0.0
 10
292.1975032385035
 20
422.7621953159141
 30
0.0
 10
292.1975033821209
 20
422.6172913222608
 30
0.0
 10
292.1975033821209
 20
422.6172874756521
 30
0.0
 10
292.1975033821209
 20
422.543114174864
 30
0.0
 10
292.2306075610313
 20
422.5098278015348
 30
0.0
 10
292.305145250697
 20
422.5098278015348
 30
0.0
 10
292.3051490973039
 20
422.5098278015348
 30
0.0
 10
292.5870019770864
 20
422.5098289554798
 30
0.0
 10
292.5870019771628
 20
422.5098241975474
 30
0.0
  0
SPLINE
  5
CF
330
70
100
AcDbEntity
  8
0
 62
     7
370
     5
100
AcDbSpline
210
0.0
220
0.0
230
1.0
 70
     9
 71
     3
 72
    53
 73
    49
 74
     0
 42
0.0000000001
 43
0.0000000001
 40
0.0
 40
0.0
 40
0.0
 40
0.0
 40
1.0
 40
1.0
 40
1.0
 40
2.0
 40
2.0
 40
2.0
 40
3.0
 40
3.0
 40
3.0
 40
4.0
 40
4.0
 40
4.0
 40
5.0
 40
5.0
 40
5.0
 40
6.0
 40
6.0
 40
6.0
 40
7.0
 40
7.0
 40
7.0
 40
8.0
 40
8.0
 40
8.0
 40
9.0
 40
9.0
 40
9.0
 40
10.0
 40
10.0
 40
10.0
 40
11.0
 40
11.0
 40
11.0
 40
12.0
 40
12.0
 40
12.0
 40
13.0
 40
13.0
 40
13.0
 40
14.0
 40
14.0
 40
14.0
 40
15.0
 40
15.0
 40
15.0
 40
16.0
 40
16.0
 40
16.0
 40
16.0
 10
189.9588865394207
 20
441.8222851850623
 30
0.0
 10
189.9588826929284
 20
441.8222851850623
 30
0.0
 10
188.3435038053385
 20
441.82228190362
 30
0.0
 10
188.343503067209
 20
441.8222862586971
 30
0.0
 10
188.3435032519819
 20
441.8222901058798
 30
0.0
 10
188.3435033956002
 20
443.4376644823523
 30
0.0
 10
188.3435033956002
 20
443.4376683289592
 30
0.0
 10
188.3435033956002
 20
443.5014018143511
 30
0.0
 10
188.2918260372271
 20
443.5530791727224
 30
0.0
 10
188.2280906285514
 20
443.5530791727224
 30
0.0
 10
188.1643552198757
 20
443.5530791727224
 30
0.0
 10
188.1126778615034
 20
443.5014018143511
 30
0.0
 10
188.1126778615034
 20
443.4376683289592
 30
0.0
 10
188.1126778615034
 20
443.4376644823523
 30
0.0
 10
188.1126811429458
 20
441.8222855948006
 30
0.0
 10
188.1126767878295
 20
441.8222848566338
 30
0.0
 10
188.112672940646
 20
441.8222850414058
 30
0.0
 10
186.4972985641752
 20
441.8222851850623
 30
0.0
 10
186.4972947175674
 20
441.8222851850623
 30
0.0
 10
186.4335612322147
 20
441.8222851850623
 30
0.0
 10
186.3818838738416
 20
441.7706078266892
 30
0.0
 10
186.3818838738416
 20
441.7068724180144
 30
0.0
 10
186.3818838738416
 20
441.6431370093378
 30
0.0
 10
186.4335612322147
 20
441.5914596509264
 30
0.0
 10
186.4972947175674
 20
441.5914596509264
 30
0.0
 10
186.4972985641752
 20
441.5914596509264
 30
0.0
 10
188.1126774517652
 20
441.5914629323688
 30
0.0
 10
188.112678189932
 20
441.5914585772907
 30
0.0
 10
188.11267800516
 20
441.5914547301071
 30
0.0
 10
188.1126778615034
 20
439.9760803536365
 30
0.0
 10
188.1126778615034
 20
439.9760765070295
 30
0.0
 10
188.1126778615034
 20
439.9123430216377
 30
0.0
 10
188.1643552198757
 20
439.8606656632655
 30
0.0
 10
188.2280906285514
 20
439.8606656632655
 30
0.0
 10
188.2918260372271
 20
439.8606656632655
 30
0.0
 10
188.3435033956002
 20
439.9123430216377
 30
0.0
 10
188.3435033956002
 20
439.9760765070295
 30
0.0
 10
188.3435033956002
 20
439.9760803536365
 30
0.0
 10
188.343500114157
 20
441.5914592412264
 30
0.0
 10
188.3435044692733
 20
441.591459979355
 30
0.0
 10
188.3435083164577
 20
441.591459794582
 30
0.0
 10
189.9588826929284
 20
441.5914596509264
 30
0.0
 10
189.9588865395362
 20
441.5914596509264
 30
0.0
 10
190.0226200248889
 20
441.5914596509264
 30
0.0
 10
190.0742973832994
 20
441.6431370093378
 30
0.0
 10
190.0742973832994
 20
441.7068724180144
 30
0.0
 10
190.0742973832994
 20
441.7706078266892
 30
0.0
 10
190.0226200248889
 20
441.8222851850623
 30
0.0
 10
189.9588865394207
 20
441.8222851850623
 30
0.0
  0
SPLINE
  5
D0
330
70
100
AcDbEntity
  8
0
 62
     7
370
     5
100
AcDbSpline
210
0.0
220
0.0
230
1.0
 70
     8
 71
     3
 72
    11
 73
     7
 74
     0
 42
0.0000000001
 43
0.0000000001
 40
0.0
 40
0.0
 40
0.0
 40
0.0
 40
1.0
 40
1.0
 40
1.0
 40
2.0
 40
2.0
 40
2.0
 40
2.0
 10
127.3627629376769
 20
430.8364493213539
 30
0.0
 10
127.4217281286537
 20
430.8952157532694
 30
0.0
 10
127.4514094832247
 20
430.9671168470694
 30
0.0
 10
127.4514094832247
 20
431.0516101561879
 30
0.0
 10
127.4514094832247
 20
431.1361034653045
 30
0.0
 10
127.4217281286537
 20
431.2078968979849
 30
0.0
 10
127.3627629376769
 20
431.2672927336024
 30
0.0
  0
SPLINE
  5
D1
330
70
100
AcDbEntity
  8
0
 62
     7
370
     5
100
AcDbSpline
210
0.0
220
0.0
230
1.0
 70
     8
 71
     3
 72
    17
 73
    13
 74
     0
 42
0.0000000001
 43
0.0000000001
 40
0.0
 40
0.0
 40
0.0
 40
0.0
 40
1.0
 40
1.0
 40
1.0
 40
2.0
 40
2.0
 40
2.0
 40
3.0
 40
3.0
 40
3.0
 40
4.0
 40
4.0
 40
4.0
 40
4.0
 10
123.3059361598807
 20
531.3994493177934
 30
0.0
 10
123.3059323133502
 20
531.3994493177934
 30
0.0
 10
123.2421776754645
 20
531.3994525993138
 30
0.0
 10
123.242176937375
 20
531.3994482441594
 30
0.0
 10
123.242177122147
 20
531.3994443969749
 30
0.0
 10
123.2421739843603
 20
530.81694060484
 30
0.0
 10
123.2421783394384
 20
530.8169398666732
 30
0.0
 10
123.2421821866228
 20
530.8169400514453
 30
0.0
 10
123.3059323133502
 20
530.8169401951017
 30
0.0
 10
123.305936159958
 20
530.8169401951017
 30
0.0
 10
123.3996206457123
 20
530.8169401951017
 30
0.0
 10
123.4730567836759
 20
530.8424842768354
 30
0.0
 10
123.5265069281649
 20
530.8937954245302
 30
0.0
  0
SPLINE
  5
D2
330
70
100
AcDbEntity
  8
0
 62
     7
370
     5
100
AcDbSpline
210
0.0
220
0.0
230
1.0
 70
     8
 71
     3
 72
    11
 73
     7
 74
     0
 42
0.0000000001
 43
0.0000000001
 40
0.0
 40
0.0
 40
0.0
 40
0.0
 40
1.0
 40
1.0
 40
1.0
 40
2.0
 40
2.0
 40
2.0
 40
2.0
 10
296.3565219442071
 20
421.4466026440259
 30
0.0
 10
296.3800419211666
 20
421.3820110488723
 30
0.0
 10
296.4191198694789
 20
421.3505355779197
 30
0.0
 10
296.4835264437015
 20
421.3505355779197
 30
0.0
 10
296.4835302903084
 20
421.3505355779197
 30
0.0
 10
296.6736617177867
 20
421.3505363412405
 30
0.0
 10
296.6736670343416
 20
421.3505363412787
 30
0.0
  0
LWPOLYLINE
  5
D3
330
70
100
AcDbEntity
  8
0
 62
     7
370
     5
100
AcDbPolyline
 90
        5
 70
     0
 43
0.0
 10
253.9532959529079
 20
523.6028063562343
 10
253.9532946801937
 20
523.0181482024899
 10
253.8583548426732
 20
523.0181496045534
 10
253.8583562447366
 20
523.768671391912
 10
253.9521700164614
 20
523.7686716222624
  0
LWPOLYLINE
  5
D4
330
70
100
AcDbEntity
  8
0
 62
     7
370
     5
100
AcDbPolyline
 90
        4
 70
     1
 43
0.0
 10
249.4006494126252
 20
523.0181540277872
 10
249.3056458221909
 20
523.0181496045534
 10
249.3056472242543
 20
523.7687707714631
 10
249.4006533148104
 20
523.7687693693596
  0
SPLINE
  5
D5
330
70
100
AcDbEntity
  8
0
 62
     7
370
     5
100
AcDbSpline
210
0.0
220
0.0
230
1.0
 70
     8
 71
     3
 72
    11
 73
     7
 74
     0
 42
0.0000000001
 43
0.0000000001
 40
0.0
 40
0.0
 40
0.0
 40
0.0
 40
1.0
 40
1.0
 40
1.0
 40
2.0
 40
2.0
 40
2.0
 40
2.0
 10
250.6375969363917
 20
523.178190990945
 30
0.0
 10
250.6965621273693
 20
523.2369574228596
 30
0.0
 10
250.7262434819386
 20
523.3088585166979
 30
0.0
 10
250.7262434819386
 20
523.3933518258163
 30
0.0
 10
250.7262434819386
 20
523.4778451349338
 30
0.0
 10
250.6965621273693
 20
523.5496385675742
 30
0.0
 10
250.6375969363917
 20
523.6090344032309
 30
0.0
  0
LWPOLYLINE
  5
D6
330
70
100
AcDbEntity
  8
0
 62
     7
370
     5
100
AcDbPolyline
 90
        4
 70
     0
 43
0.0
 10
126.7716532622016
 20
430.8270913447667
 10
126.7716545350704
 20
431.4269297223226
 10
126.8665281195581
 20
431.4269283202593
 10
126.8665289451492
 20
430.6764076306126
  0
SPLINE
  5
D7
330
70
100
AcDbEntity
  8
0
 62
     7
370
     5
100
AcDbSpline
210
0.0
220
0.0
230
1.0
 70
     8
 71
     3
 72
    23
 73
    19
 74
     0
 42
0.0000000001
 43
0.0000000001
 40
0.0
 40
0.0
 40
0.0
 40
0.0
 40
1.0
 40
1.0
 40
1.0
 40
2.0
 40
2.0
 40
2.0
 40
3.0
 40
3.0
 40
3.0
 40
4.0
 40
4.0
 40
4.0
 40
5.0
 40
5.0
 40
5.0
 40
6.0
 40
6.0
 40
6.0
 40
6.0
 10
125.0896081273931
 20
530.8407818858658
 30
0.0
 10
125.0049088545456
 20
530.7641424859193
 30
0.0
 10
124.9114206537315
 20
530.725929596766
 30
0.0
 10
124.8096737779151
 20
530.725929596766
 30
0.0
 10
124.7000976782146
 20
530.725929596766
 30
0.0
 10
124.6073362407714
 20
530.7633826878427
 30
0.0
 10
124.5318189167446
 20
530.8384127500394
 30
0.0
 10
124.4563015926742
 20
530.9134428122824
 30
0.0
 10
124.4184438265374
 20
531.0036027671048
 30
0.0
 10
124.4184438265374
 20
531.1085705261821
 30
0.0
 10
124.4184438265374
 20
531.2125720202494
 30
0.0
 10
124.4563015926742
 20
531.3025255081793
 30
0.0
 10
124.5318189167446
 20
531.3780923843114
 30
0.0
 10
124.6073362407714
 20
531.4536592603999
 30
0.0
 10
124.7000976782146
 20
531.4915418025566
 30
0.0
 10
124.8096737779151
 20
531.4915418025566
 30
0.0
 10
124.9114206537315
 20
531.4915418025566
 30
0.0
 10
125.0049088545456
 20
531.4530068250915
 30
0.0
 10
125.0896137684176
 20
531.3760445725911
 30
0.0
  0
SPLINE
  5
D8
330
70
100
AcDbEntity
  8
0
 62
     7
370
     5
100
AcDbSpline
210
0.0
220
0.0
230
1.0
 70
     9
 71
     3
 72
    29
 73
    25
 74
     0
 42
0.0000000001
 43
0.0000000001
 40
0.0
 40
0.0
 40
0.0
 40
0.0
 40
1.0
 40
1.0
 40
1.0
 40
2.0
 40
2.0
 40
2.0
 40
3.0
 40
3.0
 40
3.0
 40
4.0
 40
4.0
 40
4.0
 40
5.0
 40
5.0
 40
5.0
 40
6.0
 40
6.0
 40
6.0
 40
7.0
 40
7.0
 40
7.0
 40
8.0
 40
8.0
 40
8.0
 40
8.0
 10
253.6543289850033
 20
523.1231968405928
 30
0.0
 10
253.5781711344198
 20
523.047531746839
 30
0.0
 10
253.4852181423494
 20
523.0098586213189
 30
0.0
 10
253.3755362618304
 20
523.0098586213189
 30
0.0
 10
253.2658543813123
 20
523.0098586213189
 30
0.0
 10
253.1728351362108
 20
523.047531746839
 30
0.0
 10
253.096710412141
 20
523.1231968405746
 30
0.0
 10
253.0205856880739
 20
523.1988619343101
 30
0.0
 10
252.982622705551
 20
523.2893718461346
 30
0.0
 10
252.982622705551
 20
523.3947472800937
 30
0.0
 10
252.982622705551
 20
523.4992531431608
 30
0.0
 10
253.0205856880739
 20
523.5896719570855
 30
0.0
 10
253.096710412141
 20
523.665440571156
 30
0.0
 10
253.1728351362108
 20
523.7412091852266
 30
0.0
 10
253.2658543813123
 20
523.7791059147166
 30
0.0
 10
253.3755362618304
 20
523.7791059147166
 30
0.0
 10
253.4852181423494
 20
523.7791059147166
 30
0.0
 10
253.5781711344198
 20
523.7412091852266
 30
0.0
 10
253.6543289850033
 20
523.665440571156
 30
0.0
 10
253.7304868355895
 20
523.5896719570855
 30
0.0
 10
253.7683835650778
 20
523.4992531431608
 30
0.0
 10
253.7683835650778
 20
523.3947472800937
 30
0.0
 10
253.7683835650778
 20
523.2893718461346
 30
0.0
 10
253.7304868355895
 20
523.1988619343101
 30
0.0
 10
253.6543289850033
 20
523.1231968405928
 30
0.0
  0
LWPOLYLINE
  5
D9
330
70
100
AcDbEntity
  8
0
 62
     7
370
     5
100
AcDbPolyline
 90
        4
 70
     0
 43
0.0
 10
253.7733394900461
 20
430.7015769964009
 10
253.7733407628775
 20
431.2997528910082
 10
253.8680174676811
 20
431.2997514889448
 10
253.8680182932357
 20
430.5513109114236
  0
SPLINE
  5
DA
330
70
100
AcDbEntity
  8
0
 62
     7
370
     5
100
AcDbSpline
210
0.0
220
0.0
230
1.0
 70
     9
 71
     3
 72
    17
 73
    13
 74
     0
 42
0.0000000001
 43
0.0000000001
 40
0.0
 40
0.0
 40
0.0
 40
0.0
 40
1.0
 40
1.0
 40
1.0
 40
2.0
 40
2.0
 40
2.0
 40
3.0
 40
3.0
 40
3.0
 40
4.0
 40
4.0
 40
4.0
 40
4.0
 10
205.3246526343382
 20
433.726030792508
 30
0.0
 10
205.3246526343774
 20
434.0978454949863
 30
0.0
 10
205.0232644892749
 20
434.3992336401288
 30
0.0
 10
204.6514552088165
 20
434.3992336401461
 30
0.0
 10
204.2796459283581
 20
434.3992336401679
 30
0.0
 10
203.9784746638352
 20
434.0978454950628
 30
0.0
 10
203.9784746638352
 20
433.7260307925872
 30
0.0
 10
203.9784746638352
 20
433.3542160901088
 30
0.0
 10
204.2796459283199
 20
433.0528279450063
 30
0.0
 10
204.6514552087574
 20
433.0528279449854
 30
0.0
 10
205.0232644891967
 20
433.0528279449663
 30
0.0
 10
205.3246526343382
 20
433.3542160900706
 30
0.0
 10
205.3246526343382
 20
433.726030792508
 30
0.0
  0
LWPOLYLINE
  5
DB
330
70
100
AcDbEntity
  8
0
 62
     7
370
     5
100
AcDbPolyline
 90
        4
 70
     0
 43
0.0
 10
122.9370355432793
 20
530.8844633847156
 10
122.9370368161099
 20
531.482639279362
 10
123.031713520877
 20
531.4826378772595
 10
123.031714346469
 20
530.7341972997364
  0
SPLINE
  5
DC
330
70
100
AcDbEntity
  8
0
 62
     7
370
     5
100
AcDbSpline
210
0.0
220
0.0
230
1.0
 70
     9
 71
     3
 72
    29
 73
    25
 74
     0
 42
0.0000000001
 43
0.0000000001
 40
0.0
 40
0.0
 40
0.0
 40
0.0
 40
1.0
 40
1.0
 40
1.0
 40
2.0
 40
2.0
 40
2.0
 40
3.0
 40
3.0
 40
3.0
 40
4.0
 40
4.0
 40
4.0
 40
5.0
 40
5.0
 40
5.0
 40
6.0
 40
6.0
 40
6.0
 40
7.0
 40
7.0
 40
7.0
 40
8.0
 40
8.0
 40
8.0
 40
8.0
 10
126.2568579128456
 20
531.4108132545989
 30
0.0
 10
126.1763523491154
 20
531.4108132545989
 30
0.0
 10
126.1069134098234
 20
531.381627097211
 30
0.0
 10
126.0483098521345
 20
531.3231804543347
 30
0.0
 10
125.9897062944455
 20
531.2647338114584
 30
0.0
 10
125.9603714808945
 20
531.1935935851388
 30
0.0
 10
125.9603714808945
 20
531.1093881349888
 30
0.0
 10
125.9603714808945
 20
531.0251826848362
 30
0.0
 10
125.9897062944455
 20
530.9536955941857
 30
0.0
 10
126.0483098521345
 20
530.8954141248078
 30
0.0
 10
126.1069134098234
 20
530.8371326554288
 30
0.0
 10
126.1763523491154
 20
530.8079299807077
 30
0.0
 10
126.2568579128656
 20
530.8079299807077
 30
0.0
 10
126.3373634766149
 20
530.8079299807077
 30
0.0
 10
126.4068024158687
 20
530.8371326554288
 30
0.0
 10
126.46550507766
 20
530.8954141248078
 30
0.0
 10
126.5242077394514
 20
530.9536955941857
 30
0.0
 10
126.5535095182968
 20
531.0251826848362
 30
0.0
 10
126.5535095182968
 20
531.1093881349888
 30
0.0
 10
126.5535095182968
 20
531.1935935851388
 30
0.0
 10
126.5242077394514
 20
531.2647338114584
 30
0.0
 10
126.46550507766
 20
531.3231804543347
 30
0.0
 10
126.4068024158687
 20
531.381627097211
 30
0.0
 10
126.3373634766149
 20
531.4108132545989
 30
0.0
 10
126.2568579128456
 20
531.4108132545989
 30
0.0
  0
LWPOLYLINE
  5
DD
330
70
100
AcDbEntity
  8
0
 62
     7
370
     5
100
AcDbPolyline
 90
        4
 70
     0
 43
0.0
 10
250.0464872609145
 20
523.168833014357
 10
250.0464885337842
 20
523.768671391912
 10
250.1413621182728
 20
523.7686699898495
 10
250.141362943863
 20
523.0181493002028
  0
LWPOLYLINE
  5
DE
330
70
100
AcDbEntity
  8
0
 62
     7
370
     5
100
AcDbPolyline
 90
        5
 70
     0
 43
0.0
 10
249.6169030543879
 20
523.6028063562343
 10
249.6169017816719
 20
523.0181482024899
 10
249.5218956911185
 20
523.0181496045534
 10
249.5218970931819
 20
523.768671391912
 10
249.6159096239708
 20
523.7686716222624
  0
LINE
  5
DF
330
70
100
AcDbEntity
  8
0
 62
     7
370
    20
100
AcDbLine
 10
285.2209279242406
 20
691.8807665540571
 30
0.0
 11
285.6170116817948
 21
691.8807665540571
 31
0.0
  0
LINE
  5
E0
330
70
100
AcDbEntity
  8
0
 62
     7
370
    20
100
AcDbLine
 10
203.7185821202156
 20
691.8807665540571
 30
0.0
 11
203.4877444684007
 21
691.8807665540571
 31
0.0
  0
LINE
  5
E1
330
70
100
AcDbEntity
  8
0
 62
     7
370
    20
100
AcDbLine
 10
128.9301780919459
 20
691.8807665540571
 30
0.0
 11
128.2607227515236
 21
691.8807665540571
 31
0.0
  0
LINE
  5
E2
330
70
100
AcDbEntity
  8
0
 62
     7
370
    20
100
AcDbLine
 10
251.4344903542706
 20
691.8807665540571
 30
0.0
 11
250.9145974900621
 21
691.8807665540571
 31
0.0
  0
LINE
  5
E3
330
70
100
AcDbEntity
  8
0
 62
     7
370
    20
100
AcDbLine
 10
129.6110612672028
 20
691.8807665540571
 30
0.0
 11
129.5162477473686
 21
691.8807665540571
 31
0.0
  0
LINE
  5
E4
330
70
100
AcDbEntity
  8
0
 62
     7
370
    20
100
AcDbLine
 10
159.1467096866317
 20
691.8807665540571
 30
0.0
 11
91.18483756263685
 21
691.8807665540571
 31
0.0
  0
LINE
  5
E5
330
70
100
AcDbEntity
  8
0
 62
     7
370
    20
100
AcDbLine
 10
166.7595511582685
 20
691.8807665540571
 30
0.0
 11
90.1644864414311
 21
691.8807665540571
 31
0.0
  0
LINE
  5
E6
330
70
100
AcDbEntity
  8
0
 62
     7
370
    20
100
AcDbLine
 10
201.7507295704099
 20
691.8807665540571
 30
0.0
 11
205.4370491744685
 21
691.8807665540571
 31
0.0
  0
LINE
  5
E7
330
70
100
AcDbEntity
  8
0
 62
     7
370
    20
100
AcDbLine
 10
257.482091297762
 20
691.8807665540571
 30
0.0
 11
256.7016836665916
 21
691.8807665540571
 31
0.0
  0
LINE
  5
E8
330
70
100
AcDbEntity
  8
0
 62
     7
370
    20
100
AcDbLine
 10
255.1574956671138
 20
691.8807665540571
 30
0.0
 11
254.6390767326657
 21
691.8807665540571
 31
0.0
  0
LINE
  5
E9
330
70
100
AcDbEntity
  8
0
 62
     7
370
    20
100
AcDbLine
 10
252.8858952659175
 20
691.8807665540571
 30
0.0
 11
252.7910817460825
 21
691.8807665540571
 31
0.0
  0
LINE
  5
EA
330
70
100
AcDbEntity
  8
0
 62
     7
370
    20
100
AcDbLine
 10
123.5265069281649
 20
691.8807665540571
 30
0.0
 11
123.6131294098622
 21
691.8807665540571
 31
0.0
  0
LINE
  5
EB
330
70
100
AcDbEntity
  8
0
 62
     7
370
    20
100
AcDbLine
 10
290.0343851569823
 20
691.8807665540571
 30
0.0
 11
213.4393204401458
 21
691.8807665540571
 31
0.0
  0
LINE
  5
EC
330
70
100
AcDbEntity
  8
0
 62
     7
370
    20
100
AcDbLine
 10
297.8602865994562
 20
691.8807665540571
 30
0.0
 11
282.4753781981471
 21
691.8807665540571
 31
0.0
  0
LINE
  5
ED
330
70
100
AcDbEntity
  8
0
 62
     7
370
    20
100
AcDbLine
 10
252.2050120906606
 20
691.8807665540571
 30
0.0
 11
251.5355567502384
 21
691.8807665540571
 31
0.0
  0
LINE
  5
EE
330
70
100
AcDbEntity
  8
0
 62
     7
370
    20
100
AcDbLine
 10
123.7118648218647
 20
691.8807665540571
 30
0.0
 11
123.1473961519732
 21
691.8807665540571
 31
0.0
  0
LINE
  5
EF
330
70
100
AcDbEntity
  8
0
 62
     7
370
    20
100
AcDbLine
 10
190.2592633342065
 20
691.8807665540571
 30
0.0
 11
186.2266041843622
 21
691.8807665540571
 31
0.0
  0
LINE
  5
F0
330
70
100
AcDbEntity
  8
0
 62
     7
370
    20
100
AcDbLine
 10
127.5486028611303
 20
691.8807665540571
 30
0.0
 11
126.9825985287571
 21
691.8807665540571
 31
0.0
  0
LINE
  5
F1
330
70
100
AcDbEntity
  8
0
 62
     7
370
    20
100
AcDbLine
 10
256.7976513037647
 20
691.8807665540571
 30
0.0
 11
257.3888405365888
 21
691.8807665540571
 31
0.0
  0
LINE
  5
F2
330
70
100
AcDbEntity
  8
0
 62
     7
370
    20
100
AcDbLine
 10
201.6113513427444
 20
691.8807665540571
 30
0.0
 11
205.644272318973
 21
691.8807665540571
 31
0.0
  0
LINE
  5
F3
330
70
100
AcDbEntity
  8
0
 62
     7
370
    20
100
AcDbLine
 10
254.5481687686324
 20
691.8807665540571
 30
0.0
 11
253.9837000987782
 21
691.8807665540571
 31
0.0
  0
LINE
  5
F4
330
70
100
AcDbEntity
  8
0
 62
     7
370
    20
100
AcDbLine
 10
122.2930262450654
 20
691.8807665540571
 30
0.0
 11
122.1982442392964
 21
691.8807665540571
 31
0.0
  0
LINE
  5
F5
330
70
100
AcDbEntity
  8
0
 62
     7
370
    20
100
AcDbLine
 10
126.1258209651632
 20
691.8807665540571
 30
0.0
 11
126.0308086789209
 21
691.8807665540571
 31
0.0
  0
LINE
  5
F6
330
70
100
AcDbEntity
  8
0
 62
     7
370
    20
100
AcDbLine
 10
289.9830136334367
 20
691.8807665540571
 30
0.0
 11
222.0211415094036
 21
691.8807665540571
 31
0.0
  0
LINE
  5
F7
330
70
100
AcDbEntity
  8
0
 62
     7
370
    20
100
AcDbLine
 10
255.9259148946722
 20
691.8807665540571
 30
0.0
 11
255.2582819421013
 21
691.8807665540571
 31
0.0
  0
LINE
  5
F8
330
70
100
AcDbEntity
  8
0
 62
     7
370
    20
100
AcDbLine
 10
253.1293301918704
 20
691.8807665540571
 30
0.0
 11
253.0345481860631
 21
691.8807665540571
 31
0.0
  0
LINE
  5
F9
330
70
100
AcDbEntity
  8
0
 62
     7
370
    20
100
AcDbLine
 10
129.80437040582
 20
691.8807665540571
 30
0.0
 11
130.3972348057032
 21
691.8807665540571
 31
0.0
  0
LINE
  5
FA
330
70
100
AcDbEntity
  8
0
 62
     7
370
    20
100
AcDbLine
 10
130.4907125732534
 20
691.8807665540571
 30
0.0
 11
129.7081034545153
 21
691.8807665540571
 31
0.0
  0
LINE
  5
FB
330
70
100
AcDbEntity
  8
0
 62
     7
370
    20
100
AcDbLine
 10
250.6375969363917
 20
691.8807665540571
 30
0.0
 11
250.724428868496
 21
691.8807665540571
 31
0.0
  0
LINE
  5
FC
330
70
100
AcDbEntity
  8
0
 62
     7
370
    20
100
AcDbLine
 10
197.6706042457763
 20
691.8807665540571
 30
0.0
 11
194.170456626045
 21
691.8807665540571
 31
0.0
  0
LINE
  5
FD
330
70
100
AcDbEntity
  8
0
 62
     7
370
    20
100
AcDbLine
 10
159.126373682423
 20
691.8807665540571
 30
0.0
 11
90.19088947875024
 21
691.8807665540571
 31
0.0
  0
LINE
  5
FE
330
70
100
AcDbEntity
  8
0
 62
     7
370
    20
100
AcDbLine
 10
289.9626776291898
 20
691.8807665540571
 30
0.0
 11
221.0271934255161
 21
691.8807665540571
 31
0.0
  0
LINE
  5
FF
330
70
100
AcDbEntity
  8
0
 62
     7
370
    20
100
AcDbLine
 10
190.0712504305811
 20
691.8807665540571
 30
0.0
 11
186.3849308265235
 21
691.8807665540571
 31
0.0
  0
LINE
  5
100
330
70
100
AcDbEntity
  8
0
 62
     7
370
    20
100
AcDbLine
 10
254.3628108749308
 20
691.8807665540571
 30
0.0
 11
254.4494333566663
 21
691.8807665540571
 31
0.0
  0
LINE
  5
101
330
70
100
AcDbEntity
  8
0
 62
     7
370
    20
100
AcDbLine
 10
249.4006549638789
 20
691.8807665540571
 30
0.0
 11
249.3056426776357
 21
691.8807665540571
 31
0.0
  0
LINE
  5
102
330
70
100
AcDbEntity
  8
0
 62
     7
370
    20
100
AcDbLine
 10
253.7655465719672
 20
691.8807665540571
 30
0.0
 11
252.9829374532301
 21
691.8807665540571
 31
0.0
  0
LINE
  5
103
330
70
100
AcDbEntity
  8
0
 62
     7
370
    20
100
AcDbLine
 10
128.1596563555549
 20
691.8807665540571
 30
0.0
 11
127.6397634913482
 21
691.8807665540571
 31
0.0
  0
LINE
  5
104
330
70
100
AcDbEntity
  8
0
 62
     7
370
    20
100
AcDbLine
 10
166.8634783111183
 20
691.8807665540571
 30
0.0
 11
90.32372262423724
 21
691.8807665540571
 31
0.0
  0
LINE
  5
105
330
70
100
AcDbEntity
  8
0
 62
     7
370
    20
100
AcDbLine
 10
125.0896109479054
 20
691.8807665540571
 30
0.0
 11
124.4219779953337
 21
691.8807665540571
 31
0.0
  0
LINE
  5
106
330
70
100
AcDbEntity
  8
0
 62
     7
370
    20
100
AcDbLine
 10
201.8396679231482
 20
691.8807665540571
 30
0.0
 11
205.4159557386092
 21
691.8807665540571
 31
0.0
  0
LINE
  5
107
330
70
100
AcDbEntity
  8
0
 62
     7
370
    20
100
AcDbLine
 10
125.7685739878288
 20
691.8807665540571
 30
0.0
 11
125.6740232335114
 21
691.8807665540571
 31
0.0
  0
LINE
  5
108
330
70
100
AcDbEntity
  8
0
 62
     7
370
    20
100
AcDbLine
 10
190.0309467538027
 20
691.8807665540571
 30
0.0
 11
186.4549207647278
 21
691.8807665540571
 31
0.0
  0
LINE
  5
109
330
70
100
AcDbEntity
  8
0
 62
     7
370
    20
100
AcDbLine
 10
125.9613473569588
 20
691.8807665540571
 30
0.0
 11
126.552536589822
 21
691.8807665540571
 31
0.0
  0
LINE
  5
10A
330
70
100
AcDbEntity
  8
0
 62
     7
370
    20
100
AcDbLine
 10
293.7128389514246
 20
691.8807665540571
 30
0.0
 11
293.4351271502373
 21
691.8807665540571
 31
0.0
  0
LINE
  5
10B
330
70
100
AcDbEntity
  8
0
 62
     7
370
    20
100
AcDbLine
 10
290.1383123098331
 20
691.8807665540571
 30
0.0
 11
213.5985615926174
 21
691.8807665540571
 31
0.0
  0
LINE
  5
10C
330
70
100
AcDbEntity
  8
0
 62
     7
370
    20
100
AcDbLine
 10
189.1815692237096
 20
691.8807665540571
 30
0.0
 11
188.5285314858893
 21
691.8807665540571
 31
0.0
  0
LINE
  5
10D
330
70
100
AcDbEntity
  8
0
 62
     7
370
    20
100
AcDbLine
 10
127.3627629376769
 20
691.8807665540571
 30
0.0
 11
127.4495948697813
 21
691.8807665540571
 31
0.0
  0
LINE
  5
10E
330
70
100
AcDbEntity
  8
0
 62
     7
370
    20
100
AcDbLine
 10
250.8234368598441
 20
691.8807665540571
 30
0.0
 11
250.2574325274709
 21
691.8807665540571
 31
0.0
  0
LINE
  5
10F
330
70
100
AcDbEntity
  8
0
 62
     7
370
    20
100
AcDbLine
 10
126.645787350958
 20
691.8807665540571
 30
0.0
 11
125.8653797198267
 21
691.8807665540571
 31
0.0
  0
LINE
  5
110
330
70
100
AcDbEntity
  8
0
 62
     7
370
    20
100
AcDbLine
 10
190.0712504305811
 20
691.8807665540571
 30
0.0
 11
186.3849308265235
 21
691.8807665540571
 31
0.0
  0
LINE
  5
111
330
70
100
AcDbEntity
  8
0
 62
     7
370
    20
100
AcDbLine
 10
124.3211917203098
 20
691.8807665540571
 30
0.0
 11
123.8027727859007
 21
691.8807665540571
 31
0.0
  0
LINE
  5
112
330
70
100
AcDbEntity
  8
0
 62
     7
370
    20
100
AcDbLine
 10
256.6048779345956
 20
691.8807665540571
 30
0.0
 11
256.5103271802791
 21
691.8807665540571
 31
0.0
  0
LINE
  5
113
330
70
100
AcDbEntity
  8
0
 62
     7
370
    20
100
AcDbLine
 10
253.0792044045329
 20
691.8807665540571
 30
0.0
 11
253.672068804417
 21
691.8807665540571
 31
0.0
  0
LINE
  5
114
330
70
100
AcDbEntity
  8
0
 62
     7
370
    20
100
AcDbLine
 10
201.7507295704099
 20
691.8807665540571
 30
0.0
 11
205.4370491744685
 21
691.8807665540571
 31
0.0
  0
INSERT
  5
116
330
70
100
AcDbEntity
  8
0
100
AcDbBlockReference
  2
Block_0
 10
0.0
 20
0.0
 30
0.0
  0
INSERT
  5
11C
330
70
100
AcDbEntity
  8
0
100
AcDbBlockReference
  2
Block_1
 10
0.0
 20
0.0
 30
0.0
  0
INSERT
  5
122
330
70
100
AcDbEntity
  8
0
100
AcDbBlockReference
  2
Block_2
 10
0.0
 20
0.0
 30
0.0
  0
LINE
  5
127
330
70
100
AcDbEntity
  8
0
 62
     7
370
    20
100
AcDbLine
 10
84.24960763470426
 20
677.6497490732199
 30
0.0
 11
83.97198037726411
 21
676.8869744523572
 31
0.0
  0
LINE
  5
128
330
70
100
AcDbEntity
  8
0
 62
     7
370
    20
100
AcDbLine
 10
84.49520364157889
 20
677.6497823722784
 30
0.0
 11
84.1888364067454
 21
676.808045312493
 31
0.0
  0
LINE
  5
129
330
70
100
AcDbEntity
  8
0
 62
     7
370
    20
100
AcDbLine
 10
109.9476818789599
 20
687.8983404610099
 30
0.0
 11
109.6846452334193
 21
687.6518049860314
 31
0.0
  0
LINE
  5
12A
330
70
100
AcDbEntity
  8
0
 62
     7
370
    20
100
AcDbLine
 10
108.8430772208939
 20
686.8630313562817
 30
0.0
 11
109.0993437557617
 21
687.1032214322768
 31
0.0
  0
LINE
  5
12B
330
70
100
AcDbEntity
  8
0
 62
     7
370
    20
100
AcDbLine
 10
109.124260472523
 20
687.6699515921191
 30
0.0
 11
109.2922818621136
 21
687.7635057834232
 31
0.0
  0
LINE
  5
12C
330
70
100
AcDbEntity
  8
0
 62
     7
370
    20
100
AcDbLine
 10
109.0125596751304
 20
687.2775882208133
 30
0.0
 11
109.2645917594982
 21
687.4179195077504
 31
0.0
  0
LINE
  5
12D
330
70
100
AcDbEntity
  8
0
 62
     7
370
    20
100
AcDbLine
 10
109.4326131490515
 20
687.5114736990935
 30
0.0
 11
109.6846452334193
 21
687.6518049860314
 31
0.0
  0
LINE
  5
12E
330
70
100
AcDbEntity
  8
0
 62
     7
370
    20
100
AcDbLine
 10
109.7781994247234
 20
687.4837835964781
 30
0.0
 11
109.5261673403938
 21
687.343452309502
 31
0.0
  0
LINE
  5
12F
330
70
100
AcDbEntity
  8
0
 62
     7
370
    20
100
AcDbLine
 10
109.3581459508023
 20
687.2498981181979
 30
0.0
 11
109.1136335067321
 21
687.1137537616405
 31
0.0
  0
LINE
  5
130
330
70
100
AcDbEntity
  8
0
 62
     7
370
    20
100
AcDbLine
 10
109.6664986273317
 20
687.0914202251342
 30
0.0
 11
109.5824882573688
 21
687.0446433103515
 31
0.0
  0
LINE
  5
131
330
70
100
AcDbEntity
  8
0
 62
     7
370
    20
100
AcDbLine
 10
109.1153175344498
 20
687.1114903064235
 30
0.0
 11
109.0993437557617
 21
687.1032214322768
 31
0.0
  0
LINE
  5
132
330
70
100
AcDbEntity
  8
0
 62
     7
370
    20
100
AcDbLine
 10
78.62559735909872
 20
412.8790718071686
 30
0.0
 11
301.7065182427014
 21
412.8790718071686
 31
0.0
  0
LINE
  5
133
330
70
100
AcDbEntity
  8
0
 62
     7
370
    20
100
AcDbLine
 10
149.9932724366608
 20
687.5478641280888
 30
0.0
 11
149.8876038330627
 21
687.4647534416717
 31
0.0
  0
LINE
  5
134
330
70
100
AcDbEntity
  8
0
 62
     7
370
    20
100
AcDbLine
 10
149.568164914167
 20
687.2135076892027
 30
0.0
 11
149.6738335177642
 21
687.2966183756197
 31
0.0
  0
LINE
  5
135
330
70
100
AcDbEntity
  8
0
 62
     7
370
     5
100
AcDbLine
 10
286.0254576111602
 20
421.3505358253869
 30
0.0
 11
286.3015326010145
 21
421.350534566709
 31
0.0
  0
LINE
  5
136
330
70
100
AcDbEntity
  8
0
 62
     7
370
     5
100
AcDbLine
 10
295.320433062082
 20
421.3505358253869
 30
0.0
 11
295.5966902456612
 21
421.3505345649018
 31
0.0
  0
LINE
  5
137
330
70
100
AcDbEntity
  8
0
 62
     7
370
     5
100
AcDbLine
 10
286.411161925359
 20
421.6618856780496
 30
0.0
 11
286.982851480233
 21
421.6618848495336
 31
0.0
  0
LINE
  5
138
330
70
100
AcDbEntity
  8
0
 62
     7
370
     5
100
AcDbLine
 10
295.7065017642344
 20
421.6618856781651
 30
0.0
 11
296.2778269288074
 21
421.6618848543421
 31
0.0
  0
LINE
  5
139
330
70
100
AcDbEntity
  8
0
 62
     7
370
     5
100
AcDbLine
 10
286.8949262901115
 20
421.908470412528
 30
0.0
 11
286.499453761935
 21
421.9084709838443
 31
0.0
  0
LINE
  5
13A
330
70
100
AcDbEntity
  8
0
 62
     7
370
     5
100
AcDbLine
 10
296.1897195456531
 20
421.9084704119122
 30
0.0
 11
295.7944292125867
 21
421.9084709831522
 31
0.0
  0
LINE
  5
13B
330
70
100
AcDbEntity
  8
0
 62
     7
370
     5
100
AcDbLine
 10
287.9230564812269
 20
422.7622021123815
 30
0.0
 11
287.6742984055318
 21
422.7622001527306
 31
0.0
  0
LINE
  5
13C
330
70
100
AcDbEntity
  8
0
 62
     7
370
     5
100
AcDbLine
 10
296.1294808482389
 20
422.7622021118813
 30
0.0
 11
295.8610014800825
 21
422.7622013339832
 31
0.0
  0
LINE
  5
13D
330
70
100
AcDbEntity
  8
0
 62
     7
370
     5
100
AcDbLine
 10
286.8341410087096
 20
422.7622021118431
 30
0.0
 11
286.5660205081003
 21
422.7622013339832
 31
0.0
  0
LINE
  5
13E
330
70
100
AcDbEntity
  8
0
 62
     7
370
     5
100
AcDbLine
 10
288.9019809627635
 20
422.7622016627192
 30
0.0
 11
288.6553932975403
 21
422.762201331484
 31
0.0
  0
LINE
  5
13F
330
70
100
AcDbEntity
  8
0
 62
     7
370
     5
100
AcDbLine
 10
294.2318756577124
 20
422.7622010395544
 30
0.0
 11
293.9813092497252
 21
422.7622013907548
 31
0.0
  0
LINE
  5
140
330
70
100
AcDbEntity
  8
0
 62
     7
370
     5
100
AcDbLine
 10
258.1922605153131
 20
430.5513109114236
 30
0.0
 11
258.0876048675618
 21
430.5513095833612
 31
0.0
  0
LINE
  5
141
330
70
100
AcDbEntity
  8
0
 62
     7
370
     5
100
AcDbLine
 10
253.8680182932357
 20
430.5513109114236
 30
0.0
 11
253.7632305066927
 21
430.5513095833612
 31
0.0
  0
LINE
  5
142
330
70
100
AcDbEntity
  8
0
 62
     7
370
     5
100
AcDbLine
 10
131.2027893376426
 20
430.6764076306126
 30
0.0
 11
131.0979090829796
 21
430.6764063025503
 31
0.0
  0
LINE
  5
143
330
70
100
AcDbEntity
  8
0
 62
     7
370
     5
100
AcDbLine
 10
126.8665289451492
 20
430.6764076306126
 30
0.0
 11
126.7615161844587
 21
430.6764063025503
 31
0.0
  0
LINE
  5
144
330
70
100
AcDbEntity
  8
0
 62
     7
370
     5
100
AcDbLine
 10
128.8641880773848
 20
430.8417356614354
 30
0.0
 11
128.9301752714336
 21
430.7832884476265
 31
0.0
  0
LINE
  5
145
330
70
100
AcDbEntity
  8
0
 62
     7
370
     5
100
AcDbLine
 10
126.3410756252551
 20
431.4269299526731
 30
0.0
 11
126.7716532622016
 21
430.8270913447667
 31
0.0
  0
LINE
  5
146
330
70
100
AcDbEntity
  8
0
 62
     7
370
     5
100
AcDbLine
 10
126.7615161844587
 20
430.6764063025503
 30
0.0
 11
126.342069055674
 21
431.261064686606
 31
0.0
  0
LINE
  5
147
330
70
100
AcDbEntity
  8
0
 62
     7
370
    20
100
AcDbLine
 10
76.7024859721705
 20
610.9595446607463
 30
0.0
 11
76.7024859721705
 21
414.8021831940968
 31
0.0
  0
LINE
  5
148
330
70
100
AcDbEntity
  8
0
 62
     7
370
    20
100
AcDbLine
 10
76.7024859721705
 20
691.8807665540571
 30
0.0
 11
76.7024859721705
 21
693.4192556635998
 31
0.0
  0
LINE
  5
149
330
70
100
AcDbEntity
  8
0
 62
     7
370
    20
100
AcDbLine
 10
78.62559735909872
 20
693.4192556635998
 30
0.0
 11
78.62559735909872
 21
691.8807665540571
 31
0.0
  0
LINE
  5
14A
330
70
100
AcDbEntity
  8
0
 62
     7
370
    20
100
AcDbLine
 10
80.85640656793566
 20
691.4961442766716
 30
0.0
 11
80.85640656793566
 21
691.8038420985803
 31
0.0
  0
LINE
  5
14B
330
70
100
AcDbEntity
  8
0
 62
     7
370
    20
100
AcDbLine
 10
81.62565112270659
 20
691.8038420985803
 30
0.0
 11
81.62565112270659
 21
691.4961442766716
 31
0.0
  0
LINE
  5
14C
330
70
100
AcDbEntity
  8
0
 62
     7
370
    20
100
AcDbLine
 10
83.24106468772606
 20
677.6497422907905
 30
0.0
 11
83.24106468772606
 21
691.8038420985803
 31
0.0
  0
LINE
  5
14D
330
70
100
AcDbEntity
  8
0
 62
     7
370
    20
100
AcDbLine
 10
84.39493151988244
 20
691.8038420985803
 30
0.0
 11
84.39493151988244
 21
677.6497422907905
 31
0.0
  0
LINE
  5
14E
330
70
100
AcDbEntity
  8
0
 62
     7
370
    20
100
AcDbLine
 10
109.4694229598308
 20
687.6407728785952
 30
0.0
 11
109.4326131490515
 21
687.5114736990935
 31
0.0
  0
LINE
  5
14F
330
70
100
AcDbEntity
  8
0
 62
     7
370
    20
100
AcDbLine
 10
109.321336140023
 20
687.1205989386963
 30
0.0
 11
109.3581459508023
 21
687.2498981181979
 31
0.0
  0
LINE
  5
150
330
70
100
AcDbEntity
  8
0
 62
     7
370
     5
100
AcDbLine
 10
130.6773360177476
 20
431.4269299526731
 30
0.0
 11
131.1079136546941
 21
430.8270913447667
 31
0.0
  0
LINE
  5
151
330
70
100
AcDbEntity
  8
0
 62
     7
370
     5
100
AcDbLine
 10
131.0979090829796
 20
430.6764063025503
 30
0.0
 11
130.6784619541949
 21
431.261064686606
 31
0.0
  0
LINE
  5
152
330
70
100
AcDbEntity
  8
0
 62
     7
370
    20
100
AcDbLine
 10
98.24133350576449
 20
670.7650035255883
 30
0.0
 11
98.24133350576449
 21
677.6497422907905
 31
0.0
  0
LINE
  5
153
330
70
100
AcDbEntity
  8
0
 62
     7
370
    20
100
AcDbLine
 10
271.659258116626
 20
687.6064423352845
 30
0.0
 11
271.3151535017368
 21
687.498924749244
 31
0.0
  0
LINE
  5
154
330
70
100
AcDbEntity
  8
0
 62
     7
370
    20
100
AcDbLine
 10
270.214213987123
 20
687.154929482007
 30
0.0
 11
270.5583186020504
 21
687.2624470680094
 31
0.0
  0
LINE
  5
155
330
70
100
AcDbEntity
  8
0
 62
     7
370
    20
100
AcDbLine
 10
102.5879552072865
 20
677.6497062324515
 30
0.0
 11
102.6644896956986
 21
673.2650483285943
 31
0.0
  0
LINE
  5
156
330
70
100
AcDbEntity
  8
0
 62
     7
370
    20
100
AcDbLine
 10
104.6128352741916
 20
677.6496767848084
 30
0.0
 11
104.6645255381036
 21
671.7265592190524
 31
0.0
  0
LINE
  5
157
330
70
100
AcDbEntity
  8
0
 62
     7
370
    20
100
AcDbLine
 10
106.76672002755
 20
677.6496767848084
 30
0.0
 11
106.8184102914629
 21
671.7265592190524
 31
0.0
  0
LINE
  5
158
330
70
100
AcDbEntity
  8
0
 62
     7
370
    20
100
AcDbLine
 10
108.9206047809102
 20
677.6496767848084
 30
0.0
 11
108.9722950448222
 21
671.7265592190524
 31
0.0
  0
LINE
  5
159
330
70
100
AcDbEntity
  8
0
 62
     7
370
    20
100
AcDbLine
 10
111.0744895342686
 20
677.6496767848084
 30
0.0
 11
111.1261797981815
 21
671.7265592190524
 31
0.0
  0
LINE
  5
15A
330
70
100
AcDbEntity
  8
0
 62
     7
370
    20
100
AcDbLine
 10
113.2283742876288
 20
677.6496767848084
 30
0.0
 11
113.2800645515408
 21
671.7265592190524
 31
0.0
  0
LINE
  5
15B
330
70
100
AcDbEntity
  8
0
 62
     7
370
    20
100
AcDbLine
 10
101.3183117248491
 20
691.8038420985803
 30
0.0
 11
101.3183117248491
 21
683.5344631347898
 31
0.0
  0
LINE
  5
15C
330
70
100
AcDbEntity
  8
0
 62
     7
370
    20
100
AcDbLine
 10
102.4721785570054
 20
671.7265592190524
 30
0.0
 11
102.4721785570054
 21
677.6496767848084
 31
0.0
  0
LINE
  5
15D
330
70
100
AcDbEntity
  8
0
 62
     7
370
    20
100
AcDbLine
 10
102.4721785570054
 20
684.3037076895616
 30
0.0
 11
102.4721785570054
 21
691.8038420985803
 31
0.0
  0
LINE
  5
15E
330
70
100
AcDbEntity
  8
0
 62
     7
370
    20
100
AcDbLine
 10
102.6644896956986
 20
673.2650483285943
 30
0.0
 11
102.6644896956986
 21
673.8804439724117
 31
0.0
  0
LINE
  5
15F
330
70
100
AcDbEntity
  8
0
 62
     7
370
    20
100
AcDbLine
 10
102.8568008343909
 20
674.0342928833661
 30
0.0
 11
102.8568008343909
 21
673.880428948104
 31
0.0
  0
LINE
  5
160
330
70
100
AcDbEntity
  8
0
 62
     7
370
    20
100
AcDbLine
 10
103.2414231117773
 20
691.8038420985803
 30
0.0
 11
103.2414231117773
 21
691.4961442766716
 31
0.0
  0
LINE
  5
161
330
70
100
AcDbEntity
  8
0
 62
     7
370
    20
100
AcDbLine
 10
115.7416471268088
 20
673.8804439724117
 30
0.0
 11
115.7416471268088
 21
677.6497422907905
 31
0.0
  0
LINE
  5
162
330
70
100
AcDbEntity
  8
0
 62
     7
370
    20
100
AcDbLine
 10
103.5106587059463
 20
671.7265592190524
 30
0.0
 11
103.5623489698582
 21
677.6496767848084
 31
0.0
  0
LINE
  5
163
330
70
100
AcDbEntity
  8
0
 62
     7
370
    20
100
AcDbLine
 10
105.6645434593056
 20
671.7265592190524
 30
0.0
 11
105.7162337232185
 21
677.6496767848084
 31
0.0
  0
LINE
  5
164
330
70
100
AcDbEntity
  8
0
 62
     7
370
    20
100
AcDbLine
 10
107.8184282126649
 20
671.7265592190524
 30
0.0
 11
107.8701184765777
 21
677.6496767848084
 31
0.0
  0
LINE
  5
165
330
70
100
AcDbEntity
  8
0
 62
     7
370
    20
100
AcDbLine
 10
109.9723129660242
 20
671.7265592190524
 30
0.0
 11
110.0240032299371
 21
677.6496767848084
 31
0.0
  0
LINE
  5
166
330
70
100
AcDbEntity
  8
0
 62
     7
370
    20
100
AcDbLine
 10
112.1261977193835
 20
671.7265592190524
 30
0.0
 11
112.1778879832955
 21
677.6496767848084
 31
0.0
  0
LINE
  5
167
330
70
100
AcDbEntity
  8
0
 62
     7
370
    20
100
AcDbLine
 10
114.2800824727428
 20
671.7265592190524
 30
0.0
 11
114.3317727366548
 21
677.6496767848084
 31
0.0
  0
LINE
  5
168
330
70
100
AcDbEntity
  8
0
 62
     7
370
    20
100
AcDbLine
 10
116.433967226103
 20
671.7265592190524
 30
0.0
 11
116.4856574900141
 21
677.6496767848084
 31
0.0
  0
LINE
  5
169
330
70
100
AcDbEntity
  8
0
 62
     7
370
    20
100
AcDbLine
 10
150.0501466331652
 20
688.0880844340818
 30
0.0
 11
149.9218302700083
 21
687.7511824776556
 31
0.0
  0
LINE
  5
16A
330
70
100
AcDbEntity
  8
0
 62
     7
370
    20
100
AcDbLine
 10
149.5112907176617
 20
686.6732873832098
 30
0.0
 11
149.6396070808196
 21
687.0101893396358
 31
0.0
  0
LINE
  5
16B
330
70
100
AcDbEntity
  8
0
 62
     7
370
    20
100
AcDbLine
 10
82.71645410839573
 20
676.8981000717376
 30
0.0
 11
80.63623410848141
 21
685.9085228145322
 31
0.0
  0
LINE
  5
16C
330
70
100
AcDbEntity
  8
0
 62
     7
370
    20
100
AcDbLine
 10
82.94131276840744
 20
676.9500127838291
 30
0.0
 11
80.86109276849311
 21
685.9604355266228
 31
0.0
  0
LINE
  5
16D
330
70
100
AcDbEntity
  8
0
 62
     7
370
    20
100
AcDbLine
 10
115.3822590409881
 20
677.6496767848084
 30
0.0
 11
115.4339493049001
 21
671.7265592190524
 31
0.0
  0
LINE
  5
16E
330
70
100
AcDbEntity
  8
0
 62
     7
370
    20
100
AcDbLine
 10
117.5361437943475
 20
677.6496767848084
 30
0.0
 11
117.5878340582594
 21
671.7265592190524
 31
0.0
  0
LINE
  5
16F
330
70
100
AcDbEntity
  8
0
 62
     7
370
    20
100
AcDbLine
 10
118.6263142072002
 20
671.7265592190524
 30
0.0
 11
118.6263142072002
 21
677.6496767848084
 31
0.0
  0
LINE
  5
170
330
70
100
AcDbEntity
  8
0
 62
     7
370
    20
100
AcDbLine
 10
122.049558014477
 20
691.8807695589184
 30
0.0
 11
122.049558014477
 21
691.803848108304
 31
0.0
  0
LINE
  5
171
330
70
100
AcDbEntity
  8
0
 62
     7
370
    20
100
AcDbLine
 10
128.2933883193809
 20
677.6499826797135
 30
0.0
 11
128.2933883193809
 21
677.1881955579274
 31
0.0
  0
LINE
  5
172
330
70
100
AcDbEntity
  8
0
 62
     7
370
    20
100
AcDbLine
 10
128.6780105967664
 20
677.1881955579274
 30
0.0
 11
128.6780105967664
 21
677.6499826797135
 31
0.0
  0
LINE
  5
173
330
70
100
AcDbEntity
  8
0
 62
     7
370
    20
100
AcDbLine
 10
128.9959562788253
 20
677.1881955579274
 30
0.0
 11
128.9959562788253
 21
677.6499826797135
 31
0.0
  0
LINE
  5
174
330
70
100
AcDbEntity
  8
0
 62
     7
370
    20
100
AcDbLine
 10
149.7270354228822
 20
687.7654184302382
 30
0.0
 11
149.7297110747931
 21
687.7832054134196
 31
0.0
  0
LINE
  5
175
330
70
100
AcDbEntity
  8
0
 62
     7
370
    20
100
AcDbLine
 10
231.0952789555977
 20
687.9071803877759
 30
0.0
 11
230.8362525184248
 21
687.6564348551173
 31
0.0
  0
LINE
  5
176
330
70
100
AcDbEntity
  8
0
 62
     7
370
    20
100
AcDbLine
 10
230.0075148972155
 20
686.8541914295165
 30
0.0
 11
230.2270289115613
 21
687.0666877254834
 31
0.0
  0
LINE
  5
177
330
70
100
AcDbEntity
  8
0
 62
     7
370
    20
100
AcDbLine
 10
270.6543288631765
 20
687.6589418511603
 30
0.0
 11
270.8184972112567
 21
687.7591033584894
 31
0.0
  0
LINE
  5
178
330
70
100
AcDbEntity
  8
0
 62
     7
370
    20
100
AcDbLine
 10
270.5583186020504
 20
687.2624470680094
 30
0.0
 11
270.8045711241884
 21
687.4126893290212
 31
0.0
  0
LINE
  5
179
330
70
100
AcDbEntity
  8
0
 62
     7
370
    20
100
AcDbLine
 10
270.9687394722696
 20
687.5128508363505
 30
0.0
 11
271.2149919944095
 21
687.6630930973624
 31
0.0
  0
LINE
  5
17A
330
70
100
AcDbEntity
  8
0
 62
     7
370
    20
100
AcDbLine
 10
271.3151535017368
 20
687.498924749244
 30
0.0
 11
271.0689009795988
 21
687.3486824882702
 31
0.0
  0
LINE
  5
17B
330
70
100
AcDbEntity
  8
0
 62
     7
370
    20
100
AcDbLine
 10
270.9047326315185
 20
687.2485209809419
 30
0.0
 11
270.665827310394
 21
687.1027613546084
 31
0.0
  0
LINE
  5
17C
330
70
100
AcDbEntity
  8
0
 62
     7
370
    20
100
AcDbLine
 10
271.2191432405725
 20
687.1024299661312
 30
0.0
 11
271.1370593839038
 21
687.0523494061053
 31
0.0
  0
LINE
  5
17D
330
70
100
AcDbEntity
  8
0
 62
     7
370
    20
100
AcDbLine
 10
270.6676000116222
 20
687.1005666543542
 30
0.0
 11
270.6519676758635
 21
687.0916691287102
 31
0.0
  0
LINE
  5
17E
330
70
100
AcDbEntity
  8
0
 62
     7
370
     5
100
AcDbLine
 10
125.0238038223524
 20
530.8990671193887
 30
0.0
 11
125.0896081273931
 21
530.8407818858658
 31
0.0
  0
LINE
  5
17F
330
70
100
AcDbEntity
  8
0
 62
     7
370
     5
100
AcDbLine
 10
122.5076843113884
 20
531.4826395096734
 30
0.0
 11
122.9370355432793
 21
530.8844633847156
 31
0.0
  0
LINE
  5
180
330
70
100
AcDbEntity
  8
0
 62
     7
370
     5
100
AcDbLine
 10
126.8319265334667
 20
531.4826395096734
 30
0.0
 11
127.2612777653194
 21
530.8844633847156
 31
0.0
  0
LINE
  5
181
330
70
100
AcDbEntity
  8
0
 62
     7
370
     5
100
AcDbLine
 10
122.9269265599259
 20
530.7341959717123
 30
0.0
 11
122.5086419527042
 21
531.317233945575
 31
0.0
  0
LINE
  5
182
330
70
100
AcDbEntity
  8
0
 62
     7
370
     5
100
AcDbLine
 10
127.2513009207951
 20
530.7341959717123
 30
0.0
 11
126.8330163135351
 21
531.317233945575
 31
0.0
  0
LINE
  5
183
330
70
100
AcDbEntity
  8
0
 62
     7
370
    20
100
AcDbLine
 10
149.3874044817803
 20
687.3308448125653
 30
0.0
 11
149.3988132500053
 21
687.4263207887707
 31
0.0
  0
LINE
  5
184
330
70
100
AcDbEntity
  8
0
 62
     7
370
    20
100
AcDbLine
 10
149.6396070808196
 20
687.0101893396358
 30
0.0
 11
149.6738335177642
 21
687.2966183756197
 31
0.0
  0
LINE
  5
185
330
70
100
AcDbEntity
  8
0
 62
     7
370
    20
100
AcDbLine
 10
149.696651142407
 20
687.4875710662763
 30
0.0
 11
149.7298563978975
 21
687.7654541930324
 31
0.0
  0
LINE
  5
186
330
70
100
AcDbEntity
  8
0
 62
     7
370
    20
100
AcDbLine
 10
149.9218302700083
 20
687.7511824776556
 30
0.0
 11
149.8876038330627
 21
687.4647534416717
 31
0.0
  0
LINE
  5
187
330
70
100
AcDbEntity
  8
0
 62
     7
370
    20
100
AcDbLine
 10
149.8647862084208
 20
687.2738007509779
 30
0.0
 11
149.8305597714752
 21
686.987371714993
 31
0.0
  0
LINE
  5
188
330
70
100
AcDbEntity
  8
0
 62
     7
370
    20
100
AcDbLine
 10
150.1740328690466
 20
687.4305270046879
 30
0.0
 11
150.1512152444429
 21
687.2395743140323
 31
0.0
  0
LINE
  5
189
330
70
100
AcDbEntity
  8
0
 62
     7
370
     5
100
AcDbLine
 10
255.8601077691573
 20
430.716180731074
 30
0.0
 11
255.925912074159
 21
430.657895497513
 31
0.0
  0
LINE
  5
18A
330
70
100
AcDbEntity
  8
0
 62
     7
370
    20
100
AcDbLine
 10
109.1985325115047
 20
688.1116136353612
 30
0.0
 11
109.2922818621136
 21
687.7635057834232
 31
0.0
  0
LINE
  5
18B
330
70
100
AcDbEntity
  8
0
 62
     7
370
    20
100
AcDbLine
 10
109.5922265883491
 20
686.6497581819312
 30
0.0
 11
109.5127779555596
 21
686.9447649497124
 31
0.0
  0
LINE
  5
18C
330
70
100
AcDbEntity
  8
0
 62
     7
370
    20
100
AcDbLine
 10
162.0886315517718
 20
670.7650035255883
 30
0.0
 11
162.0886315517718
 21
677.6497422907905
 31
0.0
  0
LINE
  5
18D
330
70
100
AcDbEntity
  8
0
 62
     7
370
    20
100
AcDbLine
 10
230.2016167657312
 20
687.5465794947976
 30
0.0
 11
230.2756479799346
 21
687.6655415006625
 31
0.0
  0
LINE
  5
18E
330
70
100
AcDbEntity
  8
0
 62
     7
370
    20
100
AcDbLine
 10
230.271559647822
 20
687.1130009746503
 30
0.0
 11
230.4189542911481
 21
687.3498519112272
 31
0.0
  0
LINE
  5
18F
330
70
100
AcDbEntity
  8
0
 62
     7
370
    20
100
AcDbLine
 10
230.5205629289885
 20
687.5131285439038
 30
0.0
 11
230.6729758857091
 21
687.7580434929186
 31
0.0
  0
LINE
  5
190
330
70
100
AcDbEntity
  8
0
 62
     7
370
    20
100
AcDbLine
 10
230.3141540619981
 20
686.9994563512527
 30
0.0
 11
230.3481796507276
 21
687.0541326432548
 31
0.0
  0
LINE
  5
191
330
70
100
AcDbEntity
  8
0
 62
     7
370
    20
100
AcDbLine
 10
230.8362525184248
 20
687.6564348551173
 30
0.0
 11
230.6838395616651
 21
687.4115199060643
 31
0.0
  0
LINE
  5
192
330
70
100
AcDbEntity
  8
0
 62
     7
370
    20
100
AcDbLine
 10
230.5822309238256
 20
687.2482432733877
 30
0.0
 11
230.4298179670668
 21
687.0033283243347
 31
0.0
  0
LINE
  5
193
330
70
100
AcDbEntity
  8
0
 62
     7
370
    20
100
AcDbLine
 10
230.928754510679
 20
687.2591069493055
 30
0.0
 11
230.8271458728405
 21
687.095830316629
 31
0.0
  0
LINE
  5
194
330
70
100
AcDbEntity
  8
0
 62
     7
370
    20
100
AcDbLine
 10
271.4680172023427
 20
687.9198931390992
 30
0.0
 11
271.2149919944095
 21
687.6630930973624
 31
0.0
  0
LINE
  5
195
330
70
100
AcDbEntity
  8
0
 62
     7
370
    20
100
AcDbLine
 10
270.4054549014063
 20
686.8414786781922
 30
0.0
 11
270.6519676758635
 21
687.0916691287102
 31
0.0
  0
LINE
  5
196
330
70
100
AcDbEntity
  8
0
 62
     7
370
     5
100
AcDbLine
 10
254.4776233363564
 20
523.0181493002028
 30
0.0
 11
254.3727430816943
 21
523.0181479721786
 31
0.0
  0
LINE
  5
197
330
70
100
AcDbEntity
  8
0
 62
     7
370
     5
100
AcDbLine
 10
250.141362943863
 20
523.0181493002028
 30
0.0
 11
250.0363501831744
 21
523.0181479721786
 31
0.0
  0
LINE
  5
198
330
70
100
AcDbEntity
  8
0
 62
     7
370
    20
100
AcDbLine
 10
166.6205521461679
 20
670.7650035255883
 30
0.0
 11
166.6205521461679
 21
677.6496617605016
 31
0.0
  0
LINE
  5
199
330
70
100
AcDbEntity
  8
0
 62
     7
370
    20
100
AcDbLine
 10
167.8162511707251
 20
677.6496617605016
 30
0.0
 11
167.8162511707251
 21
670.7650035255883
 31
0.0
  0
LINE
  5
19A
330
70
100
AcDbEntity
  8
0
 62
     7
370
    20
100
AcDbLine
 10
172.5581800513473
 20
670.7650035255883
 30
0.0
 11
172.5581800513473
 21
677.6496617605016
 31
0.0
  0
LINE
  5
19B
330
70
100
AcDbEntity
  8
0
 62
     7
370
    20
100
AcDbLine
 10
173.7558546637319
 20
670.7650035255883
 30
0.0
 11
173.7558546637319
 21
677.6496617605016
 31
0.0
  0
LINE
  5
19C
330
70
100
AcDbEntity
  8
0
 62
     7
370
     5
100
AcDbLine
 10
127.3559565685082
 20
530.7341972997364
 30
0.0
 11
127.2513009207951
 21
530.7341959717123
 31
0.0
  0
LINE
  5
19D
330
70
100
AcDbEntity
  8
0
 62
     7
370
     5
100
AcDbLine
 10
123.031714346469
 20
530.7341972997364
 30
0.0
 11
122.9269265599259
 21
530.7341959717123
 31
0.0
  0
LINE
  5
19E
330
70
100
AcDbEntity
  8
0
 62
     7
370
     5
100
AcDbLine
 10
253.3439882581551
 20
431.2997531213604
 30
0.0
 11
253.7733394900461
 21
430.7015769964009
 31
0.0
  0
LINE
  5
19F
330
70
100
AcDbEntity
  8
0
 62
     7
370
     5
100
AcDbLine
 10
257.6682304802334
 20
431.2997531213604
 30
0.0
 11
258.0975817121234
 21
430.7015769964009
 31
0.0
  0
LINE
  5
1A0
330
70
100
AcDbEntity
  8
0
 62
     7
370
     5
100
AcDbLine
 10
253.7632305066927
 20
430.5513095833612
 30
0.0
 11
253.3449458994701
 21
431.134347557223
 31
0.0
  0
LINE
  5
1A1
330
70
100
AcDbEntity
  8
0
 62
     7
370
     5
100
AcDbLine
 10
258.0876048675618
 20
430.5513095833612
 30
0.0
 11
257.6693202603401
 21
431.134347557223
 31
0.0
  0
LINE
  5
1A2
330
70
100
AcDbEntity
  8
0
 62
     7
370
    20
100
AcDbLine
 10
149.6855558026454
 20
688.1316507053279
 30
0.0
 11
149.7297110747931
 21
687.7832054134196
 31
0.0
  0
LINE
  5
1A3
330
70
100
AcDbEntity
  8
0
 62
     7
370
    20
100
AcDbLine
 10
149.8758815481815
 20
686.6297211119644
 30
0.0
 11
149.8305597714752
 21
686.987371714993
 31
0.0
  0
LINE
  5
1A4
330
70
100
AcDbEntity
  8
0
 62
     7
370
    20
100
AcDbLine
 10
180.5697319801502
 20
691.8038120499641
 30
0.0
 11
180.5697319801502
 21
691.8423043263191
 31
0.0
  0
LINE
  5
1A5
330
70
100
AcDbEntity
  8
0
 62
     7
370
    20
100
AcDbLine
 10
183.6467101992339
 20
691.8038120499641
 30
0.0
 11
183.6467101992339
 21
691.8423043263191
 31
0.0
  0
LINE
  5
1A6
330
70
100
AcDbEntity
  8
0
 62
     7
370
    20
100
AcDbLine
 10
185.9544438635476
 20
691.8423043263191
 30
0.0
 11
185.9544438635476
 21
691.8038120499641
 31
0.0
  0
LINE
  5
1A7
330
70
100
AcDbEntity
  8
0
 62
     7
370
    20
100
AcDbLine
 10
189.7814355235341
 20
686.6054316307909
 30
0.0
 11
189.7814355235341
 21
688.1558921087162
 31
0.0
  0
LINE
  5
1A8
330
70
100
AcDbEntity
  8
0
 62
     7
370
    20
100
AcDbLine
 10
190.5506800783059
 20
688.1558921087162
 30
0.0
 11
190.5506800783059
 21
686.6054316307909
 31
0.0
  0
LINE
  5
1A9
330
70
100
AcDbEntity
  8
0
 62
     7
370
    20
100
AcDbLine
 10
190.5699111921749
 20
691.8423043263191
 30
0.0
 11
190.5699111921749
 21
691.8038120499641
 31
0.0
  0
LINE
  5
1AA
330
70
100
AcDbEntity
  8
0
 62
     7
370
    20
100
AcDbLine
 10
193.6468894112595
 20
691.8423043263191
 30
0.0
 11
193.6468894112595
 21
691.8038120499641
 31
0.0
  0
LINE
  5
1AB
330
70
100
AcDbEntity
  8
0
 62
     7
370
    20
100
AcDbLine
 10
230.7835307266796
 20
688.1011843451515
 30
0.0
 11
230.6729758857091
 21
687.7580434929186
 31
0.0
  0
LINE
  5
1AC
330
70
100
AcDbEntity
  8
0
 62
     7
370
    20
100
AcDbLine
 10
230.3192631260954
 20
686.66018747214
 30
0.0
 11
230.4298179670668
 21
687.0033283243347
 31
0.0
  0
LINE
  5
1AD
330
70
100
AcDbEntity
  8
0
 62
     7
370
    20
100
AcDbLine
 10
109.08072248613
 20
687.1551692242647
 30
0.0
 11
109.0125596751304
 21
687.2775882208133
 31
0.0
  0
LINE
  5
1AE
330
70
100
AcDbEntity
  8
0
 62
     7
370
    20
100
AcDbLine
 10
109.4938567225517
 20
687.0061643834287
 30
0.0
 11
109.3581459508023
 21
687.2498981181979
 31
0.0
  0
LINE
  5
1AF
330
70
100
AcDbEntity
  8
0
 62
     7
370
    20
100
AcDbLine
 10
109.2645917594982
 20
687.4179195077504
 30
0.0
 11
109.124260472523
 21
687.6699515921191
 31
0.0
  0
LINE
  5
1B0
330
70
100
AcDbEntity
  8
0
 62
     7
370
    20
100
AcDbLine
 10
109.6138163363721
 20
686.9883779652191
 30
0.0
 11
109.5824879325546
 21
687.0446431295022
 31
0.0
  0
LINE
  5
1B1
330
70
100
AcDbEntity
  8
0
 62
     7
370
    20
100
AcDbLine
 10
109.2922818621136
 20
687.7635057834232
 30
0.0
 11
109.4326131490515
 21
687.5114736990935
 31
0.0
  0
LINE
  5
1B2
330
70
100
AcDbEntity
  8
0
 62
     7
370
    20
100
AcDbLine
 10
109.5261673403938
 20
687.343452309502
 30
0.0
 11
109.6664986273317
 21
687.0914202251342
 31
0.0
  0
LINE
  5
1B3
330
70
100
AcDbEntity
  8
0
 62
     7
370
    20
100
AcDbLine
 10
109.6846452334193
 20
687.6518049860314
 30
0.0
 11
109.7781994247234
 21
687.4837835964781
 31
0.0
  0
LINE
  5
1B4
330
70
100
AcDbEntity
  8
0
 62
     7
370
    20
100
AcDbLine
 10
198.2623567398868
 20
691.8423043263191
 30
0.0
 11
198.2623567398868
 21
691.8038120499641
 31
0.0
  0
LINE
  5
1B5
330
70
100
AcDbEntity
  8
0
 62
     7
370
    20
100
AcDbLine
 10
201.3393349589715
 20
691.8423043263191
 30
0.0
 11
201.3393349589715
 21
691.8038120499641
 31
0.0
  0
LINE
  5
1B6
330
70
100
AcDbEntity
  8
0
 62
     7
370
    20
100
AcDbLine
 10
205.9548022875988
 20
691.8423043263191
 30
0.0
 11
205.9548022875988
 21
691.8038120499641
 31
0.0
  0
LINE
  5
1B7
330
70
100
AcDbEntity
  8
0
 62
     7
370
    20
100
AcDbLine
 10
208.2625359519125
 20
691.8038120499641
 30
0.0
 11
208.2625359519125
 21
691.8423043263191
 31
0.0
  0
LINE
  5
1B8
330
70
100
AcDbEntity
  8
0
 62
     7
370
    20
100
AcDbLine
 10
211.339514170998
 20
691.8038120499641
 30
0.0
 11
211.339514170998
 21
691.8423043263191
 31
0.0
  0
LINE
  5
1B9
330
70
100
AcDbEntity
  8
0
 62
     7
370
     5
100
AcDbLine
 10
252.1390220760995
 20
523.1834773310265
 30
0.0
 11
252.2050092701466
 21
523.1250301172167
 31
0.0
  0
LINE
  5
1BA
330
70
100
AcDbEntity
  8
0
 62
     7
370
     5
100
AcDbLine
 10
294.9131944451992
 20
421.7637418495177
 30
0.0
 11
294.2318756577124
 21
422.7622010395544
 31
0.0
  0
SPLINE
  5
1BB
330
70
100
AcDbEntity
  8
0
 62
     7
370
     5
100
AcDbSpline
210
0.0
220
0.0
230
1.0
 70
     8
 71
     3
 72
    17
 73
    13
 74
     0
 42
0.0000000001
 43
0.0000000001
 40
0.0
 40
0.0
 40
0.0
 40
0.0
 40
1.0
 40
1.0
 40
1.0
 40
2.0
 40
2.0
 40
2.0
 40
3.0
 40
3.0
 40
3.0
 40
4.0
 40
4.0
 40
4.0
 40
4.0
 10
290.8333497397562
 20
422.7622013907548
 30
0.0
 10
290.8333494832896
 20
422.3275856337877
 30
0.0
 10
290.8333492268621
 20
421.8929698768197
 30
0.0
 10
290.8333490080513
 20
421.4583541198544
 30
0.0
 10
290.8333489704337
 20
421.3836397567911
 30
0.0
 10
290.8666408648242
 20
421.3505355779197
 30
0.0
 10
290.940814165574
 20
421.3505355779197
 30
0.0
 10
290.9408180121827
 20
421.3505355779197
 30
0.0
 10
291.0895249951809
 20
421.3505322964383
 30
0.0
 10
291.0895257332713
 20
421.3505366515546
 30
0.0
 10
291.0895255484984
 20
421.350540498739
 30
0.0
 10
291.0895253912258
 20
422.3314408847618
 30
0.0
 10
291.0895253912258
 20
422.3314480803128
 30
0.0
  0
SPLINE
  5
1BC
330
70
100
AcDbEntity
  8
0
 62
     7
370
     5
100
AcDbSpline
210
0.0
220
0.0
230
1.0
 70
     8
 71
     3
 72
    23
 73
    19
 74
     0
 42
0.0000000001
 43
0.0000000001
 40
0.0
 40
0.0
 40
0.0
 40
0.0
 40
1.0
 40
1.0
 40
1.0
 40
2.0
 40
2.0
 40
2.0
 40
3.0
 40
3.0
 40
3.0
 40
4.0
 40
4.0
 40
4.0
 40
5.0
 40
5.0
 40
5.0
 40
6.0
 40
6.0
 40
6.0
 40
6.0
 10
291.0895253912258
 20
422.3314480803128
 30
0.0
 10
291.089527606574
 20
422.3314448906021
 30
0.0
 10
291.7028184212859
 20
421.4484087018545
 30
0.0
 10
291.7028206146715
 20
421.4484055418734
 30
0.0
 10
291.7516697143583
 20
421.3780303762651
 30
0.0
 10
291.7985268134635
 20
421.3505355779197
 30
0.0
 10
291.8710714062963
 20
421.3505355779197
 30
0.0
 10
291.8710752529032
 20
421.3505355779197
 30
0.0
 10
292.0219520061337
 20
421.3505322964383
 30
0.0
 10
292.0219527442223
 20
421.3505366515546
 30
0.0
 10
292.0219525594521
 20
421.350540498739
 30
0.0
 10
292.0219556972752
 20
422.7621998270333
 30
0.0
 10
292.021951342158
 20
422.7622005652001
 30
0.0
 10
292.0219474949763
 20
422.7622003804281
 30
0.0
 10
291.7652353288131
 20
422.7622035182148
 30
0.0
 10
291.7652345906463
 20
422.7621991630985
 30
0.0
 10
291.7652347754192
 20
422.7621953159141
 30
0.0
 10
291.7652349352293
 20
421.7637490589159
 30
0.0
 10
291.7652349352293
 20
421.7637418495177
 30
0.0
  0
LINE
  5
1BD
330
70
100
AcDbEntity
  8
0
 62
     7
370
     5
100
AcDbLine
 10
291.0839161477424
 20
422.7622010395544
 30
0.0
 11
290.8333497397562
 21
422.7622013907548
 31
0.0
  0
LINE
  5
1BE
330
70
100
AcDbEntity
  8
0
 62
     7
370
     5
100
AcDbLine
 10
291.7652349352293
 20
421.7637418495177
 30
0.0
 11
291.0839161477424
 21
422.7622010395544
 31
0.0
  0
LINE
  5
1BF
330
70
100
AcDbEntity
  8
0
 62
     7
370
     5
100
AcDbLine
 10
285.9748004872254
 20
421.3505360198123
 30
0.0
 11
285.6515073224873
 21
421.9222237458061
 31
0.0
  0
LINE
  5
1C0
330
70
100
AcDbEntity
  8
0
 62
     7
370
    20
100
AcDbLine
 10
215.1665058309836
 20
677.6496617605016
 30
0.0
 11
215.1665058309836
 21
670.7650035255883
 31
0.0
  0
LINE
  5
1C1
330
70
100
AcDbEntity
  8
0
 62
     7
370
    20
100
AcDbLine
 10
218.2434840500682
 20
670.7650035255883
 30
0.0
 11
218.2434840500682
 21
677.6497422907905
 31
0.0
  0
LINE
  5
1C2
330
70
100
AcDbEntity
  8
0
 62
     7
370
    20
100
AcDbLine
 10
108.8777249975819
 20
687.9329882376596
 30
0.0
 11
109.124260472523
 21
687.6699515921191
 31
0.0
  0
LINE
  5
1C3
330
70
100
AcDbEntity
  8
0
 62
     7
370
    20
100
AcDbLine
 10
109.9130341022719
 20
686.8283835795937
 30
0.0
 11
109.6664986273317
 21
687.0914202251342
 31
0.0
  0
LINE
  5
1C4
330
70
100
AcDbEntity
  8
0
 62
     7
370
     5
100
AcDbLine
 10
249.6159096239708
 20
523.7686716222624
 30
0.0
 11
250.0464872609145
 21
523.168833014357
 31
0.0
  0
LINE
  5
1C5
330
70
100
AcDbEntity
  8
0
 62
     7
370
     5
100
AcDbLine
 10
253.9521700164614
 20
523.7686716222624
 30
0.0
 11
254.382747653408
 21
523.168833014357
 31
0.0
  0
LINE
  5
1C6
330
70
100
AcDbEntity
  8
0
 62
     7
370
     5
100
AcDbLine
 10
250.0363501831744
 20
523.0181479721786
 30
0.0
 11
249.6169030543879
 21
523.6028063562343
 31
0.0
  0
LINE
  5
1C7
330
70
100
AcDbEntity
  8
0
 62
     7
370
     5
100
AcDbLine
 10
254.3727430816943
 20
523.0181479721786
 30
0.0
 11
253.9532959529079
 21
523.6028063562343
 31
0.0
  0
LINE
  5
1C8
330
70
100
AcDbEntity
  8
0
 62
     7
370
    20
100
AcDbLine
 10
243.498362573634
 20
677.6497038285624
 30
0.0
 11
243.498362573634
 21
673.8804439724117
 31
0.0
  0
LINE
  5
1C9
330
70
100
AcDbEntity
  8
0
 62
     7
370
    20
100
AcDbLine
 10
271.0003786335401
 20
687.6435114787118
 30
0.0
 11
270.9687394722696
 21
687.5128508363505
 31
0.0
  0
LINE
  5
1CA
330
70
100
AcDbEntity
  8
0
 62
     7
370
    20
100
AcDbLine
 10
270.8730934702089
 20
687.1178603385796
 30
0.0
 11
270.9047326315185
 21
687.2485209809419
 31
0.0
  0
LINE
  5
1CB
330
70
100
AcDbEntity
  8
0
 62
     7
370
    20
100
AcDbLine
 10
149.6135404559518
 20
687.5932396699117
 30
0.0
 11
149.696651142407
 21
687.4875710662763
 31
0.0
  0
LINE
  5
1CC
330
70
100
AcDbEntity
  8
0
 62
     7
370
    20
100
AcDbLine
 10
149.947896894876
 20
687.1681321473797
 30
0.0
 11
149.8647862084208
 21
687.2738007509779
 31
0.0
  0
LINE
  5
1CD
330
70
100
AcDbEntity
  8
0
 62
     7
370
     5
100
AcDbLine
 10
287.3786860621285
 20
421.3505363407421
 30
0.0
 11
286.8341410087096
 21
422.7622021118431
 31
0.0
  0
LINE
  5
1CE
330
70
100
AcDbEntity
  8
0
 62
     7
370
     5
100
AcDbLine
 10
296.6736670343416
 20
421.3505363412787
 30
0.0
 11
296.1294808482389
 21
422.7622021118813
 31
0.0
  0
LINE
  5
1CF
330
70
100
AcDbEntity
  8
0
 62
     7
370
     5
100
AcDbLine
 10
288.2890461348925
 20
421.8030020993264
 30
0.0
 11
287.9230564812269
 21
422.7622021123815
 31
0.0
  0
LINE
  5
1D0
330
70
100
AcDbEntity
  8
0
 62
     7
370
     5
100
AcDbLine
 10
296.2778269288074
 20
421.6618848543421
 30
0.0
 11
296.3565219442071
 21
421.4466026440259
 31
0.0
  0
LINE
  5
1D1
330
70
100
AcDbEntity
  8
0
 62
     7
370
     5
100
AcDbLine
 10
286.982851480233
 20
421.6618848495336
 30
0.0
 11
287.0611821057173
 21
421.446602644527
 31
0.0
  0
LINE
  5
1D2
330
70
100
AcDbEntity
  8
0
 62
     7
370
     5
100
AcDbLine
 10
286.6970079633193
 20
422.4588130283055
 30
0.0
 11
286.8949262901115
 21
421.908470412528
 31
0.0
  0
LINE
  5
1D3
330
70
100
AcDbEntity
  8
0
 62
     7
370
    20
100
AcDbLine
 10
244.6786309132376
 20
670.7650035255883
 30
0.0
 11
244.6786309132376
 21
673.8804439724117
 31
0.0
  0
LINE
  5
1D4
330
70
100
AcDbEntity
  8
0
 62
     7
370
    20
100
AcDbLine
 10
245.7796947304633
 20
673.8804439724117
 30
0.0
 11
245.7796947304633
 21
670.7650035255883
 31
0.0
  0
LINE
  5
1D5
330
70
100
AcDbEntity
  8
0
 62
     7
370
    20
100
AcDbLine
 10
246.9599630701041
 20
673.8804439724117
 30
0.0
 11
246.9599630701041
 21
677.6497038285624
 31
0.0
  0
LINE
  5
1D6
330
70
100
AcDbEntity
  8
0
 62
     7
370
    20
100
AcDbLine
 10
255.0699635367682
 20
677.6497422907905
 30
0.0
 11
255.0699635367682
 21
677.1881955579274
 31
0.0
  0
LINE
  5
1D7
330
70
100
AcDbEntity
  8
0
 62
     7
370
    20
100
AcDbLine
 10
255.4545858141546
 20
677.1881955579274
 30
0.0
 11
255.4545858141546
 21
677.6497422907905
 31
0.0
  0
LINE
  5
1D8
330
70
100
AcDbEntity
  8
0
 62
     7
370
    20
100
AcDbLine
 10
256.5553977335976
 20
677.6497422907905
 30
0.0
 11
256.5553977335976
 21
677.1881955579274
 31
0.0
  0
LINE
  5
1D9
330
70
100
AcDbEntity
  8
0
 62
     7
370
    20
100
AcDbLine
 10
256.9400200109831
 20
677.1881955579274
 30
0.0
 11
256.9400200109831
 21
677.6497422907905
 31
0.0
  0
LINE
  5
1DA
330
70
100
AcDbEntity
  8
0
 62
     7
370
    20
100
AcDbLine
 10
301.7065182427014
 20
612.8826560476746
 30
0.0
 11
78.62559735909872
 21
612.8826560476746
 31
0.0
  0
LINE
  5
1DB
330
70
100
AcDbEntity
  8
0
 62
     7
370
     5
100
AcDbLine
 10
295.9921656086972
 20
422.4588130280753
 30
0.0
 11
296.1897195456531
 21
421.9084704119122
 31
0.0
  0
LINE
  5
1DC
330
70
100
AcDbEntity
  8
0
 62
     7
370
    20
100
AcDbLine
 10
230.4900798803974
 20
687.6440637329933
 30
0.0
 11
230.5205629289885
 21
687.5131285439038
 31
0.0
  0
LINE
  5
1DD
330
70
100
AcDbEntity
  8
0
 62
     7
370
    20
100
AcDbLine
 10
230.6127139723767
 20
687.1173080842981
 30
0.0
 11
230.5822309238256
 21
687.2482432733877
 31
0.0
  0
LINE
  5
1DE
330
70
100
AcDbEntity
  8
0
 62
     7
370
    20
100
AcDbLine
 10
263.846458111826
 20
677.6496767848084
 30
0.0
 11
263.8981483756988
 21
671.7265592190524
 31
0.0
  0
LINE
  5
1DF
330
70
100
AcDbEntity
  8
0
 62
     7
370
    20
100
AcDbLine
 10
266.0003428651844
 20
677.6496767848084
 30
0.0
 11
266.0520331290582
 21
671.7265592190524
 31
0.0
  0
LINE
  5
1E0
330
70
100
AcDbEntity
  8
0
 62
     7
370
    20
100
AcDbLine
 10
268.1542276185437
 20
677.6496767848084
 30
0.0
 11
268.2059178824184
 21
671.7265592190524
 31
0.0
  0
LINE
  5
1E1
330
70
100
AcDbEntity
  8
0
 62
     7
370
    20
100
AcDbLine
 10
270.3081123719039
 20
677.6496767848084
 30
0.0
 11
270.3598026357759
 21
671.7265592190524
 31
0.0
  0
LINE
  5
1E2
330
70
100
AcDbEntity
  8
0
 62
     7
370
    20
100
AcDbLine
 10
272.4619971252632
 20
677.6496767848084
 30
0.0
 11
272.5136873891361
 21
671.7265592190524
 31
0.0
  0
LINE
  5
1E3
330
70
100
AcDbEntity
  8
0
 62
     7
370
    20
100
AcDbLine
 10
261.7058013946389
 20
671.7265592190524
 30
0.0
 11
261.7058013946389
 21
677.6496767848084
 31
0.0
  0
LINE
  5
1E4
330
70
100
AcDbEntity
  8
0
 62
     7
370
    20
100
AcDbLine
 10
264.2058461976449
 20
673.8804439724117
 30
0.0
 11
264.2058461976449
 21
677.6496821935597
 31
0.0
  0
LINE
  5
1E5
330
70
100
AcDbEntity
  8
0
 62
     7
370
    20
100
AcDbLine
 10
264.5904684750303
 20
673.8804439724117
 30
0.0
 11
264.5904684750303
 21
677.6496821935597
 31
0.0
  0
LINE
  5
1E6
330
70
100
AcDbEntity
  8
0
 62
     7
370
    20
100
AcDbLine
 10
262.7442815435807
 20
671.7265592190524
 30
0.0
 11
262.7959718074926
 21
677.6496767848084
 31
0.0
  0
LINE
  5
1E7
330
70
100
AcDbEntity
  8
0
 62
     7
370
    20
100
AcDbLine
 10
264.89816629694
 20
671.7265592190524
 30
0.0
 11
264.9498565608528
 21
677.6496767848084
 31
0.0
  0
LINE
  5
1E8
330
70
100
AcDbEntity
  8
0
 62
     7
370
    20
100
AcDbLine
 10
267.0520510503002
 20
671.7265592190524
 30
0.0
 11
267.1037413142103
 21
677.6496767848084
 31
0.0
  0
LINE
  5
1E9
330
70
100
AcDbEntity
  8
0
 62
     7
370
    20
100
AcDbLine
 10
269.2059358036577
 20
671.7265592190524
 30
0.0
 11
269.2576260675705
 21
677.6496767848084
 31
0.0
  0
LINE
  5
1EA
330
70
100
AcDbEntity
  8
0
 62
     7
370
    20
100
AcDbLine
 10
271.359820557017
 20
671.7265592190524
 30
0.0
 11
271.4115108209298
 21
677.6496767848084
 31
0.0
  0
LINE
  5
1EB
330
70
100
AcDbEntity
  8
0
 62
     7
370
    20
100
AcDbLine
 10
273.5137053103772
 20
671.7265592190524
 30
0.0
 11
273.56539557429
 21
677.6496767848084
 31
0.0
  0
LINE
  5
1EC
330
70
100
AcDbEntity
  8
0
 62
     7
370
    20
100
AcDbLine
 10
275.6675900637365
 20
671.7265592190524
 30
0.0
 11
275.7192803276475
 21
677.6496767848084
 31
0.0
  0
LINE
  5
1ED
330
70
100
AcDbEntity
  8
0
 62
     7
370
    20
100
AcDbLine
 10
297.3908028334335
 20
676.9500127838291
 30
0.0
 11
299.4710228333461
 21
685.9604355266228
 31
0.0
  0
LINE
  5
1EE
330
70
100
AcDbEntity
  8
0
 62
     7
370
    20
100
AcDbLine
 10
297.6156614934435
 20
676.8981000717376
 30
0.0
 11
299.6958814933205
 21
685.9085228145322
 31
0.0
  0
LINE
  5
1EF
330
70
100
AcDbEntity
  8
0
 62
     7
370
    20
100
AcDbLine
 10
274.6158818786207
 20
677.6496767848084
 30
0.0
 11
274.6675721424954
 21
671.7265592190524
 31
0.0
  0
LINE
  5
1F0
330
70
100
AcDbEntity
  8
0
 62
     7
370
    20
100
AcDbLine
 10
276.7697666319809
 20
677.6496767848084
 30
0.0
 11
276.8214568958556
 21
671.7265592190524
 31
0.0
  0
LINE
  5
1F1
330
70
100
AcDbEntity
  8
0
 62
     7
370
    20
100
AcDbLine
 10
277.0906924900637
 20
691.4961442766716
 30
0.0
 11
277.0906924900637
 21
691.8038420985803
 31
0.0
  0
LINE
  5
1F2
330
70
100
AcDbEntity
  8
0
 62
     7
370
    20
100
AcDbLine
 10
277.4753147674492
 20
673.880428948104
 30
0.0
 11
277.4753147674492
 21
674.0342928833661
 31
0.0
  0
LINE
  5
1F3
330
70
100
AcDbEntity
  8
0
 62
     7
370
    20
100
AcDbLine
 10
277.6676259061405
 20
673.2650483285943
 30
0.0
 11
277.6676259061405
 21
673.8804439724117
 31
0.0
  0
LINE
  5
1F4
330
70
100
AcDbEntity
  8
0
 62
     7
370
    20
100
AcDbLine
 10
277.8599370448346
 20
691.8038420985803
 30
0.0
 11
277.8599370448346
 21
684.3037076895616
 31
0.0
  0
LINE
  5
1F5
330
70
100
AcDbEntity
  8
0
 62
     7
370
    20
100
AcDbLine
 10
277.8599370448346
 20
671.7265592190524
 30
0.0
 11
277.8599370448346
 21
677.6496767848084
 31
0.0
  0
LINE
  5
1F6
330
70
100
AcDbEntity
  8
0
 62
     7
370
    20
100
AcDbLine
 10
279.013803876991
 20
683.5344631347898
 30
0.0
 11
279.013803876991
 21
691.8038420985803
 31
0.0
  0
LINE
  5
1F7
330
70
100
AcDbEntity
  8
0
 62
     7
370
    20
100
AcDbLine
 10
282.0907820960765
 20
677.6497422907905
 30
0.0
 11
282.0907820960765
 21
670.7650035255883
 31
0.0
  0
LINE
  5
1F8
330
70
100
AcDbEntity
  8
0
 62
     7
370
    20
100
AcDbLine
 10
277.6676259061405
 20
673.2650483285943
 30
0.0
 11
277.7441603945145
 21
677.6497062324515
 31
0.0
  0
LINE
  5
1F9
330
70
100
AcDbEntity
  8
0
 62
     7
370
    20
100
AcDbLine
 10
295.9371840819558
 20
677.6497422907905
 30
0.0
 11
295.9371840819558
 21
691.8038420985803
 31
0.0
  0
LINE
  5
1FA
330
70
100
AcDbEntity
  8
0
 62
     7
370
    20
100
AcDbLine
 10
297.0910509141122
 20
691.8038420985803
 30
0.0
 11
297.0910509141122
 21
677.6497422907905
 31
0.0
  0
LINE
  5
1FB
330
70
100
AcDbEntity
  8
0
 62
     7
370
    20
100
AcDbLine
 10
298.7064644790953
 20
691.4961442766716
 30
0.0
 11
298.7064644790953
 21
691.8038420985803
 31
0.0
  0
LINE
  5
1FC
330
70
100
AcDbEntity
  8
0
 62
     7
370
    20
100
AcDbLine
 10
299.4757090338662
 20
691.8038420985803
 30
0.0
 11
299.4757090338662
 21
691.4961442766716
 31
0.0
  0
LINE
  5
1FD
330
70
100
AcDbEntity
  8
0
 62
     7
370
    20
100
AcDbLine
 10
301.7065182427014
 20
691.8807665540571
 30
0.0
 11
301.7065182427014
 21
693.4192556635998
 31
0.0
  0
LINE
  5
1FE
330
70
100
AcDbEntity
  8
0
 62
     7
370
    20
100
AcDbLine
 10
303.6296296296296
 20
693.4192556635998
 30
0.0
 11
303.6296296296296
 21
691.8807665540571
 31
0.0
  0
LINE
  5
1FF
330
70
100
AcDbEntity
  8
0
 62
     7
370
    20
100
AcDbLine
 10
303.6296296296296
 20
414.8021831940968
 30
0.0
 11
303.6296296296296
 21
610.9595446607463
 31
0.0
  0
LINE
  5
200
330
70
100
AcDbEntity
  8
0
 62
     7
370
    20
100
AcDbLine
 10
98.24133350576449
 20
670.7650035255883
 30
0.0
 11
282.0907820960765
 21
670.7650035255883
 31
0.0
  0
LINE
  5
201
330
70
100
AcDbEntity
  8
0
 62
     7
370
    20
100
AcDbLine
 10
109.6554665198564
 20
687.3066424987228
 30
0.0
 11
109.5261673403938
 21
687.343452309502
 31
0.0
  0
LINE
  5
202
330
70
100
AcDbEntity
  8
0
 62
     7
370
    20
100
AcDbLine
 10
109.1352925799965
 20
687.4547293185305
 30
0.0
 11
109.2645917594982
 21
687.4179195077504
 31
0.0
  0
LINE
  5
203
330
70
100
AcDbEntity
  8
0
 62
     7
370
    20
100
AcDbLine
 10
150.488117200869
 20
687.1112579508753
 30
0.0
 11
150.1512152444429
 21
687.2395743140323
 31
0.0
  0
LINE
  5
204
330
70
100
AcDbEntity
  8
0
 62
     7
370
    20
100
AcDbLine
 10
149.0733201499588
 20
687.6501138664171
 30
0.0
 11
149.3588303925153
 21
687.5413711438832
 31
0.0
  0
LINE
  5
205
330
70
100
AcDbEntity
  8
0
 62
     7
370
    20
100
AcDbLine
 10
270.7109796252553
 20
688.1032079733777
 30
0.0
 11
270.8184972112567
 21
687.7591033584894
 31
0.0
  0
LINE
  5
206
330
70
100
AcDbEntity
  8
0
 62
     7
370
    20
100
AcDbLine
 10
271.1624924785319
 20
686.6581638438747
 30
0.0
 11
271.071375845102
 21
686.9497780366282
 31
0.0
  0
LINE
  5
207
330
70
100
AcDbEntity
  8
0
 62
     7
370
    20
100
AcDbLine
 10
230.8147747507155
 20
687.4420029546172
 30
0.0
 11
230.6838395616651
 21
687.4115199060643
 31
0.0
  0
LINE
  5
208
330
70
100
AcDbEntity
  8
0
 62
     7
370
    20
100
AcDbLine
 10
230.2880191020604
 20
687.319368862636
 30
0.0
 11
230.4189542911481
 21
687.3498519112272
 31
0.0
  0
LINE
  5
209
330
70
100
AcDbEntity
  8
0
 62
     7
370
    20
100
AcDbLine
 10
297.3086911066484
 20
687.6487738985961
 30
0.0
 11
297.3081742116938
 21
687.6487135075522
 31
0.0
  0
LINE
  5
20A
330
70
100
AcDbEntity
  8
0
 62
     7
370
    20
100
AcDbLine
 10
297.3086911066484
 20
687.6424182733517
 30
0.0
 11
297.3034865093386
 21
687.6418246137509
 31
0.0
  0
LINE
  5
20B
330
70
100
AcDbEntity
  8
0
 62
     7
370
    20
100
AcDbLine
 10
297.3086911066484
 20
687.5770321589206
 30
0.0
 11
297.2180919006087
 21
687.5692796919893
 31
0.0
  0
LINE
  5
20C
330
70
100
AcDbEntity
  8
0
 62
     7
370
    20
100
AcDbLine
 10
297.3086911066484
 20
687.5666316224569
 30
0.0
 11
297.2186444434719
 21
687.5593345826492
 31
0.0
  0
LINE
  5
20D
330
70
100
AcDbEntity
  8
0
 62
     7
370
    20
100
AcDbLine
 10
277.8599370448346
 20
671.7265592190524
 30
0.0
 11
276.8214568958938
 21
671.7265592190524
 31
0.0
  0
LINE
  5
20E
330
70
100
AcDbEntity
  8
0
 62
     7
370
    20
100
AcDbLine
 10
275.6675900637365
 20
671.7265592190524
 30
0.0
 11
274.6675721425336
 21
671.7265592190524
 31
0.0
  0
LINE
  5
20F
330
70
100
AcDbEntity
  8
0
 62
     7
370
    20
100
AcDbLine
 10
273.5137053103772
 20
671.7265592190524
 30
0.0
 11
272.5136873891742
 21
671.7265592190524
 31
0.0
  0
LINE
  5
210
330
70
100
AcDbEntity
  8
0
 62
     7
370
    20
100
AcDbLine
 10
271.359820557017
 20
671.7265592190524
 30
0.0
 11
270.359802635814
 21
671.7265592190524
 31
0.0
  0
LINE
  5
211
330
70
100
AcDbEntity
  8
0
 62
     7
370
    20
100
AcDbLine
 10
269.2059358036577
 20
671.7265592190524
 30
0.0
 11
268.2059178824566
 21
671.7265592190524
 31
0.0
  0
LINE
  5
212
330
70
100
AcDbEntity
  8
0
 62
     7
370
    20
100
AcDbLine
 10
267.0520510503002
 20
671.7265592190524
 30
0.0
 11
266.0520331290972
 21
671.7265592190524
 31
0.0
  0
LINE
  5
213
330
70
100
AcDbEntity
  8
0
 62
     7
370
    20
100
AcDbLine
 10
264.89816629694
 20
671.7265592190524
 30
0.0
 11
263.898148375737
 21
671.7265592190524
 31
0.0
  0
LINE
  5
214
330
70
100
AcDbEntity
  8
0
 62
     7
370
    20
100
AcDbLine
 10
262.7442815435807
 20
671.7265592190524
 30
0.0
 11
261.7058013946389
 21
671.7265592190524
 31
0.0
  0
LINE
  5
215
330
70
100
AcDbEntity
  8
0
 62
     7
370
    20
100
AcDbLine
 10
118.6263142072002
 20
671.7265592190524
 30
0.0
 11
117.5878340582594
 21
671.7265592190524
 31
0.0
  0
LINE
  5
216
330
70
100
AcDbEntity
  8
0
 62
     7
370
    20
100
AcDbLine
 10
116.433967226103
 20
671.7265592190524
 30
0.0
 11
115.4339493049001
 21
671.7265592190524
 31
0.0
  0
LINE
  5
217
330
70
100
AcDbEntity
  8
0
 62
     7
370
    20
100
AcDbLine
 10
114.2800824727428
 20
671.7265592190524
 30
0.0
 11
113.2800645515408
 21
671.7265592190524
 31
0.0
  0
LINE
  5
218
330
70
100
AcDbEntity
  8
0
 62
     7
370
    20
100
AcDbLine
 10
112.1261977193835
 20
671.7265592190524
 30
0.0
 11
111.1261797981815
 21
671.7265592190524
 31
0.0
  0
LINE
  5
219
330
70
100
AcDbEntity
  8
0
 62
     7
370
    20
100
AcDbLine
 10
109.9723129660242
 20
671.7265592190524
 30
0.0
 11
108.9722950448222
 21
671.7265592190524
 31
0.0
  0
LINE
  5
21A
330
70
100
AcDbEntity
  8
0
 62
     7
370
    20
100
AcDbLine
 10
107.8184282126649
 20
671.7265592190524
 30
0.0
 11
106.8184102914629
 21
671.7265592190524
 31
0.0
  0
LINE
  5
21B
330
70
100
AcDbEntity
  8
0
 62
     7
370
    20
100
AcDbLine
 10
105.6645434593056
 20
671.7265592190524
 30
0.0
 11
104.6645255381036
 21
671.7265592190524
 31
0.0
  0
LINE
  5
21C
330
70
100
AcDbEntity
  8
0
 62
     7
370
    20
100
AcDbLine
 10
103.5106587059463
 20
671.7265592190524
 30
0.0
 11
102.4721785570054
 21
671.7265592190524
 31
0.0
  0
LINE
  5
21D
330
70
100
AcDbEntity
  8
0
 62
     7
370
    20
100
AcDbLine
 10
275.6708773822629
 20
672.1111814964379
 30
0.0
 11
274.6640804934223
 21
672.1111814964379
 31
0.0
  0
LINE
  5
21E
330
70
100
AcDbEntity
  8
0
 62
     7
370
    20
100
AcDbLine
 10
273.5169625802892
 20
672.1111814964379
 30
0.0
 11
272.5101656914467
 21
672.1111814964379
 31
0.0
  0
LINE
  5
21F
330
70
100
AcDbEntity
  8
0
 62
     7
370
    20
100
AcDbLine
 10
271.3630477783135
 20
672.1111814964379
 30
0.0
 11
270.3562508894729
 21
672.1111814964379
 31
0.0
  0
LINE
  5
220
330
70
100
AcDbEntity
  8
0
 62
     7
370
    20
100
AcDbLine
 10
269.2093913944309
 20
672.1111814964379
 30
0.0
 11
268.2025945055902
 21
672.1111814964379
 31
0.0
  0
LINE
  5
221
330
70
100
AcDbEntity
  8
0
 62
     7
370
    20
100
AcDbLine
 10
267.0554765924571
 20
672.1111814964379
 30
0.0
 11
266.0486797036146
 21
672.1111814964379
 31
0.0
  0
LINE
  5
222
330
70
100
AcDbEntity
  8
0
 62
     7
370
    20
100
AcDbLine
 10
264.9015617904815
 20
672.1111814964379
 30
0.0
 11
263.8950233197347
 21
672.1111814964379
 31
0.0
  0
LINE
  5
223
330
70
100
AcDbEntity
  8
0
 62
     7
370
    20
100
AcDbLine
 10
262.7476469885078
 20
672.1111814964379
 30
0.0
 11
261.705963657163
 21
672.1111814964379
 31
0.0
  0
LINE
  5
224
330
70
100
AcDbEntity
  8
0
 62
     7
370
    20
100
AcDbLine
 10
118.626151944677
 20
672.1111814964379
 30
0.0
 11
117.5844686133323
 21
672.1111814964379
 31
0.0
  0
LINE
  5
225
330
70
100
AcDbEntity
  8
0
 62
     7
370
    20
100
AcDbLine
 10
116.4370922821063
 20
672.1111814964379
 30
0.0
 11
115.4305538113576
 21
672.1111814964379
 31
0.0
  0
LINE
  5
226
330
70
100
AcDbEntity
  8
0
 62
     7
370
    20
100
AcDbLine
 10
114.2834358982245
 20
672.1111814964379
 30
0.0
 11
113.2766390093829
 21
672.1111814964379
 31
0.0
  0
LINE
  5
227
330
70
100
AcDbEntity
  8
0
 62
     7
370
    20
100
AcDbLine
 10
112.1295210962489
 20
672.1111814964379
 30
0.0
 11
111.1227242074074
 21
672.1111814964379
 31
0.0
  0
LINE
  5
228
330
70
100
AcDbEntity
  8
0
 62
     7
370
    20
100
AcDbLine
 10
109.9758647123671
 20
672.1111814964379
 30
0.0
 11
108.9690678235256
 21
672.1111814964379
 31
0.0
  0
LINE
  5
229
330
70
100
AcDbEntity
  8
0
 62
     7
370
    20
100
AcDbLine
 10
107.8219499103925
 20
672.1111814964379
 30
0.0
 11
106.8151530215509
 21
672.1111814964379
 31
0.0
  0
LINE
  5
22A
330
70
100
AcDbEntity
  8
0
 62
     7
370
    20
100
AcDbLine
 10
105.6680351084178
 20
672.1111814964379
 30
0.0
 11
104.6612382195762
 21
672.1111814964379
 31
0.0
  0
LINE
  5
22B
330
70
100
AcDbEntity
  8
0
 62
     7
370
    20
100
AcDbLine
 10
102.6644896956986
 20
673.2650483285943
 30
0.0
 11
103.5242406801162
 21
673.2650483285943
 31
0.0
  0
LINE
  5
22C
330
70
100
AcDbEntity
  8
0
 62
     7
370
    20
100
AcDbLine
 10
104.6515926140264
 20
673.2650483285943
 30
0.0
 11
105.678317744615
 21
673.2650483285943
 31
0.0
  0
LINE
  5
22D
330
70
100
AcDbEntity
  8
0
 62
     7
370
    20
100
AcDbLine
 10
106.8051167840003
 20
673.2650483285943
 30
0.0
 11
107.8323948091129
 21
673.2650483285943
 31
0.0
  0
LINE
  5
22E
330
70
100
AcDbEntity
  8
0
 62
     7
370
    20
100
AcDbLine
 10
108.9591938484982
 20
673.2650483285943
 30
0.0
 11
109.9859189790868
 21
673.2650483285943
 31
0.0
  0
LINE
  5
22F
330
70
100
AcDbEntity
  8
0
 62
     7
370
    20
100
AcDbLine
 10
111.113270912997
 20
673.2650483285943
 30
0.0
 11
112.1399960435847
 21
673.2650483285943
 31
0.0
  0
LINE
  5
230
330
70
100
AcDbEntity
  8
0
 62
     7
370
    20
100
AcDbLine
 10
113.2667950829709
 20
673.2650483285943
 30
0.0
 11
114.2935202135586
 21
673.2650483285943
 31
0.0
  0
LINE
  5
231
330
70
100
AcDbEntity
  8
0
 62
     7
370
    20
100
AcDbLine
 10
115.4208721474688
 20
673.2650483285943
 30
0.0
 11
116.4475972780574
 21
673.2650483285943
 31
0.0
  0
LINE
  5
232
330
70
100
AcDbEntity
  8
0
 62
     7
370
    20
100
AcDbLine
 10
117.5749492119666
 20
673.2650483285943
 30
0.0
 11
118.6265545961241
 21
673.2650483285943
 31
0.0
  0
LINE
  5
233
330
70
100
AcDbEntity
  8
0
 62
     7
370
    20
100
AcDbLine
 10
261.705320616793
 20
673.2650483285943
 30
0.0
 11
262.7570221565202
 21
673.2650483285943
 31
0.0
  0
LINE
  5
234
330
70
100
AcDbEntity
  8
0
 62
     7
370
    20
100
AcDbLine
 10
263.8844462071047
 20
673.2650483285943
 30
0.0
 11
264.9109069098777
 21
673.2650483285943
 31
0.0
  0
LINE
  5
235
330
70
100
AcDbEntity
  8
0
 62
     7
370
    20
100
AcDbLine
 10
266.038330960464
 20
673.2650483285943
 30
0.0
 11
267.064791663237
 21
673.2650483285943
 31
0.0
  0
LINE
  5
236
330
70
100
AcDbEntity
  8
0
 62
     7
370
    20
100
AcDbLine
 10
268.1922157138242
 20
673.2650483285943
 30
0.0
 11
269.2186764165972
 21
673.2650483285943
 31
0.0
  0
LINE
  5
237
330
70
100
AcDbEntity
  8
0
 62
     7
370
    20
100
AcDbLine
 10
270.3461004671835
 20
673.2650483285943
 30
0.0
 11
271.3725611699574
 21
673.2650483285943
 31
0.0
  0
LINE
  5
238
330
70
100
AcDbEntity
  8
0
 62
     7
370
    20
100
AcDbLine
 10
272.499985220541
 20
673.2650483285943
 30
0.0
 11
273.5264459233149
 21
673.2650483285943
 31
0.0
  0
LINE
  5
239
330
70
100
AcDbEntity
  8
0
 62
     7
370
    20
100
AcDbLine
 10
274.6538699739012
 20
673.2650483285943
 30
0.0
 11
275.6803306766742
 21
673.2650483285943
 31
0.0
  0
LINE
  5
23A
330
70
100
AcDbEntity
  8
0
 62
     7
370
    20
100
AcDbLine
 10
276.8077547272615
 20
673.2650483285943
 30
0.0
 11
277.6676259061405
 21
673.2650483285943
 31
0.0
  0
LINE
  5
23B
330
70
100
AcDbEntity
  8
0
 62
     7
370
    20
100
AcDbLine
 10
102.6644896956986
 20
673.8804439724117
 30
0.0
 11
103.5297696253537
 21
673.8804439724117
 31
0.0
  0
LINE
  5
23C
330
70
100
AcDbEntity
  8
0
 62
     7
370
    20
100
AcDbLine
 10
104.6460636687889
 20
673.8804439724117
 30
0.0
 11
105.6838466898525
 21
673.8804439724117
 31
0.0
  0
LINE
  5
23D
330
70
100
AcDbEntity
  8
0
 62
     7
370
    20
100
AcDbLine
 10
106.8001407332867
 20
673.8804439724117
 30
0.0
 11
107.8373708598264
 21
673.8804439724117
 31
0.0
  0
LINE
  5
23E
330
70
100
AcDbEntity
  8
0
 62
     7
370
    20
100
AcDbLine
 10
108.9536649032616
 20
673.8804439724117
 30
0.0
 11
109.9914479243243
 21
673.8804439724117
 31
0.0
  0
LINE
  5
23F
330
70
100
AcDbEntity
  8
0
 62
     7
370
    20
100
AcDbLine
 10
111.1077419677585
 20
673.8804439724117
 30
0.0
 11
112.1455249888222
 21
673.8804439724117
 31
0.0
  0
LINE
  5
240
330
70
100
AcDbEntity
  8
0
 62
     7
370
    20
100
AcDbLine
 10
113.2618190322573
 20
673.8804439724117
 30
0.0
 11
114.299049158797
 21
673.8804439724117
 31
0.0
  0
LINE
  5
241
330
70
100
AcDbEntity
  8
0
 62
     7
370
    20
100
AcDbLine
 10
115.4153432022313
 20
673.8804439724117
 30
0.0
 11
116.453126223294
 21
673.8804439724117
 31
0.0
  0
LINE
  5
242
330
70
100
AcDbEntity
  8
0
 62
     7
370
    20
100
AcDbLine
 10
117.56942026673
 20
673.8804439724117
 30
0.0
 11
118.6265545961241
 21
673.8804439724117
 31
0.0
  0
LINE
  5
243
330
70
100
AcDbEntity
  8
0
 62
     7
370
    20
100
AcDbLine
 10
243.498362573634
 20
673.8804439724117
 30
0.0
 11
246.9599630701041
 21
673.8804439724117
 31
0.0
  0
LINE
  5
244
330
70
100
AcDbEntity
  8
0
 62
     7
370
    20
100
AcDbLine
 10
277.4753147674492
 20
674.0342928833661
 30
0.0
 11
276.8013243235628
 21
674.0342928833661
 31
0.0
  0
LINE
  5
245
330
70
100
AcDbEntity
  8
0
 62
     7
370
    20
100
AcDbLine
 10
103.5307912782782
 20
674.0342928833661
 30
0.0
 11
102.8568008343909
 21
674.0342928833661
 31
0.0
  0
LINE
  5
246
330
70
100
AcDbEntity
  8
0
 62
     7
370
    20
100
AcDbLine
 10
256.9400200109831
 20
677.1881955579274
 30
0.0
 11
256.5553977335976
 21
677.1881955579274
 31
0.0
  0
LINE
  5
247
330
70
100
AcDbEntity
  8
0
 62
     7
370
    20
100
AcDbLine
 10
255.4545858141546
 20
677.1881955579274
 30
0.0
 11
255.0699635367682
 21
677.1881955579274
 31
0.0
  0
LINE
  5
248
330
70
100
AcDbEntity
  8
0
 62
     7
370
    20
100
AcDbLine
 10
128.2933883193809
 20
677.1881955579274
 30
0.0
 11
128.9959562788253
 21
677.1881955579274
 31
0.0
  0
LINE
  5
249
330
70
100
AcDbEntity
  8
0
 62
     7
370
    20
100
AcDbLine
 10
83.24106468772606
 20
677.6497422907905
 30
0.0
 11
297.0910509141122
 21
677.6497422907905
 31
0.0
  0
LINE
  5
24A
330
70
100
AcDbEntity
  8
0
 62
     7
370
    20
100
AcDbLine
 10
101.3183117248491
 20
683.5344631347898
 30
0.0
 11
279.013803876991
 21
683.5344631347898
 31
0.0
  0
LINE
  5
24B
330
70
100
AcDbEntity
  8
0
 62
     7
370
    20
100
AcDbLine
 10
83.02342449519164
 20
687.6304290617635
 30
0.0
 11
83.03846792028252
 21
687.6287917430363
 31
0.0
  0
LINE
  5
24C
330
70
100
AcDbEntity
  8
0
 62
     7
370
    20
100
AcDbLine
 10
149.8305597714752
 20
686.987371714993
 30
0.0
 11
149.6396070808196
 21
687.0101893396358
 31
0.0
  0
LINE
  5
24D
330
70
100
AcDbEntity
  8
0
 62
     7
370
    20
100
AcDbLine
 10
150.1512152444429
 20
687.2395743140323
 30
0.0
 11
149.8647862084208
 21
687.2738007509779
 31
0.0
  0
LINE
  5
24E
330
70
100
AcDbEntity
  8
0
 62
     7
370
    20
100
AcDbLine
 10
149.6738335177642
 20
687.2966183756197
 30
0.0
 11
149.3874044817803
 21
687.3308448125653
 31
0.0
  0
LINE
  5
24F
330
70
100
AcDbEntity
  8
0
 62
     7
370
    20
100
AcDbLine
 10
149.3348691466471
 20
687.433962074363
 30
0.0
 11
149.3988132940831
 21
687.4263211578927
 31
0.0
  0
LINE
  5
250
330
70
100
AcDbEntity
  8
0
 62
     7
370
    20
100
AcDbLine
 10
149.4196530020099
 20
687.5206705715636
 30
0.0
 11
149.696651142407
 21
687.4875710662763
 31
0.0
  0
LINE
  5
251
330
70
100
AcDbEntity
  8
0
 62
     7
370
    20
100
AcDbLine
 10
149.8876038330627
 20
687.4647534416717
 30
0.0
 11
150.1740328690466
 21
687.4305270046879
 31
0.0
  0
LINE
  5
252
330
70
100
AcDbEntity
  8
0
 62
     7
370
    20
100
AcDbLine
 10
149.7827037169299
 20
687.76780721047
 30
0.0
 11
149.9218302700083
 21
687.7511824776556
 31
0.0
  0
LINE
  5
253
330
70
100
AcDbEntity
  8
0
 62
     7
370
    20
100
AcDbLine
 10
230.1801832513538
 20
687.4951473093951
 30
0.0
 11
230.1652074869744
 21
687.5051103593651
 31
0.0
  0
LINE
  5
254
330
70
100
AcDbEntity
  8
0
 62
     7
370
    20
100
AcDbLine
 10
230.0249024472769
 20
687.9245679378373
 30
0.0
 11
230.2756479799346
 21
687.6655415006625
 31
0.0
  0
LINE
  5
255
330
70
100
AcDbEntity
  8
0
 62
     7
370
    20
100
AcDbLine
 10
231.0778914055363
 20
686.8368038794542
 30
0.0
 11
230.8271458728405
 21
687.095830316629
 31
0.0
  0
LINE
  5
256
330
70
100
AcDbEntity
  8
0
 62
     7
370
     5
100
AcDbLine
 10
286.3015326010145
 20
421.350534566709
 30
0.0
 11
286.411161925359
 21
421.6618856780496
 31
0.0
  0
LINE
  5
257
330
70
100
AcDbEntity
  8
0
 62
     7
370
     5
100
AcDbLine
 10
295.5966902456612
 20
421.3505345649018
 30
0.0
 11
295.7065017642344
 21
421.6618856781651
 31
0.0
  0
LINE
  5
258
330
70
100
AcDbEntity
  8
0
 62
     7
370
     5
100
AcDbLine
 10
286.499453761935
 20
421.9084709838443
 30
0.0
 11
286.6970079633193
 21
422.4588130283055
 31
0.0
  0
LINE
  5
259
330
70
100
AcDbEntity
  8
0
 62
     7
370
     5
100
AcDbLine
 10
295.7944292125867
 20
421.9084709831522
 30
0.0
 11
295.9921656086972
 21
422.4588130280753
 31
0.0
  0
LINE
  5
25A
330
70
100
AcDbEntity
  8
0
 62
     7
370
     5
100
AcDbLine
 10
288.4006691885452
 20
421.4679451956572
 30
0.0
 11
288.7178090944335
 21
422.3043126848315
 31
0.0
  0
LINE
  5
25B
330
70
100
AcDbEntity
  8
0
 62
     7
370
     5
100
AcDbLine
 10
288.6553932973102
 20
422.762201331484
 30
0.0
 11
288.2890461348925
 21
421.8030020993264
 31
0.0
  0
LINE
  5
25C
330
70
100
AcDbEntity
  8
0
 62
     7
370
     5
100
AcDbLine
 10
286.5660205081003
 20
422.7622013339832
 30
0.0
 11
286.0254576111602
 21
421.3505358253869
 31
0.0
  0
LINE
  5
25D
330
70
100
AcDbEntity
  8
0
 62
     7
370
     5
100
AcDbLine
 10
295.8610014800825
 20
422.7622013339832
 30
0.0
 11
295.320433062082
 21
421.3505358253869
 31
0.0
  0
LINE
  5
25E
330
70
100
AcDbEntity
  8
0
 62
     7
370
    20
100
AcDbLine
 10
150.5316834721152
 20
687.4758487814333
 30
0.0
 11
150.1740328690466
 21
687.4305270046879
 31
0.0
  0
LINE
  5
25F
330
70
100
AcDbEntity
  8
0
 62
     7
370
    20
100
AcDbLine
 10
149.0297538787126
 20
687.2855230358582
 30
0.0
 11
149.3874044817803
 21
687.3308448125653
 31
0.0
  0
LINE
  5
260
330
70
100
AcDbEntity
  8
0
 62
     7
370
    20
100
AcDbLine
 10
83.02342449519164
 20
687.1309427554897
 30
0.0
 11
83.10951423845745
 21
687.1403127194853
 31
0.0
  0
LINE
  5
261
330
70
100
AcDbEntity
  8
0
 62
     7
370
    20
100
AcDbLine
 10
83.02342449519164
 20
687.2769746944722
 30
0.0
 11
83.10774966606459
 21
687.2807860184675
 31
0.0
  0
LINE
  5
262
330
70
100
AcDbEntity
  8
0
 62
     7
370
    20
100
AcDbLine
 10
279.013803876991
 20
690.8422864051162
 30
0.0
 11
277.8599009864965
 21
690.8422864051162
 31
0.0
  0
LINE
  5
263
330
70
100
AcDbEntity
  8
0
 62
     7
370
    20
100
AcDbLine
 10
102.4722146153444
 20
690.8422864051162
 30
0.0
 11
101.3183117248491
 21
690.8422864051162
 31
0.0
  0
LINE
  5
264
330
70
100
AcDbEntity
  8
0
 62
     7
370
    20
100
AcDbLine
 10
277.8599370448346
 20
690.9961353160706
 30
0.0
 11
102.4721785570054
 21
690.9961353160706
 31
0.0
  0
LINE
  5
265
330
70
100
AcDbEntity
  8
0
 62
     7
370
    20
100
AcDbLine
 10
299.4757090338662
 20
691.4961442766716
 30
0.0
 11
297.0910749529685
 21
691.4961442766716
 31
0.0
  0
LINE
  5
266
330
70
100
AcDbEntity
  8
0
 62
     7
370
    20
100
AcDbLine
 10
277.8599370448346
 20
691.4961442766716
 30
0.0
 11
102.4721785570054
 21
691.4961442766716
 31
0.0
  0
LINE
  5
267
330
70
100
AcDbEntity
  8
0
 62
     7
370
    20
100
AcDbLine
 10
80.85640656793566
 20
691.4961442766716
 30
0.0
 11
83.24104064883341
 21
691.4961442766716
 31
0.0
  0
LINE
  5
268
330
70
100
AcDbEntity
  8
0
 62
     7
370
    20
100
AcDbLine
 10
80.85640656793566
 20
691.8038420985803
 30
0.0
 11
101.3183117248491
 21
691.8038420985803
 31
0.0
  0
LINE
  5
269
330
70
100
AcDbEntity
  8
0
 62
     7
370
    20
100
AcDbLine
 10
102.4721785570054
 20
691.8038420985803
 30
0.0
 11
277.8599370448346
 21
691.8038420985803
 31
0.0
  0
LINE
  5
26A
330
70
100
AcDbEntity
  8
0
 62
     7
370
    20
100
AcDbLine
 10
279.013803876991
 20
691.8038420985803
 30
0.0
 11
299.4757090338662
 21
691.8038420985803
 31
0.0
  0
LINE
  5
26B
330
70
100
AcDbEntity
  8
0
 62
     7
370
    20
100
AcDbLine
 10
180.5697319801502
 20
691.8423043263191
 30
0.0
 11
183.6467101992339
 21
691.8423043263191
 31
0.0
  0
LINE
  5
26C
330
70
100
AcDbEntity
  8
0
 62
     7
370
    20
100
AcDbLine
 10
185.9544438635476
 20
691.8423043263191
 30
0.0
 11
190.5699111921749
 21
691.8423043263191
 31
0.0
  0
LINE
  5
26D
330
70
100
AcDbEntity
  8
0
 62
     7
370
    20
100
AcDbLine
 10
193.6468894112595
 20
691.8423043263191
 30
0.0
 11
198.2623567398868
 21
691.8423043263191
 31
0.0
  0
LINE
  5
26E
330
70
100
AcDbEntity
  8
0
 62
     7
370
    20
100
AcDbLine
 10
201.3393349589715
 20
691.8423043263191
 30
0.0
 11
205.9548022875988
 21
691.8423043263191
 31
0.0
  0
LINE
  5
26F
330
70
100
AcDbEntity
  8
0
 62
     7
370
    20
100
AcDbLine
 10
208.2625359519125
 20
691.8423043263191
 30
0.0
 11
211.339514170998
 21
691.8423043263191
 31
0.0
  0
LINE
  5
270
330
70
100
AcDbEntity
  8
0
 62
     7
370
    20
100
AcDbLine
 10
76.7024859721705
 20
691.8807665540571
 30
0.0
 11
303.6296296296296
 21
691.8807665540571
 31
0.0
  0
LINE
  5
271
330
70
100
AcDbEntity
  8
0
 62
     7
370
    20
100
AcDbLine
 10
76.7024859721705
 20
693.4192556635998
 30
0.0
 11
303.6296296296296
 21
693.4192556635998
 31
0.0
  0
LINE
  5
272
330
70
100
AcDbEntity
  8
0
 62
     7
370
    20
100
AcDbLine
 10
297.3086911066484
 20
687.3452389325584
 30
0.0
 11
297.3035934531008
 21
687.3453176810853
 31
0.0
  0
LINE
  5
273
330
70
100
AcDbEntity
  8
0
 62
     7
370
    20
100
AcDbLine
 10
297.3086911066484
 20
687.3126871752028
 30
0.0
 11
297.27822995318
 21
687.3135898682257
 31
0.0
  0
LINE
  5
274
330
70
100
AcDbEntity
  8
0
 62
     7
370
    20
100
AcDbLine
 10
297.3086911066484
 20
687.1843396583718
 30
0.0
 11
297.3079603241304
 21
687.1844021905689
 31
0.0
  0
LINE
  5
275
330
70
100
AcDbEntity
  8
0
 62
     7
370
    20
100
AcDbLine
 10
297.3086911066484
 20
687.1189535439407
 30
0.0
 11
297.3034865093386
 21
687.1195472035024
 31
0.0
  0
LINE
  5
276
330
70
100
AcDbEntity
  8
0
 62
     7
370
    20
100
AcDbLine
 10
297.3086911066484
 20
687.1125979186572
 30
0.0
 11
297.3081742116938
 21
687.1126583097011
 31
0.0
  0
LINE
  5
277
330
70
100
AcDbEntity
  8
0
 62
     7
370
    20
100
AcDbLine
 10
271.1995616219601
 20
687.3170433269606
 30
0.0
 11
271.0689009795988
 21
687.3486824882702
 31
0.0
  0
LINE
  5
278
330
70
100
AcDbEntity
  8
0
 62
     7
370
    20
100
AcDbLine
 10
270.673910481828
 20
687.4443284902918
 30
0.0
 11
270.8045711241884
 21
687.4126893290212
 31
0.0
  0
LINE
  5
279
330
70
100
AcDbEntity
  8
0
 62
     7
370
    20
100
AcDbLine
 10
231.2718953628737
 20
687.1485521083732
 30
0.0
 11
230.928754510679
 21
687.2591069493055
 31
0.0
  0
LINE
  5
27A
330
70
100
AcDbEntity
  8
0
 62
     7
370
    20
100
AcDbLine
 10
229.8308984899013
 20
687.6128197089183
 30
0.0
 11
230.1652074869744
 21
687.5051103593651
 31
0.0
  0
LINE
  5
27B
330
70
100
AcDbEntity
  8
0
 62
     7
370
    20
100
AcDbLine
 10
230.4298179670668
 20
687.0033283243347
 30
0.0
 11
230.3481799663487
 21
687.0541324468277
 31
0.0
  0
LINE
  5
27C
330
70
100
AcDbEntity
  8
0
 62
     7
370
    20
100
AcDbLine
 10
230.8271458728405
 20
687.095830316629
 30
0.0
 11
230.5822309238256
 21
687.2482432733877
 31
0.0
  0
LINE
  5
27D
330
70
100
AcDbEntity
  8
0
 62
     7
370
    20
100
AcDbLine
 10
230.4189542911481
 20
687.3498519112272
 30
0.0
 11
230.1813466352414
 21
687.497717468339
 31
0.0
  0
LINE
  5
27E
330
70
100
AcDbEntity
  8
0
 62
     7
370
    20
100
AcDbLine
 10
230.2756479799346
 20
687.6655415006625
 30
0.0
 11
230.5205629289885
 21
687.5131285439038
 31
0.0
  0
LINE
  5
27F
330
70
100
AcDbEntity
  8
0
 62
     7
370
    20
100
AcDbLine
 10
230.6838395616651
 20
687.4115199060643
 30
0.0
 11
230.928754510679
 21
687.2591069493055
 31
0.0
  0
LINE
  5
280
330
70
100
AcDbEntity
  8
0
 62
     7
370
    20
100
AcDbLine
 10
230.6729758857091
 20
687.7580434929186
 30
0.0
 11
230.8362525184248
 21
687.6564348551173
 31
0.0
  0
LINE
  5
281
330
70
100
AcDbEntity
  8
0
 62
     7
370
    20
100
AcDbLine
 10
270.6312954488985
 20
687.1428353656929
 30
0.0
 11
270.5583186020504
 21
687.2624470680094
 31
0.0
  0
LINE
  5
282
330
70
100
AcDbEntity
  8
0
 62
     7
370
    20
100
AcDbLine
 10
271.0500280508786
 20
687.0103765118747
 30
0.0
 11
270.9047326315185
 21
687.2485209809419
 31
0.0
  0
LINE
  5
283
330
70
100
AcDbEntity
  8
0
 62
     7
370
    20
100
AcDbLine
 10
270.8045711241884
 20
687.4126893290212
 30
0.0
 11
270.6543288631765
 21
687.6589418511603
 31
0.0
  0
LINE
  5
284
330
70
100
AcDbEntity
  8
0
 62
     7
370
    20
100
AcDbLine
 10
271.1706000560589
 20
686.9973743125565
 30
0.0
 11
271.137059066552
 21
687.0523492124475
 31
0.0
  0
LINE
  5
285
330
70
100
AcDbEntity
  8
0
 62
     7
370
    20
100
AcDbLine
 10
270.8184972112567
 20
687.7591033584894
 30
0.0
 11
270.9687394722696
 21
687.5128508363505
 31
0.0
  0
LINE
  5
286
330
70
100
AcDbEntity
  8
0
 62
     7
370
    20
100
AcDbLine
 10
271.0689009795988
 20
687.3486824882702
 30
0.0
 11
271.2191432405725
 21
687.1024299661312
 31
0.0
  0
LINE
  5
287
330
70
100
AcDbEntity
  8
0
 62
     7
370
    20
100
AcDbLine
 10
271.2149919944095
 20
687.6630930973624
 30
0.0
 11
271.3151535017368
 21
687.498924749244
 31
0.0
  0
LINE
  5
288
330
70
100
AcDbEntity
  8
0
 62
     7
370
    20
100
AcDbLine
 10
295.836911960223
 20
677.6497823722784
 30
0.0
 11
296.1432791950556
 21
676.808045312493
 31
0.0
  0
LINE
  5
289
330
70
100
AcDbEntity
  8
0
 62
     7
370
    20
100
AcDbLine
 10
296.0825079671358
 20
677.6497490732199
 30
0.0
 11
296.3601352245742
 21
676.8869744523572
 31
0.0
  0
LINE
  5
28A
330
70
100
AcDbEntity
  8
0
 62
     7
370
    20
100
AcDbLine
 10
110.1263072766614
 20
687.5775329470489
 30
0.0
 11
109.7781994247234
 21
687.4837835964781
 31
0.0
  0
LINE
  5
28B
330
70
100
AcDbEntity
  8
0
 62
     7
370
    20
100
AcDbLine
 10
108.6644518232306
 20
687.1838388702427
 30
0.0
 11
109.0125596751304
 21
687.2775882208133
 31
0.0
  0
LINE
  5
28C
330
70
100
AcDbEntity
  8
0
 62
     7
370
    20
100
AcDbLine
 10
80.63623410848141
 20
685.9085228145322
 30
0.0
 11
80.86109276849311
 21
685.9604355266228
 31
0.0
  0
LINE
  5
28D
330
70
100
AcDbEntity
  8
0
 62
     7
370
    20
100
AcDbLine
 10
299.6958814933205
 20
685.9085228145322
 30
0.0
 11
299.4710228333461
 21
685.9604355266228
 31
0.0
  0
LINE
  5
28E
330
70
100
AcDbEntity
  8
0
 62
     7
370
    20
100
AcDbLine
 10
270.3975288214406
 20
687.9119670591335
 30
0.0
 11
270.6543288631765
 21
687.6589418511603
 31
0.0
  0
LINE
  5
28F
330
70
100
AcDbEntity
  8
0
 62
     7
370
    20
100
AcDbLine
 10
271.4759432823476
 20
686.849404758158
 30
0.0
 11
271.2191432405725
 21
687.1024299661312
 31
0.0
  0
CIRCLE
  5
290
330
70
100
AcDbEntity
  8
0
 62
     7
370
     5
100
AcDbCircle
 10
188.2429313058367
 20
427.8793363752836
 30
0.0
 40
2.038473030195063
  0
SPLINE
  5
291
330
70
100
AcDbEntity
  8
0
 62
     7
370
    20
100
AcDbSpline
210
0.0
220
0.0
230
1.0
 70
     8
 71
     3
 72
     8
 73
     4
 74
     0
 42
0.0000000001
 43
0.0000000001
 40
0.0
 40
0.0
 40
0.0
 40
0.0
 40
1.0
 40
1.0
 40
1.0
 40
1.0
 10
76.7024859721705
 20
414.8021831940968
 30
0.0
 10
76.7024859721705
 20
413.74007810287
 30
0.0
 10
77.56349226787278
 20
412.8790718071686
 30
0.0
 10
78.62559735909872
 20
412.8790718071686
 30
0.0
  0
CIRCLE
  5
292
330
70
100
AcDbEntity
  8
0
 62
     7
370
     5
100
AcDbCircle
 10
188.2429313058367
 20
427.8793363752836
 30
0.0
 40
1.807647496213348
  0
SPLINE
  5
293
330
70
100
AcDbEntity
  8
0
 62
     7
370
    20
100
AcDbSpline
210
0.0
220
0.0
230
1.0
 70
     8
 71
     3
 72
     8
 73
     4
 74
     0
 42
0.0000000001
 43
0.0000000001
 40
0.0
 40
0.0
 40
0.0
 40
0.0
 40
1.0
 40
1.0
 40
1.0
 40
1.0
 10
109.4797615787338
 20
687.0020033683677
 30
0.0
 10
109.4907410937785
 20
686.9829089422137
 30
0.0
 10
109.5017465628907
 20
686.9638294516853
 30
0.0
 10
109.5127779555569
 20
686.9447649496824
 30
0.0
  0
SPLINE
  5
294
330
70
100
AcDbEntity
  8
0
 62
     7
370
    20
100
AcDbSpline
210
0.0
220
0.0
230
1.0
 70
     8
 71
     3
 72
     8
 73
     4
 74
     0
 42
0.0000000001
 43
0.0000000001
 40
0.0
 40
0.0
 40
0.0
 40
0.0
 40
1.0
 40
1.0
 40
1.0
 40
1.0
 10
149.4245530196831
 20
687.5345261463426
 30
0.0
 10
149.40264858937
 20
687.5368375947437
 30
0.0
 10
149.3807410267345
 20
687.5391192626976
 30
0.0
 10
149.358830392508
 20
687.5413711438768
 30
0.0
  0
SPLINE
  5
295
330
70
100
AcDbEntity
  8
0
 62
     7
370
    20
100
AcDbSpline
210
0.0
220
0.0
230
1.0
 70
     8
 71
     3
 72
     8
 73
     4
 74
     0
 42
0.0000000001
 43
0.0000000001
 40
0.0
 40
0.0
 40
0.0
 40
0.0
 40
1.0
 40
1.0
 40
1.0
 40
1.0
 10
102.6100453761028
 20
677.6497182851244
 30
0.0
 10
102.7115076372411
 20
676.5196948355724
 30
0.0
 10
103.0249651731401
 20
675.4189038543645
 30
0.0
 10
103.5340163671262
 20
674.4049440578865
 30
0.0
  0
SPLINE
  5
296
330
70
100
AcDbEntity
  8
0
 62
     7
370
    20
100
AcDbSpline
210
0.0
220
0.0
230
1.0
 70
     8
 71
     3
 72
     8
 73
     4
 74
     0
 42
0.0000000001
 43
0.0000000001
 40
0.0
 40
0.0
 40
0.0
 40
0.0
 40
1.0
 40
1.0
 40
1.0
 40
1.0
 10
109.5127779555732
 20
686.9447649496978
 30
0.0
 10
109.5466069965114
 20
686.9589536081484
 30
0.0
 10
109.5802882611269
 20
686.9734920588307
 30
0.0
 10
109.6138163363857
 20
686.9883779652182
 30
0.0
  0
SPLINE
  5
297
330
70
100
AcDbEntity
  8
0
 62
     7
370
    20
100
AcDbSpline
210
0.0
220
0.0
230
1.0
 70
     8
 71
     3
 72
     8
 73
     4
 74
     0
 42
0.0000000001
 43
0.0000000001
 40
0.0
 40
0.0
 40
0.0
 40
0.0
 40
1.0
 40
1.0
 40
1.0
 40
1.0
 10
149.3588303925116
 20
687.541371143895
 30
0.0
 10
149.3504729190454
 20
687.5056517559287
 30
0.0
 10
149.3424854091936
 20
687.4698468146416
 30
0.0
 10
149.3348691466563
 20
687.4339620743703
 30
0.0
  0
SPLINE
  5
298
330
70
100
AcDbEntity
  8
0
 62
     7
370
    20
100
AcDbSpline
210
0.0
220
0.0
230
1.0
 70
     8
 71
     3
 72
     8
 73
     4
 74
     0
 42
0.0000000001
 43
0.0000000001
 40
0.0
 40
0.0
 40
0.0
 40
0.0
 40
1.0
 40
1.0
 40
1.0
 40
1.0
 10
109.0662068530182
 20
687.1777023152326
 30
0.0
 10
109.0769543204924
 20
687.1527437680042
 30
0.0
 10
109.0880007491996
 20
687.127915021334
 30
0.0
 10
109.0993437557508
 20
687.1032214323031
 30
0.0
  0
SPLINE
  5
299
330
70
100
AcDbEntity
  8
0
 62
     7
370
    20
100
AcDbSpline
210
0.0
220
0.0
230
1.0
 70
     8
 71
     3
 72
     8
 73
     4
 74
     0
 42
0.0000000001
 43
0.0000000001
 40
0.0
 40
0.0
 40
0.0
 40
0.0
 40
1.0
 40
1.0
 40
1.0
 40
1.0
 10
149.8094674337599
 20
687.7663418595311
 30
0.0
 10
149.7829503562106
 20
687.7722817025405
 30
0.0
 10
149.756362991051
 20
687.777903291475
 30
0.0
 10
149.7297110748041
 20
687.7832054134142
 30
0.0
  0
SPLINE
  5
29A
330
70
100
AcDbEntity
  8
0
 62
     7
370
    20
100
AcDbSpline
210
0.0
220
0.0
230
1.0
 70
     8
 71
     3
 72
     8
 73
     4
 74
     0
 42
0.0000000001
 43
0.0000000001
 40
0.0
 40
0.0
 40
0.0
 40
0.0
 40
1.0
 40
1.0
 40
1.0
 40
1.0
 10
125.7887008605421
 20
691.8807509565659
 30
0.0
 10
125.7529387655449
 20
691.8558248257059
 30
0.0
 10
125.7176837510569
 20
691.8301789499401
 30
0.0
 10
125.6829573844625
 20
691.8038290182249
 30
0.0
  0
SPLINE
  5
29B
330
70
100
AcDbEntity
  8
0
 62
     7
370
    20
100
AcDbSpline
210
0.0
220
0.0
230
1.0
 70
     8
 71
     3
 72
     8
 73
     4
 74
     0
 42
0.0000000001
 43
0.0000000001
 40
0.0
 40
0.0
 40
0.0
 40
0.0
 40
1.0
 40
1.0
 40
1.0
 40
1.0
 10
131.6063872137056
 20
691.8038290182249
 30
0.0
 10
131.5716608471111
 20
691.8301789499401
 30
0.0
 10
131.536405832624
 20
691.8558248257059
 30
0.0
 10
131.5006437376269
 20
691.8807509565659
 30
0.0
  0
SPLINE
  5
29C
330
70
100
AcDbEntity
  8
0
 62
     7
370
    20
100
AcDbSpline
210
0.0
220
0.0
230
1.0
 70
     8
 71
     3
 72
     8
 73
     4
 74
     0
 42
0.0000000001
 43
0.0000000001
 40
0.0
 40
0.0
 40
0.0
 40
0.0
 40
1.0
 40
1.0
 40
1.0
 40
1.0
 10
83.24106383950311
 20
688.4918807235981
 30
0.0
 10
83.15519272792334
 20
688.2940581851398
 30
0.0
 10
83.09254182535642
 20
688.0869485496077
 30
0.0
 10
83.05436544749682
 20
687.8746982994316
 30
0.0
  0
SPLINE
  5
29D
330
70
100
AcDbEntity
  8
0
 62
     7
370
    20
100
AcDbSpline
210
0.0
220
0.0
230
1.0
 70
     8
 71
     3
 72
     8
 73
     4
 74
     0
 42
0.0000000001
 43
0.0000000001
 40
0.0
 40
0.0
 40
0.0
 40
0.0
 40
1.0
 40
1.0
 40
1.0
 40
1.0
 10
83.05436544749682
 20
686.8866735178599
 30
0.0
 10
83.09254182535642
 20
686.6744232676837
 30
0.0
 10
83.15519272792334
 20
686.4673136321526
 30
0.0
 10
83.24106383950311
 20
686.2694910936943
 30
0.0
  0
SPLINE
  5
29E
330
70
100
AcDbEntity
  8
0
 62
     7
370
    20
100
AcDbSpline
210
0.0
220
0.0
230
1.0
 70
     8
 71
     3
 72
     8
 73
     4
 74
     0
 42
0.0000000001
 43
0.0000000001
 40
0.0
 40
0.0
 40
0.0
 40
0.0
 40
1.0
 40
1.0
 40
1.0
 40
1.0
 10
78.62559735909872
 20
612.8826560476746
 30
0.0
 10
77.56349226787278
 20
612.8826560476746
 30
0.0
 10
76.7024859721705
 20
612.0216497519732
 30
0.0
 10
76.7024859721705
 20
610.9595446607463
 30
0.0
  0
CIRCLE
  5
29F
330
70
100
AcDbEntity
  8
0
 62
     7
370
    20
100
AcDbCircle
 10
109.3953795499458
 20
687.3806859086459
 30
0.0
 40
1.788493589881227
  0
CIRCLE
  5
2A0
330
70
100
AcDbEntity
  8
0
 62
     7
370
    20
100
AcDbCircle
 10
149.7807186754332
 20
687.3806859086459
 30
0.0
 40
1.788493589881454
  0
CIRCLE
  5
2A1
330
70
100
AcDbEntity
  8
0
 62
     7
370
    20
100
AcDbCircle
 10
109.3953795499458
 20
687.3806859086462
 30
0.0
 40
1.557720223450018
  0
CIRCLE
  5
2A2
330
70
100
AcDbEntity
  8
0
 62
     7
370
    20
100
AcDbCircle
 10
149.7807186754332
 20
687.3806859086462
 30
0.0
 40
1.557720223450246
  0
CIRCLE
  5
2A3
330
70
100
AcDbEntity
  8
0
 62
     7
370
    20
100
AcDbCircle
 10
109.3953795499458
 20
687.3806859086462
 30
0.0
 40
1.34617797084968
  0
CIRCLE
  5
2A4
330
70
100
AcDbEntity
  8
0
 62
     7
370
    20
100
AcDbCircle
 10
149.7807186754335
 20
687.3806859086462
 30
0.0
 40
1.346177970849566
  0
SPLINE
  5
2A5
330
70
100
AcDbEntity
  8
0
 62
     7
370
    20
100
AcDbSpline
210
0.0
220
0.0
230
1.0
 70
     8
 71
     3
 72
    11
 73
     7
 74
     0
 42
0.0000000001
 43
0.0000000001
 40
0.0
 40
0.0
 40
0.0
 40
0.0
 40
1.0
 40
1.0
 40
1.0
 40
2.0
 40
2.0
 40
2.0
 40
2.0
 10
82.71645410840756
 20
676.8981000717421
 30
0.0
 10
82.81202277244574
 20
676.4841467091237
 30
0.0
 10
83.22507198610038
 20
676.2260449146806
 30
0.0
 10
83.63902534871977
 20
676.3216135787188
 30
0.0
 10
83.89283345836338
 20
676.380209797885
 30
0.0
 10
84.09974552726636
 20
676.563270132785
 30
0.0
 10
84.18883640677359
 20
676.8080453125112
 30
0.0
  0
SPLINE
  5
2A6
330
70
100
AcDbEntity
  8
0
 62
     7
370
    20
100
AcDbSpline
210
0.0
220
0.0
230
1.0
 70
     8
 71
     3
 72
     8
 73
     4
 74
     0
 42
0.0000000001
 43
0.0000000001
 40
0.0
 40
0.0
 40
0.0
 40
0.0
 40
1.0
 40
1.0
 40
1.0
 40
1.0
 10
102.4721785570054
 20
684.3037076895616
 30
0.0
 10
102.4721785570054
 20
683.8788656530705
 30
0.0
 10
102.8165810752862
 20
683.5344631347898
 30
0.0
 10
103.2414231117773
 20
683.5344631347898
 30
0.0
  0
SPLINE
  5
2A7
330
70
100
AcDbEntity
  8
0
 62
     7
370
    20
100
AcDbSpline
210
0.0
220
0.0
230
1.0
 70
     8
 71
     3
 72
    11
 73
     7
 74
     0
 42
0.0000000001
 43
0.0000000001
 40
0.0
 40
0.0
 40
0.0
 40
0.0
 40
1.0
 40
1.0
 40
1.0
 40
2.0
 40
2.0
 40
2.0
 40
2.0
 10
82.94131276840744
 20
676.9500127838355
 30
0.0
 10
83.00821083323445
 20
676.6602454300027
 30
0.0
 10
83.29734528279368
 20
676.4795741738926
 30
0.0
 10
83.58711263662645
 20
676.5464722387187
 30
0.0
 10
83.76477831337615
 20
676.5874895921361
 30
0.0
 10
83.90961676160896
 20
676.7156318265652
 30
0.0
 10
83.97198037726411
 20
676.8869744523745
 30
0.0
  0
SPLINE
  5
2A8
330
70
100
AcDbEntity
  8
0
 62
     7
370
    20
100
AcDbSpline
210
0.0
220
0.0
230
1.0
 70
     8
 71
     3
 72
     8
 73
     4
 74
     0
 42
0.0000000001
 43
0.0000000001
 40
0.0
 40
0.0
 40
0.0
 40
0.0
 40
1.0
 40
1.0
 40
1.0
 40
1.0
 10
109.0807224861128
 20
687.1551692242801
 30
0.0
 10
109.090744282923
 20
687.1406361855052
 30
0.0
 10
109.1017398347758
 20
687.1267993047713
 30
0.0
 10
109.1136335067103
 20
687.1137537616523
 30
0.0
  0
SPLINE
  5
2A9
330
70
100
AcDbEntity
  8
0
 62
     7
370
    20
100
AcDbSpline
210
0.0
220
0.0
230
1.0
 70
     8
 71
     3
 72
     8
 73
     4
 74
     0
 42
0.0000000001
 43
0.0000000001
 40
0.0
 40
0.0
 40
0.0
 40
0.0
 40
1.0
 40
1.0
 40
1.0
 40
1.0
 10
149.782703716939
 20
687.76780721049
 30
0.0
 10
149.7650550106573
 20
687.7682180558094
 30
0.0
 10
149.7473987536869
 20
687.7674319141242
 30
0.0
 10
149.7298563978956
 20
687.7654541930569
 30
0.0
  0
SPLINE
  5
2AA
330
70
100
AcDbEntity
  8
0
 62
     7
370
    20
100
AcDbSpline
210
0.0
220
0.0
230
1.0
 70
     8
 71
     3
 72
     8
 73
     4
 74
     0
 42
0.0000000001
 43
0.0000000001
 40
0.0
 40
0.0
 40
0.0
 40
0.0
 40
1.0
 40
1.0
 40
1.0
 40
1.0
 10
109.0662068529354
 20
687.1777023151444
 30
0.0
 10
109.0707702943873
 20
687.1700175886981
 30
0.0
 10
109.0756120465221
 20
687.162501578945
 30
0.0
 10
109.0807224861564
 20
687.1551692242637
 30
0.0
  0
SPLINE
  5
2AB
330
70
100
AcDbEntity
  8
0
 62
     7
370
    20
100
AcDbSpline
210
0.0
220
0.0
230
1.0
 70
     8
 71
     3
 72
     8
 73
     4
 74
     0
 42
0.0000000001
 43
0.0000000001
 40
0.0
 40
0.0
 40
0.0
 40
0.0
 40
1.0
 40
1.0
 40
1.0
 40
1.0
 10
149.8094674338008
 20
687.7663418596567
 30
0.0
 10
149.800566937969
 20
687.7671549970182
 30
0.0
 10
149.7916397846566
 20
687.7676437711007
 30
0.0
 10
149.7827037169527
 20
687.7678072104445
 30
0.0
  0
SPLINE
  5
2AC
330
70
100
AcDbEntity
  8
0
 62
     7
370
    20
100
AcDbSpline
210
0.0
220
0.0
230
1.0
 70
     8
 71
     3
 72
     8
 73
     4
 74
     0
 42
0.0000000001
 43
0.0000000001
 40
0.0
 40
0.0
 40
0.0
 40
0.0
 40
1.0
 40
1.0
 40
1.0
 40
1.0
 10
301.7065182427014
 20
412.8790718071686
 30
0.0
 10
302.7686233339282
 20
412.8790718071686
 30
0.0
 10
303.6296296296296
 20
413.74007810287
 30
0.0
 10
303.6296296296296
 20
414.8021831940968
 30
0.0
  0
SPLINE
  5
2AD
330
70
100
AcDbEntity
  8
0
 62
     7
370
    20
100
AcDbSpline
210
0.0
220
0.0
230
1.0
 70
     8
 71
     3
 72
     8
 73
     4
 74
     0
 42
0.0000000001
 43
0.0000000001
 40
0.0
 40
0.0
 40
0.0
 40
0.0
 40
1.0
 40
1.0
 40
1.0
 40
1.0
 10
230.2610874990687
 20
687.123312193069
 30
0.0
 10
230.2497089812241
 20
687.1044528136226
 30
0.0
 10
230.2383561082279
 20
687.0855779736357
 30
0.0
 10
230.227028911555
 20
687.0666877254397
 30
0.0
  0
SPLINE
  5
2AE
330
70
100
AcDbEntity
  8
0
 62
     7
370
    20
100
AcDbSpline
210
0.0
220
0.0
230
1.0
 70
     8
 71
     3
 72
     8
 73
     4
 74
     0
 42
0.0000000001
 43
0.0000000001
 40
0.0
 40
0.0
 40
0.0
 40
0.0
 40
1.0
 40
1.0
 40
1.0
 40
1.0
 10
271.0361095165654
 20
687.0056582995411
 30
0.0
 10
271.0478396306517
 20
686.9870155721637
 30
0.0
 10
271.0595950843644
 20
686.9683888006538
 30
0.0
 10
271.0713758451147
 20
686.9497780366555
 30
0.0
  0
SPLINE
  5
2AF
330
70
100
AcDbEntity
  8
0
 62
     7
370
    20
100
AcDbSpline
210
0.0
220
0.0
230
1.0
 70
     8
 71
     3
 72
     8
 73
     4
 74
     0
 42
0.0000000001
 43
0.0000000001
 40
0.0
 40
0.0
 40
0.0
 40
0.0
 40
1.0
 40
1.0
 40
1.0
 40
1.0
 10
276.7979798691194
 20
674.4173582729745
 30
0.0
 10
277.2765313128811
 20
675.4374453936152
 30
0.0
 10
277.5831969848095
 20
676.5296119744225
 30
0.0
 10
277.7055797258408
 20
677.6497064716495
 30
0.0
  0
SPLINE
  5
2B0
330
70
100
AcDbEntity
  8
0
 62
     7
370
    20
100
AcDbSpline
210
0.0
220
0.0
230
1.0
 70
     8
 71
     3
 72
     8
 73
     4
 74
     0
 42
0.0000000001
 43
0.0000000001
 40
0.0
 40
0.0
 40
0.0
 40
0.0
 40
1.0
 40
1.0
 40
1.0
 40
1.0
 10
271.0713758451147
 20
686.9497780366091
 30
0.0
 10
271.1046139228502
 20
686.9653006725948
 30
0.0
 10
271.1376904317749
 20
686.9811669478795
 30
0.0
 10
271.1706000560544
 20
686.9973743125383
 30
0.0
  0
SPLINE
  5
2B1
330
70
100
AcDbEntity
  8
0
 62
     7
370
    20
100
AcDbSpline
210
0.0
220
0.0
230
1.0
 70
     8
 71
     3
 72
     8
 73
     4
 74
     0
 42
0.0000000001
 43
0.0000000001
 40
0.0
 40
0.0
 40
0.0
 40
0.0
 40
1.0
 40
1.0
 40
1.0
 40
1.0
 10
230.227028911575
 20
687.0666877254689
 30
0.0
 10
230.2558378745553
 20
687.0439772501022
 30
0.0
 10
230.2848811472495
 20
687.0215655914089
 30
0.0
 10
230.3141540620145
 20
686.9994563512445
 30
0.0
  0
SPLINE
  5
2B2
330
70
100
AcDbEntity
  8
0
 62
     7
370
    20
100
AcDbSpline
210
0.0
220
0.0
230
1.0
 70
     8
 71
     3
 72
     8
 73
     4
 74
     0
 42
0.0000000001
 43
0.0000000001
 40
0.0
 40
0.0
 40
0.0
 40
0.0
 40
1.0
 40
1.0
 40
1.0
 40
1.0
 10
270.6158952762999
 20
687.1647734256721
 30
0.0
 10
270.627626711027
 20
687.1402619880154
 30
0.0
 10
270.6396517090571
 20
687.1158921363394
 30
0.0
 10
270.651967675868
 20
687.0916691287156
 30
0.0
  0
SPLINE
  5
2B3
330
70
100
AcDbEntity
  8
0
 62
     7
370
    20
100
AcDbSpline
210
0.0
220
0.0
230
1.0
 70
     8
 71
     3
 72
     8
 73
     4
 74
     0
 42
0.0000000001
 43
0.0000000001
 40
0.0
 40
0.0
 40
0.0
 40
0.0
 40
1.0
 40
1.0
 40
1.0
 40
1.0
 10
230.2142887489035
 20
687.5701986530148
 30
0.0
 10
230.1976686980133
 20
687.5486995589599
 30
0.0
 10
230.1813071006245
 20
687.5270019005784
 30
0.0
 10
230.1652074869371
 20
687.5051103593841
 30
0.0
  0
SPLINE
  5
2B4
330
70
100
AcDbEntity
  8
0
 62
     7
370
    20
100
AcDbSpline
210
0.0
220
0.0
230
1.0
 70
     8
 71
     3
 72
     8
 73
     4
 74
     0
 42
0.0000000001
 43
0.0000000001
 40
0.0
 40
0.0
 40
0.0
 40
0.0
 40
1.0
 40
1.0
 40
1.0
 40
1.0
 10
253.1490203352951
 20
691.8807509565659
 30
0.0
 10
253.1132582402979
 20
691.8558248257059
 30
0.0
 10
253.0780032258108
 20
691.8301789499401
 30
0.0
 10
253.0432768592163
 20
691.8038290182249
 30
0.0
  0
SPLINE
  5
2B5
330
70
100
AcDbEntity
  8
0
 62
     7
370
    20
100
AcDbSpline
210
0.0
220
0.0
230
1.0
 70
     8
 71
     3
 72
     8
 73
     4
 74
     0
 42
0.0000000001
 43
0.0000000001
 40
0.0
 40
0.0
 40
0.0
 40
0.0
 40
1.0
 40
1.0
 40
1.0
 40
1.0
 10
258.9667066884977
 20
691.8038290182249
 30
0.0
 10
258.9319803219032
 20
691.8301789499401
 30
0.0
 10
258.8967253074161
 20
691.8558248257059
 30
0.0
 10
258.860963212418
 20
691.8807509565659
 30
0.0
  0
SPLINE
  5
2B6
330
70
100
AcDbEntity
  8
0
 62
     7
370
    20
100
AcDbSpline
210
0.0
220
0.0
230
1.0
 70
     8
 71
     3
 72
     8
 73
     4
 74
     0
 42
0.0000000001
 43
0.0000000001
 40
0.0
 40
0.0
 40
0.0
 40
0.0
 40
1.0
 40
1.0
 40
1.0
 40
1.0
 10
249.3470947475535
 20
691.8807509565659
 30
0.0
 10
249.3113326525563
 20
691.8558248257059
 30
0.0
 10
249.2760776380692
 20
691.8301789499401
 30
0.0
 10
249.2413512714747
 20
691.8038290182249
 30
0.0
  0
SPLINE
  5
2B7
330
70
100
AcDbEntity
  8
0
 62
     7
370
    20
100
AcDbSpline
210
0.0
220
0.0
230
1.0
 70
     8
 71
     3
 72
     8
 73
     4
 74
     0
 42
0.0000000001
 43
0.0000000001
 40
0.0
 40
0.0
 40
0.0
 40
0.0
 40
1.0
 40
1.0
 40
1.0
 40
1.0
 10
297.0910520454327
 20
686.2694917458666
 30
0.0
 10
297.2012194683994
 20
686.5232862300272
 30
0.0
 10
297.2730325783432
 20
686.7920528881486
 30
0.0
 10
297.3041350898575
 20
687.0669731221269
 30
0.0
  0
SPLINE
  5
2B8
330
70
100
AcDbEntity
  8
0
 62
     7
370
    20
100
AcDbSpline
210
0.0
220
0.0
230
1.0
 70
     8
 71
     3
 72
     8
 73
     4
 74
     0
 42
0.0000000001
 43
0.0000000001
 40
0.0
 40
0.0
 40
0.0
 40
0.0
 40
1.0
 40
1.0
 40
1.0
 40
1.0
 10
297.3041350898575
 20
687.6943986951646
 30
0.0
 10
297.2730325783432
 20
687.9693189291429
 30
0.0
 10
297.2012194683994
 20
688.2380855872643
 30
0.0
 10
297.0910520454327
 20
688.4918800714258
 30
0.0
  0
SPLINE
  5
2B9
330
70
100
AcDbEntity
  8
0
 62
     7
370
    20
100
AcDbSpline
210
0.0
220
0.0
230
1.0
 70
     8
 71
     3
 72
     8
 73
     4
 74
     0
 42
0.0000000001
 43
0.0000000001
 40
0.0
 40
0.0
 40
0.0
 40
0.0
 40
1.0
 40
1.0
 40
1.0
 40
1.0
 10
303.6296296296296
 20
610.9595446607463
 30
0.0
 10
303.6296296296296
 20
612.0216497519732
 30
0.0
 10
302.7686233339282
 20
612.8826560476746
 30
0.0
 10
301.7065182427014
 20
612.8826560476746
 30
0.0
  0
CIRCLE
  5
2BA
330
70
100
AcDbEntity
  8
0
 62
     7
370
    20
100
AcDbCircle
 10
270.9367360518939
 20
687.3806859086459
 30
0.0
 40
1.788493589881682
  0
CIRCLE
  5
2BB
330
70
100
AcDbEntity
  8
0
 62
     7
370
    20
100
AcDbCircle
 10
230.5513969264066
 20
687.3806859086459
 30
0.0
 40
1.788493589881568
  0
CIRCLE
  5
2BC
330
70
100
AcDbEntity
  8
0
 62
     7
370
    20
100
AcDbCircle
 10
270.9367360518936
 20
687.3806859086462
 30
0.0
 40
1.55772022345036
  0
CIRCLE
  5
2BD
330
70
100
AcDbEntity
  8
0
 62
     7
370
    20
100
AcDbCircle
 10
230.5513969264066
 20
687.3806859086462
 30
0.0
 40
1.557720223449905
  0
CIRCLE
  5
2BE
330
70
100
AcDbEntity
  8
0
 62
     7
370
    20
100
AcDbCircle
 10
270.9367360518931
 20
687.3806859086462
 30
0.0
 40
1.346177970849794
  0
CIRCLE
  5
2BF
330
70
100
AcDbEntity
  8
0
 62
     7
370
    20
100
AcDbCircle
 10
230.5513969264066
 20
687.3806859086462
 30
0.0
 40
1.346177970849566
  0
CIRCLE
  5
2C0
330
70
100
AcDbEntity
  8
0
 62
     7
370
    20
100
AcDbCircle
 10
190.1660578009196
 20
687.3806859086462
 30
0.0
 40
0.8654001241175135
  0
SPLINE
  5
2C1
330
70
100
AcDbEntity
  8
0
 62
     7
370
    20
100
AcDbSpline
210
0.0
220
0.0
230
1.0
 70
     8
 71
     3
 72
    11
 73
     7
 74
     0
 42
0.0000000001
 43
0.0000000001
 40
0.0
 40
0.0
 40
0.0
 40
0.0
 40
1.0
 40
1.0
 40
1.0
 40
2.0
 40
2.0
 40
2.0
 40
2.0
 10
296.1432791950665
 20
676.8080453125112
 30
0.0
 10
296.2885837292779
 20
676.4088243858223
 30
0.0
 10
296.7300088329494
 20
676.2029844794779
 30
0.0
 10
297.1292297596401
 20
676.3482890136883
 30
0.0
 10
297.3740049393664
 20
676.4373798931956
 30
0.0
 10
297.5570652742663
 20
676.6442919620994
 30
0.0
 10
297.6156614934335
 20
676.8981000717421
 30
0.0
  0
SPLINE
  5
2C2
330
70
100
AcDbEntity
  8
0
 62
     7
370
    20
100
AcDbSpline
210
0.0
220
0.0
230
1.0
 70
     8
 71
     3
 72
     8
 73
     4
 74
     0
 42
0.0000000001
 43
0.0000000001
 40
0.0
 40
0.0
 40
0.0
 40
0.0
 40
1.0
 40
1.0
 40
1.0
 40
1.0
 10
277.0906924900637
 20
683.5344631347898
 30
0.0
 10
277.515534526553
 20
683.5344631347898
 30
0.0
 10
277.8599370448346
 20
683.8788656530705
 30
0.0
 10
277.8599370448346
 20
684.3037076895616
 30
0.0
  0
SPLINE
  5
2C3
330
70
100
AcDbEntity
  8
0
 62
     7
370
    20
100
AcDbSpline
210
0.0
220
0.0
230
1.0
 70
     8
 71
     3
 72
    11
 73
     7
 74
     0
 42
0.0000000001
 43
0.0000000001
 40
0.0
 40
0.0
 40
0.0
 40
0.0
 40
1.0
 40
1.0
 40
1.0
 40
2.0
 40
2.0
 40
2.0
 40
2.0
 10
296.3601352245742
 20
676.8869744523745
 30
0.0
 10
296.4618483985232
 20
676.6075198036905
 30
0.0
 10
296.7708459710939
 20
676.4634318692497
 30
0.0
 10
297.0503006197769
 20
676.5651450431978
 30
0.0
 10
297.2216432455852
 20
676.627508658853
 30
0.0
 10
297.3497854800153
 20
676.7723471070858
 30
0.0
 10
297.3908028334335
 20
676.9500127838355
 30
0.0
  0
SPLINE
  5
2C4
330
70
100
AcDbEntity
  8
0
 62
     7
370
    20
100
AcDbSpline
210
0.0
220
0.0
230
1.0
 70
     8
 71
     3
 72
     8
 73
     4
 74
     0
 42
0.0000000001
 43
0.0000000001
 40
0.0
 40
0.0
 40
0.0
 40
0.0
 40
1.0
 40
1.0
 40
1.0
 40
1.0
 10
270.6312954489113
 20
687.1428353656783
 30
0.0
 10
270.6418872203085
 20
687.128712334631
 30
0.0
 10
270.6534242941061
 20
687.115323632037
 30
0.0
 10
270.6658273103812
 20
687.102761354593
 30
0.0
  0
SPLINE
  5
2C5
330
70
100
AcDbEntity
  8
0
 62
     7
370
    20
100
AcDbSpline
210
0.0
220
0.0
230
1.0
 70
     8
 71
     3
 72
     8
 73
     4
 74
     0
 42
0.0000000001
 43
0.0000000001
 40
0.0
 40
0.0
 40
0.0
 40
0.0
 40
1.0
 40
1.0
 40
1.0
 40
1.0
 10
230.2016167657157
 20
687.5465794947867
 30
0.0
 10
230.1937635989916
 20
687.5307689476812
 30
0.0
 10
230.1869913607888
 20
687.5144441745224
 30
0.0
 10
230.1813466352141
 20
687.4977174683153
 30
0.0
  0
SPLINE
  5
2C6
330
70
100
AcDbEntity
  8
0
 62
     7
370
    20
100
AcDbSpline
210
0.0
220
0.0
230
1.0
 70
     8
 71
     3
 72
     8
 73
     4
 74
     0
 42
0.0000000001
 43
0.0000000001
 40
0.0
 40
0.0
 40
0.0
 40
0.0
 40
1.0
 40
1.0
 40
1.0
 40
1.0
 10
270.6158952761807
 20
687.1647734255912
 30
0.0
 10
270.6207606886855
 20
687.1572762408141
 30
0.0
 10
270.6258974827942
 20
687.1499587062108
 30
0.0
 10
270.6312954489113
 20
687.1428353656865
 30
0.0
  0
SPLINE
  5
2C7
330
70
100
AcDbEntity
  8
0
 62
     7
370
    20
100
AcDbSpline
210
0.0
220
0.0
230
1.0
 70
     8
 71
     3
 72
     8
 73
     4
 74
     0
 42
0.0000000001
 43
0.0000000001
 40
0.0
 40
0.0
 40
0.0
 40
0.0
 40
1.0
 40
1.0
 40
1.0
 40
1.0
 10
230.2142887487999
 20
687.5701986530566
 30
0.0
 10
230.2097794731789
 20
687.5624820183102
 30
0.0
 10
230.2055526785043
 20
687.5546037460908
 30
0.0
 10
230.2016167657084
 20
687.5465794947922
 30
0.0
  0
LINE
  5
2C8
330
70
100
AcDbEntity
  8
0
 62
     7
370
     5
100
AcDbLine
 10
287.7213405133771
 20
421.3505358666171
 30
0.0
 11
287.8485232800649
 21
422.3196846877327
 31
0.0
  0
LINE
  5
2C9
330
70
100
AcDbEntity
  8
0
 62
     7
370
     5
100
AcDbLine
 10
125.0896137684176
 20
531.3760445725911
 30
0.0
 11
125.0238031069939
 21
531.3177808387608
 31
0.0
  0
LINE
  5
2CA
330
70
100
AcDbEntity
  8
0
 62
     7
370
     5
100
AcDbLine
 10
128.9301809124572
 20
431.3200387617034
 30
0.0
 11
128.8641873624492
 21
431.2616130951255
 31
0.0
  0
LINE
  5
2CB
330
70
100
AcDbEntity
  8
0
 62
     7
370
     5
100
AcDbLine
 10
252.2050149111719
 20
523.6617804312936
 30
0.0
 11
252.1390213611639
 21
523.6033547647157
 31
0.0
  0
LINE
  5
2CC
330
70
100
AcDbEntity
  8
0
 62
     7
370
     5
100
AcDbLine
 10
255.9259177151844
 20
431.1931581842763
 30
0.0
 11
255.8601070537979
 21
431.1348944504088
 31
0.0
  0
SPLINE
  5
2CD
330
70
100
AcDbEntity
  8
0
 62
     7
370
     5
100
AcDbSpline
210
0.0
220
0.0
230
1.0
 70
     8
 71
     3
 72
     8
 73
     4
 74
     0
 42
0.0000000001
 43
0.0000000001
 40
0.0
 40
0.0
 40
0.0
 40
0.0
 40
1.0
 40
1.0
 40
1.0
 40
1.0
 10
285.6515073224873
 20
421.9222237458061
 30
0.0
 10
285.7926177111176
 20
421.9907889485157
 30
0.0
 10
285.8903125819725
 20
422.1299082113501
 30
0.0
 10
285.8903125819725
 20
422.3119094217399
 30
0.0
  0
SPLINE
  5
2CE
330
70
100
AcDbEntity
  8
0
 62
     7
370
    20
100
AcDbSpline
210
0.0
220
0.0
230
1.0
 70
     8
 71
     3
 72
    11
 73
     7
 74
     0
 42
0.0000000001
 43
0.0000000001
 40
0.0
 40
0.0
 40
0.0
 40
0.0
 40
1.0
 40
1.0
 40
1.0
 40
2.0
 40
2.0
 40
2.0
 40
2.0
 10
270.6158952760679
 20
687.1647734254966
 30
0.0
 10
270.6217626762154
 20
687.1556245089632
 30
0.0
 10
270.6279985157598
 20
687.1467303278841
 30
0.0
 10
270.6345750056125
 20
687.138145513084
 30
0.0
 10
270.6447955539588
 20
687.1248038191615
 30
0.0
 10
270.6558388541598
 20
687.1122093186932
 30
0.0
 10
270.6676000108537
 20
687.1005666517003
 30
0.0
  0
SPLINE
  5
2CF
330
70
100
AcDbEntity
  8
0
 62
     7
370
    20
100
AcDbSpline
210
0.0
220
0.0
230
1.0
 70
     8
 71
     3
 72
    11
 73
     7
 74
     0
 42
0.0000000001
 43
0.0000000001
 40
0.0
 40
0.0
 40
0.0
 40
0.0
 40
1.0
 40
1.0
 40
1.0
 40
2.0
 40
2.0
 40
2.0
 40
2.0
 10
271.0361095087528
 20
687.0056582938214
 30
0.0
 10
271.036529833018
 20
687.0057771605279
 30
0.0
 10
271.0369497187794
 20
687.0058969606262
 30
0.0
 10
271.0373691601535
 20
687.0060176953548
 30
0.0
 10
271.072632135506
 20
687.016168019204
 30
0.0
 10
271.1047541830803
 20
687.0329242990664
 30
0.0
 10
271.137059066552
 20
687.0523492124475
 30
0.0
  0
LINE
  5
2D0
330
70
100
AcDbEntity
  8
0
 62
     7
370
    20
100
AcDbLine
 10
270.665827310394
 20
687.1027613546084
 30
0.0
 11
270.6676000020452
 21
687.1005666602777
 31
0.0
  0
SPLINE
  5
2D1
330
70
100
AcDbEntity
  8
0
 62
     7
370
    20
100
AcDbSpline
210
0.0
220
0.0
230
1.0
 70
     8
 71
     3
 72
    11
 73
     7
 74
     0
 42
0.0000000001
 43
0.0000000001
 40
0.0
 40
0.0
 40
0.0
 40
0.0
 40
1.0
 40
1.0
 40
1.0
 40
2.0
 40
2.0
 40
2.0
 40
2.0
 10
109.0662068528045
 20
687.177702315078
 30
0.0
 10
109.0717058088894
 20
687.1683273195694
 30
0.0
 10
109.0775830423954
 20
687.1591922072057
 30
0.0
 10
109.0838129586282
 20
687.1503526705946
 30
0.0
 10
109.0934948955682
 20
687.1366151125175
 30
0.0
 10
109.1040286455272
 20
687.1235914404787
 30
0.0
 10
109.1153175335648
 20
687.1114903038078
 30
0.0
  0
SPLINE
  5
2D2
330
70
100
AcDbEntity
  8
0
 62
     7
370
    20
100
AcDbSpline
210
0.0
220
0.0
230
1.0
 70
     8
 71
     3
 72
    11
 73
     7
 74
     0
 42
0.0000000001
 43
0.0000000001
 40
0.0
 40
0.0
 40
0.0
 40
0.0
 40
1.0
 40
1.0
 40
1.0
 40
2.0
 40
2.0
 40
2.0
 40
2.0
 10
109.479761570723
 20
687.0020033630135
 30
0.0
 10
109.4801862892573
 20
687.0021054216494
 30
0.0
 10
109.480610606729
 20
687.0022084303873
 30
0.0
 10
109.4810345173291
 20
687.0023123906885
 30
0.0
 10
109.5166732262341
 20
687.0110524667689
 30
0.0
 10
109.5494361751607
 20
687.0265181718787
 30
0.0
 10
109.5824879325546
 20
687.0446431295022
 30
0.0
  0
LINE
  5
2D3
330
70
100
AcDbEntity
  8
0
 62
     7
370
    20
100
AcDbLine
 10
109.1136335067321
 20
687.1137537616405
 30
0.0
 11
109.1153175251029
 21
687.1114903127318
 31
0.0
  0
SPLINE
  5
2D4
330
70
100
AcDbEntity
  8
0
 62
     7
370
    20
100
AcDbSpline
210
0.0
220
0.0
230
1.0
 70
     8
 71
     3
 72
    11
 73
     7
 74
     0
 42
0.0000000001
 43
0.0000000001
 40
0.0
 40
0.0
 40
0.0
 40
0.0
 40
1.0
 40
1.0
 40
1.0
 40
2.0
 40
2.0
 40
2.0
 40
2.0
 10
149.8094674337899
 20
687.7663418598258
 30
0.0
 10
149.798649284342
 20
687.7673890948999
 30
0.0
 10
149.7878034577779
 20
687.7679892598207
 30
0.0
 10
149.7769900706344
 20
687.7681304064308
 30
0.0
 10
149.7601849438042
 20
687.7683497629241
 30
0.0
 10
149.7434581659226
 20
687.7674604805642
 30
0.0
 10
149.7270354213051
 20
687.7654184324692
 30
0.0
  0
SPLINE
  5
2D5
330
70
100
AcDbEntity
  8
0
 62
     7
370
    20
100
AcDbSpline
210
0.0
220
0.0
230
1.0
 70
     8
 71
     3
 72
    11
 73
     7
 74
     0
 42
0.0000000001
 43
0.0000000001
 40
0.0
 40
0.0
 40
0.0
 40
0.0
 40
1.0
 40
1.0
 40
1.0
 40
2.0
 40
2.0
 40
2.0
 40
2.0
 10
149.4245530200151
 20
687.5345261559832
 30
0.0
 10
149.4243864850687
 20
687.5341223393234
 30
0.0
 10
149.4242209547892
 20
687.5337182900157
 30
0.0
 10
149.4240564338015
 20
687.533314011911
 30
0.0
 10
149.410224942907
 20
687.4993258321628
 30
0.0
 10
149.4035271036737
 20
687.4637205262761
 30
0.0
 10
149.3988132940831
 20
687.4263211578927
 30
0.0
  0
LINE
  5
2D6
330
70
100
AcDbEntity
  8
0
 62
     7
370
    20
100
AcDbLine
 10
149.7298563978975
 20
687.7654541930324
 30
0.0
 11
149.7270354334587
 21
687.7654184340845
 31
0.0
  0
SPLINE
  5
2D7
330
70
100
AcDbEntity
  8
0
 62
     7
370
    20
100
AcDbSpline
210
0.0
220
0.0
230
1.0
 70
     8
 71
     3
 72
    11
 73
     7
 74
     0
 42
0.0000000001
 43
0.0000000001
 40
0.0
 40
0.0
 40
0.0
 40
0.0
 40
1.0
 40
1.0
 40
1.0
 40
2.0
 40
2.0
 40
2.0
 40
2.0
 10
230.214288748708
 20
687.5701986531121
 30
0.0
 10
230.2087545787226
 20
687.5608444015906
 30
0.0
 10
230.2036135949584
 20
687.5512755752516
 30
0.0
 10
230.1989021016434
 20
687.5415415578664
 30
0.0
 10
230.1915799516383
 20
687.5264138837565
 30
0.0
 10
230.185295123656
 20
687.5108872338151
 30
0.0
 10
230.1801832486608
 20
687.4951473088949
 30
0.0
  0
SPLINE
  5
2D8
330
70
100
AcDbEntity
  8
0
 62
     7
370
    20
100
AcDbSpline
210
0.0
220
0.0
230
1.0
 70
     8
 71
     3
 72
    11
 73
     7
 74
     0
 42
0.0000000001
 43
0.0000000001
 40
0.0
 40
0.0
 40
0.0
 40
0.0
 40
1.0
 40
1.0
 40
1.0
 40
2.0
 40
2.0
 40
2.0
 40
2.0
 10
230.2610874904594
 20
687.1233121974746
 30
0.0
 10
230.261382641288
 20
687.1229901915885
 30
0.0
 10
230.2616784286911
 20
687.1226689970544
 30
0.0
 10
230.2619748511452
 20
687.1223486196677
 30
0.0
 10
230.2868954677288
 20
687.0954140810153
 30
0.0
 10
230.3163046022683
 20
687.0742551192897
 30
0.0
 10
230.3481796507276
 20
687.0541326432548
 30
0.0
  0
LINE
  5
2D9
330
70
100
AcDbEntity
  8
0
 62
     7
370
    20
100
AcDbLine
 10
230.1813466352414
 20
687.497717468339
 30
0.0
 11
230.1801832523543
 21
687.4951473206265
 31
0.0
  0
SPLINE
  5
2DA
330
70
100
AcDbEntity
  8
0
 62
     7
370
    20
100
AcDbSpline
210
0.0
220
0.0
230
1.0
 70
     8
 71
     3
 72
     8
 73
     4
 74
     0
 42
0.0000000001
 43
0.0000000001
 40
0.0
 40
0.0
 40
0.0
 40
0.0
 40
1.0
 40
1.0
 40
1.0
 40
1.0
 10
270.7109796252644
 20
688.1032079733304
 30
0.0
 10
270.6052800303205
 20
688.0417096544451
 30
0.0
 10
270.5005691478937
 20
687.9778240154664
 30
0.0
 10
270.3975288213978
 20
687.9119670590207
 30
0.0
  0
SPLINE
  5
2DB
330
70
100
AcDbEntity
  8
0
 62
     7
370
    20
100
AcDbSpline
210
0.0
220
0.0
230
1.0
 70
     8
 71
     3
 72
     8
 73
     4
 74
     0
 42
0.0000000001
 43
0.0000000001
 40
0.0
 40
0.0
 40
0.0
 40
0.0
 40
1.0
 40
1.0
 40
1.0
 40
1.0
 10
271.0003786336656
 20
687.6435114787819
 30
0.0
 10
270.9038412785403
 20
687.799728466196
 30
0.0
 10
270.8069026980302
 20
687.9537107687565
 30
0.0
 10
270.7109796253153
 20
688.1032079735214
 30
0.0
  0
SPLINE
  5
2DC
330
70
100
AcDbEntity
  8
0
 62
     7
370
    20
100
AcDbSpline
210
0.0
220
0.0
230
1.0
 70
     8
 71
     3
 72
     8
 73
     4
 74
     0
 42
0.0000000001
 43
0.0000000001
 40
0.0
 40
0.0
 40
0.0
 40
0.0
 40
1.0
 40
1.0
 40
1.0
 40
1.0
 10
271.4680172022745
 20
687.9198931392056
 30
0.0
 10
271.3143293990133
 20
687.8308386096151
 30
0.0
 10
271.157686778447
 20
687.7382603869318
 30
0.0
 10
271.0003786334019
 20
687.6435114787891
 30
0.0
  0
SPLINE
  5
2DD
330
70
100
AcDbEntity
  8
0
 62
     7
370
    20
100
AcDbSpline
210
0.0
220
0.0
230
1.0
 70
     8
 71
     3
 72
     8
 73
     4
 74
     0
 42
0.0000000001
 43
0.0000000001
 40
0.0
 40
0.0
 40
0.0
 40
0.0
 40
1.0
 40
1.0
 40
1.0
 40
1.0
 10
271.6592581165796
 20
687.6064423352763
 30
0.0
 10
271.5977597976935
 20
687.7121419302202
 30
0.0
 10
271.5338741587148
 20
687.8168528126452
 30
0.0
 10
271.4680172022681
 20
687.919893139142
 30
0.0
  0
SPLINE
  5
2DE
330
70
100
AcDbEntity
  8
0
 62
     7
370
    20
100
AcDbSpline
210
0.0
220
0.0
230
1.0
 70
     8
 71
     3
 72
     8
 73
     4
 74
     0
 42
0.0000000001
 43
0.0000000001
 40
0.0
 40
0.0
 40
0.0
 40
0.0
 40
1.0
 40
1.0
 40
1.0
 40
1.0
 10
271.1995616220302
 20
687.3170433268732
 30
0.0
 10
271.3557786094452
 20
687.4135806820004
 30
0.0
 10
271.5097609120057
 20
687.5105192625087
 30
0.0
 10
271.6592581167688
 20
687.6064423352245
 30
0.0
  0
SPLINE
  5
2DF
330
70
100
AcDbEntity
  8
0
 62
     7
370
    20
100
AcDbSpline
210
0.0
220
0.0
230
1.0
 70
     8
 71
     3
 72
     8
 73
     4
 74
     0
 42
0.0000000001
 43
0.0000000001
 40
0.0
 40
0.0
 40
0.0
 40
0.0
 40
1.0
 40
1.0
 40
1.0
 40
1.0
 10
271.475943282454
 20
686.8494047582252
 30
0.0
 10
271.3868887528633
 20
687.0030925614883
 30
0.0
 10
271.2943105301793
 20
687.1597351820546
 30
0.0
 10
271.1995616220365
 20
687.3170433270997
 30
0.0
  0
SPLINE
  5
2E0
330
70
100
AcDbEntity
  8
0
 62
     7
370
    20
100
AcDbSpline
210
0.0
220
0.0
230
1.0
 70
     8
 71
     3
 72
     8
 73
     4
 74
     0
 42
0.0000000001
 43
0.0000000001
 40
0.0
 40
0.0
 40
0.0
 40
0.0
 40
1.0
 40
1.0
 40
1.0
 40
1.0
 10
271.1624924784855
 20
686.6581638439229
 30
0.0
 10
271.2681920734285
 20
686.7196621628082
 30
0.0
 10
271.3729029558554
 20
686.7835478017869
 30
0.0
 10
271.4759432823512
 20
686.8494047582335
 30
0.0
  0
SPLINE
  5
2E1
330
70
100
AcDbEntity
  8
0
 62
     7
370
    20
100
AcDbSpline
210
0.0
220
0.0
230
1.0
 70
     8
 71
     3
 72
     8
 73
     4
 74
     0
 42
0.0000000001
 43
0.0000000001
 40
0.0
 40
0.0
 40
0.0
 40
0.0
 40
1.0
 40
1.0
 40
1.0
 40
1.0
 10
270.8730934701216
 20
687.1178603385097
 30
0.0
 10
270.9696308252478
 20
686.9616433510964
 30
0.0
 10
271.0665694057571
 20
686.807661048535
 30
0.0
 10
271.1624924784728
 20
686.65816384377
 30
0.0
  0
SPLINE
  5
2E2
330
70
100
AcDbEntity
  8
0
 62
     7
370
    20
100
AcDbSpline
210
0.0
220
0.0
230
1.0
 70
     8
 71
     3
 72
     8
 73
     4
 74
     0
 42
0.0000000001
 43
0.0000000001
 40
0.0
 40
0.0
 40
0.0
 40
0.0
 40
1.0
 40
1.0
 40
1.0
 40
1.0
 10
270.4054549014745
 20
686.8414786780858
 30
0.0
 10
270.5591427047357
 20
686.9305332076764
 30
0.0
 10
270.7157853253029
 20
687.0231114303597
 30
0.0
 10
270.8730934703481
 20
687.1178603385033
 30
0.0
  0
SPLINE
  5
2E3
330
70
100
AcDbEntity
  8
0
 62
     7
370
    20
100
AcDbSpline
210
0.0
220
0.0
230
1.0
 70
     8
 71
     3
 72
     8
 73
     4
 74
     0
 42
0.0000000001
 43
0.0000000001
 40
0.0
 40
0.0
 40
0.0
 40
0.0
 40
1.0
 40
1.0
 40
1.0
 40
1.0
 10
270.2142139871703
 20
687.1549294820152
 30
0.0
 10
270.2757123060556
 20
687.0492298870722
 30
0.0
 10
270.3395979450352
 20
686.9445190046462
 30
0.0
 10
270.4054549014809
 20
686.8414786781504
 30
0.0
  0
SPLINE
  5
2E4
330
70
100
AcDbEntity
  8
0
 62
     7
370
    20
100
AcDbSpline
210
0.0
220
0.0
230
1.0
 70
     8
 71
     3
 72
     8
 73
     4
 74
     0
 42
0.0000000001
 43
0.0000000001
 40
0.0
 40
0.0
 40
0.0
 40
0.0
 40
1.0
 40
1.0
 40
1.0
 40
1.0
 10
270.6739104817188
 20
687.4443284904191
 30
0.0
 10
270.5176934943038
 20
687.3477911352911
 30
0.0
 10
270.3637111917442
 20
687.2508525547828
 30
0.0
 10
270.2142139869802
 20
687.154929482067
 30
0.0
  0
SPLINE
  5
2E5
330
70
100
AcDbEntity
  8
0
 62
     7
370
    20
100
AcDbSpline
210
0.0
220
0.0
230
1.0
 70
     8
 71
     3
 72
     8
 73
     4
 74
     0
 42
0.0000000001
 43
0.0000000001
 40
0.0
 40
0.0
 40
0.0
 40
0.0
 40
1.0
 40
1.0
 40
1.0
 40
1.0
 10
270.3975288213342
 20
687.9119670590662
 30
0.0
 10
270.4865833509239
 20
687.7582792558041
 30
0.0
 10
270.5791615736079
 20
687.6016366352368
 30
0.0
 10
270.6739104817507
 20
687.4443284901917
 30
0.0
  0
SPLINE
  5
2E6
330
70
100
AcDbEntity
  8
0
 62
     7
370
    20
100
AcDbSpline
210
0.0
220
0.0
230
1.0
 70
     8
 71
     3
 72
     8
 73
     4
 74
     0
 42
0.0000000001
 43
0.0000000001
 40
0.0
 40
0.0
 40
0.0
 40
0.0
 40
1.0
 40
1.0
 40
1.0
 40
1.0
 10
297.2228736972283
 20
686.644152585377
 30
0.0
 10
297.2233368103207
 20
686.6458454823733
 30
0.0
 10
297.2214436183913
 20
686.6483233916688
 30
0.0
 10
297.2171979156856
 20
686.6515813471469
 30
0.0
  0
SPLINE
  5
2E7
330
70
100
AcDbEntity
  8
0
 62
     7
370
    20
100
AcDbSpline
210
0.0
220
0.0
230
1.0
 70
     8
 71
     3
 72
     8
 73
     4
 74
     0
 42
0.0000000001
 43
0.0000000001
 40
0.0
 40
0.0
 40
0.0
 40
0.0
 40
1.0
 40
1.0
 40
1.0
 40
1.0
 10
297.217197915741
 20
686.6515813470495
 30
0.0
 10
297.2654738726269
 20
686.8292045365051
 30
0.0
 10
297.296120902507
 20
687.0111438181575
 30
0.0
 10
297.3086911066884
 20
687.1947401947882
 30
0.0
  0
SPLINE
  5
2E8
330
70
100
AcDbEntity
  8
0
 62
     7
370
    20
100
AcDbSpline
210
0.0
220
0.0
230
1.0
 70
     8
 71
     3
 72
     8
 73
     4
 74
     0
 42
0.0000000001
 43
0.0000000001
 40
0.0
 40
0.0
 40
0.0
 40
0.0
 40
1.0
 40
1.0
 40
1.0
 40
1.0
 10
297.3086911066548
 20
687.1947401948018
 30
0.0
 10
297.2961209024861
 20
687.2007814249464
 30
0.0
 10
297.2654738726141
 20
687.2082823030041
 30
0.0
 10
297.2171979157365
 20
687.2171332055168
 30
0.0
  0
SPLINE
  5
2E9
330
70
100
AcDbEntity
  8
0
 62
     7
370
    20
100
AcDbSpline
210
0.0
220
0.0
230
1.0
 70
     8
 71
     3
 72
     8
 73
     4
 74
     0
 42
0.0000000001
 43
0.0000000001
 40
0.0
 40
0.0
 40
0.0
 40
0.0
 40
1.0
 40
1.0
 40
1.0
 40
1.0
 10
297.2171979156647
 20
687.2171332056368
 30
0.0
 10
297.2248566503895
 20
687.3394191411807
 30
0.0
 10
297.2248566503877
 20
687.4620348655371
 30
0.0
 10
297.2171979156538
 20
687.5841819447523
 30
0.0
  0
SPLINE
  5
2EA
330
70
100
AcDbEntity
  8
0
 62
     7
370
    20
100
AcDbSpline
210
0.0
220
0.0
230
1.0
 70
     8
 71
     3
 72
     8
 73
     4
 74
     0
 42
0.0000000001
 43
0.0000000001
 40
0.0
 40
0.0
 40
0.0
 40
0.0
 40
1.0
 40
1.0
 40
1.0
 40
1.0
 10
297.3086911066393
 20
687.5770321589397
 30
0.0
 10
297.2961209024597
 20
687.5809791299452
 30
0.0
 10
297.2654738725996
 20
687.5833740589305
 30
0.0
 10
297.217197915752
 20
687.5841819446068
 30
0.0
  0
SPLINE
  5
2EB
330
70
100
AcDbEntity
  8
0
 62
     7
370
    20
100
AcDbSpline
210
0.0
220
0.0
230
1.0
 70
     8
 71
     3
 72
     8
 73
     4
 74
     0
 42
0.0000000001
 43
0.0000000001
 40
0.0
 40
0.0
 40
0.0
 40
0.0
 40
1.0
 40
1.0
 40
1.0
 40
1.0
 10
297.308691106693
 20
687.5770321588179
 30
0.0
 10
297.2961209025198
 20
687.7605715595755
 30
0.0
 10
297.2654738726442
 20
687.9423719300976
 30
0.0
 10
297.2171979157647
 20
688.1197763033169
 30
0.0
  0
SPLINE
  5
2EC
330
70
100
AcDbEntity
  8
0
 62
     7
370
    20
100
AcDbSpline
210
0.0
220
0.0
230
1.0
 70
     8
 71
     3
 72
     8
 73
     4
 74
     0
 42
0.0000000001
 43
0.0000000001
 40
0.0
 40
0.0
 40
0.0
 40
0.0
 40
1.0
 40
1.0
 40
1.0
 40
1.0
 10
297.2171979156874
 20
688.1097904701464
 30
0.0
 10
297.2248566504149
 20
688.1156674282156
 30
0.0
 10
297.2248566504149
 20
688.1190032799495
 30
0.0
 10
297.2171979156856
 20
688.1197763033597
 30
0.0
  0
SPLINE
  5
2ED
330
70
100
AcDbEntity
  8
0
 62
     7
370
    20
100
AcDbSpline
210
0.0
220
0.0
230
1.0
 70
     8
 71
     3
 72
     8
 73
     4
 74
     0
 42
0.0000000001
 43
0.0000000001
 40
0.0
 40
0.0
 40
0.0
 40
0.0
 40
1.0
 40
1.0
 40
1.0
 40
1.0
 10
297.2171979157456
 20
687.5442386117765
 30
0.0
 10
297.265473872595
 20
687.5530895142837
 30
0.0
 10
297.2961209024579
 20
687.5605903923387
 30
0.0
 10
297.3086911066393
 20
687.5666316224815
 30
0.0
  0
SPLINE
  5
2EE
330
70
100
AcDbEntity
  8
0
 62
     7
370
    20
100
AcDbSpline
210
0.0
220
0.0
230
1.0
 70
     8
 71
     3
 72
     8
 73
     4
 74
     0
 42
0.0000000001
 43
0.0000000001
 40
0.0
 40
0.0
 40
0.0
 40
0.0
 40
1.0
 40
1.0
 40
1.0
 40
1.0
 10
297.2171979156556
 20
687.1771898725683
 30
0.0
 10
297.2207323710108
 20
687.2335599406633
 30
0.0
 10
297.2226366538807
 20
687.2900450834658
 30
0.0
 10
297.2229081188252
 20
687.3465668315402
 30
0.0
  0
SPLINE
  5
2EF
330
70
100
AcDbEntity
  8
0
 62
     7
370
    20
100
AcDbSpline
210
0.0
220
0.0
230
1.0
 70
     8
 71
     3
 72
     8
 73
     4
 74
     0
 42
0.0000000001
 43
0.0000000001
 40
0.0
 40
0.0
 40
0.0
 40
0.0
 40
1.0
 40
1.0
 40
1.0
 40
1.0
 10
297.2171979157711
 20
686.6415955140028
 30
0.0
 10
297.2654738726506
 20
686.8189998872231
 30
0.0
 10
297.2961209025243
 20
687.0008002577451
 30
0.0
 10
297.3086911066948
 20
687.1843396585027
 30
0.0
  0
SPLINE
  5
2F0
330
70
100
AcDbEntity
  8
0
 62
     7
370
    20
100
AcDbSpline
210
0.0
220
0.0
230
1.0
 70
     8
 71
     3
 72
     8
 73
     4
 74
     0
 42
0.0000000001
 43
0.0000000001
 40
0.0
 40
0.0
 40
0.0
 40
0.0
 40
1.0
 40
1.0
 40
1.0
 40
1.0
 10
297.3086911066521
 20
687.3126871751792
 30
0.0
 10
297.3056616569966
 20
687.3353244448581
 30
0.0
 10
297.3015808991968
 20
687.3579973387259
 30
0.0
 10
297.296452313195
 20
687.3806865220313
 30
0.0
  0
SPLINE
  5
2F1
330
70
100
AcDbEntity
  8
0
 62
     7
370
    20
100
AcDbSpline
210
0.0
220
0.0
230
1.0
 70
     8
 71
     3
 72
     8
 73
     4
 74
     0
 42
0.0000000001
 43
0.0000000001
 40
0.0
 40
0.0
 40
0.0
 40
0.0
 40
1.0
 40
1.0
 40
1.0
 40
1.0
 10
297.296635259273
 20
687.1992997313318
 30
0.0
 10
297.3016780405878
 20
687.2370516355295
 30
0.0
 10
297.3056977719316
 20
687.2748579421795
 30
0.0
 10
297.3086911066184
 20
687.3126871751101
 30
0.0
  0
SPLINE
  5
2F2
330
70
100
AcDbEntity
  8
0
 62
     7
370
    20
100
AcDbSpline
210
0.0
220
0.0
230
1.0
 70
     8
 71
     3
 72
     8
 73
     4
 74
     0
 42
0.0000000001
 43
0.0000000001
 40
0.0
 40
0.0
 40
0.0
 40
0.0
 40
1.0
 40
1.0
 40
1.0
 40
1.0
 10
297.2964523131632
 20
687.0052331973757
 30
0.0
 10
297.3015808991649
 20
687.04300611299
 30
0.0
 10
297.3056616569666
 20
687.080923673473
 30
0.0
 10
297.3086911066221
 20
687.1189535438871
 30
0.0
  0
SPLINE
  5
2F3
330
70
100
AcDbEntity
  8
0
 62
     7
370
    20
100
AcDbSpline
210
0.0
220
0.0
230
1.0
 70
     8
 71
     3
 72
     8
 73
     4
 74
     0
 42
0.0000000001
 43
0.0000000001
 40
0.0
 40
0.0
 40
0.0
 40
0.0
 40
1.0
 40
1.0
 40
1.0
 40
1.0
 10
297.2941704716932
 20
687.043233432456
 30
0.0
 10
297.3003831137539
 20
687.0683029706561
 30
0.0
 10
297.30522512686
 20
687.0935524017823
 30
0.0
 10
297.3086911066566
 20
687.1189535439753
 30
0.0
  0
SPLINE
  5
2F4
330
70
100
AcDbEntity
  8
0
 62
     7
370
    20
100
AcDbSpline
210
0.0
220
0.0
230
1.0
 70
     8
 71
     3
 72
     8
 73
     4
 74
     0
 42
0.0000000001
 43
0.0000000001
 40
0.0
 40
0.0
 40
0.0
 40
0.0
 40
1.0
 40
1.0
 40
1.0
 40
1.0
 10
297.2394818541334
 20
687.2129002523307
 30
0.0
 10
297.2750329606015
 20
687.2912900311384
 30
0.0
 10
297.2981816536885
 20
687.3701537708193
 30
0.0
 10
297.3086911066548
 20
687.4486846421278
 30
0.0
  0
SPLINE
  5
2F5
330
70
100
AcDbEntity
  8
0
 62
     7
370
    20
100
AcDbSpline
210
0.0
220
0.0
230
1.0
 70
     8
 71
     3
 72
     8
 73
     4
 74
     0
 42
0.0000000001
 43
0.0000000001
 40
0.0
 40
0.0
 40
0.0
 40
0.0
 40
1.0
 40
1.0
 40
1.0
 40
1.0
 10
297.3086911066357
 20
687.448684641965
 30
0.0
 10
297.3056977719443
 20
687.4865138749765
 30
0.0
 10
297.301678040596
 20
687.5243201817056
 30
0.0
 10
297.2966352592684
 20
687.5620720859851
 30
0.0
  0
SPLINE
  5
2F6
330
70
100
AcDbEntity
  8
0
 62
     7
370
    20
100
AcDbSpline
210
0.0
220
0.0
230
1.0
 70
     8
 71
     3
 72
     8
 73
     4
 74
     0
 42
0.0000000001
 43
0.0000000001
 40
0.0
 40
0.0
 40
0.0
 40
0.0
 40
1.0
 40
1.0
 40
1.0
 40
1.0
 10
297.3086911066202
 20
687.6424182734299
 30
0.0
 10
297.2981816536421
 20
687.7743475609941
 30
0.0
 10
297.2750329605251
 20
687.9047642118976
 30
0.0
 10
297.2394818540161
 20
688.0323339758397
 30
0.0
  0
SPLINE
  5
2F7
330
70
100
AcDbEntity
  8
0
 62
     7
370
    20
100
AcDbSpline
210
0.0
220
0.0
230
1.0
 70
     8
 71
     3
 72
     8
 73
     4
 74
     0
 42
0.0000000001
 43
0.0000000001
 40
0.0
 40
0.0
 40
0.0
 40
0.0
 40
1.0
 40
1.0
 40
1.0
 40
1.0
 10
109.1985325115447
 20
688.1116136353312
 30
0.0
 10
109.0904710585164
 20
688.0543670636743
 30
0.0
 10
108.9833026050774
 20
687.9946957443189
 30
0.0
 10
108.8777249975464
 20
687.9329882376023
 30
0.0
  0
SPLINE
  5
2F8
330
70
100
AcDbEntity
  8
0
 62
     7
370
    20
100
AcDbSpline
210
0.0
220
0.0
230
1.0
 70
     8
 71
     3
 72
     8
 73
     4
 74
     0
 42
0.0000000001
 43
0.0000000001
 40
0.0
 40
0.0
 40
0.0
 40
0.0
 40
1.0
 40
1.0
 40
1.0
 40
1.0
 10
109.469422959939
 20
687.6407728786662
 30
0.0
 10
109.3791738713807
 20
687.8007050833858
 30
0.0
 10
109.2884350133363
 20
687.958420325307
 30
0.0
 10
109.1985325115829
 20
688.1116136355085
 30
0.0
  0
SPLINE
  5
2F9
330
70
100
AcDbEntity
  8
0
 62
     7
370
    20
100
AcDbSpline
210
0.0
220
0.0
230
1.0
 70
     8
 71
     3
 72
     8
 73
     4
 74
     0
 42
0.0000000001
 43
0.0000000001
 40
0.0
 40
0.0
 40
0.0
 40
0.0
 40
1.0
 40
1.0
 40
1.0
 40
1.0
 10
109.9476818789153
 20
687.8983404610935
 30
0.0
 10
109.7905744098307
 20
687.8154677076054
 30
0.0
 10
109.6303743420885
 20
687.7291915452596
 30
0.0
 10
109.4694229597171
 20
687.6407728786498
 30
0.0
  0
SPLINE
  5
2FA
330
70
100
AcDbEntity
  8
0
 62
     7
370
    20
100
AcDbSpline
210
0.0
220
0.0
230
1.0
 70
     8
 71
     3
 72
     8
 73
     4
 74
     0
 42
0.0000000001
 43
0.0000000001
 40
0.0
 40
0.0
 40
0.0
 40
0.0
 40
1.0
 40
1.0
 40
1.0
 40
1.0
 10
110.1263072766305
 20
687.5775329470471
 30
0.0
 10
110.0690607049746
 20
687.6855944000762
 30
0.0
 10
110.0093893856183
 20
687.7927628535153
 30
0.0
 10
109.9476818789026
 20
687.8983404610453
 30
0.0
  0
SPLINE
  5
2FB
330
70
100
AcDbEntity
  8
0
 62
     7
370
    20
100
AcDbSpline
210
0.0
220
0.0
230
1.0
 70
     8
 71
     3
 72
     8
 73
     4
 74
     0
 42
0.0000000001
 43
0.0000000001
 40
0.0
 40
0.0
 40
0.0
 40
0.0
 40
1.0
 40
1.0
 40
1.0
 40
1.0
 10
109.6554665199664
 20
687.3066424986145
 30
0.0
 10
109.8153987246869
 20
687.3968915871728
 30
0.0
 10
109.9731139666073
 20
687.4876304452164
 30
0.0
 10
110.1263072768097
 20
687.5775329469697
 30
0.0
  0
SPLINE
  5
2FC
330
70
100
AcDbEntity
  8
0
 62
     7
370
    20
100
AcDbSpline
210
0.0
220
0.0
230
1.0
 70
     8
 71
     3
 72
     8
 73
     4
 74
     0
 42
0.0000000001
 43
0.0000000001
 40
0.0
 40
0.0
 40
0.0
 40
0.0
 40
1.0
 40
1.0
 40
1.0
 40
1.0
 10
109.9130341023938
 20
686.8283835796773
 30
0.0
 10
109.8301613489057
 20
686.985491048761
 30
0.0
 10
109.7438851865599
 20
687.1456911165041
 30
0.0
 10
109.6554665199492
 20
687.3066424988746
 30
0.0
  0
SPLINE
  5
2FD
330
70
100
AcDbEntity
  8
0
 62
     7
370
    20
100
AcDbSpline
210
0.0
220
0.0
230
1.0
 70
     8
 71
     3
 72
     8
 73
     4
 74
     0
 42
0.0000000001
 43
0.0000000001
 40
0.0
 40
0.0
 40
0.0
 40
0.0
 40
1.0
 40
1.0
 40
1.0
 40
1.0
 10
109.5922265883473
 20
686.6497581819612
 30
0.0
 10
109.7002880413765
 20
686.7070047536172
 30
0.0
 10
109.8074564948156
 20
686.7666760729735
 30
0.0
 10
109.9130341023456
 20
686.8283835796892
 30
0.0
  0
SPLINE
  5
2FE
330
70
100
AcDbEntity
  8
0
 62
     7
370
    20
100
AcDbSpline
210
0.0
220
0.0
230
1.0
 70
     8
 71
     3
 72
     8
 73
     4
 74
     0
 42
0.0000000001
 43
0.0000000001
 40
0.0
 40
0.0
 40
0.0
 40
0.0
 40
1.0
 40
1.0
 40
1.0
 40
1.0
 10
109.3213361399148
 20
687.1205989386253
 30
0.0
 10
109.4115852284731
 20
686.9606667339057
 30
0.0
 10
109.5023240865175
 20
686.8029514919844
 30
0.0
 10
109.59222658827
 20
686.649758181783
 30
0.0
  0
SPLINE
  5
2FF
330
70
100
AcDbEntity
  8
0
 62
     7
370
    20
100
AcDbSpline
210
0.0
220
0.0
230
1.0
 70
     8
 71
     3
 72
     8
 73
     4
 74
     0
 42
0.0000000001
 43
0.0000000001
 40
0.0
 40
0.0
 40
0.0
 40
0.0
 40
1.0
 40
1.0
 40
1.0
 40
1.0
 10
108.8430772209767
 20
686.8630313561598
 30
0.0
 10
109.0001846900613
 20
686.9459041096479
 30
0.0
 10
109.1603847578035
 20
687.0321802719927
 30
0.0
 10
109.3213361401749
 20
687.1205989386035
 30
0.0
  0
SPLINE
  5
300
330
70
100
AcDbEntity
  8
0
 62
     7
370
    20
100
AcDbSpline
210
0.0
220
0.0
230
1.0
 70
     8
 71
     3
 72
     8
 73
     4
 74
     0
 42
0.0000000001
 43
0.0000000001
 40
0.0
 40
0.0
 40
0.0
 40
0.0
 40
1.0
 40
1.0
 40
1.0
 40
1.0
 10
108.6644518232615
 20
687.1838388702453
 30
0.0
 10
108.7216983949174
 20
687.0757774172162
 30
0.0
 10
108.7813697142737
 20
686.9686089637761
 30
0.0
 10
108.8430772209894
 20
686.8630313562471
 30
0.0
  0
SPLINE
  5
301
330
70
100
AcDbEntity
  8
0
 62
     7
370
    20
100
AcDbSpline
210
0.0
220
0.0
230
1.0
 70
     8
 71
     3
 72
     8
 73
     4
 74
     0
 42
0.0000000001
 43
0.0000000001
 40
0.0
 40
0.0
 40
0.0
 40
0.0
 40
1.0
 40
1.0
 40
1.0
 40
1.0
 10
109.1352925799265
 20
687.4547293186387
 30
0.0
 10
108.975360375206
 20
687.3644802300804
 30
0.0
 10
108.8176451332847
 20
687.2737413720369
 30
0.0
 10
108.6644518230832
 20
687.1838388702826
 30
0.0
  0
SPLINE
  5
302
330
70
100
AcDbEntity
  8
0
 62
     7
370
    20
100
AcDbSpline
210
0.0
220
0.0
230
1.0
 70
     8
 71
     3
 72
     8
 73
     4
 74
     0
 42
0.0000000001
 43
0.0000000001
 40
0.0
 40
0.0
 40
0.0
 40
0.0
 40
1.0
 40
1.0
 40
1.0
 40
1.0
 10
108.87772499746
 20
687.9329882376151
 30
0.0
 10
108.9605977509481
 20
687.7758807685304
 30
0.0
 10
109.046873913293
 20
687.6156807007882
 30
0.0
 10
109.1352925799046
 20
687.4547293184169
 30
0.0
  0
SPLINE
  5
303
330
70
100
AcDbEntity
  8
0
 62
     7
370
    20
100
AcDbSpline
210
0.0
220
0.0
230
1.0
 70
     8
 71
     3
 72
     8
 73
     4
 74
     0
 42
0.0000000001
 43
0.0000000001
 40
0.0
 40
0.0
 40
0.0
 40
0.0
 40
1.0
 40
1.0
 40
1.0
 40
1.0
 10
150.4881172008199
 20
687.1112579508826
 30
0.0
 10
150.5051583747381
 20
687.2323531447928
 30
0.0
 10
150.5197120547745
 20
687.3541477840981
 30
0.0
 10
150.5316834720697
 20
687.4758487814833
 30
0.0
  0
SPLINE
  5
304
330
70
100
AcDbEntity
  8
0
 62
     7
370
    20
100
AcDbSpline
210
0.0
220
0.0
230
1.0
 70
     8
 71
     3
 72
     8
 73
     4
 74
     0
 42
0.0000000001
 43
0.0000000001
 40
0.0
 40
0.0
 40
0.0
 40
0.0
 40
1.0
 40
1.0
 40
1.0
 40
1.0
 10
149.9478968948551
 20
687.1681321472651
 30
0.0
 10
150.1303598252625
 20
687.1473839637637
 30
0.0
 10
150.3113147978774
 20
687.1283330903388
 30
0.0
 10
150.4881172009154
 20
687.1112579507553
 30
0.0
  0
SPLINE
  5
305
330
70
100
AcDbEntity
  8
0
 62
     7
370
    20
100
AcDbSpline
210
0.0
220
0.0
230
1.0
 70
     8
 71
     3
 72
     8
 73
     4
 74
     0
 42
0.0000000001
 43
0.0000000001
 40
0.0
 40
0.0
 40
0.0
 40
0.0
 40
1.0
 40
1.0
 40
1.0
 40
1.0
 10
149.8758815483224
 20
686.6297211119199
 30
0.0
 10
149.9009458454147
 20
686.8055688617587
 30
0.0
 10
149.9250684763901
 20
686.9859177918015
 30
0.0
 10
149.9478968950152
 20
687.1681321474234
 30
0.0
  0
SPLINE
  5
306
330
70
100
AcDbEntity
  8
0
 62
     7
370
    20
100
AcDbSpline
210
0.0
220
0.0
230
1.0
 70
     8
 71
     3
 72
     8
 73
     4
 74
     0
 42
0.0000000001
 43
0.0000000001
 40
0.0
 40
0.0
 40
0.0
 40
0.0
 40
1.0
 40
1.0
 40
1.0
 40
1.0
 10
149.511290717669
 20
686.6732873832598
 30
0.0
 10
149.63238591158
 20
686.6562462093407
 30
0.0
 10
149.7541805508845
 20
686.6416925293042
 30
0.0
 10
149.8758815482706
 20
686.629721112009
 30
0.0
  0
SPLINE
  5
307
330
70
100
AcDbEntity
  8
0
 62
     7
370
    20
100
AcDbSpline
210
0.0
220
0.0
230
1.0
 70
     8
 71
     3
 72
     8
 73
     4
 74
     0
 42
0.0000000001
 43
0.0000000001
 40
0.0
 40
0.0
 40
0.0
 40
0.0
 40
1.0
 40
1.0
 40
1.0
 40
1.0
 10
149.5681649140524
 20
687.2135076891854
 30
0.0
 10
149.5474167305501
 20
687.0310447587789
 30
0.0
 10
149.5283658571252
 20
686.8500897861631
 30
0.0
 10
149.5112907175426
 20
686.6732873831251
 30
0.0
  0
SPLINE
  5
308
330
70
100
AcDbEntity
  8
0
 62
     7
370
    20
100
AcDbSpline
210
0.0
220
0.0
230
1.0
 70
     8
 71
     3
 72
     8
 73
     4
 74
     0
 42
0.0000000001
 43
0.0000000001
 40
0.0
 40
0.0
 40
0.0
 40
0.0
 40
1.0
 40
1.0
 40
1.0
 40
1.0
 10
149.0297538787072
 20
687.2855230357563
 30
0.0
 10
149.2056016285451
 20
687.260458738664
 30
0.0
 10
149.3859505585888
 20
687.2363361076886
 30
0.0
 10
149.5681649142106
 20
687.2135076890645
 30
0.0
  0
SPLINE
  5
309
330
70
100
AcDbEntity
  8
0
 62
     7
370
    20
100
AcDbSpline
210
0.0
220
0.0
230
1.0
 70
     8
 71
     3
 72
     8
 73
     4
 74
     0
 42
0.0000000001
 43
0.0000000001
 40
0.0
 40
0.0
 40
0.0
 40
0.0
 40
1.0
 40
1.0
 40
1.0
 40
1.0
 10
149.0733201500079
 20
687.6501138663716
 30
0.0
 10
149.0562789760897
 20
687.5290186724605
 30
0.0
 10
149.0417252960533
 20
687.4072240331551
 30
0.0
 10
149.0297538787581
 20
687.28552303577
 30
0.0
  0
SPLINE
  5
30A
330
70
100
AcDbEntity
  8
0
 62
     7
370
    20
100
AcDbSpline
210
0.0
220
0.0
230
1.0
 70
     8
 71
     3
 72
     8
 73
     4
 74
     0
 42
0.0000000001
 43
0.0000000001
 40
0.0
 40
0.0
 40
0.0
 40
0.0
 40
1.0
 40
1.0
 40
1.0
 40
1.0
 10
149.6135404559727
 20
687.5932396700264
 30
0.0
 10
149.4310775255653
 20
687.6139878535286
 30
0.0
 10
149.2501225529495
 20
687.6330387269526
 30
0.0
 10
149.0733201499124
 20
687.6501138665362
 30
0.0
  0
SPLINE
  5
30B
330
70
100
AcDbEntity
  8
0
 62
     7
370
    20
100
AcDbSpline
210
0.0
220
0.0
230
1.0
 70
     8
 71
     3
 72
     8
 73
     4
 74
     0
 42
0.0000000001
 43
0.0000000001
 40
0.0
 40
0.0
 40
0.0
 40
0.0
 40
1.0
 40
1.0
 40
1.0
 40
1.0
 10
149.6855558025436
 20
688.1316507053343
 30
0.0
 10
149.6604915054513
 20
687.9558029554955
 30
0.0
 10
149.6363688744759
 20
687.7754540254518
 30
0.0
 10
149.6135404558508
 20
687.5932396698299
 30
0.0
  0
SPLINE
  5
30C
330
70
100
AcDbEntity
  8
0
 62
     7
370
    20
100
AcDbSpline
210
0.0
220
0.0
230
1.0
 70
     8
 71
     3
 72
     8
 73
     4
 74
     0
 42
0.0000000001
 43
0.0000000001
 40
0.0
 40
0.0
 40
0.0
 40
0.0
 40
1.0
 40
1.0
 40
1.0
 40
1.0
 10
150.0501466331579
 20
688.0880844340317
 30
0.0
 10
149.9290514392478
 20
688.1051256079508
 30
0.0
 10
149.8072567999425
 20
688.1196792879872
 30
0.0
 10
149.6855558025563
 20
688.1316507052824
 30
0.0
  0
SPLINE
  5
30D
330
70
100
AcDbEntity
  8
0
 62
     7
370
    20
100
AcDbSpline
210
0.0
220
0.0
230
1.0
 70
     8
 71
     3
 72
     8
 73
     4
 74
     0
 42
0.0000000001
 43
0.0000000001
 40
0.0
 40
0.0
 40
0.0
 40
0.0
 40
1.0
 40
1.0
 40
1.0
 40
1.0
 10
149.9932724368136
 20
687.5478641280679
 30
0.0
 10
150.0140206203159
 20
687.7303270584753
 30
0.0
 10
150.0330714937399
 20
687.911282031091
 30
0.0
 10
150.0501466333235
 20
688.0880844341281
 30
0.0
  0
SPLINE
  5
30E
330
70
100
AcDbEntity
  8
0
 62
     7
370
    20
100
AcDbSpline
210
0.0
220
0.0
230
1.0
 70
     8
 71
     3
 72
     8
 73
     4
 74
     0
 42
0.0000000001
 43
0.0000000001
 40
0.0
 40
0.0
 40
0.0
 40
0.0
 40
1.0
 40
1.0
 40
1.0
 40
1.0
 10
150.5316834721206
 20
687.4758487815352
 30
0.0
 10
150.3558357222819
 20
687.5009130786274
 30
0.0
 10
150.1754867922391
 20
687.5250357096028
 30
0.0
 10
149.9932724366172
 20
687.5478641282279
 30
0.0
  0
SPLINE
  5
30F
330
70
100
AcDbEntity
  8
0
 62
     7
370
    20
100
AcDbSpline
210
0.0
220
0.0
230
1.0
 70
     8
 71
     3
 72
     8
 73
     4
 74
     0
 42
0.0000000001
 43
0.0000000001
 40
0.0
 40
0.0
 40
0.0
 40
0.0
 40
1.0
 40
1.0
 40
1.0
 40
1.0
 10
83.02342449517709
 20
687.2769746944014
 30
0.0
 10
83.02698665560091
 20
687.2287656671369
 30
0.0
 10
83.03200225963882
 20
687.1806124809482
 30
0.0
 10
83.03846539429832
 20
687.1325719045298
 30
0.0
  0
SPLINE
  5
310
330
70
100
AcDbEntity
  8
0
 62
     7
370
    20
100
AcDbSpline
210
0.0
220
0.0
230
1.0
 70
     8
 71
     3
 72
     8
 73
     4
 74
     0
 42
0.0000000001
 43
0.0000000001
 40
0.0
 40
0.0
 40
0.0
 40
0.0
 40
1.0
 40
1.0
 40
1.0
 40
1.0
 10
83.05436682669734
 20
687.3806892010516
 30
0.0
 10
83.03983592377425
 20
687.3460016211593
 30
0.0
 10
83.02950997934932
 20
687.311390453291
 30
0.0
 10
83.02342449516618
 20
687.2769746944832
 30
0.0
  0
SPLINE
  5
311
330
70
100
AcDbEntity
  8
0
 62
     7
370
    20
100
AcDbSpline
210
0.0
220
0.0
230
1.0
 70
     8
 71
     3
 72
     8
 73
     4
 74
     0
 42
0.0000000001
 43
0.0000000001
 40
0.0
 40
0.0
 40
0.0
 40
0.0
 40
1.0
 40
1.0
 40
1.0
 40
1.0
 10
83.11491768608084
 20
688.129512475878
 30
0.0
 10
83.06664172923047
 20
687.9669253476931
 30
0.0
 10
83.0359946993658
 20
687.7997498000459
 30
0.0
 10
83.02342449518437
 20
687.63042906186
 30
0.0
  0
SPLINE
  5
312
330
70
100
AcDbEntity
  8
0
 62
     7
370
    20
100
AcDbSpline
210
0.0
220
0.0
230
1.0
 70
     8
 71
     3
 72
     8
 73
     4
 74
     0
 42
0.0000000001
 43
0.0000000001
 40
0.0
 40
0.0
 40
0.0
 40
0.0
 40
1.0
 40
1.0
 40
1.0
 40
1.0
 10
83.11491768608176
 20
688.1295124760235
 30
0.0
 10
83.10725895134964
 20
688.0851863819843
 30
0.0
 10
83.10725895134693
 20
688.038348327147
 30
0.0
 10
83.11491768607357
 20
687.9893033057832
 30
0.0
  0
SPLINE
  5
313
330
70
100
AcDbEntity
  8
0
 62
     7
370
    20
100
AcDbSpline
210
0.0
220
0.0
230
1.0
 70
     8
 71
     3
 72
     8
 73
     4
 74
     0
 42
0.0000000001
 43
0.0000000001
 40
0.0
 40
0.0
 40
0.0
 40
0.0
 40
1.0
 40
1.0
 40
1.0
 40
1.0
 10
83.11491768611631
 20
687.9893033058634
 30
0.0
 10
83.06664172923319
 20
687.8236438207268
 30
0.0
 10
83.03599469935397
 20
687.6545178484148
 30
0.0
 10
83.02342449517437
 20
687.4843971228256
 30
0.0
  0
SPLINE
  5
314
330
70
100
AcDbEntity
  8
0
 62
     7
370
    20
100
AcDbSpline
210
0.0
220
0.0
230
1.0
 70
     8
 71
     3
 72
     8
 73
     4
 74
     0
 42
0.0000000001
 43
0.0000000001
 40
0.0
 40
0.0
 40
0.0
 40
0.0
 40
1.0
 40
1.0
 40
1.0
 40
1.0
 10
83.023424495168
 20
687.4843971227974
 30
0.0
 10
83.0359946993458
 20
687.4133077727919
 30
0.0
 10
83.066641729225
 20
687.3414748128452
 30
0.0
 10
83.11491768610812
 20
687.2699480637475
 30
0.0
  0
SPLINE
  5
315
330
70
100
AcDbEntity
  8
0
 62
     7
370
    20
100
AcDbSpline
210
0.0
220
0.0
230
1.0
 70
     8
 71
     3
 72
     8
 73
     4
 74
     0
 42
0.0000000001
 43
0.0000000001
 40
0.0
 40
0.0
 40
0.0
 40
0.0
 40
1.0
 40
1.0
 40
1.0
 40
1.0
 10
83.11491768606265
 20
687.2699480638239
 30
0.0
 10
83.10725895133328
 20
687.155975940108
 30
0.0
 10
83.10725895133419
 20
687.0426095412694
 30
0.0
 10
83.11491768606538
 20
686.9305870726456
 30
0.0
  0
SPLINE
  5
316
330
70
100
AcDbEntity
  8
0
 62
     7
370
    20
100
AcDbSpline
210
0.0
220
0.0
230
1.0
 70
     8
 71
     3
 72
     8
 73
     4
 74
     0
 42
0.0000000001
 43
0.0000000001
 40
0.0
 40
0.0
 40
0.0
 40
0.0
 40
1.0
 40
1.0
 40
1.0
 40
1.0
 10
83.02342449516709
 20
687.1309427555279
 30
0.0
 10
83.03599469934487
 20
687.0617896874946
 30
0.0
 10
83.06664172922319
 20
686.994677517332
 30
0.0
 10
83.11491768610631
 20
686.9305870726657
 30
0.0
  0
SPLINE
  5
317
330
70
100
AcDbEntity
  8
0
 62
     7
370
    20
100
AcDbSpline
210
0.0
220
0.0
230
1.0
 70
     8
 71
     3
 72
     8
 73
     4
 74
     0
 42
0.0000000001
 43
0.0000000001
 40
0.0
 40
0.0
 40
0.0
 40
0.0
 40
1.0
 40
1.0
 40
1.0
 40
1.0
 10
83.02342449517164
 20
687.1309427555725
 30
0.0
 10
83.02950997935477
 20
687.0489712410026
 30
0.0
 10
83.0398359237788
 20
686.9674521819433
 30
0.0
 10
83.05436682670189
 20
686.8866658499646
 30
0.0
  0
SPLINE
  5
318
330
70
100
AcDbEntity
  8
0
 62
     7
370
    20
100
AcDbSpline
210
0.0
220
0.0
230
1.0
 70
     8
 71
     3
 72
     8
 73
     4
 74
     0
 42
0.0000000001
 43
0.0000000001
 40
0.0
 40
0.0
 40
0.0
 40
0.0
 40
1.0
 40
1.0
 40
1.0
 40
1.0
 10
231.0952789555713
 20
687.9071803877459
 30
0.0
 10
230.9928247472953
 20
687.9739455193903
 30
0.0
 10
230.8886826243597
 20
688.0387541761993
 30
0.0
 10
230.783530726605
 20
688.1011843451505
 30
0.0
  0
SPLINE
  5
319
330
70
100
AcDbEntity
  8
0
 62
     7
370
    20
100
AcDbSpline
210
0.0
220
0.0
230
1.0
 70
     8
 71
     3
 72
     8
 73
     4
 74
     0
 42
0.0000000001
 43
0.0000000001
 40
0.0
 40
0.0
 40
0.0
 40
0.0
 40
1.0
 40
1.0
 40
1.0
 40
1.0
 10
230.8147747508383
 20
687.4420029545872
 30
0.0
 10
230.9109103652945
 20
687.5984674928213
 30
0.0
 10
231.0048694966781
 20
687.7542857187227
 30
0.0
 10
231.0952789557205
 20
687.907180387785
 30
0.0
  0
SPLINE
  5
31A
330
70
100
AcDbEntity
  8
0
 62
     7
370
    20
100
AcDbSpline
210
0.0
220
0.0
230
1.0
 70
     8
 71
     3
 72
     8
 73
     4
 74
     0
 42
0.0000000001
 43
0.0000000001
 40
0.0
 40
0.0
 40
0.0
 40
0.0
 40
1.0
 40
1.0
 40
1.0
 40
1.0
 10
231.2718953629619
 20
687.1485521084432
 30
0.0
 10
231.1232518380375
 20
687.2457928026551
 30
0.0
 10
230.9701323663385
 20
687.3440886076514
 30
0.0
 10
230.8147747507464
 20
687.4420029547609
 30
0.0
  0
SPLINE
  5
31B
330
70
100
AcDbEntity
  8
0
 62
     7
370
    20
100
AcDbSpline
210
0.0
220
0.0
230
1.0
 70
     8
 71
     3
 72
     8
 73
     4
 74
     0
 42
0.0000000001
 43
0.0000000001
 40
0.0
 40
0.0
 40
0.0
 40
0.0
 40
1.0
 40
1.0
 40
1.0
 40
1.0
 10
231.0778914055063
 20
686.8368038794815
 30
0.0
 10
231.1446565371516
 20
686.9392580877574
 30
0.0
 10
231.2094651939597
 20
687.0434002106922
 30
0.0
 10
231.271895362911
 20
687.1485521084478
 30
0.0
  0
SPLINE
  5
31C
330
70
100
AcDbEntity
  8
0
 62
     7
370
    20
100
AcDbSpline
210
0.0
220
0.0
230
1.0
 70
     8
 71
     3
 72
     8
 73
     4
 74
     0
 42
0.0000000001
 43
0.0000000001
 40
0.0
 40
0.0
 40
0.0
 40
0.0
 40
1.0
 40
1.0
 40
1.0
 40
1.0
 10
230.6127139723467
 20
687.1173080841763
 30
0.0
 10
230.7691785105826
 20
687.0211724697192
 30
0.0
 10
230.924996736484
 20
686.9272133383356
 30
0.0
 10
231.0778914055454
 20
686.8368038792932
 30
0.0
  0
SPLINE
  5
31D
330
70
100
AcDbEntity
  8
0
 62
     7
370
    20
100
AcDbSpline
210
0.0
220
0.0
230
1.0
 70
     8
 71
     3
 72
     8
 73
     4
 74
     0
 42
0.0000000001
 43
0.0000000001
 40
0.0
 40
0.0
 40
0.0
 40
0.0
 40
1.0
 40
1.0
 40
1.0
 40
1.0
 10
230.3192631262045
 20
686.6601874720918
 30
0.0
 10
230.4165038204164
 20
686.8088309970153
 30
0.0
 10
230.5147996254118
 20
686.9619504687152
 30
0.0
 10
230.6127139725213
 20
687.1173080843073
 30
0.0
  0
SPLINE
  5
31E
330
70
100
AcDbEntity
  8
0
 62
     7
370
    20
100
AcDbSpline
210
0.0
220
0.0
230
1.0
 70
     8
 71
     3
 72
     8
 73
     4
 74
     0
 42
0.0000000001
 43
0.0000000001
 40
0.0
 40
0.0
 40
0.0
 40
0.0
 40
1.0
 40
1.0
 40
1.0
 40
1.0
 10
230.0075148972419
 20
686.8541914295455
 30
0.0
 10
230.1099691055187
 20
686.7874262979012
 30
0.0
 10
230.2141112284535
 20
686.7226176410931
 30
0.0
 10
230.3192631262082
 20
686.6601874721418
 30
0.0
  0
SPLINE
  5
31F
330
70
100
AcDbEntity
  8
0
 62
     7
370
    20
100
AcDbSpline
210
0.0
220
0.0
230
1.0
 70
     8
 71
     3
 72
     8
 73
     4
 74
     0
 42
0.0000000001
 43
0.0000000001
 40
0.0
 40
0.0
 40
0.0
 40
0.0
 40
1.0
 40
1.0
 40
1.0
 40
1.0
 10
230.2880191019367
 20
687.3193688627052
 30
0.0
 10
230.1918834874805
 20
687.1629043244702
 30
0.0
 10
230.0979243560978
 20
687.0070860985688
 30
0.0
 10
230.0075148970536
 20
686.8541914295073
 30
0.0
  0
SPLINE
  5
320
330
70
100
AcDbEntity
  8
0
 62
     7
370
    20
100
AcDbSpline
210
0.0
220
0.0
230
1.0
 70
     8
 71
     3
 72
     8
 73
     4
 74
     0
 42
0.0000000001
 43
0.0000000001
 40
0.0
 40
0.0
 40
0.0
 40
0.0
 40
1.0
 40
1.0
 40
1.0
 40
1.0
 10
229.8308984898531
 20
687.61281970881
 30
0.0
 10
229.9795420147766
 20
687.5155790145981
 30
0.0
 10
230.1326614864756
 20
687.4172832096019
 30
0.0
 10
230.2880191020668
 20
687.3193688624923
 30
0.0
  0
SPLINE
  5
321
330
70
100
AcDbEntity
  8
0
 62
     7
370
    20
100
AcDbSpline
210
0.0
220
0.0
230
1.0
 70
     8
 71
     3
 72
     8
 73
     4
 74
     0
 42
0.0000000001
 43
0.0000000001
 40
0.0
 40
0.0
 40
0.0
 40
0.0
 40
1.0
 40
1.0
 40
1.0
 40
1.0
 10
230.0249024473069
 20
687.9245679378109
 30
0.0
 10
229.9581373156616
 20
687.8221137295331
 30
0.0
 10
229.8933286588554
 20
687.7179716066002
 30
0.0
 10
229.8308984899031
 20
687.6128197088437
 30
0.0
  0
SPLINE
  5
322
330
70
100
AcDbEntity
  8
0
 62
     7
370
    20
100
AcDbSpline
210
0.0
220
0.0
230
1.0
 70
     8
 71
     3
 72
     8
 73
     4
 74
     0
 42
0.0000000001
 43
0.0000000001
 40
0.0
 40
0.0
 40
0.0
 40
0.0
 40
1.0
 40
1.0
 40
1.0
 40
1.0
 10
230.4900798804665
 20
687.6440637330779
 30
0.0
 10
230.3336153422315
 20
687.7401993475341
 30
0.0
 10
230.177797116331
 20
687.8341584789177
 30
0.0
 10
230.0249024472678
 20
687.92456793796
 30
0.0
  0
SPLINE
  5
323
330
70
100
AcDbEntity
  8
0
 62
     7
370
    20
100
AcDbSpline
210
0.0
220
0.0
230
1.0
 70
     8
 71
     3
 72
     8
 73
     4
 74
     0
 42
0.0000000001
 43
0.0000000001
 40
0.0
 40
0.0
 40
0.0
 40
0.0
 40
1.0
 40
1.0
 40
1.0
 40
1.0
 10
230.7835307265705
 20
688.1011843451997
 30
0.0
 10
230.6862900323586
 20
687.9525408202762
 30
0.0
 10
230.5879942273623
 20
687.7994213485772
 30
0.0
 10
230.4900798802528
 20
687.6440637329851
 30
0.0
  0
SPLINE
  5
324
330
70
100
AcDbEntity
  8
0
 62
     7
370
    20
100
AcDbSpline
210
0.0
220
0.0
230
1.0
 70
     8
 71
     3
 72
     8
 73
     4
 74
     0
 42
0.0000000001
 43
0.0000000001
 40
0.0
 40
0.0
 40
0.0
 40
0.0
 40
1.0
 40
1.0
 40
1.0
 40
1.0
 10
297.3086911066266
 20
687.6487738986543
 30
0.0
 10
297.3065931526071
 20
687.6729931660211
 30
0.0
 10
297.3039909447543
 20
687.6971576184314
 30
0.0
 10
297.3008855474636
 20
687.7212573717806
 30
0.0
  0
SPLINE
  5
325
330
70
100
AcDbEntity
  8
0
 62
     7
370
    20
100
AcDbSpline
210
0.0
220
0.0
230
1.0
 70
     8
 71
     3
 72
     8
 73
     4
 74
     0
 42
0.0000000001
 43
0.0000000001
 40
0.0
 40
0.0
 40
0.0
 40
0.0
 40
1.0
 40
1.0
 40
1.0
 40
1.0
 10
297.3086911066457
 20
687.3452389325502
 30
0.0
 10
297.3073717099105
 20
687.3570514162047
 30
0.0
 10
297.3058528540969
 20
687.3688684113767
 30
0.0
 10
297.3041347849412
 20
687.3806880061784
 30
0.0
  0
SPLINE
  5
326
330
70
100
AcDbEntity
  8
0
 62
     7
370
    20
100
AcDbSpline
210
0.0
220
0.0
230
1.0
 70
     8
 71
     3
 72
     8
 73
     4
 74
     0
 42
0.0000000001
 43
0.0000000001
 40
0.0
 40
0.0
 40
0.0
 40
0.0
 40
1.0
 40
1.0
 40
1.0
 40
1.0
 10
297.2984146702847
 20
687.3453951311985
 30
0.0
 10
297.3026325047513
 20
687.3689809545294
 30
0.0
 10
297.3060587189447
 20
687.3925652678654
 30
0.0
 10
297.3086911066484
 20
687.4161328847203
 30
0.0
  0
LINE
  5
327
330
70
100
AcDbEntity
  8
0
 62
     7
370
     9
100
AcDbLine
 10
57.73612191190295
 20
670.8756724401419
 30
0.0
 11
57.73612191190295
 21
693.309285886221
 31
0.0
  0
MTEXT
  5
328
330
70
100
AcDbEntity
  8
0
100
AcDbMText
 10
54.62800192832856
 20
675.3848381042471
 30
0.0
 40
0.2
 41
0.0
 46
0.0
 71
     7
 72
     1
  1
\C7;\FTramontina SmCd Titulos|b0|i0|c1;\H9.912000;\W1.000000;59
 11
0.0000000000000001
 21
1.0
 31
0.0
 73
     1
 44
1.0
  0
MTEXT
  5
329
330
70
100
AcDbEntity
  8
0
100
AcDbMText
 10
54.68171286582856
 20
501.325855255126
 30
0.0
 40
0.2
 41
0.0
 46
0.0
 71
     7
 72
     1
  1
\C7;\FTramontina SmCd Titulos|b0|i0|c1;\H9.912000;\W1.000000;520
 11
0.0000000000000001
 21
1.0
 31
0.0
 73
     1
 44
1.0
  0
MTEXT
  5
32A
330
70
100
AcDbEntity
  8
0
100
AcDbMText
 10
178.3604838848114
 20
399.733325958252
 30
0.0
 40
0.2
 41
0.0
 46
0.0
 71
     7
 72
     1
  1
\C7;\FTramontina SmCd Titulos|b0|i0|c1;\H9.912000;\W1.000000;590
 73
     1
 44
1.0
  0
LINE
  5
32B
330
70
100
AcDbEntity
  8
0
 62
     7
370
     9
100
AcDbLine
 10
58.0795050692086
 20
412.9448098160028
 30
0.0
 11
58.0795050692086
 21
612.7181308815206
 31
0.0
  0
LINE
  5
32C
330
70
100
AcDbEntity
  8
0
 62
     7
370
     9
100
AcDbLine
 10
303.5272878875549
 20
396.9615182714642
 30
0.0
 11
76.7644804124493
 21
396.9615182714642
 31
0.0
  0
LINE
  5
32D
330
70
100
AcDbEntity
  8
0
 62
     7
370
     5
100
AcDbLine
 10
288.8441708071505
 20
421.3285226987945
 30
0.0
 11
288.7222422011701
 21
422.2787937190023
 31
0.0
  0
LWPOLYLINE
  5
32E
330
70
100
AcDbEntity
  8
0
 62
     7
370
     5
100
AcDbPolyline
 90
        3
 70
     0
 43
0.0
 10
288.8629284596273
 20
421.3291869150261
 10
289.1292361692121
 20
421.3291866355103
 10
288.9099705675353
 20
422.740851201137
  0
MTEXT
  5
32F
330
70
100
AcDbEntity
  8
0
100
AcDbMText
 10
388.1359233856201
 20
407.4684219360351
 30
0.0
 40
0.2
 41
0.0
 46
0.0
 71
     7
 72
     1
  1
\C253;\FFrutiger LT Pro 55 Roman|b0|i0|c1;\H5.243911;\W1.000000;mm
 73
     1
 44
1.0
  0
INSERT
  5
331
330
70
100
AcDbEntity
  8
0
100
AcDbBlockReference
  2
Block_3
 10
0.0
 20
0.0
 30
0.0
  0
LINE
  5
336
330
70
100
AcDbEntity
  8
0
 62
   253
370
    15
100
AcDbLine
 10
388.5876908218161
 20
403.5141077678199
 30
0.0
 11
400.6153908370706
 21
403.5141077678199
 31
0.0
  0
LINE
  5
337
330
70
100
AcDbEntity
  8
0
 62
   253
370
    13
100
AcDbLine
 10
388.4444303403015
 20
405.1299044491133
 30
0.0
 11
388.4444303403015
 21
401.9002967917149
 31
0.0
  0
LINE
  5
338
330
70
100
AcDbEntity
  8
0
 62
   253
370
    13
100
AcDbLine
 10
400.7620553846299
 20
405.1299044491133
 30
0.0
 11
400.7620553846299
 21
401.9002967917149
 31
0.0
  0
ENDSEC
  0
SECTION
  2
OBJECTS
  0
DICTIONARY
  5
C
330
0
100
AcDbDictionary
281
     1
  3
ACAD_COLOR
350
63
  3
ACAD_DETAILVIEWSTYLE
350
6A
  3
ACAD_GROUP
350
D
  3
ACAD_LAYOUT
350
62
  3
ACAD_MATERIAL
350
10
  3
ACAD_MLEADERSTYLE
350
66
  3
ACAD_MLINESTYLE
350
5F
  3
ACAD_PLOTSETTINGS
350
61
  3
ACAD_PLOTSTYLENAME
350
E
  3
ACAD_SCALELIST
350
42
  3
ACAD_SECTIONVIEWSTYLE
350
68
  3
ACAD_TABLESTYLE
350
64
  3
ACAD_VISUALSTYLE
350
29
  3
ACDB_RECOMPOSE_DATA
350
341
  3
AcDbVariableDictionary
350
339
  0
DICTIONARY
  5
63
102
{ACAD_REACTORS
330
C
102
}
330
C
100
AcDbDictionary
281
     1
  0
DICTIONARY
  5
6A
102
{ACAD_REACTORS
330
C
102
}
330
C
100
AcDbDictionary
281
     1
  3
Imperial24
350
6B
  0
DICTIONARY
  5
D
102
{ACAD_REACTORS
330
C
102
}
330
C
100
AcDbDictionary
281
     1
  0
DICTIONARY
  5
62
102
{ACAD_REACTORS
330
C
102
}
330
C
100
AcDbDictionary
281
     1
  3
Layout1
350
6F
  3
Layout2
350
77
  3
Model
350
73
  0
DICTIONARY
  5
10
102
{ACAD_REACTORS
330
C
102
}
330
C
100
AcDbDictionary
281
     1
  3
ByBlock
350
19
  3
ByLayer
350
11
  3
Global
350
21
  0
DICTIONARY
  5
66
102
{ACAD_REACTORS
330
C
102
}
330
C
100
AcDbDictionary
281
     1
  3
Standard
350
67
  0
DICTIONARY
  5
5F
102
{ACAD_REACTORS
330
C
102
}
330
C
100
AcDbDictionary
281
     1
  3
Standard
350
60
  0
DICTIONARY
  5
61
102
{ACAD_REACTORS
330
C
102
}
330
C
100
AcDbDictionary
281
     1
  0
ACDBDICTIONARYWDFLT
  5
E
102
{ACAD_REACTORS
330
C
102
}
330
C
100
AcDbDictionary
281
     1
  3
Normal
350
F
100
AcDbDictionaryWithDefault
340
F
  0
DICTIONARY
  5
42
102
{ACAD_REACTORS
330
C
102
}
330
C
100
AcDbDictionary
281
     1
  3
A0
350
43
  3
A1
350
44
  3
A2
350
45
  3
A3
350
46
  3
A4
350
47
  3
A5
350
48
  3
A6
350
49
  3
A7
350
4A
  3
A8
350
4B
  3
A9
350
4C
  3
B0
350
4D
  3
B1
350
4E
  3
B2
350
4F
  3
B3
350
50
  3
B4
350
51
  3
B5
350
52
  3
B6
350
53
  0
DICTIONARY
  5
68
102
{ACAD_REACTORS
330
C
102
}
330
C
100
AcDbDictionary
281
     1
  3
Imperial24
350
69
  0
DICTIONARY
  5
64
102
{ACAD_REACTORS
330
C
102
}
330
C
100
AcDbDictionary
281
     1
  3
Standard
350
65
  0
DICTIONARY
  5
29
102
{ACAD_REACTORS
330
C
102
}
330
C
100
AcDbDictionary
281
     1
  3
2dWireframe
350
2F
  3
Basic
350
2E
  3
Brighten
350
35
  3
ColorChange
350
39
  3
Conceptual
350
32
  3
Dim
350
34
  3
EdgeColorOff
350
41
  3
Facepattern
350
38
  3
Flat
350
2A
  3
FlatWithEdges
350
2B
  3
Gouraud
350
2C
  3
GouraudWithEdges
350
2D
  3
Hidden
350
31
  3
JitterOff
350
3F
  3
Linepattern
350
37
  3
OverhangOff
350
40
  3
Realistic
350
33
  3
Shaded
350
3E
  3
Shaded with edges
350
3D
  3
Shades of Gray
350
3A
  3
Sketchy
350
3B
  3
Thicken
350
36
  3
Wireframe
350
30
  3
X-Ray
350
3C
  0
XRECORD
  5
341
102
{ACAD_REACTORS
330
C
102
}
330
C
100
AcDbXrecord
280
     1
 90
        1
330
65
  0
DICTIONARY
  5
339
102
{ACAD_REACTORS
330
C
102
}
330
C
100
AcDbDictionary
281
     1
  3
CANNOSCALE
350
33E
  3
CMLEADERSTYLE
350
33B
  3
CTABLESTYLE
350
33A
  3
CVIEWDETAILSTYLE
350
33C
  3
CVIEWSECTIONSTYLE
350
33D
  0
ACDBDETAILVIEWSTYLE
  5
6B
102
{ACAD_REACTORS
330
6A
102
}
330
6A
100
AcDbModelDocViewStyle
 70
     0
  3
Imperial24
290
     1
300
Imperial24
 90
        0
100
AcDbDetailViewStyle
 70
     0
 71
     0
 90
        3
 71
     1
340
55
 62
   256
 40
0.24
340
0
 62
   256
 40
0.24
300

 40
0.36
280
     3
 71
     2
340
5D
 90
       25
 62
   256
 71
     3
340
55
 62
   256
 40
0.24
 90
        1
 40
0.75
 90
        1
300
%<\AcVar ViewType \f "%tc1">% %<\AcVar ViewDetailId>%\PSCALE %<\AcVar ViewScale \f "%sn">%
 71
     4
340
5D
 90
       25
 62
   256
340
5D
 90
       25
 62
   256
280
     0
  0
LAYOUT
  5
6F
102
{ACAD_REACTORS
330
62
102
}
330
62
100
AcDbPlotSettings
  1

  2

  4

  6

 40
0.0
 41
0.0
 42
0.0
 43
0.0
 44
0.0
 45
0.0
 46
0.0
 47
0.0
 48
0.0
 49
0.0
140
0.0
141
0.0
142
1.0
143
1.0
 70
   688
 72
     0
 73
     0
 74
     5
  7

 75
    16
147
1.0
 76
     0
 77
     2
 78
   300
148
0.0
149
0.0
100
AcDbLayout
  1
Layout1
 70
     1
 71
     1
 10
0.0
 20
0.0
 11
12.0
 21
9.0
 12
0.0
 22
0.0
 32
0.0
 14
0.0
 24
0.0
 34
0.0
 15
0.0
 25
0.0
 35
0.0
146
0.0
 13
0.0
 23
0.0
 33
0.0
 16
1.0
 26
0.0
 36
0.0
 17
0.0
 27
1.0
 37
0.0
 76
     0
330
6C
  0
LAYOUT
  5
77
102
{ACAD_REACTORS
330
62
102
}
330
62
100
AcDbPlotSettings
  1

  2

  4

  6

 40
0.0
 41
0.0
 42
0.0
 43
0.0
 44
0.0
 45
0.0
 46
0.0
 47
0.0
 48
0.0
 49
0.0
140
0.0
141
0.0
142
1.0
143
1.0
 70
   688
 72
     0
 73
     0
 74
     5
  7

 75
    16
147
1.0
 76
     0
 77
     2
 78
   300
148
0.0
149
0.0
100
AcDbLayout
  1
Layout2
 70
     1
 71
     2
 10
0.0
 20
0.0
 11
12.0
 21
9.0
 12
0.0
 22
0.0
 32
0.0
 14
0.0
 24
0.0
 34
0.0
 15
0.0
 25
0.0
 35
0.0
146
0.0
 13
0.0
 23
0.0
 33
0.0
 16
1.0
 26
0.0
 36
0.0
 17
0.0
 27
1.0
 37
0.0
 76
     0
330
74
  0
LAYOUT
  5
73
102
{ACAD_REACTORS
330
62
102
}
330
62
100
AcDbPlotSettings
  1

  2

  4

  6

 40
0.0
 41
0.0
 42
0.0
 43
0.0
 44
0.0
 45
0.0
 46
0.0
 47
0.0
 48
0.0
 49
0.0
140
0.0
141
0.0
142
1.0
143
1.0
 70
  1712
 72
     0
 73
     0
 74
     0
  7

 75
     0
147
1.0
 76
     0
 77
     2
 78
   300
148
0.0
149
0.0
100
AcDbLayout
  1
Model
 70
     1
 71
     0
 10
0.0
 20
0.0
 11
12.0
 21
9.0
 12
0.0
 22
0.0
 32
0.0
 14
0.0
 24
0.0
 34
0.0
 15
0.0
 25
0.0
 35
0.0
146
0.0
 13
0.0
 23
0.0
 33
0.0
 16
1.0
 26
0.0
 36
0.0
 17
0.0
 27
1.0
 37
0.0
 76
     0
330
70
  0
MATERIAL
  5
19
102
{ACAD_XDICTIONARY
360
1A
102
}
102
{ACAD_REACTORS
330
10
102
}
330
10
100
AcDbMaterial
  1
ByBlock
 72
     0
 43
0.0208333333333333
 43
0.0
 43
0.0
 43
0.0
 43
0.0
 43
0.0208333333333333
 43
0.0
 43
0.0
 43
0.0
 43
0.0
 43
1.0
 43
0.0
 43
0.0
 43
0.0
 43
0.0
 43
1.0
 77
     0
 47
0.0208333333333333
 47
0.0
 47
0.0
 47
0.0
 47
0.0
 47
0.0208333333333333
 47
0.0
 47
0.0
 47
0.0
 47
0.0
 47
1.0
 47
0.0
 47
0.0
 47
0.0
 47
0.0
 47
1.0
171
     0
 49
0.0208333333333333
 49
0.0
 49
0.0
 49
0.0
 49
0.0
 49
0.0208333333333333
 49
0.0
 49
0.0
 49
0.0
 49
0.0
 49
1.0
 49
0.0
 49
0.0
 49
0.0
 49
0.0
 49
1.0
175
     0
142
0.0208333333333333
142
0.0
142
0.0
142
0.0
142
0.0
142
0.0208333333333333
142
0.0
142
0.0
142
0.0
142
0.0
142
1.0
142
0.0
142
0.0
142
0.0
142
0.0
142
1.0
179
     0
144
0.0208333333333333
144
0.0
144
0.0
144
0.0
144
0.0
144
0.0208333333333333
144
0.0
144
0.0
144
0.0
144
0.0
144
1.0
144
0.0
144
0.0
144
0.0
144
0.0
144
1.0
147
0.0208333333333333
147
0.0
147
0.0
147
0.0
147
0.0
147
0.0208333333333333
147
0.0
147
0.0
147
0.0
147
0.0
147
1.0
147
0.0
147
0.0
147
0.0
147
0.0
147
1.0
  0
MATERIAL
  5
11
102
{ACAD_XDICTIONARY
360
12
102
}
102
{ACAD_REACTORS
330
10
102
}
330
10
100
AcDbMaterial
  1
ByLayer
 72
     0
 43
0.0208333333333333
 43
0.0
 43
0.0
 43
0.0
 43
0.0
 43
0.0208333333333333
 43
0.0
 43
0.0
 43
0.0
 43
0.0
 43
1.0
 43
0.0
 43
0.0
 43
0.0
 43
0.0
 43
1.0
 77
     0
 47
0.0208333333333333
 47
0.0
 47
0.0
 47
0.0
 47
0.0
 47
0.0208333333333333
 47
0.0
 47
0.0
 47
0.0
 47
0.0
 47
1.0
 47
0.0
 47
0.0
 47
0.0
 47
0.0
 47
1.0
171
     0
 49
0.0208333333333333
 49
0.0
 49
0.0
 49
0.0
 49
0.0
 49
0.0208333333333333
 49
0.0
 49
0.0
 49
0.0
 49
0.0
 49
1.0
 49
0.0
 49
0.0
 49
0.0
 49
0.0
 49
1.0
175
     0
142
0.0208333333333333
142
0.0
142
0.0
142
0.0
142
0.0
142
0.0208333333333333
142
0.0
142
0.0
142
0.0
142
0.0
142
1.0
142
0.0
142
0.0
142
0.0
142
0.0
142
1.0
179
     0
144
0.0208333333333333
144
0.0
144
0.0
144
0.0
144
0.0
144
0.0208333333333333
144
0.0
144
0.0
144
0.0
144
0.0
144
1.0
144
0.0
144
0.0
144
0.0
144
0.0
144
1.0
147
0.0208333333333333
147
0.0
147
0.0
147
0.0
147
0.0
147
0.0208333333333333
147
0.0
147
0.0
147
0.0
147
0.0
147
1.0
147
0.0
147
0.0
147
0.0
147
0.0
147
1.0
  0
MATERIAL
  5
21
102
{ACAD_XDICTIONARY
360
22
102
}
102
{ACAD_REACTORS
330
10
102
}
330
10
100
AcDbMaterial
  1
Global
 72
     0
 43
0.0208333333333333
 43
0.0
 43
0.0
 43
0.0
 43
0.0
 43
0.0208333333333333
 43
0.0
 43
0.0
 43
0.0
 43
0.0
 43
1.0
 43
0.0
 43
0.0
 43
0.0
 43
0.0
 43
1.0
 77
     0
 47
0.0208333333333333
 47
0.0
 47
0.0
 47
0.0
 47
0.0
 47
0.0208333333333333
 47
0.0
 47
0.0
 47
0.0
 47
0.0
 47
1.0
 47
0.0
 47
0.0
 47
0.0
 47
0.0
 47
1.0
171
     0
 49
0.0208333333333333
 49
0.0
 49
0.0
 49
0.0
 49
0.0
 49
0.0208333333333333
 49
0.0
 49
0.0
 49
0.0
 49
0.0
 49
1.0
 49
0.0
 49
0.0
 49
0.0
 49
0.0
 49
1.0
175
     0
142
0.0208333333333333
142
0.0
142
0.0
142
0.0
142
0.0
142
0.0208333333333333
142
0.0
142
0.0
142
0.0
142
0.0
142
1.0
142
0.0
142
0.0
142
0.0
142
0.0
142
1.0
179
     0
144
0.0208333333333333
144
0.0
144
0.0
144
0.0
144
0.0
144
0.0208333333333333
144
0.0
144
0.0
144
0.0
144
0.0
144
1.0
144
0.0
144
0.0
144
0.0
144
0.0
144
1.0
147
0.0208333333333333
147
0.0
147
0.0
147
0.0
147
0.0
147
0.0208333333333333
147
0.0
147
0.0
147
0.0
147
0.0
147
1.0
147
0.0
147
0.0
147
0.0
147
0.0
147
1.0
  0
MLEADERSTYLE
  5
67
102
{ACAD_REACTORS
330
66
102
}
330
66
100
AcDbMLeaderStyle
179
     2
170
     2
171
     1
172
     0
 90
        2
 40
0.0
 41
0.0
173
     1
 91
-1056964608
340
5B
 92
       -2
290
     1
 42
0.09
291
     1
 43
0.36
  3
Standard
 44
0.18
300

342
55
174
     1
178
     6
175
     1
176
     0
 93
-1056964608
 45
0.18
292
     0
297
     0
 46
0.18
 94
-1056964608
 47
1.0
 49
1.0
140
1.0
293
     1
141
0.0
294
     1
177
     0
142
1.0
295
     1
296
     0
143
0.125
271
     0
272
     9
273
     9
298
     1
  0
MLINESTYLE
  5
60
102
{ACAD_REACTORS
330
5F
102
}
330
5F
100
AcDbMlineStyle
  2
STANDARD
 70
     0
  3

 62
   256
 51
90.0
 52
90.0
 71
     2
 49
0.5
 62
   256
  6
BYLAYER
 49
-0.5
 62
   256
  6
BYLAYER
  0
ACDBPLACEHOLDER
  5
F
102
{ACAD_REACTORS
330
E
102
}
330
E
  0
SCALE
  5
43
102
{ACAD_REACTORS
330
42
102
}
330
42
100
AcDbScale
 70
     0
300
1:1
140
1.0
141
1.0
290
     1
  0
SCALE
  5
44
102
{ACAD_REACTORS
330
42
102
}
330
42
100
AcDbScale
 70
     0
300
1/128" = 1'-0"
140
0.0078125
141
12.0
290
     0
  0
SCALE
  5
45
102
{ACAD_REACTORS
330
42
102
}
330
42
100
AcDbScale
 70
     0
300
1/64" = 1'-0"
140
0.015625
141
12.0
290
     0
  0
SCALE
  5
46
102
{ACAD_REACTORS
330
42
102
}
330
42
100
AcDbScale
 70
     0
300
1/32" = 1'-0"
140
0.03125
141
12.0
290
     0
  0
SCALE
  5
47
102
{ACAD_REACTORS
330
42
102
}
330
42
100
AcDbScale
 70
     0
300
1/16" = 1'-0"
140
0.0625
141
12.0
290
     0
  0
SCALE
  5
48
102
{ACAD_REACTORS
330
42
102
}
330
42
100
AcDbScale
 70
     0
300
3/32" = 1'-0"
140
0.09375
141
12.0
290
     0
  0
SCALE
  5
49
102
{ACAD_REACTORS
330
42
102
}
330
42
100
AcDbScale
 70
     0
300
1/8" = 1'-0"
140
0.125
141
12.0
290
     0
  0
SCALE
  5
4A
102
{ACAD_REACTORS
330
42
102
}
330
42
100
AcDbScale
 70
     0
300
3/16" = 1'-0"
140
0.1875
141
12.0
290
     0
  0
SCALE
  5
4B
102
{ACAD_REACTORS
330
42
102
}
330
42
100
AcDbScale
 70
     0
300
1/4" = 1'-0"
140
0.25
141
12.0
290
     0
  0
SCALE
  5
4C
102
{ACAD_REACTORS
330
42
102
}
330
42
100
AcDbScale
 70
     0
300
3/8" = 1'-0"
140
0.375
141
12.0
290
     0
  0
SCALE
  5
4D
102
{ACAD_REACTORS
330
42
102
}
330
42
100
AcDbScale
 70
     0
300
1/2" = 1'-0"
140
0.5
141
12.0
290
     0
  0
SCALE
  5
4E
102
{ACAD_REACTORS
330
42
102
}
330
42
100
AcDbScale
 70
     0
300
3/4" = 1'-0"
140
0.75
141
12.0
290
     0
  0
SCALE
  5
4F
102
{ACAD_REACTORS
330
42
102
}
330
42
100
AcDbScale
 70
     0
300
1" = 1'-0"
140
1.0
141
12.0
290
     0
  0
SCALE
  5
50
102
{ACAD_REACTORS
330
42
102
}
330
42
100
AcDbScale
 70
     0
300
1-1/2" = 1'-0"
140
1.5
141
12.0
290
     0
  0
SCALE
  5
51
102
{ACAD_REACTORS
330
42
102
}
330
42
100
AcDbScale
 70
     0
300
3" = 1'-0"
140
3.0
141
12.0
290
     0
  0
SCALE
  5
52
102
{ACAD_REACTORS
330
42
102
}
330
42
100
AcDbScale
 70
     0
300
6" = 1'-0"
140
6.0
141
12.0
290
     0
  0
SCALE
  5
53
102
{ACAD_REACTORS
330
42
102
}
330
42
100
AcDbScale
 70
     0
300
1'-0" = 1'-0"
140
12.0
141
12.0
290
     0
  0
ACDBSECTIONVIEWSTYLE
  5
69
102
{ACAD_REACTORS
330
68
102
}
330
68
100
AcDbModelDocViewStyle
 70
     0
  3
Imperial24
290
     1
300
Imperial24
 90
        0
100
AcDbSectionViewStyle
 70
     0
 71
     0
 90
       78
 71
     1
340
55
 62
   256
 40
0.24
340
0
340
0
 62
   256
 40
0.24
300
I, O, Q, S, X, Z
 40
0.48
 90
        3
 40
0.18
 90
        1
 71
     2
340
5D
 90
       25
 62
   256
340
5D
 90
       50
 62
   256
 40
0.24
 40
0.0
 40
0.24
 71
     3
340
55
 62
   256
 40
0.24
 90
        1
 40
0.75
 90
        1
300
%<\AcVar ViewType \f "%tc1">% %<\AcVar ViewSectionStartId>%-%<\AcVar ViewSectionEndId>%\PSCALE %<\AcVar ViewScale \f "%sn">%
 71
     4
 62
   256
 62
   257
300
ANSI31
 40
1.0
 90
        0
290
     0
290
     0
 90
        6
 40
0.0
 40
1.570796326794896
 40
0.2617993877991494
 40
1.308996938995747
 40
-0.2617993877991494
 40
1.832595714594046
  0
TABLESTYLE
  5
65
102
{ACAD_XDICTIONARY
360
33F
102
}
102
{ACAD_REACTORS
330
64
102
}
330
64
100
AcDbTableStyle
280
     0
  3
Standard
 70
     0
 71
     0
 40
0.06
 41
0.06
280
     0
281
     0
  7
Standard
140
0.18
170
     2
 62
     0
 63
     7
283
     0
 90
      512
 91
        0
  1

274
    -2
284
     1
 64
     0
275
    -2
285
     1
 65
     0
276
    -2
286
     1
 66
     0
277
    -2
287
     1
 67
     0
278
    -2
288
     1
 68
     0
279
    -2
289
     1
 69
     0
  7
Standard
140
0.25
170
     5
 62
     0
 63
     7
283
     0
 90
      512
 91
        0
  1

274
    -2
284
     1
 64
     0
275
    -2
285
     1
 65
     0
276
    -2
286
     1
 66
     0
277
    -2
287
     1
 67
     0
278
    -2
288
     1
 68
     0
279
    -2
289
     1
 69
     0
  7
Standard
140
0.18
170
     5
 62
     0
 63
     7
283
     0
 90
      512
 91
        0
  1

274
    -2
284
     1
 64
     0
275
    -2
285
     1
 65
     0
276
    -2
286
     1
 66
     0
277
    -2
287
     1
 67
     0
278
    -2
288
     1
 68
     0
279
    -2
289
     1
 69
     0
  0
VISUALSTYLE
  5
2F
102
{ACAD_REACTORS
330
29
102
}
330
29
100
AcDbVisualStyle
  2
2dWireframe
 70
     4
177
     3
291
     0
 70
    58
 90
        0
176
     1
 90
        2
176
     1
 90
        0
176
     1
 90
        0
176
     1
 40
0.6
176
     1
 40
30.0
176
     1
 62
     7
420
 16777215
176
     1
 90
        1
176
     1
 90
        4
176
     1
 62
     7
176
     1
 62
   257
176
     1
 90
        1
176
     1
 90
        1
176
     1
 40
1.0
176
     1
 90
        0
176
     1
 62
   257
176
     1
 40
1.0
176
     1
 90
        1
176
     1
 90
        6
176
     1
 90
        2
176
     1
 62
     7
176
     1
 90
        5
176
     1
 90
        0
176
     1
 90
        0
176
     1
290
     0
176
     1
 90
        1
176
     1
 40
0.0
176
     1
 90
        0
176
     1
290
     1
176
     1
290
     1
176
     1
290
     0
176
     1
290
     0
176
     1
290
     0
176
     1
290
     0
176
     1
290
     0
176
     1
290
     0
176
     1
290
     0
176
     1
 90
       50
176
     1
 40
0.0
176
     1
 40
1.0
176
     1
 90
        0
176
     1
 62
    18
420
        0
176
     1
 90
       50
176
     1
 90
        3
176
     1
 62
     5
420
      255
176
     1
290
     0
176
     1
 90
       50
176
     1
 90
       50
176
     1
 90
       50
176
     1
290
     0
176
     1
 90
       50
176
     1
 62
   256
176
     0
 40
1.0
176
     0
 90
        2
176
     1
  1
strokes_ogs.tif
176
     1
290
     0
176
     1
 40
1.0
176
     1
 40
1.0
176
     1
  0
VISUALSTYLE
  5
2E
102
{ACAD_REACTORS
330
29
102
}
330
29
100
AcDbVisualStyle
  2
Basic
 70
     7
177
     3
291
     1
 70
    58
 90
        1
176
     1
 90
        0
176
     1
 90
        1
176
     1
 90
        0
176
     1
 40
0.6
176
     1
 40
30.0
176
     1
 62
     7
420
 16777215
176
     1
 90
        0
176
     1
 90
        4
176
     1
 62
     7
176
     1
 62
   257
176
     1
 90
        1
176
     1
 90
        1
176
     1
 40
1.0
176
     1
 90
        8
176
     1
 62
     7
176
     1
 40
1.0
176
     1
 90
        1
176
     1
 90
        6
176
     1
 90
        2
176
     1
 62
     7
176
     1
 90
        5
176
     1
 90
        0
176
     1
 90
        0
176
     1
290
     0
176
     1
 90
        1
176
     1
 40
0.0
176
     1
 90
        0
176
     1
290
     0
176
     1
290
     1
176
     1
290
     1
176
     1
290
     0
176
     1
290
     0
176
     1
290
     0
176
     1
290
     0
176
     1
290
     0
176
     1
290
     0
176
     1
 90
       50
176
     1
 40
0.0
176
     1
 40
1.0
176
     1
 90
        0
176
     1
 62
    18
420
        0
176
     1
 90
       50
176
     1
 90
        3
176
     1
 62
     5
420
      255
176
     1
290
     0
176
     1
 90
       50
176
     1
 90
       50
176
     1
 90
       50
176
     1
290
     0
176
     1
 90
       50
176
     1
 62
   256
176
     0
 40
1.0
176
     0
 90
        2
176
     1
  1
strokes_ogs.tif
176
     1
290
     0
176
     1
 40
1.0
176
     1
 40
1.0
176
     1
  0
VISUALSTYLE
  5
35
102
{ACAD_REACTORS
330
29
102
}
330
29
100
AcDbVisualStyle
  2
Brighten
 70
    12
177
     3
291
     1
 70
    58
 90
        2
176
     1
 90
        2
176
     1
 90
        0
176
     1
 90
        0
176
     1
 40
0.6
176
     1
 40
30.0
176
     1
 62
     7
420
 16777215
176
     1
 90
        1
176
     1
 90
        4
176
     1
 62
     7
176
     1
 62
   257
176
     1
 90
        1
176
     1
 90
        1
176
     1
 40
1.0
176
     1
 90
        8
176
     1
 62
     7
176
     1
 40
1.0
176
     1
 90
        1
176
     1
 90
        6
176
     1
 90
        2
176
     1
 62
     7
176
     1
 90
        5
176
     1
 90
        0
176
     1
 90
        0
176
     1
290
     0
176
     1
 90
        1
176
     1
 40
50.0
176
     1
 90
        0
176
     1
290
     0
176
     1
290
     1
176
     1
290
     1
176
     1
290
     0
176
     1
290
     0
176
     1
290
     0
176
     1
290
     0
176
     1
290
     0
176
     1
290
     0
176
     1
 90
       50
176
     1
 40
0.0
176
     1
 40
1.0
176
     1
 90
        0
176
     1
 62
    18
420
        0
176
     1
 90
       50
176
     1
 90
        3
176
     1
 62
     5
420
      255
176
     1
290
     0
176
     1
 90
       50
176
     1
 90
       50
176
     1
 90
       50
176
     1
290
     0
176
     1
 90
       50
176
     1
 62
   256
176
     0
 40
1.0
176
     0
 90
        2
176
     1
  1
strokes_ogs.tif
176
     1
290
     0
176
     1
 40
1.0
176
     1
 40
1.0
176
     1
  0
VISUALSTYLE
  5
39
102
{ACAD_REACTORS
330
29
102
}
330
29
100
AcDbVisualStyle
  2
ColorChange
 70
    16
177
     3
291
     1
 70
    58
 90
        2
176
     1
 90
        2
176
     1
 90
        3
176
     1
 90
        0
176
     1
 40
0.6
176
     1
 40
30.0
176
     1
 62
     8
420
  8421504
176
     1
 90
        1
176
     1
 90
        4
176
     1
 62
     7
176
     1
 62
   257
176
     1
 90
        1
176
     1
 90
        1
176
     1
 40
1.0
176
     1
 90
        8
176
     1
 62
     8
420
  8421504
176
     1
 40
1.0
176
     1
 90
        1
176
     1
 90
        6
176
     1
 90
        2
176
     1
 62
     7
176
     1
 90
        5
176
     1
 90
        0
176
     1
 90
        0
176
     1
290
     0
176
     1
 90
        1
176
     1
 40
0.0
176
     1
 90
        0
176
     1
290
     0
176
     1
290
     1
176
     1
290
     1
176
     1
290
     0
176
     1
290
     0
176
     1
290
     0
176
     1
290
     0
176
     1
290
     0
176
     1
290
     0
176
     1
 90
       50
176
     1
 40
0.0
176
     1
 40
1.0
176
     1
 90
        0
176
     1
 62
    18
420
        0
176
     1
 90
       50
176
     1
 90
        3
176
     1
 62
     5
420
      255
176
     1
290
     0
176
     1
 90
       50
176
     1
 90
       50
176
     1
 90
       50
176
     1
290
     0
176
     1
 90
       50
176
     1
 62
   256
176
     0
 40
1.0
176
     0
 90
        2
176
     1
  1
strokes_ogs.tif
176
     1
290
     0
176
     1
 40
1.0
176
     1
 40
1.0
176
     1
  0
VISUALSTYLE
  5
32
102
{ACAD_REACTORS
330
29
102
}
330
29
100
AcDbVisualStyle
  2
Conceptual
 70
     9
177
     3
291
     0
 70
    58
 90
        3
176
     1
 90
        2
176
     1
 90
        0
176
     1
 90
        0
176
     1
 40
0.6
176
     1
 40
30.0
176
     1
 62
     7
420
 16777215
176
     1
 90
        2
176
     1
 90
        2
176
     1
 62
     7
176
     1
 62
   257
176
     1
 90
        1
176
     1
 90
        1
176
     1
 40
179.0
176
     1
 90
        8
176
     1
 62
     7
176
     1
 40
1.0
176
     1
 90
        1
176
     1
 90
        6
176
     1
 90
        2
176
     1
 62
     7
176
     1
 90
        3
176
     1
 90
        0
176
     1
 90
        0
176
     1
290
     0
176
     1
 90
        1
176
     1
 40
0.0
176
     1
 90
        0
176
     1
290
     0
176
     1
290
     1
176
     1
290
     1
176
     1
290
     0
176
     1
290
     0
176
     1
290
     0
176
     1
290
     0
176
     1
290
     0
176
     1
290
     0
176
     1
 90
       50
176
     1
 40
0.0
176
     1
 40
1.0
176
     1
 90
        0
176
     1
 62
    18
420
        0
176
     1
 90
       50
176
     1
 90
        3
176
     1
 62
     5
420
      255
176
     1
290
     0
176
     1
 90
       50
176
     1
 90
       50
176
     1
 90
       50
176
     1
290
     0
176
     1
 90
       50
176
     1
 62
   256
176
     0
 40
1.0
176
     0
 90
        2
176
     1
  1
strokes_ogs.tif
176
     1
290
     0
176
     1
 40
1.0
176
     1
 40
1.0
176
     1
  0
VISUALSTYLE
  5
34
102
{ACAD_REACTORS
330
29
102
}
330
29
100
AcDbVisualStyle
  2
Dim
 70
    11
177
     3
291
     1
 70
    58
 90
        2
176
     1
 90
        2
176
     1
 90
        0
176
     1
 90
        0
176
     1
 40
0.6
176
     1
 40
30.0
176
     1
 62
     7
420
 16777215
176
     1
 90
        1
176
     1
 90
        4
176
     1
 62
     7
176
     1
 62
   257
176
     1
 90
        1
176
     1
 90
        1
176
     1
 40
1.0
176
     1
 90
        8
176
     1
 62
     7
176
     1
 40
1.0
176
     1
 90
        1
176
     1
 90
        6
176
     1
 90
        2
176
     1
 62
     7
176
     1
 90
        5
176
     1
 90
        0
176
     1
 90
        0
176
     1
290
     0
176
     1
 90
        1
176
     1
 40
-50.0
176
     1
 90
        0
176
     1
290
     0
176
     1
290
     1
176
     1
290
     1
176
     1
290
     0
176
     1
290
     0
176
     1
290
     0
176
     1
290
     0
176
     1
290
     0
176
     1
290
     0
176
     1
 90
       50
176
     1
 40
0.0
176
     1
 40
1.0
176
     1
 90
        0
176
     1
 62
    18
420
        0
176
     1
 90
       50
176
     1
 90
        3
176
     1
 62
     5
420
      255
176
     1
290
     0
176
     1
 90
       50
176
     1
 90
       50
176
     1
 90
       50
176
     1
290
     0
176
     1
 90
       50
176
     1
 62
   256
176
     0
 40
1.0
176
     0
 90
        2
176
     1
  1
strokes_ogs.tif
176
     1
290
     0
176
     1
 40
1.0
176
     1
 40
1.0
176
     1
  0
VISUALSTYLE
  5
41
102
{ACAD_REACTORS
330
29
102
}
330
29
100
AcDbVisualStyle
  2
EdgeColorOff
 70
    22
177
     3
291
     1
 70
    58
 90
        2
176
     0
 90
        2
176
     0
 90
        0
176
     0
 90
        0
176
     0
 40
0.6
176
     0
 40
30.0
176
     0
 62
     7
420
 16777215
176
     0
 90
        1
176
     0
 90
        4
176
     0
 62
     7
176
     0
 62
   257
176
     0
 90
        1
176
     0
 90
        1
176
     0
 40
1.0
176
     0
 90
        8
176
     2
 62
     7
176
     0
 40
1.0
176
     0
 90
        1
176
     0
 90
        6
176
     0
 90
        2
176
     0
 62
     7
176
     0
 90
        5
176
     0
 90
        0
176
     0
 90
        0
176
     0
290
     0
176
     0
 90
        1
176
     0
 40
0.0
176
     0
 90
        0
176
     0
290
     0
176
     0
290
     1
176
     0
290
     1
176
     0
290
     0
176
     0
290
     0
176
     0
290
     0
176
     0
290
     0
176
     0
290
     0
176
     0
290
     0
176
     0
 90
       50
176
     0
 40
0.0
176
     0
 40
1.0
176
     0
 90
        0
176
     0
 62
    18
420
        0
176
     0
 90
       50
176
     0
 90
        3
176
     0
 62
     5
420
      255
176
     0
290
     0
176
     0
 90
       50
176
     0
 90
       50
176
     0
 90
       50
176
     0
290
     0
176
     0
 90
       50
176
     0
 62
   256
176
     0
 40
1.0
176
     0
 90
        2
176
     0
  1
strokes_ogs.tif
176
     0
290
     0
176
     0
 40
1.0
176
     0
 40
1.0
176
     0
  0
VISUALSTYLE
  5
38
102
{ACAD_REACTORS
330
29
102
}
330
29
100
AcDbVisualStyle
  2
Facepattern
 70
    15
177
     3
291
     1
 70
    58
 90
        2
176
     1
 90
        2
176
     1
 90
        0
176
     1
 90
        0
176
     1
 40
0.6
176
     1
 40
30.0
176
     1
 62
     7
420
 16777215
176
     1
 90
        1
176
     1
 90
        4
176
     1
 62
     7
176
     1
 62
   257
176
     1
 90
        1
176
     1
 90
        1
176
     1
 40
1.0
176
     1
 90
        8
176
     1
 62
     7
176
     1
 40
1.0
176
     1
 90
        1
176
     1
 90
        6
176
     1
 90
        2
176
     1
 62
     7
176
     1
 90
        5
176
     1
 90
        0
176
     1
 90
        0
176
     1
290
     0
176
     1
 90
        1
176
     1
 40
0.0
176
     1
 90
        0
176
     1
290
     0
176
     1
290
     1
176
     1
290
     1
176
     1
290
     0
176
     1
290
     0
176
     1
290
     0
176
     1
290
     0
176
     1
290
     0
176
     1
290
     0
176
     1
 90
       50
176
     1
 40
0.0
176
     1
 40
1.0
176
     1
 90
        0
176
     1
 62
    18
420
        0
176
     1
 90
       50
176
     1
 90
        3
176
     1
 62
     5
420
      255
176
     1
290
     0
176
     1
 90
       50
176
     1
 90
       50
176
     1
 90
       50
176
     1
290
     0
176
     1
 90
       50
176
     1
 62
   256
176
     0
 40
1.0
176
     0
 90
        2
176
     1
  1
strokes_ogs.tif
176
     1
290
     0
176
     1
 40
1.0
176
     1
 40
1.0
176
     1
  0
VISUALSTYLE
  5
2A
102
{ACAD_REACTORS
330
29
102
}
330
29
100
AcDbVisualStyle
  2
Flat
 70
     0
177
     3
291
     1
 70
    58
 90
        2
176
     1
 90
        1
176
     1
 90
        1
176
     1
 90
        2
176
     1
 40
0.6
176
     1
 40
30.0
176
     1
 62
     7
420
 16777215
176
     1
 90
        0
176
     1
 90
        0
176
     1
 62
     7
176
     1
 62
   257
176
     1
 90
        1
176
     1
 90
        1
176
     1
 40
1.0
176
     1
 90
        8
176
     1
 62
     7
176
     1
 40
1.0
176
     1
 90
        1
176
     1
 90
        6
176
     1
 90
        2
176
     1
 62
     7
176
     1
 90
        5
176
     1
 90
        0
176
     1
 90
        0
176
     1
290
     0
176
     1
 90
       13
176
     1
 40
0.0
176
     1
 90
        0
176
     1
290
     0
176
     1
290
     1
176
     1
290
     1
176
     1
290
     0
176
     1
290
     0
176
     1
290
     0
176
     1
290
     0
176
     1
290
     0
176
     1
290
     0
176
     1
 90
       50
176
     1
 40
0.0
176
     1
 40
1.0
176
     1
 90
        0
176
     1
 62
    18
420
        0
176
     1
 90
       50
176
     1
 90
        3
176
     1
 62
     5
420
      255
176
     1
290
     0
176
     1
 90
       50
176
     1
 90
       50
176
     1
 90
       50
176
     1
290
     0
176
     1
 90
       50
176
     1
 62
   256
176
     0
 40
1.0
176
     0
 90
        2
176
     1
  1
strokes_ogs.tif
176
     1
290
     0
176
     1
 40
1.0
176
     1
 40
1.0
176
     1
  0
VISUALSTYLE
  5
2B
102
{ACAD_REACTORS
330
29
102
}
330
29
100
AcDbVisualStyle
  2
FlatWithEdges
 70
     1
177
     3
291
     1
 70
    58
 90
        2
176
     1
 90
        1
176
     1
 90
        1
176
     1
 90
        2
176
     1
 40
0.6
176
     1
 40
30.0
176
     1
 62
     7
420
 16777215
176
     1
 90
        1
176
     1
 90
        0
176
     1
 62
     7
176
     1
 62
   257
176
     1
 90
        1
176
     1
 90
        1
176
     1
 40
1.0
176
     1
 90
        0
176
     1
 62
   257
176
     1
 40
1.0
176
     1
 90
        1
176
     1
 90
        6
176
     1
 90
        2
176
     1
 62
     7
176
     1
 90
        5
176
     1
 90
        0
176
     1
 90
        0
176
     1
290
     0
176
     1
 90
       13
176
     1
 40
0.0
176
     1
 90
        0
176
     1
290
     0
176
     1
290
     1
176
     1
290
     1
176
     1
290
     0
176
     1
290
     0
176
     1
290
     0
176
     1
290
     0
176
     1
290
     0
176
     1
290
     0
176
     1
 90
       50
176
     1
 40
0.0
176
     1
 40
1.0
176
     1
 90
        0
176
     1
 62
    18
420
        0
176
     1
 90
       50
176
     1
 90
        3
176
     1
 62
     5
420
      255
176
     1
290
     0
176
     1
 90
       50
176
     1
 90
       50
176
     1
 90
       50
176
     1
290
     0
176
     1
 90
       50
176
     1
 62
   256
176
     0
 40
1.0
176
     0
 90
        2
176
     1
  1
strokes_ogs.tif
176
     1
290
     0
176
     1
 40
1.0
176
     1
 40
1.0
176
     1
  0
VISUALSTYLE
  5
2C
102
{ACAD_REACTORS
330
29
102
}
330
29
100
AcDbVisualStyle
  2
Gouraud
 70
     2
177
     3
291
     1
 70
    58
 90
        2
176
     1
 90
        2
176
     1
 90
        1
176
     1
 90
        2
176
     1
 40
0.6
176
     1
 40
30.0
176
     1
 62
     7
420
 16777215
176
     1
 90
        0
176
     1
 90
        0
176
     1
 62
     7
176
     1
 62
   257
176
     1
 90
        1
176
     1
 90
        1
176
     1
 40
1.0
176
     1
 90
        0
176
     1
 62
     7
176
     1
 40
1.0
176
     1
 90
        1
176
     1
 90
        6
176
     1
 90
        2
176
     1
 62
     7
176
     1
 90
        5
176
     1
 90
        0
176
     1
 90
        0
176
     1
290
     0
176
     1
 90
       13
176
     1
 40
0.0
176
     1
 90
        0
176
     1
290
     0
176
     1
290
     1
176
     1
290
     1
176
     1
290
     0
176
     1
290
     0
176
     1
290
     0
176
     1
290
     0
176
     1
290
     0
176
     1
290
     0
176
     1
 90
       50
176
     1
 40
0.0
176
     1
 40
1.0
176
     1
 90
        0
176
     1
 62
    18
420
        0
176
     1
 90
       50
176
     1
 90
        3
176
     1
 62
     5
420
      255
176
     1
290
     0
176
     1
 90
       50
176
     1
 90
       50
176
     1
 90
       50
176
     1
290
     0
176
     1
 90
       50
176
     1
 62
   256
176
     0
 40
1.0
176
     0
 90
        2
176
     1
  1
strokes_ogs.tif
176
     1
290
     0
176
     1
 40
1.0
176
     1
 40
1.0
176
     1
  0
VISUALSTYLE
  5
2D
102
{ACAD_REACTORS
330
29
102
}
330
29
100
AcDbVisualStyle
  2
GouraudWithEdges
 70
     3
177
     3
291
     1
 70
    58
 90
        2
176
     1
 90
        2
176
     1
 90
        1
176
     1
 90
        2
176
     1
 40
0.6
176
     1
 40
30.0
176
     1
 62
     7
420
 16777215
176
     1
 90
        1
176
     1
 90
        0
176
     1
 62
     7
176
     1
 62
   257
176
     1
 90
        1
176
     1
 90
        1
176
     1
 40
1.0
176
     1
 90
        0
176
     1
 62
   257
176
     1
 40
1.0
176
     1
 90
        1
176
     1
 90
        6
176
     1
 90
        2
176
     1
 62
     7
176
     1
 90
        5
176
     1
 90
        0
176
     1
 90
        0
176
     1
290
     0
176
     1
 90
       13
176
     1
 40
0.0
176
     1
 90
        0
176
     1
290
     0
176
     1
290
     1
176
     1
290
     1
176
     1
290
     0
176
     1
290
     0
176
     1
290
     0
176
     1
290
     0
176
     1
290
     0
176
     1
290
     0
176
     1
 90
       50
176
     1
 40
0.0
176
     1
 40
1.0
176
     1
 90
        0
176
     1
 62
    18
420
        0
176
     1
 90
       50
176
     1
 90
        3
176
     1
 62
     5
420
      255
176
     1
290
     0
176
     1
 90
       50
176
     1
 90
       50
176
     1
 90
       50
176
     1
290
     0
176
     1
 90
       50
176
     1
 62
   256
176
     0
 40
1.0
176
     0
 90
        2
176
     1
  1
strokes_ogs.tif
176
     1
290
     0
176
     1
 40
1.0
176
     1
 40
1.0
176
     1
  0
VISUALSTYLE
  5
31
102
{ACAD_REACTORS
330
29
102
}
330
29
100
AcDbVisualStyle
  2
Hidden
 70
     6
177
     3
291
     0
 70
    58
 90
        1
176
     1
 90
        2
176
     1
 90
        2
176
     1
 90
        0
176
     1
 40
0.6
176
     1
 40
30.0
176
     1
 62
     7
420
 16777215
176
     1
 90
        2
176
     1
 90
        2
176
     1
 62
     7
176
     1
 62
   257
176
     1
 90
        2
176
     1
 90
        1
176
     1
 40
40.0
176
     1
 90
        0
176
     1
 62
   257
176
     1
 40
1.0
176
     1
 90
        1
176
     1
 90
        6
176
     1
 90
        2
176
     1
 62
     7
176
     1
 90
        3
176
     1
 90
        0
176
     1
 90
        0
176
     1
290
     0
176
     1
 90
        1
176
     1
 40
0.0
176
     1
 90
        0
176
     1
290
     0
176
     1
290
     1
176
     1
290
     1
176
     1
290
     0
176
     1
290
     0
176
     1
290
     0
176
     1
290
     0
176
     1
290
     0
176
     1
290
     0
176
     1
 90
       50
176
     1
 40
0.0
176
     1
 40
1.0
176
     1
 90
        0
176
     1
 62
    18
420
        0
176
     1
 90
       50
176
     1
 90
        3
176
     1
 62
     5
420
      255
176
     1
290
     0
176
     1
 90
       50
176
     1
 90
       50
176
     1
 90
       50
176
     1
290
     0
176
     1
 90
       50
176
     1
 62
   256
176
     0
 40
1.0
176
     0
 90
        2
176
     1
  1
strokes_ogs.tif
176
     1
290
     0
176
     1
 40
1.0
176
     1
 40
1.0
176
     1
  0
VISUALSTYLE
  5
3F
102
{ACAD_REACTORS
330
29
102
}
330
29
100
AcDbVisualStyle
  2
JitterOff
 70
    20
177
     3
291
     1
 70
    58
 90
        2
176
     0
 90
        2
176
     0
 90
        0
176
     0
 90
        0
176
     0
 40
0.6
176
     0
 40
30.0
176
     0
 62
     7
420
 16777215
176
     0
 90
        1
176
     0
 90
        4
176
     0
 62
     7
176
     0
 62
   257
176
     0
 90
        1
176
     0
 90
        1
176
     0
 40
1.0
176
     0
 90
       10
176
     2
 62
     7
176
     0
 40
1.0
176
     0
 90
        1
176
     0
 90
        6
176
     0
 90
        2
176
     0
 62
     7
176
     0
 90
        5
176
     0
 90
        0
176
     0
 90
        0
176
     0
290
     0
176
     0
 90
        1
176
     0
 40
0.0
176
     0
 90
        0
176
     0
290
     0
176
     0
290
     1
176
     0
290
     1
176
     0
290
     0
176
     0
290
     0
176
     0
290
     0
176
     0
290
     0
176
     0
290
     0
176
     0
290
     0
176
     0
 90
       50
176
     0
 40
0.0
176
     0
 40
1.0
176
     0
 90
        0
176
     0
 62
    18
420
        0
176
     0
 90
       50
176
     0
 90
        3
176
     0
 62
     5
420
      255
176
     0
290
     0
176
     0
 90
       50
176
     0
 90
       50
176
     0
 90
       50
176
     0
290
     0
176
     0
 90
       50
176
     0
 62
   256
176
     0
 40
1.0
176
     0
 90
        2
176
     0
  1
strokes_ogs.tif
176
     0
290
     0
176
     0
 40
1.0
176
     0
 40
1.0
176
     0
  0
VISUALSTYLE
  5
37
102
{ACAD_REACTORS
330
29
102
}
330
29
100
AcDbVisualStyle
  2
Linepattern
 70
    14
177
     3
291
     1
 70
    58
 90
        2
176
     1
 90
        2
176
     1
 90
        0
176
     1
 90
        0
176
     1
 40
0.6
176
     1
 40
30.0
176
     1
 62
     7
420
 16777215
176
     1
 90
        1
176
     1
 90
        4
176
     1
 62
     7
176
     1
 62
   257
176
     1
 90
        7
176
     1
 90
        7
176
     1
 40
1.0
176
     1
 90
        8
176
     1
 62
     7
176
     1
 40
1.0
176
     1
 90
        1
176
     1
 90
        6
176
     1
 90
        2
176
     1
 62
     7
176
     1
 90
        5
176
     1
 90
        0
176
     1
 90
        0
176
     1
290
     0
176
     1
 90
        1
176
     1
 40
0.0
176
     1
 90
        0
176
     1
290
     0
176
     1
290
     1
176
     1
290
     1
176
     1
290
     0
176
     1
290
     0
176
     1
290
     0
176
     1
290
     0
176
     1
290
     0
176
     1
290
     0
176
     1
 90
       50
176
     1
 40
0.0
176
     1
 40
1.0
176
     1
 90
        0
176
     1
 62
    18
420
        0
176
     1
 90
       50
176
     1
 90
        3
176
     1
 62
     5
420
      255
176
     1
290
     0
176
     1
 90
       50
176
     1
 90
       50
176
     1
 90
       50
176
     1
290
     0
176
     1
 90
       50
176
     1
 62
   256
176
     0
 40
1.0
176
     0
 90
        2
176
     1
  1
strokes_ogs.tif
176
     1
290
     0
176
     1
 40
1.0
176
     1
 40
1.0
176
     1
  0
VISUALSTYLE
  5
40
102
{ACAD_REACTORS
330
29
102
}
330
29
100
AcDbVisualStyle
  2
OverhangOff
 70
    21
177
     3
291
     1
 70
    58
 90
        2
176
     0
 90
        2
176
     0
 90
        0
176
     0
 90
        0
176
     0
 40
0.6
176
     0
 40
30.0
176
     0
 62
     7
420
 16777215
176
     0
 90
        1
176
     0
 90
        4
176
     0
 62
     7
176
     0
 62
   257
176
     0
 90
        1
176
     0
 90
        1
176
     0
 40
1.0
176
     0
 90
        9
176
     2
 62
     7
176
     0
 40
1.0
176
     0
 90
        1
176
     0
 90
        6
176
     0
 90
        2
176
     0
 62
     7
176
     0
 90
        5
176
     0
 90
        0
176
     0
 90
        0
176
     0
290
     0
176
     0
 90
        1
176
     0
 40
0.0
176
     0
 90
        0
176
     0
290
     0
176
     0
290
     1
176
     0
290
     1
176
     0
290
     0
176
     0
290
     0
176
     0
290
     0
176
     0
290
     0
176
     0
290
     0
176
     0
290
     0
176
     0
 90
       50
176
     0
 40
0.0
176
     0
 40
1.0
176
     0
 90
        0
176
     0
 62
    18
420
        0
176
     0
 90
       50
176
     0
 90
        3
176
     0
 62
     5
420
      255
176
     0
290
     0
176
     0
 90
       50
176
     0
 90
       50
176
     0
 90
       50
176
     0
290
     0
176
     0
 90
       50
176
     0
 62
   256
176
     0
 40
1.0
176
     0
 90
        2
176
     0
  1
strokes_ogs.tif
176
     0
290
     0
176
     0
 40
1.0
176
     0
 40
1.0
176
     0
  0
VISUALSTYLE
  5
33
102
{ACAD_REACTORS
330
29
102
}
330
29
100
AcDbVisualStyle
  2
Realistic
 70
     8
177
     3
291
     0
 70
    58
 90
        2
176
     1
 90
        3
176
     1
 90
        0
176
     1
 90
        2
176
     1
 40
0.6
176
     1
 40
30.0
176
     1
 62
     7
420
 16777215
176
     1
 90
        0
176
     1
 90
        0
176
     1
 62
     7
176
     1
 62
   257
176
     1
 90
        1
176
     1
 90
        1
176
     1
 40
1.0
176
     1
 90
        8
176
     1
 62
   257
176
     1
 40
1.0
176
     1
 90
        1
176
     1
 90
        6
176
     1
 90
        2
176
     1
 62
     7
176
     1
 90
        3
176
     1
 90
        0
176
     1
 90
        0
176
     1
290
     0
176
     1
 90
       13
176
     1
 40
0.0
176
     1
 90
        0
176
     1
290
     0
176
     1
290
     1
176
     1
290
     1
176
     1
290
     0
176
     1
290
     0
176
     1
290
     0
176
     1
290
     0
176
     1
290
     0
176
     1
290
     0
176
     1
 90
       50
176
     1
 40
0.0
176
     1
 40
1.0
176
     1
 90
        0
176
     1
 62
    18
420
        0
176
     1
 90
       50
176
     1
 90
        3
176
     1
 62
     5
420
      255
176
     1
290
     0
176
     1
 90
       50
176
     1
 90
       50
176
     1
 90
       50
176
     1
290
     0
176
     1
 90
       50
176
     1
 62
   256
176
     0
 40
1.0
176
     0
 90
        2
176
     1
  1
strokes_ogs.tif
176
     1
290
     0
176
     1
 40
1.0
176
     1
 40
1.0
176
     1
  0
VISUALSTYLE
  5
3E
102
{ACAD_REACTORS
330
29
102
}
330
29
100
AcDbVisualStyle
  2
Shaded
 70
    27
177
     3
291
     0
 70
    58
 90
        2
176
     1
 90
        2
176
     1
 90
        1
176
     1
 90
        2
176
     1
 40
0.6
176
     1
 40
30.0
176
     1
 62
     7
420
 16777215
176
     1
 90
        0
176
     1
 90
        4
176
     1
 62
     7
176
     1
 62
   257
176
     1
 90
        1
176
     1
 90
        1
176
     1
 40
1.0
176
     1
 90
        8
176
     1
 62
   257
176
     1
 40
1.0
176
     1
 90
        1
176
     1
 90
        6
176
     1
 90
        2
176
     1
 62
     8
420
  7895160
176
     1
 90
        3
176
     1
 90
        0
176
     1
 90
        0
176
     1
290
     0
176
     1
 90
        5
176
     1
 40
0.0
176
     1
 90
        0
176
     1
290
     0
176
     1
290
     1
176
     1
290
     1
176
     1
290
     0
176
     1
290
     0
176
     1
290
     0
176
     1
290
     0
176
     1
290
     0
176
     1
290
     0
176
     1
 90
       50
176
     1
 40
0.0
176
     1
 40
1.0
176
     1
 90
        0
176
     1
 62
    18
420
        0
176
     1
 90
       50
176
     1
 90
        3
176
     1
 62
     5
420
      255
176
     1
290
     0
176
     1
 90
       50
176
     1
 90
       50
176
     1
 90
       50
176
     1
290
     0
176
     1
 90
       50
176
     1
 62
   256
176
     0
 40
1.0
176
     0
 90
        2
176
     1
  1
strokes_ogs.tif
176
     1
290
     0
176
     1
 40
1.0
176
     1
 40
1.0
176
     1
  0
VISUALSTYLE
  5
3D
102
{ACAD_REACTORS
330
29
102
}
330
29
100
AcDbVisualStyle
  2
Shaded with edges
 70
    26
177
     3
291
     0
 70
    58
 90
        2
176
     1
 90
        2
176
     1
 90
        1
176
     1
 90
        2
176
     1
 40
0.6
176
     1
 40
30.0
176
     1
 62
     7
420
 16777215
176
     1
 90
        1
176
     1
 90
        2
176
     1
 62
     7
176
     1
 62
   257
176
     1
 90
        2
176
     1
 90
        1
176
     1
 40
1.0
176
     1
 90
        8
176
     1
 62
   257
176
     1
 40
1.0
176
     1
 90
        1
176
     1
 90
        6
176
     1
 90
        2
176
     1
 62
     7
176
     1
 90
        3
176
     1
 90
        0
176
     1
 90
        0
176
     1
290
     0
176
     1
 90
        5
176
     1
 40
0.0
176
     1
 90
        0
176
     1
290
     0
176
     1
290
     1
176
     1
290
     1
176
     1
290
     0
176
     1
290
     0
176
     1
290
     0
176
     1
290
     0
176
     1
290
     0
176
     1
290
     0
176
     1
 90
       50
176
     1
 40
0.0
176
     1
 40
1.0
176
     1
 90
        0
176
     1
 62
    18
420
        0
176
     1
 90
       50
176
     1
 90
        3
176
     1
 62
     5
420
      255
176
     1
290
     0
176
     1
 90
       50
176
     1
 90
       50
176
     1
 90
       50
176
     1
290
     0
176
     1
 90
       50
176
     1
 62
   256
176
     0
 40
1.0
176
     0
 90
        2
176
     1
  1
strokes_ogs.tif
176
     1
290
     0
176
     1
 40
1.0
176
     1
 40
1.0
176
     1
  0
VISUALSTYLE
  5
3A
102
{ACAD_REACTORS
330
29
102
}
330
29
100
AcDbVisualStyle
  2
Shades of Gray
 70
    23
177
     3
291
     0
 70
    58
 90
        2
176
     1
 90
        2
176
     1
 90
        3
176
     1
 90
        0
176
     1
 40
0.6
176
     1
 40
30.0
176
     1
 62
     7
420
 16777215
176
     1
 90
        2
176
     1
 90
        2
176
     1
 62
     7
176
     1
 62
     7
176
     1
 90
        1
176
     1
 90
        1
176
     1
 40
40.0
176
     1
 90
        8
176
     1
 62
     7
176
     1
 40
1.0
176
     1
 90
        1
176
     1
 90
        6
176
     1
 90
        2
176
     1
 62
     7
176
     1
 90
        3
176
     1
 90
        0
176
     1
 90
        0
176
     1
290
     0
176
     1
 90
        1
176
     1
 40
0.0
176
     1
 90
        0
176
     1
290
     0
176
     1
290
     1
176
     1
290
     1
176
     1
290
     0
176
     1
290
     0
176
     1
290
     0
176
     1
290
     0
176
     1
290
     0
176
     1
290
     0
176
     1
 90
       50
176
     1
 40
0.0
176
     1
 40
1.0
176
     1
 90
        0
176
     1
 62
    18
420
        0
176
     1
 90
       50
176
     1
 90
        3
176
     1
 62
     5
420
      255
176
     1
290
     0
176
     1
 90
       50
176
     1
 90
       50
176
     1
 90
       50
176
     1
290
     0
176
     1
 90
       50
176
     1
 62
   256
176
     0
 40
1.0
176
     0
 90
        2
176
     1
  1
strokes_ogs.tif
176
     1
290
     0
176
     1
 40
1.0
176
     1
 40
1.0
176
     1
  0
VISUALSTYLE
  5
3B
102
{ACAD_REACTORS
330
29
102
}
330
29
100
AcDbVisualStyle
  2
Sketchy
 70
    24
177
     3
291
     0
 70
    58
 90
        1
176
     1
 90
        2
176
     1
 90
        2
176
     1
 90
        0
176
     1
 40
0.6
176
     1
 40
30.0
176
     1
 62
     7
420
 16777215
176
     1
 90
        2
176
     1
 90
        2
176
     1
 62
     7
176
     1
 62
     7
176
     1
 90
        1
176
     1
 90
        1
176
     1
 40
40.0
176
     1
 90
       11
176
     1
 62
     7
176
     1
 40
1.0
176
     1
 90
        1
176
     1
 90
        6
176
     1
 90
        2
176
     1
 62
     7
176
     1
 90
        6
176
     1
 90
        0
176
     1
 90
        0
176
     1
290
     0
176
     1
 90
        1
176
     1
 40
0.0
176
     1
 90
        0
176
     1
290
     0
176
     1
290
     1
176
     1
290
     1
176
     1
290
     0
176
     1
290
     0
176
     1
290
     0
176
     1
290
     0
176
     1
290
     0
176
     1
290
     0
176
     1
 90
       50
176
     1
 40
0.0
176
     1
 40
1.0
176
     1
 90
        0
176
     1
 62
    18
420
        0
176
     1
 90
       50
176
     1
 90
        3
176
     1
 62
     5
420
      255
176
     1
290
     0
176
     1
 90
       50
176
     1
 90
       50
176
     1
 90
       50
176
     1
290
     0
176
     1
 90
       50
176
     1
 62
   256
176
     0
 40
1.0
176
     0
 90
        2
176
     1
  1
strokes_ogs.tif
176
     1
290
     0
176
     1
 40
1.0
176
     1
 40
1.0
176
     1
  0
VISUALSTYLE
  5
36
102
{ACAD_REACTORS
330
29
102
}
330
29
100
AcDbVisualStyle
  2
Thicken
 70
    13
177
     3
291
     1
 70
    58
 90
        2
176
     1
 90
        2
176
     1
 90
        0
176
     1
 90
        0
176
     1
 40
0.6
176
     1
 40
30.0
176
     1
 62
     7
420
 16777215
176
     1
 90
        1
176
     1
 90
        4
176
     1
 62
     7
176
     1
 62
   257
176
     1
 90
        1
176
     1
 90
        1
176
     1
 40
1.0
176
     1
 90
       12
176
     1
 62
     7
176
     1
 40
1.0
176
     1
 90
        1
176
     1
 90
        6
176
     1
 90
        2
176
     1
 62
     7
176
     1
 90
        5
176
     1
 90
        0
176
     1
 90
        0
176
     1
290
     0
176
     1
 90
        1
176
     1
 40
0.0
176
     1
 90
        0
176
     1
290
     0
176
     1
290
     1
176
     1
290
     1
176
     1
290
     0
176
     1
290
     0
176
     1
290
     0
176
     1
290
     0
176
     1
290
     0
176
     1
290
     0
176
     1
 90
       50
176
     1
 40
0.0
176
     1
 40
1.0
176
     1
 90
        0
176
     1
 62
    18
420
        0
176
     1
 90
       50
176
     1
 90
        3
176
     1
 62
     5
420
      255
176
     1
290
     0
176
     1
 90
       50
176
     1
 90
       50
176
     1
 90
       50
176
     1
290
     0
176
     1
 90
       50
176
     1
 62
   256
176
     0
 40
1.0
176
     0
 90
        2
176
     1
  1
strokes_ogs.tif
176
     1
290
     0
176
     1
 40
1.0
176
     1
 40
1.0
176
     1
  0
VISUALSTYLE
  5
30
102
{ACAD_REACTORS
330
29
102
}
330
29
100
AcDbVisualStyle
  2
Wireframe
 70
     5
177
     3
291
     0
 70
    58
 90
        0
176
     1
 90
        2
176
     1
 90
        0
176
     1
 90
        0
176
     1
 40
0.6
176
     1
 40
30.0
176
     1
 62
     7
420
 16777215
176
     1
 90
        1
176
     1
 90
        4
176
     1
 62
     7
176
     1
 62
   257
176
     1
 90
        1
176
     1
 90
        1
176
     1
 40
1.0
176
     1
 90
        0
176
     1
 62
   257
176
     1
 40
1.0
176
     1
 90
        1
176
     1
 90
        6
176
     1
 90
        2
176
     1
 62
     7
176
     1
 90
        3
176
     1
 90
        0
176
     1
 90
        0
176
     1
290
     0
176
     1
 90
        1
176
     1
 40
0.0
176
     1
 90
        0
176
     1
290
     0
176
     1
290
     1
176
     1
290
     1
176
     1
290
     0
176
     1
290
     0
176
     1
290
     0
176
     1
290
     0
176
     1
290
     0
176
     1
290
     0
176
     1
 90
       50
176
     1
 40
0.0
176
     1
 40
1.0
176
     1
 90
        0
176
     1
 62
    18
420
        0
176
     1
 90
       50
176
     1
 90
        3
176
     1
 62
     5
420
      255
176
     1
290
     0
176
     1
 90
       50
176
     1
 90
       50
176
     1
 90
       50
176
     1
290
     0
176
     1
 90
       50
176
     1
 62
   256
176
     0
 40
1.0
176
     0
 90
        2
176
     1
  1
strokes_ogs.tif
176
     1
290
     0
176
     1
 40
1.0
176
     1
 40
1.0
176
     1
  0
VISUALSTYLE
  5
3C
102
{ACAD_REACTORS
330
29
102
}
330
29
100
AcDbVisualStyle
  2
X-Ray
 70
    25
177
     3
291
     0
 70
    58
 90
        2
176
     1
 90
        2
176
     1
 90
        1
176
     1
 90
        1
176
     1
 40
0.5
176
     1
 40
30.0
176
     1
 62
     7
420
 16777215
176
     1
 90
        1
176
     1
 90
        0
176
     1
 62
     7
176
     1
 62
   257
176
     1
 90
        1
176
     1
 90
        1
176
     1
 40
1.0
176
     1
 90
        8
176
     1
 62
     7
176
     1
 40
1.0
176
     1
 90
        1
176
     1
 90
        6
176
     1
 90
        2
176
     1
 62
     7
176
     1
 90
        3
176
     1
 90
        0
176
     1
 90
        0
176
     1
290
     0
176
     1
 90
       13
176
     1
 40
0.0
176
     1
 90
        0
176
     1
290
     0
176
     1
290
     1
176
     1
290
     1
176
     1
290
     0
176
     1
290
     0
176
     1
290
     0
176
     1
290
     0
176
     1
290
     0
176
     1
290
     0
176
     1
 90
       50
176
     1
 40
0.0
176
     1
 40
1.0
176
     1
 90
        0
176
     1
 62
    18
420
        0
176
     1
 90
       50
176
     1
 90
        3
176
     1
 62
     5
420
      255
176
     1
290
     0
176
     1
 90
       50
176
     1
 90
       50
176
     1
 90
       50
176
     1
290
     0
176
     1
 90
       50
176
     1
 62
   256
176
     0
 40
1.0
176
     0
 90
        2
176
     1
  1
strokes_ogs.tif
176
     1
290
     0
176
     1
 40
1.0
176
     1
 40
1.0
176
     1
  0
DICTIONARYVAR
  5
33E
102
{ACAD_REACTORS
330
339
102
}
330
339
100
DictionaryVariables
280
     0
  1
1:1
  0
DICTIONARYVAR
  5
33B
102
{ACAD_REACTORS
330
339
102
}
330
339
100
DictionaryVariables
280
     0
  1
STANDARD
  0
DICTIONARYVAR
  5
33A
102
{ACAD_REACTORS
330
339
102
}
330
339
100
DictionaryVariables
280
     0
  1
STANDARD
  0
DICTIONARYVAR
  5
33C
102
{ACAD_REACTORS
330
339
102
}
330
339
100
DictionaryVariables
280
     0
  1
Imperial24
  0
DICTIONARYVAR
  5
33D
102
{ACAD_REACTORS
330
339
102
}
330
339
100
DictionaryVariables
280
     0
  1
Imperial24
  0
DICTIONARY
  5
1A
330
19
100
AcDbDictionary
280
     1
281
     1
  3
BUMPTILE
360
1C
  3
DIFFUSETILE
360
1B
  3
OPACITYTILE
360
1F
  3
REFLECTIONTILE
360
1E
  3
REFRACTIONTILE
360
20
  3
SPECULARTILE
360
1D
  0
DICTIONARY
  5
12
330
11
100
AcDbDictionary
280
     1
281
     1
  3
BUMPTILE
360
14
  3
DIFFUSETILE
360
13
  3
OPACITYTILE
360
17
  3
REFLECTIONTILE
360
16
  3
REFRACTIONTILE
360
18
  3
SPECULARTILE
360
15
  0
DICTIONARY
  5
22
330
21
100
AcDbDictionary
280
     1
281
     1
  3
BUMPTILE
360
24
  3
DIFFUSETILE
360
23
  3
OPACITYTILE
360
27
  3
REFLECTIONTILE
360
26
  3
REFRACTIONTILE
360
28
  3
SPECULARTILE
360
25
  0
DICTIONARY
  5
33F
330
65
100
AcDbDictionary
280
     1
281
     1
  3
ACAD_ROUNDTRIP_2008_TABLESTYLE_CELLSTYLEMAP
360
340
  0
XRECORD
  5
1C
102
{ACAD_REACTORS
330
1A
102
}
330
1A
100
AcDbXrecord
280
     1
270
     1
271
     1
  0
XRECORD
  5
1B
102
{ACAD_REACTORS
330
1A
102
}
330
1A
100
AcDbXrecord
280
     1
270
     1
271
     1
  0
XRECORD
  5
1F
102
{ACAD_REACTORS
330
1A
102
}
330
1A
100
AcDbXrecord
280
     1
270
     1
271
     1
  0
XRECORD
  5
1E
102
{ACAD_REACTORS
330
1A
102
}
330
1A
100
AcDbXrecord
280
     1
270
     1
271
     1
  0
XRECORD
  5
20
102
{ACAD_REACTORS
330
1A
102
}
330
1A
100
AcDbXrecord
280
     1
270
     1
271
     1
  0
XRECORD
  5
1D
102
{ACAD_REACTORS
330
1A
102
}
330
1A
100
AcDbXrecord
280
     1
270
     1
271
     1
  0
XRECORD
  5
14
102
{ACAD_REACTORS
330
12
102
}
330
12
100
AcDbXrecord
280
     1
270
     1
271
     1
  0
XRECORD
  5
13
102
{ACAD_REACTORS
330
12
102
}
330
12
100
AcDbXrecord
280
     1
270
     1
271
     1
  0
XRECORD
  5
17
102
{ACAD_REACTORS
330
12
102
}
330
12
100
AcDbXrecord
280
     1
270
     1
271
     1
  0
XRECORD
  5
16
102
{ACAD_REACTORS
330
12
102
}
330
12
100
AcDbXrecord
280
     1
270
     1
271
     1
  0
XRECORD
  5
18
102
{ACAD_REACTORS
330
12
102
}
330
12
100
AcDbXrecord
280
     1
270
     1
271
     1
  0
XRECORD
  5
15
102
{ACAD_REACTORS
330
12
102
}
330
12
100
AcDbXrecord
280
     1
270
     1
271
     1
  0
XRECORD
  5
24
102
{ACAD_REACTORS
330
22
102
}
330
22
100
AcDbXrecord
280
     1
270
     1
271
     1
  0
XRECORD
  5
23
102
{ACAD_REACTORS
330
22
102
}
330
22
100
AcDbXrecord
280
     1
270
     1
271
     1
  0
XRECORD
  5
27
102
{ACAD_REACTORS
330
22
102
}
330
22
100
AcDbXrecord
280
     1
270
     1
271
     1
  0
XRECORD
  5
26
102
{ACAD_REACTORS
330
22
102
}
330
22
100
AcDbXrecord
280
     1
270
     1
271
     1
  0
XRECORD
  5
28
102
{ACAD_REACTORS
330
22
102
}
330
22
100
AcDbXrecord
280
     1
270
     1
271
     1
  0
XRECORD
  5
25
102
{ACAD_REACTORS
330
22
102
}
330
22
100
AcDbXrecord
280
     1
270
     1
271
     1
  0
CELLSTYLEMAP
  5
340
102
{ACAD_REACTORS
330
33F
102
}
330
33F
100
AcDbCellStyleMap
 90
        3
300
CELLSTYLE
  1
TABLEFORMAT_BEGIN
 90
        5
170
     1
 91
        0
 92
    32768
 62
   257
 93
        1
300
CONTENTFORMAT
  1
CONTENTFORMAT_BEGIN
 90
        0
 91
        0
 92
      512
 93
        0
300

 40
0.0
140
1.0
 94
        5
 62
     0
340
55
144
0.25
309
CONTENTFORMAT_END
171
     0
 94
        0
309
TABLEFORMAT_END
  1
CELLSTYLE_BEGIN
 90
        1
 91
        1
300
_TITLE
309
CELLSTYLE_END
300
CELLSTYLE
  1
TABLEFORMAT_BEGIN
 90
        5
170
     1
 91
        0
 92
        0
 62
   257
 93
        1
300
CONTENTFORMAT
  1
CONTENTFORMAT_BEGIN
 90
        0
 91
        0
 92
      512
 93
        0
300

 40
0.0
140
1.0
 94
        5
 62
     0
340
55
144
0.18
309
CONTENTFORMAT_END
171
     0
 94
        0
309
TABLEFORMAT_END
  1
CELLSTYLE_BEGIN
 90
        2
 91
        1
300
_HEADER
309
CELLSTYLE_END
300
CELLSTYLE
  1
TABLEFORMAT_BEGIN
 90
        5
170
     1
 91
        0
 92
        0
 62
   257
 93
        1
300
CONTENTFORMAT
  1
CONTENTFORMAT_BEGIN
 90
        0
 91
        0
 92
      512
 93
        0
300

 40
0.0
140
1.0
 94
        2
 62
     0
340
55
144
0.18
309
CONTENTFORMAT_END
171
     0
 94
        0
309
TABLEFORMAT_END
  1
CELLSTYLE_BEGIN
 90
        3
 91
        2
300
_DATA
309
CELLSTYLE_END
  0
ENDSEC
  0
EOF
