  0
SECTION
  2
HEADER
  9
$ACADVER
  1
AC1032
  9
$ACADMAINTVER
 90
      197
  9
$DWGCODEPAGE
  3
ANSI_1252
  9
$REQUIREDVERSIONS
160
                 0
  9
$INSBASE
 10
0.0
 20
0.0
 30
0.0
  9
$EXTMIN
 10
1.000000000000000E+20
 20
1.000000000000000E+20
 30
1.000000000000000E+20
  9
$EXTMAX
 10
-1.000000000000000E+20
 20
-1.000000000000000E+20
 30
-1.000000000000000E+20
  9
$LIMMIN
 10
0.0
 20
0.0
  9
$LIMMAX
 10
12.0
 20
9.0
  9
$ORTHOMODE
 70
     0
  9
$REGENMODE
 70
     1
  9
$FILLMODE
 70
     1
  9
$QTEXTMODE
 70
     0
  9
$MIRRTEXT
 70
     0
  9
$LTSCALE
 40
1.0
  9
$ATTMODE
 70
     1
  9
$TEXTSIZE
 40
0.2
  9
$TRACEWID
 40
0.05
  9
$TEXTSTYLE
  7
Standard
  9
$CLAYER
  8
0
  9
$CELTYPE
  6
ByLayer
  9
$CECOLOR
 62
   256
  9
$CELTSCALE
 40
1.0
  9
$DISPSILH
 70
     0
  9
$DIMSCALE
 40
1.0
  9
$DIMASZ
 40
0.18
  9
$DIMEXO
 40
0.0625
  9
$DIMDLI
 40
0.38
  9
$DIMRND
 40
0.0
  9
$DIMDLE
 40
0.0
  9
$DIMEXE
 40
0.18
  9
$DIMTP
 40
0.0
  9
$DIMTM
 40
0.0
  9
$DIMTXT
 40
0.18
  9
$DIMCEN
 40
0.09
  9
$DIMTSZ
 40
0.0
  9
$DIMTOL
 70
     0
  9
$DIMLIM
 70
     0
  9
$DIMTIH
 70
     1
  9
$DIMTOH
 70
     1
  9
$DIMSE1
 70
     0
  9
$DIMSE2
 70
     0
  9
$DIMTAD
 70
     0
  9
$DIMZIN
 70
     0
  9
$DIMBLK
  1

  9
$DIMASO
 70
     1
  9
$DIMSHO
 70
     1
  9
$DIMPOST
  1

  9
$DIMAPOST
  1

  9
$DIMALT
 70
     0
  9
$DIMALTD
 70
     2
  9
$DIMALTF
 40
25.4
  9
$DIMLFAC
 40
1.0
  9
$DIMTOFL
 70
     0
  9
$DIMTVP
 40
0.0
  9
$DIMTIX
 70
     0
  9
$DIMSOXD
 70
     0
  9
$DIMSAH
 70
     0
  9
$DIMBLK1
  1

  9
$DIMBLK2
  1

  9
$DIMSTYLE
  2
Standard
  9
$DIMCLRD
 70
     0
  9
$DIMCLRE
 70
     0
  9
$DIMCLRT
 70
     0
  9
$DIMTFAC
 40
1.0
  9
$DIMGAP
 40
0.09
  9
$DIMJUST
 70
     0
  9
$DIMSD1
 70
     0
  9
$DIMSD2
 70
     0
  9
$DIMTOLJ
 70
     1
  9
$DIMTZIN
 70
     0
  9
$DIMALTZ
 70
     0
  9
$DIMALTTZ
 70
     0
  9
$DIMUPT
 70
     0
  9
$DIMDEC
 70
     4
  9
$DIMTDEC
 70
     4
  9
$DIMALTU
 70
     2
  9
$DIMALTTD
 70
     2
  9
$DIMTXSTY
  7
Standard
  9
$DIMAUNIT
 70
     0
  9
$DIMADEC
 70
     0
  9
$DIMALTRND
 40
0.0
  9
$DIMAZIN
 70
     0
  9
$DIMDSEP
 70
    46
  9
$DIMATFIT
 70
     3
  9
$DIMFRAC
 70
     0
  9
$DIMLDRBLK
  1

  9
$DIMLUNIT
 70
     2
  9
$DIMLWD
 70
    -2
  9
$DIMLWE
 70
    -2
  9
$DIMTMOVE
 70
     0
  9
$DIMFXL
 40
1.0
  9
$DIMFXLON
 70
     0
  9
$DIMJOGANG
 40
0.7853981633974483
  9
$DIMTFILL
 70
     0
  9
$DIMTFILLCLR
 70
     0
  9
$DIMARCSYM
 70
     0
  9
$DIMLTYPE
  6

  9
$DIMLTEX1
  6

  9
$DIMLTEX2
  6

  9
$DIMTXTDIRECTION
 70
     0
  9
$LUNITS
 70
     2
  9
$LUPREC
 70
     4
  9
$SKETCHINC
 40
0.1
  9
$FILLETRAD
 40
0.0
  9
$AUNITS
 70
     0
  9
$AUPREC
 70
     0
  9
$MENU
  1
.
  9
$ELEVATION
 40
0.0
  9
$PELEVATION
 40
0.0
  9
$THICKNESS
 40
0.0
  9
$LIMCHECK
 70
     0
  9
$CHAMFERA
 40
0.0
  9
$CHAMFERB
 40
0.0
  9
$CHAMFERC
 40
0.0
  9
$CHAMFERD
 40
0.0
  9
$SKPOLY
 70
     0
  9
$TDCREATE
 40
2459586.677858797
  9
$TDUCREATE
 40
2459586.802858797
  9
$TDUPDATE
 40
2459586.677858797
  9
$TDUUPDATE
 40
2459586.802858797
  9
$TDINDWG
 40
0.0000000000
  9
$TDUSRTIMER
 40
0.0000000000
  9
$USRTIMER
 70
     1
  9
$ANGBASE
 50
0.0
  9
$ANGDIR
 70
     0
  9
$PDMODE
 70
     0
  9
$PDSIZE
 40
0.0
  9
$PLINEWID
 40
0.0
  9
$SPLFRAME
 70
     0
  9
$SPLINETYPE
 70
     6
  9
$SPLINESEGS
 70
     8
  9
$HANDSEED
  5
1F9
  9
$SURFTAB1
 70
     6
  9
$SURFTAB2
 70
     6
  9
$SURFTYPE
 70
     6
  9
$SURFU
 70
     6
  9
$SURFV
 70
     6
  9
$UCSBASE
  2

  9
$UCSNAME
  2

  9
$UCSORG
 10
0.0
 20
0.0
 30
0.0
  9
$UCSXDIR
 10
1.0
 20
0.0
 30
0.0
  9
$UCSYDIR
 10
0.0
 20
1.0
 30
0.0
  9
$UCSORTHOREF
  2

  9
$UCSORTHOVIEW
 70
     0
  9
$UCSORGTOP
 10
0.0
 20
0.0
 30
0.0
  9
$UCSORGBOTTOM
 10
0.0
 20
0.0
 30
0.0
  9
$UCSORGLEFT
 10
0.0
 20
0.0
 30
0.0
  9
$UCSORGRIGHT
 10
0.0
 20
0.0
 30
0.0
  9
$UCSORGFRONT
 10
0.0
 20
0.0
 30
0.0
  9
$UCSORGBACK
 10
0.0
 20
0.0
 30
0.0
  9
$PUCSBASE
  2

  9
$PUCSNAME
  2

  9
$PUCSORG
 10
0.0
 20
0.0
 30
0.0
  9
$PUCSXDIR
 10
1.0
 20
0.0
 30
0.0
  9
$PUCSYDIR
 10
0.0
 20
1.0
 30
0.0
  9
$PUCSORTHOREF
  2

  9
$PUCSORTHOVIEW
 70
     0
  9
$PUCSORGTOP
 10
0.0
 20
0.0
 30
0.0
  9
$PUCSORGBOTTOM
 10
0.0
 20
0.0
 30
0.0
  9
$PUCSORGLEFT
 10
0.0
 20
0.0
 30
0.0
  9
$PUCSORGRIGHT
 10
0.0
 20
0.0
 30
0.0
  9
$PUCSORGFRONT
 10
0.0
 20
0.0
 30
0.0
  9
$PUCSORGBACK
 10
0.0
 20
0.0
 30
0.0
  9
$USERI1
 70
     0
  9
$USERI2
 70
     0
  9
$USERI3
 70
     0
  9
$USERI4
 70
     0
  9
$USERI5
 70
     0
  9
$USERR1
 40
0.0
  9
$USERR2
 40
0.0
  9
$USERR3
 40
0.0
  9
$USERR4
 40
0.0
  9
$USERR5
 40
0.0
  9
$WORLDVIEW
 70
     1
  9
$SHADEDGE
 70
     3
  9
$SHADEDIF
 70
    70
  9
$TILEMODE
 70
     1
  9
$MAXACTVP
 70
    64
  9
$PINSBASE
 10
0.0
 20
0.0
 30
0.0
  9
$PLIMCHECK
 70
     0
  9
$PEXTMIN
 10
1.000000000000000E+20
 20
1.000000000000000E+20
 30
1.000000000000000E+20
  9
$PEXTMAX
 10
-1.000000000000000E+20
 20
-1.000000000000000E+20
 30
-1.000000000000000E+20
  9
$PLIMMIN
 10
0.0
 20
0.0
  9
$PLIMMAX
 10
12.0
 20
9.0
  9
$UNITMODE
 70
     0
  9
$VISRETAIN
 70
     1
  9
$PLINEGEN
 70
     0
  9
$PSLTSCALE
 70
     1
  9
$TREEDEPTH
 70
  3020
  9
$CMLSTYLE
  2
Standard
  9
$CMLJUST
 70
     0
  9
$CMLSCALE
 40
1.0
  9
$PROXYGRAPHICS
 70
     1
  9
$MEASUREMENT
 70
     0
  9
$CELWEIGHT
370
    -1
  9
$ENDCAPS
280
     0
  9
$JOINSTYLE
280
     0
  9
$LWDISPLAY
290
     1
  9
$INSUNITS
 70
     4
  9
$HYPERLINKBASE
  1

  9
$STYLESHEET
  1

  9
$XEDIT
290
     1
  9
$CEPSNTYPE
380
     0
  9
$PSTYLEMODE
290
     1
  9
$FINGERPRINTGUID
  2
{2CFDB6CF-41FF-F349-B033-D104C6C18736}
  9
$VERSIONGUID
  2
{7973C3F9-2288-2942-B8AE-80EAEABCDA8E}
  9
$EXTNAMES
290
     1
  9
$PSVPSCALE
 40
0.0
  9
$OLESTARTUP
290
     0
  9
$SORTENTS
280
   127
  9
$INDEXCTL
280
     0
  9
$HIDETEXT
280
     1
  9
$XCLIPFRAME
280
     2
  9
$HALOGAP
280
     0
  9
$OBSCOLOR
 70
   257
  9
$OBSLTYPE
280
     0
  9
$INTERSECTIONDISPLAY
280
     0
  9
$INTERSECTIONCOLOR
 70
   257
  9
$DIMASSOC
280
     2
  9
$PROJECTNAME
  1

  9
$CAMERADISPLAY
290
     0
  9
$LENSLENGTH
 40
50.0
  9
$CAMERAHEIGHT
 40
0.0
  9
$STEPSPERSEC
 40
2.0
  9
$STEPSIZE
 40
6.0
  9
$3DDWFPREC
 40
2.0
  9
$PSOLWIDTH
 40
0.25
  9
$PSOLHEIGHT
 40
4.0
  9
$LOFTANG1
 40
1.570796326794896
  9
$LOFTANG2
 40
1.570796326794896
  9
$LOFTMAG1
 40
0.0
  9
$LOFTMAG2
 40
0.0
  9
$LOFTPARAM
 70
     7
  9
$LOFTNORMALS
280
     1
  9
$LATITUDE
 40
37.795
  9
$LONGITUDE
 40
-122.394
  9
$NORTHDIRECTION
 40
0.0
  9
$TIMEZONE
 70
 -8000
  9
$LIGHTGLYPHDISPLAY
280
     1
  9
$TILEMODELIGHTSYNCH
280
     1
  9
$CMATERIAL
347
11
  9
$SOLIDHIST
280
     0
  9
$SHOWHIST
280
     1
  9
$DWFFRAME
280
     2
  9
$DGNFRAME
280
     0
  9
$REALWORLDSCALE
290
     1
  9
$INTERFERECOLOR
 62
     1
  9
$INTERFEREOBJVS
345
33
  9
$INTERFEREVPVS
346
30
  9
$CSHADOW
280
     0
  9
$SHADOWPLANELOCATION
 40
0.0
  0
ENDSEC
  0
SECTION
  2
CLASSES
  0
CLASS
  1
ACDBDICTIONARYWDFLT
  2
AcDbDictionaryWithDefault
  3
ObjectDBX Classes
 90
        0
 91
        1
280
     0
281
     0
  0
CLASS
  1
MATERIAL
  2
AcDbMaterial
  3
ObjectDBX Classes
 90
     1153
 91
        3
280
     0
281
     0
  0
CLASS
  1
VISUALSTYLE
  2
AcDbVisualStyle
  3
ObjectDBX Classes
 90
     4095
 91
       24
280
     0
281
     0
  0
CLASS
  1
SCALE
  2
AcDbScale
  3
ObjectDBX Classes
 90
     1153
 91
       17
280
     0
281
     0
  0
CLASS
  1
TABLESTYLE
  2
AcDbTableStyle
  3
ObjectDBX Classes
 90
     4095
 91
        1
280
     0
281
     0
  0
CLASS
  1
MLEADERSTYLE
  2
AcDbMLeaderStyle
  3
ACDB_MLEADERSTYLE_CLASS
 90
     4095
 91
        1
280
     0
281
     0
  0
CLASS
  1
ACDBSECTIONVIEWSTYLE
  2
AcDbSectionViewStyle
  3
ObjectDBX Classes
 90
     1025
 91
        1
280
     0
281
     0
  0
CLASS
  1
ACDBDETAILVIEWSTYLE
  2
AcDbDetailViewStyle
  3
ObjectDBX Classes
 90
     1025
 91
        1
280
     0
281
     0
  0
CLASS
  1
DICTIONARYVAR
  2
AcDbDictionaryVar
  3
ObjectDBX Classes
 90
        0
 91
        5
280
     0
281
     0
  0
CLASS
  1
CELLSTYLEMAP
  2
AcDbCellStyleMap
  3
ObjectDBX Classes
 90
     1152
 91
        1
280
     0
281
     0
  0
ENDSEC
  0
SECTION
  2
TABLES
  0
TABLE
  2
VPORT
  5
8
330
0
100
AcDbSymbolTable
 70
     1
  0
VPORT
  5
57
330
8
100
AcDbSymbolTableRecord
100
AcDbViewportTableRecord
  2
*Active
 70
     0
 10
0.0
 20
0.0
 11
1.0
 21
1.0
 12
0.0
 22
0.0
 13
0.0
 23
0.0
 14
1.0
 24
1.0
 15
0.0
 25
0.0
 16
0.0
 26
0.0
 36
1.0
 17
95.44940873141205
 27
-67.59936707170767
 37
0.0
 40
468.5576581107092
 41
0.6697646544181973
 42
50.0
 43
0.0
 44
0.0
 50
0.0
 51
0.0
 71
     0
 72
   100
 73
     1
 74
     1
 75
     0
 76
     0
 77
     0
 78
     0
281
     0
 65
     1
110
0.0
120
0.0
130
0.0
111
1.0
121
0.0
131
0.0
112
0.0
122
1.0
132
0.0
 79
     0
146
0.0
 60
     3
 61
     5
292
     1
282
     1
141
0.0
142
0.0
 63
   250
421
  3355443
  0
ENDTAB
  0
TABLE
  2
LTYPE
  5
5
330
0
100
AcDbSymbolTable
 70
     1
  0
LTYPE
  5
5B
330
5
100
AcDbSymbolTableRecord
100
AcDbLinetypeTableRecord
  2
ByBlock
 70
     0
  3

 72
    65
 73
     0
 40
0.0
  0
LTYPE
  5
5C
330
5
100
AcDbSymbolTableRecord
100
AcDbLinetypeTableRecord
  2
ByLayer
 70
     0
  3

 72
    65
 73
     0
 40
0.0
  0
LTYPE
  5
5D
330
5
100
AcDbSymbolTableRecord
100
AcDbLinetypeTableRecord
  2
Continuous
 70
     0
  3
Solid line
 72
    65
 73
     0
 40
0.0
  0
ENDTAB
  0
TABLE
  2
LAYER
  5
2
330
0
100
AcDbSymbolTable
 70
     4
  0
LAYER
  5
54
330
2
100
AcDbSymbolTableRecord
100
AcDbLayerTableRecord
  2
0
 70
     0
 62
     7
  6
Continuous
370
    -3
390
F
347
21
348
0
  0
LAYER
  5
78
330
2
100
AcDbSymbolTableRecord
100
AcDbLayerTableRecord
  2
Camada 1
 70
     0
 62
     7
  6
Continuous
370
     0
390
F
347
21
348
0
  0
LAYER
  5
8F
330
2
100
AcDbSymbolTableRecord
100
AcDbLayerTableRecord
  2
03___PRT_ALL_CURVES
 70
     0
 62
     7
  6
Continuous
370
     0
390
F
347
21
348
0
  0
LAYER
  5
90
330
2
100
AcDbSymbolTableRecord
100
AcDbLayerTableRecord
  2
Modo de isolamento
 70
     0
 62
     7
  6
Continuous
370
     0
390
F
347
21
348
0
  0
ENDTAB
  0
TABLE
  2
STYLE
  5
3
330
0
100
AcDbSymbolTable
 70
     2
  0
STYLE
  5
55
330
3
100
AcDbSymbolTableRecord
100
AcDbTextStyleTableRecord
  2
Standard
 70
     0
 40
0.0
 41
1.0
 50
0.0
 71
     0
 42
0.2
  3
txt
  4

  0
STYLE
  5
5A
330
3
100
AcDbSymbolTableRecord
100
AcDbTextStyleTableRecord
  2
Annotative
 70
     0
 40
0.0
 41
1.0
 50
0.0
 71
     0
 42
0.2
  3
txt
  4

1001
AcadAnnotative
1000
AnnotativeData
1002
{
1070
     1
1070
     1
1002
}
  0
ENDTAB
  0
TABLE
  2
VIEW
  5
6
330
0
100
AcDbSymbolTable
 70
     0
  0
ENDTAB
  0
TABLE
  2
UCS
  5
7
330
0
100
AcDbSymbolTable
 70
     0
  0
ENDTAB
  0
TABLE
  2
APPID
  5
9
330
0
100
AcDbSymbolTable
 70
     2
  0
APPID
  5
56
330
9
100
AcDbSymbolTableRecord
100
AcDbRegAppTableRecord
  2
ACAD
 70
     0
  0
APPID
  5
5E
330
9
100
AcDbSymbolTableRecord
100
AcDbRegAppTableRecord
  2
AcadAnnotative
 70
     0
  0
ENDTAB
  0
TABLE
  2
DIMSTYLE
  5
A
330
0
100
AcDbSymbolTable
 70
     2
100
AcDbDimStyleTable
 71
     0
  0
DIMSTYLE
105
58
330
A
100
AcDbSymbolTableRecord
100
AcDbDimStyleTableRecord
  2
Standard
 70
     0
340
55
  0
DIMSTYLE
105
59
330
A
100
AcDbSymbolTableRecord
100
AcDbDimStyleTableRecord
  2
Annotative
 70
     0
340
55
1001
AcadAnnotative
1000
AnnotativeData
1002
{
1070
     1
1070
     1
1002
}
  0
ENDTAB
  0
TABLE
  2
BLOCK_RECORD
  5
1
330
0
100
AcDbSymbolTable
 70
     1
  0
BLOCK_RECORD
  5
70
330
1
100
AcDbSymbolTableRecord
100
AcDbBlockTableRecord
  2
*Model_Space
340
73
 70
     0
280
     1
281
     0
  0
BLOCK_RECORD
  5
6C
330
1
100
AcDbSymbolTableRecord
100
AcDbBlockTableRecord
  2
*Paper_Space
340
6F
 70
     0
280
     1
281
     0
  0
BLOCK_RECORD
  5
74
330
1
100
AcDbSymbolTableRecord
100
AcDbBlockTableRecord
  2
*Paper_Space0
340
77
 70
     0
280
     1
281
     0
  0
ENDTAB
  0
ENDSEC
  0
SECTION
  2
BLOCKS
  0
BLOCK
  5
71
330
70
100
AcDbEntity
  8
0
100
AcDbBlockBegin
  2
*Model_Space
 70
     0
 10
0.0
 20
0.0
 30
0.0
  3
*Model_Space
  1

  0
ENDBLK
  5
72
330
70
100
AcDbEntity
  8
0
100
AcDbBlockEnd
  0
BLOCK
  5
6D
330
6C
100
AcDbEntity
 67
     1
  8
0
100
AcDbBlockBegin
  2
*Paper_Space
 70
     0
 10
0.0
 20
0.0
 30
0.0
  3
*Paper_Space
  1

  0
ENDBLK
  5
6E
330
6C
100
AcDbEntity
 67
     1
  8
0
100
AcDbBlockEnd
  0
BLOCK
  5
75
330
74
100
AcDbEntity
 67
     1
  8
0
100
AcDbBlockBegin
  2
*Paper_Space0
 70
     0
 10
0.0
 20
0.0
 30
0.0
  3
*Paper_Space0
  1

  0
ENDBLK
  5
76
330
74
100
AcDbEntity
 67
     1
  8
0
100
AcDbBlockEnd
  0
ENDSEC
  0
SECTION
  2
ENTITIES
  0
SPLINE
  5
79
330
70
100
AcDbEntity
  8
Camada 1
 62
     7
370
    35
100
AcDbSpline
210
0.0
220
0.0
230
1.0
 70
     8
 71
     3
 72
     8
 73
     4
 74
     0
 42
0.0000000001
 43
0.0000000001
 40
0.0
 40
0.0
 40
0.0
 40
0.0
 40
1.0
 40
1.0
 40
1.0
 40
1.0
 10
56.00612599661189
 20
72.08530603392216
 30
0.0
 10
56.00612599661189
 20
72.64276175017444
 30
0.0
 10
55.55463361097952
 20
73.09515097856465
 30
0.0
 10
54.99715071767434
 20
73.09515097856465
 30
0.0
  0
LINE
  5
7A
330
70
100
AcDbEntity
  8
Camada 1
 62
     7
370
    35
100
AcDbLine
 10
-0.8413392526071204
 20
86.72661734741081
 30
0.0
 11
-0.8413392526071204
 21
83.19300252981461
 31
0.0
  0
LINE
  5
7B
330
70
100
AcDbEntity
  8
Camada 1
 62
     7
370
    35
100
AcDbLine
 10
-0.0835071227470545
 20
86.72661734741081
 30
0.0
 11
-0.0835071227470545
 21
83.19300252981461
 31
0.0
  0
LWPOLYLINE
  5
7C
330
70
100
AcDbEntity
  8
Camada 1
 62
     7
370
    35
100
AcDbPolyline
 90
        4
 70
     0
 43
0.0
 10
-0.0835071227470545
 20
88.74636159080191
 10
-0.0835071227470545
 20
88.47567814043756
 10
-0.0835071227470545
 20
87.73651664615943
 10
-0.0835071227470545
 20
86.72661734741081
  0
LINE
  5
7D
330
70
100
AcDbEntity
  8
Camada 1
 62
     7
370
    35
100
AcDbLine
 10
-0.8413392526071204
 20
88.74636159080191
 30
0.0
 11
-0.0835071227470545
 21
88.74636159080191
 31
0.0
  0
LWPOLYLINE
  5
7E
330
70
100
AcDbEntity
  8
Camada 1
 62
     7
370
    35
100
AcDbPolyline
 90
        4
 70
     0
 43
0.0
 10
-0.8413392526071204
 20
86.72661734741081
 10
-0.8413392526071204
 20
87.73651664615943
 10
-0.8413392526071204
 20
88.47567814043756
 10
-0.8413392526071204
 20
88.74636159080191
  0
LINE
  5
7F
330
70
100
AcDbEntity
  8
Camada 1
 62
     7
370
    35
100
AcDbLine
 10
-0.0835071227470545
 20
86.72661734741081
 30
0.0
 11
-0.8413392526071204
 21
86.72661734741081
 31
0.0
  0
LINE
  5
80
330
70
100
AcDbEntity
  8
Camada 1
 62
     7
370
    35
100
AcDbLine
 10
66.10392319375541
 20
83.19300252981461
 30
0.0
 11
66.10392319375541
 21
-27.5240295358709
 31
0.0
  0
LWPOLYLINE
  5
81
330
70
100
AcDbEntity
  8
Camada 1
 62
     7
370
    35
100
AcDbPolyline
 90
        3
 70
     0
 43
0.0
 10
64.94267488546073
 20
83.19300252981461
 10
65.76374801823231
 20
83.19300252981461
 10
66.10392319375541
 20
83.19300252981461
  0
LWPOLYLINE
  5
82
330
70
100
AcDbEntity
  8
Camada 1
 62
     7
370
    35
100
AcDbPolyline
 90
        3
 70
     0
 43
0.0
 10
64.94267488546073
 20
83.19300252981461
 10
64.94267488546073
 20
84.12093583596268
 10
64.94267488546073
 20
84.50565420176149
  0
LINE
  5
83
330
70
100
AcDbEntity
  8
Camada 1
 62
     7
370
    35
100
AcDbLine
 10
0.4713124193394222
 20
84.50565420176149
 30
0.0
 11
64.94267488546073
 21
84.50565420176149
 31
0.0
  0
LWPOLYLINE
  5
84
330
70
100
AcDbEntity
  8
Camada 1
 62
     7
370
    35
100
AcDbPolyline
 90
        3
 70
     0
 43
0.0
 10
0.4713124193394222
 20
83.19300252981461
 10
0.4713124193394222
 20
84.12093583596268
 10
0.4713124193394222
 20
84.50565420176149
  0
LWPOLYLINE
  5
85
330
70
100
AcDbEntity
  8
Camada 1
 62
     7
370
    35
100
AcDbPolyline
 90
        3
 70
     0
 43
0.0
 10
0.4713124193394222
 20
83.19300252981461
 10
-0.4566480638612295
 20
83.19300252981461
 10
-0.8413392526071204
 20
83.19300252981461
  0
LINE
  5
86
330
70
100
AcDbEntity
  8
Camada 1
 62
     7
370
    35
100
AcDbLine
 10
-0.8413392526071204
 20
73.09515097856465
 30
0.0
 11
-0.8413392526071204
 21
83.19300252981461
 31
0.0
  0
LWPOLYLINE
  5
87
330
70
100
AcDbEntity
  8
Camada 1
 62
     7
370
    35
100
AcDbPolyline
 90
        3
 70
     0
 43
0.0
 10
0.4713124193394222
 20
73.09515097856465
 10
-0.4566480638612295
 20
73.09515097856465
 10
-0.8413392526071204
 20
73.09515097856465
  0
LINE
  5
88
330
70
100
AcDbEntity
  8
Camada 1
 62
     7
370
    35
100
AcDbLine
 10
0.4713124193394222
 20
73.09515097856465
 30
0.0
 11
0.4713124193394222
 21
83.19300252981461
 31
0.0
  0
LINE
  5
89
330
70
100
AcDbEntity
  8
Camada 1
 62
     7
370
    35
100
AcDbLine
 10
0.4713124193394222
 20
73.09515097856465
 30
0.0
 11
54.99715071767434
 21
73.09515097856465
 31
0.0
  0
LINE
  5
8A
330
70
100
AcDbEntity
  8
Camada 1
 62
     7
370
    35
100
AcDbLine
 10
56.00612599661189
 20
72.08530603392216
 30
0.0
 11
56.00612599661189
 21
-27.5240295358709
 31
0.0
  0
LINE
  5
8B
330
70
100
AcDbEntity
  8
Camada 1
 62
     7
370
    35
100
AcDbLine
 10
64.94267488546073
 20
-27.5240295358709
 30
0.0
 11
64.94267488546073
 21
83.19300252981461
 31
0.0
  0
LINE
  5
8C
330
70
100
AcDbEntity
  8
Camada 1
 62
     7
370
    35
100
AcDbLine
 10
64.94267488546073
 20
83.19300252981461
 30
0.0
 11
0.4713124193394222
 21
83.19300252981461
 31
0.0
  0
LWPOLYLINE
  5
8D
330
70
100
AcDbEntity
  8
Camada 1
 62
     7
370
    35
100
AcDbPolyline
 90
        4
 70
     1
 43
0.0
 10
146.3974673377024
 20
-67.94326261692507
 10
146.3974673377024
 20
-78.7756314045349
 10
165.5291227073819
 20
-78.7756314045349
 10
165.5291227073819
 20
-67.94326261692507
  0
LWPOLYLINE
  5
8E
330
70
100
AcDbEntity
  8
Camada 1
 62
     7
370
    35
100
AcDbPolyline
 90
        4
 70
     1
 43
0.0
 10
99.13992826791618
 20
-72.53899509628583
 10
99.13992826791618
 20
-67.94326261692507
 10
165.5291227073819
 20
-67.94326261692507
 10
165.5291227073819
 20
-72.53899509628583
  0
LWPOLYLINE
  5
91
330
70
100
AcDbEntity
  8
Modo de isolamento
100
AcDbPolyline
 90
       13
 70
     0
 43
0.0
 10
128.3833751580849
 20
-184.4063831812984
 10
127.8102401604559
 20
-184.4063831812984
 10
127.8102401604559
 20
-180.7537131023145
 10
127.4913850649602
 20
-181.0116922060591
 10
127.108638324226
 20
-181.2419976629599
 10
126.6606730507179
 20
-181.4447702035134
 10
126.6606730507179
 20
-180.8906740315745
 10
127.1165393363654
 20
-180.6392841307001
 10
127.4933552919063
 20
-180.3596325305533
 10
127.7917843611072
 20
-180.0517142050417
 10
128.0111631002028
 20
-179.7155392063449
 10
128.3833751580849
 20
-179.7155392063449
 10
128.3833751580849
 20
-184.4063831812984
  0
HATCH
  5
92
330
70
100
AcDbEntity
  8
Modo de isolamento
 62
     7
440
 33554687
100
AcDbHatch
 10
0.0
 20
0.0
 30
0.0
210
0.0
220
0.0
230
1.0
  2
SOLID
 70
     1
 71
     1
 91
        1
 92
        3
 72
     0
 73
     1
 93
       13
 10
128.3833751580849
 20
-184.4063831812984
 10
127.8102401604559
 20
-184.4063831812984
 10
127.8102401604559
 20
-180.7537131023145
 10
127.4913850649602
 20
-181.0116922060591
 10
127.108638324226
 20
-181.2419976629599
 10
126.6606730507179
 20
-181.4447702035134
 10
126.6606730507179
 20
-180.8906740315745
 10
127.1165393363654
 20
-180.6392841307001
 10
127.4933552919063
 20
-180.3596325305533
 10
127.7917843611072
 20
-180.0517142050417
 10
128.0111631002028
 20
-179.7155392063449
 10
128.3833751580849
 20
-179.7155392063449
 10
128.3833751580849
 20
-184.4063831812984
 97
        0
 75
     0
 76
     1
 98
        1
 10
0.0
 20
0.0
450
        0
451
        0
460
0.0
461
0.0
452
        0
462
0.0
453
        0
470

  0
LWPOLYLINE
  5
93
330
70
100
AcDbEntity
  8
Modo de isolamento
100
AcDbPolyline
 90
       57
 70
     0
 43
0.0
 10
132.036296541526
 20
-181.8810146371307
 10
132.4157662721361
 20
-182.0275301618593
 10
132.6891654173854
 20
-182.3013816551317
 10
132.8564939772727
 20
-182.6509310770491
 10
132.9118211666052
 20
-183.0306521121164
 10
132.8604344311635
 20
-183.4301357297111
 10
132.7056308854322
 20
-183.7793534297442
 10
132.4473904250503
 20
-184.0783755774661
 10
132.1186439861133
 20
-184.3047958674557
 10
131.749085703301
 20
-184.4407013179947
 10
131.338655263544
 20
-184.4859612507649
 10
130.9513046251509
 20
-184.4459736855099
 10
130.6113600595932
 20
-184.3260763289055
 10
130.3195252193529
 20
-184.1261385026306
 10
130.0896117974052
 20
-183.8603840389751
 10
129.9334813641387
 20
-183.5429865093324
 10
129.8517973633187
 20
-183.1739358615241
 10
130.424932360947
 20
-183.0943577920564
 10
130.54614152682
 20
-183.4979879331976
 10
130.7371932274814
 20
-183.7854148932566
 10
131.002027916824
 20
-183.9573574029802
 10
131.338655263544
 20
-184.0146698975248
 10
131.7088970944801
 20
-183.9446413974384
 10
132.0171974027671
 20
-183.7344252188584
 10
132.227348242188
 20
-183.4199880557228
 10
132.2971907769765
 20
-183.0433681176581
 10
132.2339424711493
 20
-182.6851235615169
 10
132.0428907704873
 20
-182.3937460953889
 10
131.7523627134258
 20
-182.2002617675801
 10
131.3834477700231
 20
-182.1358323308021
 10
130.9789682198166
 20
-182.1963062354212
 10
131.0461569795358
 20
-181.6931293726316
 10
131.4091411377445
 20
-181.6708637977098
 10
131.7082336507128
 20
-181.5625616287669
 10
131.9822761353723
 20
-181.317363869722
 10
132.0903169476797
 20
-180.9161010165696
 10
132.0323560876351
 20
-180.6080570388294
 10
131.8577698550193
 20
-180.3779425733164
 10
131.6100841818466
 20
-180.2346588239086
 10
131.3261503537464
 20
-180.1868958987428
 10
131.0105923727314
 20
-180.2417757661407
 10
130.7595894807216
 20
-180.4066013336336
 10
130.582369577393
 20
-180.6733409107624
 10
130.4855469960615
 20
-181.033957780981
 10
129.9123918940766
 20
-180.9288823612705
 10
130.0902752411725
 20
-180.3970467381637
 10
130.4025361077075
 20
-180.0181198251821
 10
130.8215108990141
 20
-179.7911667697423
 10
131.3136253395911
 20
-179.7155392063449
 10
131.8478986159344
 20
-179.8039481144432
 10
132.2846657628224
 20
-180.0690441604211
 10
132.5784708300087
 20
-180.4591692000235
 10
132.6766404032307
 20
-180.9288823612705
 10
132.6054910852635
 20
-181.3234253332343
 10
132.392043131362
 20
-181.6365406349237
 10
132.036296541526
 20
-181.8682986315876
 10
132.036296541526
 20
-181.8810146371307
  0
HATCH
  5
94
330
70
100
AcDbEntity
  8
Modo de isolamento
 62
     7
440
 33554687
100
AcDbHatch
 10
0.0
 20
0.0
 30
0.0
210
0.0
220
0.0
230
1.0
  2
SOLID
 70
     1
 71
     1
 91
        1
 92
        3
 72
     0
 73
     1
 93
       57
 10
132.036296541526
 20
-181.8810146371307
 10
132.4157662721361
 20
-182.0275301618593
 10
132.6891654173854
 20
-182.3013816551317
 10
132.8564939772727
 20
-182.6509310770491
 10
132.9118211666052
 20
-183.0306521121164
 10
132.8604344311635
 20
-183.4301357297111
 10
132.7056308854322
 20
-183.7793534297442
 10
132.4473904250503
 20
-184.0783755774661
 10
132.1186439861133
 20
-184.3047958674557
 10
131.749085703301
 20
-184.4407013179947
 10
131.338655263544
 20
-184.4859612507649
 10
130.9513046251509
 20
-184.4459736855099
 10
130.6113600595932
 20
-184.3260763289055
 10
130.3195252193529
 20
-184.1261385026306
 10
130.0896117974052
 20
-183.8603840389751
 10
129.9334813641387
 20
-183.5429865093324
 10
129.8517973633187
 20
-183.1739358615241
 10
130.424932360947
 20
-183.0943577920564
 10
130.54614152682
 20
-183.4979879331976
 10
130.7371932274814
 20
-183.7854148932566
 10
131.002027916824
 20
-183.9573574029802
 10
131.338655263544
 20
-184.0146698975248
 10
131.7088970944801
 20
-183.9446413974384
 10
132.0171974027671
 20
-183.7344252188584
 10
132.227348242188
 20
-183.4199880557228
 10
132.2971907769765
 20
-183.0433681176581
 10
132.2339424711493
 20
-182.6851235615169
 10
132.0428907704873
 20
-182.3937460953889
 10
131.7523627134258
 20
-182.2002617675801
 10
131.3834477700231
 20
-182.1358323308021
 10
130.9789682198166
 20
-182.1963062354212
 10
131.0461569795358
 20
-181.6931293726316
 10
131.4091411377445
 20
-181.6708637977098
 10
131.7082336507128
 20
-181.5625616287669
 10
131.9822761353723
 20
-181.317363869722
 10
132.0903169476797
 20
-180.9161010165696
 10
132.0323560876351
 20
-180.6080570388294
 10
131.8577698550193
 20
-180.3779425733164
 10
131.6100841818466
 20
-180.2346588239086
 10
131.3261503537464
 20
-180.1868958987428
 10
131.0105923727314
 20
-180.2417757661407
 10
130.7595894807216
 20
-180.4066013336336
 10
130.582369577393
 20
-180.6733409107624
 10
130.4855469960615
 20
-181.033957780981
 10
129.9123918940766
 20
-180.9288823612705
 10
130.0902752411725
 20
-180.3970467381637
 10
130.4025361077075
 20
-180.0181198251821
 10
130.8215108990141
 20
-179.7911667697423
 10
131.3136253395911
 20
-179.7155392063449
 10
131.8478986159344
 20
-179.8039481144432
 10
132.2846657628224
 20
-180.0690441604211
 10
132.5784708300087
 20
-180.4591692000235
 10
132.6766404032307
 20
-180.9288823612705
 10
132.6054910852635
 20
-181.3234253332343
 10
132.392043131362
 20
-181.6365406349237
 10
132.036296541526
 20
-181.8682986315876
 10
132.036296541526
 20
-181.8810146371307
 97
        0
 75
     0
 76
     1
 98
        1
 10
0.0
 20
0.0
450
        0
451
        0
460
0.0
461
0.0
452
        0
462
0.0
453
        0
470

  0
LWPOLYLINE
  5
95
330
70
100
AcDbEntity
  8
Modo de isolamento
100
AcDbPolyline
 90
       42
 70
     0
 43
0.0
 10
134.2241129385711
 20
-181.6007699584629
 10
134.6589098585136
 20
-181.3810695496619
 10
135.1095088027338
 20
-181.3078092742534
 10
135.4810574168487
 20
-181.3538583030194
 10
135.8196750948712
 20
-181.4918093718413
 10
136.1253417324449
 20
-181.7217881329488
 10
136.3658099416012
 20
-182.0264746831383
 10
136.510078804481
 20
-182.3926906166679
 10
136.5581684254414
 20
-182.8205012726955
 10
136.5094153607137
 20
-183.2603041774281
 10
136.3631762708885
 20
-183.6541183664641
 10
136.1187676078406
 20
-184.0019538919831
 10
135.7953086146856
 20
-184.2708697657131
 10
135.411234986416
 20
-184.4322072273369
 10
134.9659033836213
 20
-184.4859612507649
 10
134.594998108918
 20
-184.4495321566266
 10
134.258370762198
 20
-184.3401745089628
 10
133.9566445785157
 20
-184.1579536469326
 10
133.7122359154679
 20
-183.9021508397878
 10
133.5488679138286
 20
-183.5762541933975
 10
133.465857025474
 20
-183.1803240208297
 10
134.0646853908232
 20
-183.1357275318268
 10
134.1793204320914
 20
-183.5226961874444
 10
134.3769462573576
 20
-183.7981308987983
 10
134.6437511736456
 20
-183.9605188130534
 10
134.9659033836213
 20
-184.0146698975248
 10
135.3611751385116
 20
-183.9326541748219
 10
135.672772561278
 20
-183.6866622936925
 10
135.8763291717382
 20
-183.3180790721754
 10
135.9435179314575
 20
-182.8745870180077
 10
135.8743589447922
 20
-182.4359702703131
 10
135.6668417760846
 20
-182.1007854111793
 10
135.3499569075344
 20
-181.8881969185219
 10
134.9533783694673
 20
-181.8173793224383
 10
134.4658879309062
 20
-181.9296319974503
 10
134.1061807828223
 20
-182.2664000746668
 10
133.5646699381068
 20
-182.2026994208153
 10
134.0205563281108
 20
-179.8015758003658
 10
136.3354925718658
 20
-179.8015758003658
 10
136.3354925718658
 20
-180.3556769983945
 10
134.4757591699911
 20
-180.3556769983945
 10
134.2241129385711
 20
-181.6007699584629
  0
HATCH
  5
96
330
70
100
AcDbEntity
  8
Modo de isolamento
 62
     7
440
 33554687
100
AcDbHatch
 10
0.0
 20
0.0
 30
0.0
210
0.0
220
0.0
230
1.0
  2
SOLID
 70
     1
 71
     1
 91
        1
 92
        3
 72
     0
 73
     1
 93
       42
 10
134.2241129385711
 20
-181.6007699584629
 10
134.6589098585136
 20
-181.3810695496619
 10
135.1095088027338
 20
-181.3078092742534
 10
135.4810574168487
 20
-181.3538583030194
 10
135.8196750948712
 20
-181.4918093718413
 10
136.1253417324449
 20
-181.7217881329488
 10
136.3658099416012
 20
-182.0264746831383
 10
136.510078804481
 20
-182.3926906166679
 10
136.5581684254414
 20
-182.8205012726955
 10
136.5094153607137
 20
-183.2603041774281
 10
136.3631762708885
 20
-183.6541183664641
 10
136.1187676078406
 20
-184.0019538919831
 10
135.7953086146856
 20
-184.2708697657131
 10
135.411234986416
 20
-184.4322072273369
 10
134.9659033836213
 20
-184.4859612507649
 10
134.594998108918
 20
-184.4495321566266
 10
134.258370762198
 20
-184.3401745089628
 10
133.9566445785157
 20
-184.1579536469326
 10
133.7122359154679
 20
-183.9021508397878
 10
133.5488679138286
 20
-183.5762541933975
 10
133.465857025474
 20
-183.1803240208297
 10
134.0646853908232
 20
-183.1357275318268
 10
134.1793204320914
 20
-183.5226961874444
 10
134.3769462573576
 20
-183.7981308987983
 10
134.6437511736456
 20
-183.9605188130534
 10
134.9659033836213
 20
-184.0146698975248
 10
135.3611751385116
 20
-183.9326541748219
 10
135.672772561278
 20
-183.6866622936925
 10
135.8763291717382
 20
-183.3180790721754
 10
135.9435179314575
 20
-182.8745870180077
 10
135.8743589447922
 20
-182.4359702703131
 10
135.6668417760846
 20
-182.1007854111793
 10
135.3499569075344
 20
-181.8881969185219
 10
134.9533783694673
 20
-181.8173793224383
 10
134.4658879309062
 20
-181.9296319974503
 10
134.1061807828223
 20
-182.2664000746668
 10
133.5646699381068
 20
-182.2026994208153
 10
134.0205563281108
 20
-179.8015758003658
 10
136.3354925718658
 20
-179.8015758003658
 10
136.3354925718658
 20
-180.3556769983945
 10
134.4757591699911
 20
-180.3556769983945
 10
134.2241129385711
 20
-181.6007699584629
 97
        0
 75
     0
 76
     1
 98
        1
 10
0.0
 20
0.0
450
        0
451
        0
460
0.0
461
0.0
452
        0
462
0.0
453
        0
470

  0
LWPOLYLINE
  5
97
330
70
100
AcDbEntity
  8
Modo de isolamento
100
AcDbPolyline
 90
       41
 70
     0
 43
0.0
 10
-8.563491725880215
 20
-111.451391216763
 10
-8.563491725880215
 20
-115.1258001002629
 10
-9.035513708099353
 20
-115.0443865208607
 10
-9.513018206889235
 20
-114.8001935605776
 10
-9.860578701818235
 20
-114.5175871508575
 10
-10.26137574654107
 20
-114.1089903603381
 10
-11.01363913133171
 20
-113.2212765661551
 10
-11.32049283655995
 20
-112.8948578017925
 10
-11.63595851226179
 20
-112.5942391154092
 10
-12.1212866458093
 20
-112.2709736939111
 10
-12.60819145078875
 20
-112.1629478118522
 10
-12.99175261008371
 20
-112.2372902587713
 10
-13.30095937797951
 20
-112.4619898268035
 10
-13.50839917162277
 20
-112.7970086171597
 10
-13.57728299093186
 20
-113.2110998687296
 10
-13.50605805343588
 20
-113.6322622527838
 10
-13.29313574322189
 20
-113.9790344119975
 10
-12.943222185625
 20
-114.2130984527772
 10
-12.45319987122305
 20
-114.2929353607474
 10
-12.53303677919294
 20
-114.9935030337351
 10
-13.0113296136988
 20
-114.9034894283394
 10
-13.4089852600381
 20
-114.7187799811754
 10
-13.72445093573994
 20
-114.4408558078298
 10
-13.95380885118549
 20
-114.0839069511912
 10
-14.09157648980367
 20
-113.6690512528655
 10
-14.13698940483956
 20
-113.1962409349303
 10
-14.0868823089489
 20
-112.6913238532874
 10
-13.93502018328637
 20
-112.2678203510472
 10
-13.68296775480356
 20
-111.9242015346981
 10
-13.18588625239892
 20
-111.5813471651036
 10
-12.5933205725088
 20
-111.4662501505623
 10
-12.05632061611936
 20
-111.5633348884404
 10
-11.510708689256
 20
-111.8521524280441
 10
-11.21559640840454
 20
-112.0917109298756
 10
-10.87351843004596
 20
-112.4259652734765
 10
-10.48525114541588
 20
-112.8557276835237
 10
-10.05080649899464
 20
-113.3809503820949
 10
-9.603043756764684
 20
-113.8819496741187
 10
-9.22182371565661
 20
-114.1794150176374
 10
-9.22182371565661
 20
-111.451391216763
 10
-8.563491725880215
 20
-111.451391216763
  0
HATCH
  5
98
330
70
100
AcDbEntity
  8
Modo de isolamento
 62
     7
440
 33554687
100
AcDbHatch
 10
0.0
 20
0.0
 30
0.0
210
0.0
220
0.0
230
1.0
  2
SOLID
 70
     1
 71
     1
 91
        1
 92
        3
 72
     0
 73
     1
 93
       41
 10
-8.563491725880215
 20
-111.451391216763
 10
-8.563491725880215
 20
-115.1258001002629
 10
-9.035513708099353
 20
-115.0443865208607
 10
-9.513018206889235
 20
-114.8001935605776
 10
-9.860578701818235
 20
-114.5175871508575
 10
-10.26137574654107
 20
-114.1089903603381
 10
-11.01363913133171
 20
-113.2212765661551
 10
-11.32049283655995
 20
-112.8948578017925
 10
-11.63595851226179
 20
-112.5942391154092
 10
-12.1212866458093
 20
-112.2709736939111
 10
-12.60819145078875
 20
-112.1629478118522
 10
-12.99175261008371
 20
-112.2372902587713
 10
-13.30095937797951
 20
-112.4619898268035
 10
-13.50839917162277
 20
-112.7970086171597
 10
-13.57728299093186
 20
-113.2110998687296
 10
-13.50605805343588
 20
-113.6322622527838
 10
-13.29313574322189
 20
-113.9790344119975
 10
-12.943222185625
 20
-114.2130984527772
 10
-12.45319987122305
 20
-114.2929353607474
 10
-12.53303677919294
 20
-114.9935030337351
 10
-13.0113296136988
 20
-114.9034894283394
 10
-13.4089852600381
 20
-114.7187799811754
 10
-13.72445093573994
 20
-114.4408558078298
 10
-13.95380885118549
 20
-114.0839069511912
 10
-14.09157648980367
 20
-113.6690512528655
 10
-14.13698940483956
 20
-113.1962409349303
 10
-14.0868823089489
 20
-112.6913238532874
 10
-13.93502018328637
 20
-112.2678203510472
 10
-13.68296775480356
 20
-111.9242015346981
 10
-13.18588625239892
 20
-111.5813471651036
 10
-12.5933205725088
 20
-111.4662501505623
 10
-12.05632061611936
 20
-111.5633348884404
 10
-11.510708689256
 20
-111.8521524280441
 10
-11.21559640840454
 20
-112.0917109298756
 10
-10.87351843004596
 20
-112.4259652734765
 10
-10.48525114541588
 20
-112.8557276835237
 10
-10.05080649899464
 20
-113.3809503820949
 10
-9.603043756764684
 20
-113.8819496741187
 10
-9.22182371565661
 20
-114.1794150176374
 10
-9.22182371565661
 20
-111.451391216763
 10
-8.563491725880215
 20
-111.451391216763
 97
        0
 75
     0
 76
     1
 98
        1
 10
0.0
 20
0.0
450
        0
451
        0
460
0.0
461
0.0
452
        0
462
0.0
453
        0
470

  0
SPLINE
  5
99
330
70
100
AcDbEntity
  8
Modo de isolamento
100
AcDbSpline
210
0.0
220
0.0
230
1.0
 70
    11
 71
     3
 72
   137
 73
   133
 74
     0
 42
0.0000000001
 43
0.0000000001
 40
0.0
 40
0.0
 40
0.0
 40
0.0
 40
1.0
 40
1.0
 40
1.0
 40
2.0
 40
2.0
 40
2.0
 40
3.0
 40
3.0
 40
3.0
 40
4.0
 40
4.0
 40
4.0
 40
5.0
 40
5.0
 40
5.0
 40
6.0
 40
6.0
 40
6.0
 40
7.0
 40
7.0
 40
7.0
 40
8.0
 40
8.0
 40
8.0
 40
9.0
 40
9.0
 40
9.0
 40
10.0
 40
10.0
 40
10.0
 40
11.0
 40
11.0
 40
11.0
 40
12.0
 40
12.0
 40
12.0
 40
13.0
 40
13.0
 40
13.0
 40
14.0
 40
14.0
 40
14.0
 40
15.0
 40
15.0
 40
15.0
 40
16.0
 40
16.0
 40
16.0
 40
17.0
 40
17.0
 40
17.0
 40
18.0
 40
18.0
 40
18.0
 40
19.0
 40
19.0
 40
19.0
 40
20.0
 40
20.0
 40
20.0
 40
21.0
 40
21.0
 40
21.0
 40
22.0
 40
22.0
 40
22.0
 40
23.0
 40
23.0
 40
23.0
 40
24.0
 40
24.0
 40
24.0
 40
25.0
 40
25.0
 40
25.0
 40
26.0
 40
26.0
 40
26.0
 40
27.0
 40
27.0
 40
27.0
 40
28.0
 40
28.0
 40
28.0
 40
29.0
 40
29.0
 40
29.0
 40
30.0
 40
30.0
 40
30.0
 40
31.0
 40
31.0
 40
31.0
 40
32.0
 40
32.0
 40
32.0
 40
33.0
 40
33.0
 40
33.0
 40
34.0
 40
34.0
 40
34.0
 40
35.0
 40
35.0
 40
35.0
 40
36.0
 40
36.0
 40
36.0
 40
37.0
 40
37.0
 40
37.0
 40
38.0
 40
38.0
 40
38.0
 40
39.0
 40
39.0
 40
39.0
 40
40.0
 40
40.0
 40
40.0
 40
41.0
 40
41.0
 40
41.0
 40
42.0
 40
42.0
 40
42.0
 40
43.0
 40
43.0
 40
43.0
 40
44.0
 40
44.0
 40
44.0
 40
44.0
 10
-11.17411322746816
 20
-107.7699112007794
 30
0.0
 10
-11.17411322746816
 20
-107.7699112007794
 30
0.0
 10
-10.87977733785232
 20
-108.0078930311789
 30
0.0
 10
-10.87977733785232
 20
-108.0078930311789
 30
0.0
 10
-10.87977733785232
 20
-108.0078930311789
 30
0.0
 10
-10.64807830421989
 20
-108.3217939799288
 30
0.0
 10
-10.64807830421989
 20
-108.3217939799288
 30
0.0
 10
-10.64807830421989
 20
-108.3217939799288
 30
0.0
 10
-10.49778090550863
 20
-108.6850017443737
 30
0.0
 10
-10.49778090550863
 20
-108.6850017443737
 30
0.0
 10
-10.49778090550863
 20
-108.6850017443737
 30
0.0
 10
-10.44767380961797
 20
-109.0787396010939
 30
0.0
 10
-10.44767380961797
 20
-109.0787396010939
 30
0.0
 10
-10.44767380961797
 20
-109.0787396010939
 30
0.0
 10
-10.50325147759869
 20
-109.5124198007602
 30
0.0
 10
-10.50325147759869
 20
-109.5124198007602
 30
0.0
 10
-10.50325147759869
 20
-109.5124198007602
 30
0.0
 10
-10.66999642602186
 20
-109.9014754211065
 30
0.0
 10
-10.66999642602186
 20
-109.9014754211065
 30
0.0
 10
-10.66999642602186
 20
-109.9014754211065
 30
0.0
 10
-10.94709643020982
 20
-110.2443297907004
 30
0.0
 10
-10.94709643020982
 20
-110.2443297907004
 30
0.0
 10
-10.94709643020982
 20
-110.2443297907004
 30
0.0
 10
-11.31657504694079
 20
-110.5088761458346
 30
0.0
 10
-11.31657504694079
 20
-110.5088761458346
 30
0.0
 10
-11.31657504694079
 20
-110.5088761458346
 30
0.0
 10
-11.75416109174557
 20
-110.6677855150191
 30
0.0
 10
-11.75416109174557
 20
-110.6677855150191
 30
0.0
 10
-11.75416109174557
 20
-110.6677855150191
 30
0.0
 10
-12.26063095585975
 20
-110.7210578982547
 30
0.0
 10
-12.26063095585975
 20
-110.7210578982547
 30
0.0
 10
-12.26063095585975
 20
-110.7210578982547
 30
0.0
 10
-12.77727751739881
 20
-110.6670210682639
 30
0.0
 10
-12.77727751739881
 20
-110.6670210682639
 30
0.0
 10
-12.77727751739881
 20
-110.6670210682639
 30
0.0
 10
-13.22738137781598
 20
-110.5041939094608
 30
0.0
 10
-13.22738137781598
 20
-110.5041939094608
 30
0.0
 10
-13.22738137781598
 20
-110.5041939094608
 30
0.0
 10
-13.61094253711093
 20
-110.232576421843
 30
0.0
 10
-13.61094253711093
 20
-110.232576421843
 30
0.0
 10
-13.61094253711093
 20
-110.232576421843
 30
0.0
 10
-13.90371369977519
 20
-109.8763920119597
 30
0.0
 10
-13.90371369977519
 20
-109.8763920119597
 30
0.0
 10
-13.90371369977519
 20
-109.8763920119597
 30
0.0
 10
-14.07905867419128
 20
-109.4576185240154
 30
0.0
 10
-14.07905867419128
 20
-109.4576185240154
 30
0.0
 10
-14.07905867419128
 20
-109.4576185240154
 30
0.0
 10
-14.13698940483956
 20
-108.976972626842
 30
0.0
 10
-14.13698940483956
 20
-108.976972626842
 30
0.0
 10
-14.13698940483956
 20
-108.976972626842
 30
0.0
 10
-14.07044670371768
 20
-108.4853855854878
 30
0.0
 10
-14.07044670371768
 20
-108.4853855854878
 30
0.0
 10
-14.07044670371768
 20
-108.4853855854878
 30
0.0
 10
-13.87005415359644
 20
-108.0399520169647
 30
0.0
 10
-13.87005415359644
 20
-108.0399520169647
 30
0.0
 10
-13.87005415359644
 20
-108.0399520169647
 30
0.0
 10
-13.53579980999548
 20
-107.6407674771155
 30
0.0
 10
-13.53579980999548
 20
-107.6407674771155
 30
0.0
 10
-13.53579980999548
 20
-107.6407674771155
 30
0.0
 10
-13.17962734459256
 20
-107.3941856207224
 30
0.0
 10
-13.17962734459256
 20
-107.3941856207224
 30
0.0
 10
-13.17962734459256
 20
-107.3941856207224
 30
0.0
 10
-12.71465260589575
 20
-107.2180284216293
 30
0.0
 10
-12.71465260589575
 20
-107.2180284216293
 30
0.0
 10
-12.71465260589575
 20
-107.2180284216293
 30
0.0
 10
-12.1392989224728
 20
-107.1123436577576
 30
0.0
 10
-12.1392989224728
 20
-107.1123436577576
 30
0.0
 10
-12.1392989224728
 20
-107.1123436577576
 30
0.0
 10
-11.45435463003966
 20
-107.077131329108
 30
0.0
 10
-11.45435463003966
 20
-107.077131329108
 30
0.0
 10
-11.45435463003966
 20
-107.077131329108
 30
0.0
 10
-10.75062166970774
 20
-107.1092380928158
 30
0.0
 10
-10.75062166970774
 20
-107.1092380928158
 30
0.0
 10
-10.75062166970774
 20
-107.1092380928158
 30
0.0
 10
-10.14238483134132
 20
-107.2055106060172
 30
0.0
 10
-10.14238483134132
 20
-107.2055106060172
 30
0.0
 10
-10.14238483134132
 20
-107.2055106060172
 30
0.0
 10
-9.628879668185808
 20
-107.3667610933884
 30
0.0
 10
-9.628879668185808
 20
-107.3667610933884
 30
0.0
 10
-9.628879668185808
 20
-107.3667610933884
 30
0.0
 10
-9.21008229128015
 20
-107.5914128834991
 30
0.0
 10
-9.21008229128015
 20
-107.5914128834991
 30
0.0
 10
-9.21008229128015
 20
-107.5914128834991
 30
0.0
 10
-8.798332157896181
 20
-107.9843862934646
 30
0.0
 10
-8.798332157896181
 20
-107.9843862934646
 30
0.0
 10
-8.798332157896181
 20
-107.9843862934646
 30
0.0
 10
-8.55097391026814
 20
-108.4743966633856
 30
0.0
 10
-8.55097391026814
 20
-108.4743966633856
 30
0.0
 10
-8.55097391026814
 20
-108.4743966633856
 30
0.0
 10
-8.468771995149998
 20
-109.0638806672946
 30
0.0
 10
-8.468771995149998
 20
-109.0638806672946
 30
0.0
 10
-8.468771995149998
 20
-109.0638806672946
 30
0.0
 10
-8.554103364171
 20
-109.6368812880497
 30
0.0
 10
-8.554103364171
 20
-109.6368812880497
 30
0.0
 10
-8.554103364171
 20
-109.6368812880497
 30
0.0
 10
-8.809297191037668
 20
-110.1081149345528
 30
0.0
 10
-8.809297191037668
 20
-110.1081149345528
 30
0.0
 10
-8.809297191037668
 20
-110.1081149345528
 30
0.0
 10
-9.241388774791337
 20
-110.4454748430956
 30
0.0
 10
-9.241388774791337
 20
-110.4454748430956
 30
0.0
 10
-9.241388774791337
 20
-110.4454748430956
 30
0.0
 10
-9.84962561315743
 20
-110.6192909240022
 30
0.0
 10
-9.84962561315743
 20
-110.6192909240022
 30
0.0
 10
-9.84962561315743
 20
-110.6192909240022
 30
0.0
 10
-9.902850218470588
 20
-109.9679822887867
 30
0.0
 10
-9.902850218470588
 20
-109.9679822887867
 30
0.0
 10
-9.902850218470588
 20
-109.9679822887867
 30
0.0
 10
-9.417522084923401
 20
-109.7973195507447
 30
0.0
 10
-9.417522084923401
 20
-109.7973195507447
 30
0.0
 10
-9.417522084923401
 20
-109.7973195507447
 30
0.0
 10
-9.125539257975123
 20
-109.4904897344778
 30
0.0
 10
-9.125539257975123
 20
-109.4904897344778
 30
0.0
 10
-9.125539257975123
 20
-109.4904897344778
 30
0.0
 10
-9.028478409057701
 20
-109.0482095088186
 30
0.0
 10
-9.028478409057701
 20
-109.0482095088186
 30
0.0
 10
-9.028478409057701
 20
-109.0482095088186
 30
0.0
 10
-9.171728564246629
 20
-108.4939856114813
 30
0.0
 10
-9.171728564246629
 20
-108.4939856114813
 30
0.0
 10
-9.171728564246629
 20
-108.4939856114813
 30
0.0
 10
-9.599914302861504
 20
-108.0877299391491
 30
0.0
 10
-9.599914302861504
 20
-108.0877299391491
 30
0.0
 10
-9.599914302861504
 20
-108.0877299391491
 30
0.0
 10
-10.03045310414426
 20
-107.9022082673072
 30
0.0
 10
-10.03045310414426
 20
-107.9022082673072
 30
0.0
 10
-10.03045310414426
 20
-107.9022082673072
 30
0.0
 10
-10.55569969167656
 20
-107.7910290423844
 30
0.0
 10
-10.55569969167656
 20
-107.7910290423844
 30
0.0
 10
-10.55569969167656
 20
-107.7910290423844
 30
0.0
 10
-11.17411322746816
 20
-107.7542400423028
 30
0.0
 10
-11.17411322746816
 20
-107.7542400423028
 30
0.0
 10
-11.17411322746816
 20
-107.7542400423028
 30
0.0
 10
-11.17411322746816
 20
-107.7699112007794
 30
0.0
 10
-11.17411322746816
 20
-107.7699112007794
 30
0.0
  0
SPLINE
  5
9A
330
70
100
AcDbEntity
  8
Modo de isolamento
100
AcDbSpline
210
0.0
220
0.0
230
1.0
 70
    11
 71
     3
 72
    53
 73
    49
 74
     0
 42
0.0000000001
 43
0.0000000001
 40
0.0
 40
0.0
 40
0.0
 40
0.0
 40
1.0
 40
1.0
 40
1.0
 40
2.0
 40
2.0
 40
2.0
 40
3.0
 40
3.0
 40
3.0
 40
4.0
 40
4.0
 40
4.0
 40
5.0
 40
5.0
 40
5.0
 40
6.0
 40
6.0
 40
6.0
 40
7.0
 40
7.0
 40
7.0
 40
8.0
 40
8.0
 40
8.0
 40
9.0
 40
9.0
 40
9.0
 40
10.0
 40
10.0
 40
10.0
 40
11.0
 40
11.0
 40
11.0
 40
12.0
 40
12.0
 40
12.0
 40
13.0
 40
13.0
 40
13.0
 40
14.0
 40
14.0
 40
14.0
 40
15.0
 40
15.0
 40
15.0
 40
16.0
 40
16.0
 40
16.0
 40
16.0
 10
-11.04181616094004
 20
-108.9159124422902
 30
0.0
 10
-11.04181616094004
 20
-108.9159124422902
 30
0.0
 10
-11.12948864814793
 20
-108.4689499802566
 30
0.0
 10
-11.12948864814793
 20
-108.4689499802566
 30
0.0
 10
-11.12948864814793
 20
-108.4689499802566
 30
0.0
 10
-11.39407083672381
 20
-108.125283385986
 30
0.0
 10
-11.39407083672381
 20
-108.125283385986
 30
0.0
 10
-11.39407083672381
 20
-108.125283385986
 30
0.0
 10
-11.79564427268227
 20
-107.9037849387392
 30
0.0
 10
-11.79564427268227
 20
-107.9037849387392
 30
0.0
 10
-11.79564427268227
 20
-107.9037849387392
 30
0.0
 10
-12.29037271241935
 20
-107.8301591606532
 30
0.0
 10
-12.29037271241935
 20
-107.8301591606532
 30
0.0
 10
-12.29037271241935
 20
-107.8301591606532
 30
0.0
 10
-12.79371312263004
 20
-107.906126056927
 30
0.0
 10
-12.79371312263004
 20
-107.906126056927
 30
0.0
 10
-12.79371312263004
 20
-107.906126056927
 30
0.0
 10
-13.2062396472493
 20
-108.1331189652237
 30
0.0
 10
-13.2062396472493
 20
-108.1331189652237
 30
0.0
 10
-13.2062396472493
 20
-108.1331189652237
 30
0.0
 10
-13.48413993163391
 20
-108.4743966633856
 30
0.0
 10
-13.48413993163391
 20
-108.4743966633856
 30
0.0
 10
-13.48413993163391
 20
-108.4743966633856
 30
0.0
 10
-13.57728299093186
 20
-108.9010535084909
 30
0.0
 10
-13.57728299093186
 20
-108.9010535084909
 30
0.0
 10
-13.57728299093186
 20
-108.9010535084909
 30
0.0
 10
-13.47865741506317
 20
-109.3370748263438
 30
0.0
 10
-13.47865741506317
 20
-109.3370748263438
 30
0.0
 10
-13.47865741506317
 20
-109.3370748263438
 30
0.0
 10
-13.18354513421171
 20
-109.699470366112
 30
0.0
 10
-13.18354513421171
 20
-109.699470366112
 30
0.0
 10
-13.18354513421171
 20
-109.699470366112
 30
0.0
 10
-12.75221799721298
 20
-109.9437111043172
 30
0.0
 10
-12.75221799721298
 20
-109.9437111043172
 30
0.0
 10
-12.75221799721298
 20
-109.9437111043172
 30
0.0
 10
-12.23792449834149
 20
-110.0251246837194
 30
0.0
 10
-12.23792449834149
 20
-110.0251246837194
 30
0.0
 10
-12.23792449834149
 20
-110.0251246837194
 30
0.0
 10
-11.75885527260034
 20
-109.9452877757498
 30
0.0
 10
-11.75885527260034
 20
-109.9452877757498
 30
0.0
 10
-11.75885527260034
 20
-109.9452877757498
 30
0.0
 10
-11.3745057775894
 20
-109.7073059453496
 30
0.0
 10
-11.3745057775894
 20
-109.7073059453496
 30
0.0
 10
-11.3745057775894
 20
-109.7073059453496
 30
0.0
 10
-11.12479446729348
 20
-109.3487804172792
 30
0.0
 10
-11.12479446729348
 20
-109.3487804172792
 30
0.0
 10
-11.12479446729348
 20
-109.3487804172792
 30
0.0
 10
-11.04181616094004
 20
-108.9159124422902
 30
0.0
 10
-11.04181616094004
 20
-108.9159124422902
 30
0.0
  0
HATCH
  5
9B
330
70
100
AcDbEntity
  8
Modo de isolamento
 62
     7
440
 33554687
100
AcDbHatch
 10
0.0
 20
0.0
 30
0.0
210
0.0
220
0.0
230
1.0
  2
SOLID
 70
     1
 71
     1
 91
        2
 92
        1
 93
        2
 72
     4
 94
        3
 73
     0
 74
     0
 95
      137
 96
      133
 40
0.0
 40
0.0
 40
0.0
 40
0.0
 40
1.0
 40
1.0
 40
1.0
 40
2.0
 40
2.0
 40
2.0
 40
3.0
 40
3.0
 40
3.0
 40
4.0
 40
4.0
 40
4.0
 40
5.0
 40
5.0
 40
5.0
 40
6.0
 40
6.0
 40
6.0
 40
7.0
 40
7.0
 40
7.0
 40
8.0
 40
8.0
 40
8.0
 40
9.0
 40
9.0
 40
9.0
 40
10.0
 40
10.0
 40
10.0
 40
11.0
 40
11.0
 40
11.0
 40
12.0
 40
12.0
 40
12.0
 40
13.0
 40
13.0
 40
13.0
 40
14.0
 40
14.0
 40
14.0
 40
15.0
 40
15.0
 40
15.0
 40
16.0
 40
16.0
 40
16.0
 40
17.0
 40
17.0
 40
17.0
 40
18.0
 40
18.0
 40
18.0
 40
19.0
 40
19.0
 40
19.0
 40
20.0
 40
20.0
 40
20.0
 40
21.0
 40
21.0
 40
21.0
 40
22.0
 40
22.0
 40
22.0
 40
23.0
 40
23.0
 40
23.0
 40
24.0
 40
24.0
 40
24.0
 40
25.0
 40
25.0
 40
25.0
 40
26.0
 40
26.0
 40
26.0
 40
27.0
 40
27.0
 40
27.0
 40
28.0
 40
28.0
 40
28.0
 40
29.0
 40
29.0
 40
29.0
 40
30.0
 40
30.0
 40
30.0
 40
31.0
 40
31.0
 40
31.0
 40
32.0
 40
32.0
 40
32.0
 40
33.0
 40
33.0
 40
33.0
 40
34.0
 40
34.0
 40
34.0
 40
35.0
 40
35.0
 40
35.0
 40
36.0
 40
36.0
 40
36.0
 40
37.0
 40
37.0
 40
37.0
 40
38.0
 40
38.0
 40
38.0
 40
39.0
 40
39.0
 40
39.0
 40
40.0
 40
40.0
 40
40.0
 40
41.0
 40
41.0
 40
41.0
 40
42.0
 40
42.0
 40
42.0
 40
43.0
 40
43.0
 40
43.0
 40
44.0
 40
44.0
 40
44.0
 40
44.0
 10
-11.17411322746816
 20
-107.7699112007794
 10
-11.17411322746816
 20
-107.7699112007794
 10
-10.87977733785232
 20
-108.0078930311789
 10
-10.87977733785232
 20
-108.0078930311789
 10
-10.87977733785232
 20
-108.0078930311789
 10
-10.64807830421989
 20
-108.3217939799288
 10
-10.64807830421989
 20
-108.3217939799288
 10
-10.64807830421989
 20
-108.3217939799288
 10
-10.49778090550863
 20
-108.6850017443737
 10
-10.49778090550863
 20
-108.6850017443737
 10
-10.49778090550863
 20
-108.6850017443737
 10
-10.44767380961797
 20
-109.0787396010939
 10
-10.44767380961797
 20
-109.0787396010939
 10
-10.44767380961797
 20
-109.0787396010939
 10
-10.50325147759869
 20
-109.5124198007602
 10
-10.50325147759869
 20
-109.5124198007602
 10
-10.50325147759869
 20
-109.5124198007602
 10
-10.66999642602186
 20
-109.9014754211065
 10
-10.66999642602186
 20
-109.9014754211065
 10
-10.66999642602186
 20
-109.9014754211065
 10
-10.94709643020982
 20
-110.2443297907004
 10
-10.94709643020982
 20
-110.2443297907004
 10
-10.94709643020982
 20
-110.2443297907004
 10
-11.31657504694079
 20
-110.5088761458346
 10
-11.31657504694079
 20
-110.5088761458346
 10
-11.31657504694079
 20
-110.5088761458346
 10
-11.75416109174557
 20
-110.6677855150191
 10
-11.75416109174557
 20
-110.6677855150191
 10
-11.75416109174557
 20
-110.6677855150191
 10
-12.26063095585975
 20
-110.7210578982547
 10
-12.26063095585975
 20
-110.7210578982547
 10
-12.26063095585975
 20
-110.7210578982547
 10
-12.77727751739881
 20
-110.6670210682639
 10
-12.77727751739881
 20
-110.6670210682639
 10
-12.77727751739881
 20
-110.6670210682639
 10
-13.22738137781598
 20
-110.5041939094608
 10
-13.22738137781598
 20
-110.5041939094608
 10
-13.22738137781598
 20
-110.5041939094608
 10
-13.61094253711093
 20
-110.232576421843
 10
-13.61094253711093
 20
-110.232576421843
 10
-13.61094253711093
 20
-110.232576421843
 10
-13.90371369977519
 20
-109.8763920119597
 10
-13.90371369977519
 20
-109.8763920119597
 10
-13.90371369977519
 20
-109.8763920119597
 10
-14.07905867419128
 20
-109.4576185240154
 10
-14.07905867419128
 20
-109.4576185240154
 10
-14.07905867419128
 20
-109.4576185240154
 10
-14.13698940483956
 20
-108.976972626842
 10
-14.13698940483956
 20
-108.976972626842
 10
-14.13698940483956
 20
-108.976972626842
 10
-14.07044670371768
 20
-108.4853855854878
 10
-14.07044670371768
 20
-108.4853855854878
 10
-14.07044670371768
 20
-108.4853855854878
 10
-13.87005415359644
 20
-108.0399520169647
 10
-13.87005415359644
 20
-108.0399520169647
 10
-13.87005415359644
 20
-108.0399520169647
 10
-13.53579980999548
 20
-107.6407674771155
 10
-13.53579980999548
 20
-107.6407674771155
 10
-13.53579980999548
 20
-107.6407674771155
 10
-13.17962734459256
 20
-107.3941856207224
 10
-13.17962734459256
 20
-107.3941856207224
 10
-13.17962734459256
 20
-107.3941856207224
 10
-12.71465260589575
 20
-107.2180284216293
 10
-12.71465260589575
 20
-107.2180284216293
 10
-12.71465260589575
 20
-107.2180284216293
 10
-12.1392989224728
 20
-107.1123436577576
 10
-12.1392989224728
 20
-107.1123436577576
 10
-12.1392989224728
 20
-107.1123436577576
 10
-11.45435463003966
 20
-107.077131329108
 10
-11.45435463003966
 20
-107.077131329108
 10
-11.45435463003966
 20
-107.077131329108
 10
-10.75062166970774
 20
-107.1092380928158
 10
-10.75062166970774
 20
-107.1092380928158
 10
-10.75062166970774
 20
-107.1092380928158
 10
-10.14238483134132
 20
-107.2055106060172
 10
-10.14238483134132
 20
-107.2055106060172
 10
-10.14238483134132
 20
-107.2055106060172
 10
-9.628879668185808
 20
-107.3667610933884
 10
-9.628879668185808
 20
-107.3667610933884
 10
-9.628879668185808
 20
-107.3667610933884
 10
-9.21008229128015
 20
-107.5914128834991
 10
-9.21008229128015
 20
-107.5914128834991
 10
-9.21008229128015
 20
-107.5914128834991
 10
-8.798332157896181
 20
-107.9843862934646
 10
-8.798332157896181
 20
-107.9843862934646
 10
-8.798332157896181
 20
-107.9843862934646
 10
-8.55097391026814
 20
-108.4743966633856
 10
-8.55097391026814
 20
-108.4743966633856
 10
-8.55097391026814
 20
-108.4743966633856
 10
-8.468771995149998
 20
-109.0638806672946
 10
-8.468771995149998
 20
-109.0638806672946
 10
-8.468771995149998
 20
-109.0638806672946
 10
-8.554103364171
 20
-109.6368812880497
 10
-8.554103364171
 20
-109.6368812880497
 10
-8.554103364171
 20
-109.6368812880497
 10
-8.809297191037668
 20
-110.1081149345528
 10
-8.809297191037668
 20
-110.1081149345528
 10
-8.809297191037668
 20
-110.1081149345528
 10
-9.241388774791337
 20
-110.4454748430956
 10
-9.241388774791337
 20
-110.4454748430956
 10
-9.241388774791337
 20
-110.4454748430956
 10
-9.84962561315743
 20
-110.6192909240022
 10
-9.84962561315743
 20
-110.6192909240022
 10
-9.84962561315743
 20
-110.6192909240022
 10
-9.902850218470588
 20
-109.9679822887867
 10
-9.902850218470588
 20
-109.9679822887867
 10
-9.902850218470588
 20
-109.9679822887867
 10
-9.417522084923401
 20
-109.7973195507447
 10
-9.417522084923401
 20
-109.7973195507447
 10
-9.417522084923401
 20
-109.7973195507447
 10
-9.125539257975123
 20
-109.4904897344778
 10
-9.125539257975123
 20
-109.4904897344778
 10
-9.125539257975123
 20
-109.4904897344778
 10
-9.028478409057701
 20
-109.0482095088186
 10
-9.028478409057701
 20
-109.0482095088186
 10
-9.028478409057701
 20
-109.0482095088186
 10
-9.171728564246629
 20
-108.4939856114813
 10
-9.171728564246629
 20
-108.4939856114813
 10
-9.171728564246629
 20
-108.4939856114813
 10
-9.599914302861504
 20
-108.0877299391491
 10
-9.599914302861504
 20
-108.0877299391491
 10
-9.599914302861504
 20
-108.0877299391491
 10
-10.03045310414426
 20
-107.9022082673072
 10
-10.03045310414426
 20
-107.9022082673072
 10
-10.03045310414426
 20
-107.9022082673072
 10
-10.55569969167656
 20
-107.7910290423844
 10
-10.55569969167656
 20
-107.7910290423844
 10
-10.55569969167656
 20
-107.7910290423844
 10
-11.17411322746816
 20
-107.7542400423028
 10
-11.17411322746816
 20
-107.7542400423028
 10
-11.17411322746816
 20
-107.7542400423028
 10
-11.17411322746816
 20
-107.7699112007794
 10
-11.17411322746816
 20
-107.7699112007794
 97
        0
 72
     1
 10
-11.17411322746816
 20
-107.7699112007794
 11
-11.17411322746816
 21
-107.7699112007794
 97
        0
 92
        1
 93
        2
 72
     4
 94
        3
 73
     0
 74
     0
 95
       53
 96
       49
 40
0.0
 40
0.0
 40
0.0
 40
0.0
 40
1.0
 40
1.0
 40
1.0
 40
2.0
 40
2.0
 40
2.0
 40
3.0
 40
3.0
 40
3.0
 40
4.0
 40
4.0
 40
4.0
 40
5.0
 40
5.0
 40
5.0
 40
6.0
 40
6.0
 40
6.0
 40
7.0
 40
7.0
 40
7.0
 40
8.0
 40
8.0
 40
8.0
 40
9.0
 40
9.0
 40
9.0
 40
10.0
 40
10.0
 40
10.0
 40
11.0
 40
11.0
 40
11.0
 40
12.0
 40
12.0
 40
12.0
 40
13.0
 40
13.0
 40
13.0
 40
14.0
 40
14.0
 40
14.0
 40
15.0
 40
15.0
 40
15.0
 40
16.0
 40
16.0
 40
16.0
 40
16.0
 10
-11.04181616094004
 20
-108.9159124422902
 10
-11.04181616094004
 20
-108.9159124422902
 10
-11.12948864814793
 20
-108.4689499802566
 10
-11.12948864814793
 20
-108.4689499802566
 10
-11.12948864814793
 20
-108.4689499802566
 10
-11.39407083672381
 20
-108.125283385986
 10
-11.39407083672381
 20
-108.125283385986
 10
-11.39407083672381
 20
-108.125283385986
 10
-11.79564427268227
 20
-107.9037849387392
 10
-11.79564427268227
 20
-107.9037849387392
 10
-11.79564427268227
 20
-107.9037849387392
 10
-12.29037271241935
 20
-107.8301591606532
 10
-12.29037271241935
 20
-107.8301591606532
 10
-12.29037271241935
 20
-107.8301591606532
 10
-12.79371312263004
 20
-107.906126056927
 10
-12.79371312263004
 20
-107.906126056927
 10
-12.79371312263004
 20
-107.906126056927
 10
-13.2062396472493
 20
-108.1331189652237
 10
-13.2062396472493
 20
-108.1331189652237
 10
-13.2062396472493
 20
-108.1331189652237
 10
-13.48413993163391
 20
-108.4743966633856
 10
-13.48413993163391
 20
-108.4743966633856
 10
-13.48413993163391
 20
-108.4743966633856
 10
-13.57728299093186
 20
-108.9010535084909
 10
-13.57728299093186
 20
-108.9010535084909
 10
-13.57728299093186
 20
-108.9010535084909
 10
-13.47865741506317
 20
-109.3370748263438
 10
-13.47865741506317
 20
-109.3370748263438
 10
-13.47865741506317
 20
-109.3370748263438
 10
-13.18354513421171
 20
-109.699470366112
 10
-13.18354513421171
 20
-109.699470366112
 10
-13.18354513421171
 20
-109.699470366112
 10
-12.75221799721298
 20
-109.9437111043172
 10
-12.75221799721298
 20
-109.9437111043172
 10
-12.75221799721298
 20
-109.9437111043172
 10
-12.23792449834149
 20
-110.0251246837194
 10
-12.23792449834149
 20
-110.0251246837194
 10
-12.23792449834149
 20
-110.0251246837194
 10
-11.75885527260034
 20
-109.9452877757498
 10
-11.75885527260034
 20
-109.9452877757498
 10
-11.75885527260034
 20
-109.9452877757498
 10
-11.3745057775894
 20
-109.7073059453496
 10
-11.3745057775894
 20
-109.7073059453496
 10
-11.3745057775894
 20
-109.7073059453496
 10
-11.12479446729348
 20
-109.3487804172792
 10
-11.12479446729348
 20
-109.3487804172792
 10
-11.12479446729348
 20
-109.3487804172792
 10
-11.04181616094004
 20
-108.9159124422902
 10
-11.04181616094004
 20
-108.9159124422902
 97
        0
 72
     1
 10
-11.04181616094004
 20
-108.9159124422902
 11
-11.04181616094004
 21
-108.9159124422902
 97
        0
 75
     0
 76
     1
 98
        1
 10
0.0
 20
0.0
450
        0
451
        0
460
0.0
461
0.0
452
        0
462
0.0
453
        0
470

  0
SPLINE
  5
9C
330
70
100
AcDbEntity
  8
Modo de isolamento
100
AcDbSpline
210
0.0
220
0.0
230
1.0
 70
    11
 71
     3
 72
    77
 73
    73
 74
     0
 42
0.0000000001
 43
0.0000000001
 40
0.0
 40
0.0
 40
0.0
 40
0.0
 40
1.0
 40
1.0
 40
1.0
 40
2.0
 40
2.0
 40
2.0
 40
3.0
 40
3.0
 40
3.0
 40
4.0
 40
4.0
 40
4.0
 40
5.0
 40
5.0
 40
5.0
 40
6.0
 40
6.0
 40
6.0
 40
7.0
 40
7.0
 40
7.0
 40
8.0
 40
8.0
 40
8.0
 40
9.0
 40
9.0
 40
9.0
 40
10.0
 40
10.0
 40
10.0
 40
11.0
 40
11.0
 40
11.0
 40
12.0
 40
12.0
 40
12.0
 40
13.0
 40
13.0
 40
13.0
 40
14.0
 40
14.0
 40
14.0
 40
15.0
 40
15.0
 40
15.0
 40
16.0
 40
16.0
 40
16.0
 40
17.0
 40
17.0
 40
17.0
 40
18.0
 40
18.0
 40
18.0
 40
19.0
 40
19.0
 40
19.0
 40
20.0
 40
20.0
 40
20.0
 40
21.0
 40
21.0
 40
21.0
 40
22.0
 40
22.0
 40
22.0
 40
23.0
 40
23.0
 40
23.0
 40
24.0
 40
24.0
 40
24.0
 40
24.0
 10
-14.13698940483956
 20
-104.5909593703295
 30
0.0
 10
-14.13698940483956
 20
-104.5909593703295
 30
0.0
 10
-14.02348100621055
 20
-103.9396985130364
 30
0.0
 10
-14.02348100621055
 20
-103.9396985130364
 30
0.0
 10
-14.02348100621055
 20
-103.9396985130364
 30
0.0
 10
-13.68296775480356
 20
-103.4332525378836
 30
0.0
 10
-13.68296775480356
 20
-103.4332525378836
 30
0.0
 10
-13.68296775480356
 20
-103.4332525378836
 30
0.0
 10
-13.11543770613823
 20
-103.0715736669489
 30
0.0
 10
-13.11543770613823
 20
-103.0715736669489
 30
0.0
 10
-13.11543770613823
 20
-103.0715736669489
 30
0.0
 10
-12.32090280469492
 20
-102.8547574560768
 30
0.0
 10
-12.32090280469492
 20
-102.8547574560768
 30
0.0
 10
-12.32090280469492
 20
-102.8547574560768
 30
0.0
 10
-11.29936305047395
 20
-102.7819439026682
 30
0.0
 10
-11.29936305047395
 20
-102.7819439026682
 30
0.0
 10
-11.29936305047395
 20
-102.7819439026682
 30
0.0
 10
-10.62772490936919
 20
-102.8117095481888
 30
0.0
 10
-10.62772490936919
 20
-102.8117095481888
 30
0.0
 10
-10.62772490936919
 20
-102.8117095481888
 30
0.0
 10
-10.04845343632708
 20
-102.8993820353971
 30
0.0
 10
-10.04845343632708
 20
-102.8993820353971
 30
0.0
 10
-10.04845343632708
 20
-102.8993820353971
 30
0.0
 10
-9.56077224011233
 20
-103.0465380357244
 30
0.0
 10
-9.56077224011233
 20
-103.0465380357244
 30
0.0
 10
-9.56077224011233
 20
-103.0465380357244
 30
0.0
 10
-9.164681320724296
 20
-103.2516008777391
 30
0.0
 10
-9.164681320724296
 20
-103.2516008777391
 30
0.0
 10
-9.164681320724296
 20
-103.2516008777391
 30
0.0
 10
-8.777978763045799
 20
-103.6070208408674
 30
0.0
 10
-8.777978763045799
 20
-103.6070208408674
 30
0.0
 10
-8.777978763045799
 20
-103.6070208408674
 30
0.0
 10
-8.546267784933013
 20
-104.0539833029011
 30
0.0
 10
-8.546267784933013
 20
-104.0539833029011
 30
0.0
 10
-8.546267784933013
 20
-104.0539833029011
 30
0.0
 10
-8.468771995149998
 20
-104.5909593703295
 30
0.0
 10
-8.468771995149998
 20
-104.5909593703295
 30
0.0
 10
-8.468771995149998
 20
-104.5909593703295
 30
0.0
 10
-8.582280393779328
 20
-105.2406913341129
 30
0.0
 10
-8.582280393779328
 20
-105.2406913341129
 30
0.0
 10
-8.582280393779328
 20
-105.2406913341129
 30
0.0
 10
-8.922017253950704
 20
-105.7463728625111
 30
0.0
 10
-8.922017253950704
 20
-105.7463728625111
 30
0.0
 10
-8.922017253950704
 20
-105.7463728625111
 30
0.0
 10
-9.487970631184085
 20
-106.1072395087682
 30
0.0
 10
-9.487970631184085
 20
-106.1072395087682
 30
0.0
 10
-9.487970631184085
 20
-106.1072395087682
 30
0.0
 10
-10.28016441444019
 20
-106.3241034975627
 30
0.0
 10
-10.28016441444019
 20
-106.3241034975627
 30
0.0
 10
-10.28016441444019
 20
-106.3241034975627
 30
0.0
 10
-11.29936305047395
 20
-106.396104826294
 30
0.0
 10
-11.29936305047395
 20
-106.396104826294
 30
0.0
 10
-11.29936305047395
 20
-106.396104826294
 30
0.0
 10
-11.97021285586274
 20
-106.36715140545
 30
0.0
 10
-11.97021285586274
 20
-106.36715140545
 30
0.0
 10
-11.97021285586274
 20
-106.36715140545
 30
0.0
 10
-12.54948432890485
 20
-106.2794789182422
 30
0.0
 10
-12.54948432890485
 20
-106.2794789182422
 30
0.0
 10
-12.54948432890485
 20
-106.2794789182422
 30
0.0
 10
-13.03715358063924
 20
-106.1338518114249
 30
0.0
 10
-13.03715358063924
 20
-106.1338518114249
 30
0.0
 10
-13.03715358063924
 20
-106.1338518114249
 30
0.0
 10
-13.43325644450764
 20
-105.9303178629198
 30
0.0
 10
-13.43325644450764
 20
-105.9303178629198
 30
0.0
 10
-13.43325644450764
 20
-105.9303178629198
 30
0.0
 10
-13.8246531830409
 20
-105.5733690062819
 30
0.0
 10
-13.8246531830409
 20
-105.5733690062819
 30
0.0
 10
-13.8246531830409
 20
-105.5733690062819
 30
0.0
 10
-14.05870527934089
 20
-105.1264065442483
 30
0.0
 10
-14.05870527934089
 20
-105.1264065442483
 30
0.0
 10
-14.05870527934089
 20
-105.1264065442483
 30
0.0
 10
-14.13698940483956
 20
-104.5909593703295
 30
0.0
 10
-14.13698940483956
 20
-104.5909593703295
 30
0.0
  0
SPLINE
  5
9D
330
70
100
AcDbEntity
  8
Modo de isolamento
100
AcDbSpline
210
0.0
220
0.0
230
1.0
 70
    11
 71
     3
 72
    77
 73
    73
 74
     0
 42
0.0000000001
 43
0.0000000001
 40
0.0
 40
0.0
 40
0.0
 40
0.0
 40
1.0
 40
1.0
 40
1.0
 40
2.0
 40
2.0
 40
2.0
 40
3.0
 40
3.0
 40
3.0
 40
4.0
 40
4.0
 40
4.0
 40
5.0
 40
5.0
 40
5.0
 40
6.0
 40
6.0
 40
6.0
 40
7.0
 40
7.0
 40
7.0
 40
8.0
 40
8.0
 40
8.0
 40
9.0
 40
9.0
 40
9.0
 40
10.0
 40
10.0
 40
10.0
 40
11.0
 40
11.0
 40
11.0
 40
12.0
 40
12.0
 40
12.0
 40
13.0
 40
13.0
 40
13.0
 40
14.0
 40
14.0
 40
14.0
 40
15.0
 40
15.0
 40
15.0
 40
16.0
 40
16.0
 40
16.0
 40
17.0
 40
17.0
 40
17.0
 40
18.0
 40
18.0
 40
18.0
 40
19.0
 40
19.0
 40
19.0
 40
20.0
 40
20.0
 40
20.0
 40
21.0
 40
21.0
 40
21.0
 40
22.0
 40
22.0
 40
22.0
 40
23.0
 40
23.0
 40
23.0
 40
24.0
 40
24.0
 40
24.0
 40
24.0
 10
-9.028478409057701
 20
-104.5909593703295
 30
0.0
 10
-9.028478409057701
 20
-104.5909593703295
 30
0.0
 10
-9.161551866821438
 20
-104.1095490264011
 30
0.0
 10
-9.161551866821438
 20
-104.1095490264011
 30
0.0
 10
-9.161551866821438
 20
-104.1095490264011
 30
0.0
 10
-9.558419177444767
 20
-103.7620124204331
 30
0.0
 10
-9.558419177444767
 20
-103.7620124204331
 30
0.0
 10
-9.558419177444767
 20
-103.7620124204331
 30
0.0
 10
-9.988957978727205
 20
-103.6070208408674
 30
0.0
 10
-9.988957978727205
 20
-103.6070208408674
 30
0.0
 10
-9.988957978727205
 20
-103.6070208408674
 30
0.0
 10
-10.56900584300493
 20
-103.5130894458535
 30
0.0
 10
-10.56900584300493
 20
-103.5130894458535
 30
0.0
 10
-10.56900584300493
 20
-103.5130894458535
 30
0.0
 10
-11.29936305047395
 20
-103.4825593535776
 30
0.0
 10
-11.29936305047395
 20
-103.4825593535776
 30
0.0
 10
-11.29936305047395
 20
-103.4825593535776
 30
0.0
 10
-11.81912712143583
 20
-103.4958416159449
 30
0.0
 10
-11.81912712143583
 20
-103.4958416159449
 30
0.0
 10
-11.81912712143583
 20
-103.4958416159449
 30
0.0
 10
-12.25984262014346
 20
-103.538125077078
 30
0.0
 10
-12.25984262014346
 20
-103.538125077078
 30
0.0
 10
-12.25984262014346
 20
-103.538125077078
 30
0.0
 10
-12.61993287516554
 20
-103.6070208408674
 30
0.0
 10
-12.61993287516554
 20
-103.6070208408674
 30
0.0
 10
-12.61993287516554
 20
-103.6070208408674
 30
0.0
 10
-13.04185970597437
 20
-103.7604357490012
 30
0.0
 10
-13.04185970597437
 20
-103.7604357490012
 30
0.0
 10
-13.04185970597437
 20
-103.7604357490012
 30
0.0
 10
-13.33853671377742
 20
-103.9780641845503
 30
0.0
 10
-13.33853671377742
 20
-103.9780641845503
 30
0.0
 10
-13.33853671377742
 20
-103.9780641845503
 30
0.0
 10
-13.51779947781266
 20
-104.2559405799736
 30
0.0
 10
-13.51779947781266
 20
-104.2559405799736
 30
0.0
 10
-13.51779947781266
 20
-104.2559405799736
 30
0.0
 10
-13.57728299093186
 20
-104.5987949495678
 30
0.0
 10
-13.57728299093186
 20
-104.5987949495678
 30
0.0
 10
-13.57728299093186
 20
-104.5987949495678
 30
0.0
 10
-13.44186841498124
 20
-105.0794408467412
 30
0.0
 10
-13.44186841498124
 20
-105.0794408467412
 30
0.0
 10
-13.44186841498124
 20
-105.0794408467412
 30
0.0
 10
-13.03637718940395
 20
-105.4238718877673
 30
0.0
 10
-13.03637718940395
 20
-105.4238718877673
 30
0.0
 10
-13.03637718940395
 20
-105.4238718877673
 30
0.0
 10
-12.60270893421801
 20
-105.5772867959005
 30
0.0
 10
-12.60270893421801
 20
-105.5772867959005
 30
0.0
 10
-12.60270893421801
 20
-105.5772867959005
 30
0.0
 10
-12.0234374611759
 20
-105.6688770727281
 30
0.0
 10
-12.0234374611759
 20
-105.6688770727281
 30
0.0
 10
-12.0234374611759
 20
-105.6688770727281
 30
0.0
 10
-11.29936305047395
 20
-105.699407165004
 30
0.0
 10
-11.29936305047395
 20
-105.699407165004
 30
0.0
 10
-11.29936305047395
 20
-105.699407165004
 30
0.0
 10
-10.7850576071221
 20
-105.6861249026367
 30
0.0
 10
-10.7850576071221
 20
-105.6861249026367
 30
0.0
 10
-10.7850576071221
 20
-105.6861249026367
 30
0.0
 10
-10.34748350679769
 20
-105.6438414415033
 30
0.0
 10
-10.34748350679769
 20
-105.6438414415033
 30
0.0
 10
-10.34748350679769
 20
-105.6438414415033
 30
0.0
 10
-9.985828524824347
 20
-105.5749456777139
 30
0.0
 10
-9.985828524824347
 20
-105.5749456777139
 30
0.0
 10
-9.985828524824347
 20
-105.5749456777139
 30
0.0
 10
-9.563125302779894
 20
-105.4199540981482
 30
0.0
 10
-9.563125302779894
 20
-105.4199540981482
 30
0.0
 10
-9.563125302779894
 20
-105.4199540981482
 30
0.0
 10
-9.263306896593308
 20
-105.203902334031
 30
0.0
 10
-9.263306896593308
 20
-105.203902334031
 30
0.0
 10
-9.263306896593308
 20
-105.203902334031
 30
0.0
 10
-9.087185530941603
 20
-104.9276026100397
 30
0.0
 10
-9.087185530941603
 20
-104.9276026100397
 30
0.0
 10
-9.087185530941603
 20
-104.9276026100397
 30
0.0
 10
-9.028478409057701
 20
-104.5909593703295
 30
0.0
 10
-9.028478409057701
 20
-104.5909593703295
 30
0.0
  0
HATCH
  5
9E
330
70
100
AcDbEntity
  8
Modo de isolamento
 62
     7
440
 33554687
100
AcDbHatch
 10
0.0
 20
0.0
 30
0.0
210
0.0
220
0.0
230
1.0
  2
SOLID
 70
     1
 71
     1
 91
        2
 92
        1
 93
        2
 72
     4
 94
        3
 73
     0
 74
     0
 95
       77
 96
       73
 40
0.0
 40
0.0
 40
0.0
 40
0.0
 40
1.0
 40
1.0
 40
1.0
 40
2.0
 40
2.0
 40
2.0
 40
3.0
 40
3.0
 40
3.0
 40
4.0
 40
4.0
 40
4.0
 40
5.0
 40
5.0
 40
5.0
 40
6.0
 40
6.0
 40
6.0
 40
7.0
 40
7.0
 40
7.0
 40
8.0
 40
8.0
 40
8.0
 40
9.0
 40
9.0
 40
9.0
 40
10.0
 40
10.0
 40
10.0
 40
11.0
 40
11.0
 40
11.0
 40
12.0
 40
12.0
 40
12.0
 40
13.0
 40
13.0
 40
13.0
 40
14.0
 40
14.0
 40
14.0
 40
15.0
 40
15.0
 40
15.0
 40
16.0
 40
16.0
 40
16.0
 40
17.0
 40
17.0
 40
17.0
 40
18.0
 40
18.0
 40
18.0
 40
19.0
 40
19.0
 40
19.0
 40
20.0
 40
20.0
 40
20.0
 40
21.0
 40
21.0
 40
21.0
 40
22.0
 40
22.0
 40
22.0
 40
23.0
 40
23.0
 40
23.0
 40
24.0
 40
24.0
 40
24.0
 40
24.0
 10
-14.13698940483956
 20
-104.5909593703295
 10
-14.13698940483956
 20
-104.5909593703295
 10
-14.02348100621055
 20
-103.9396985130364
 10
-14.02348100621055
 20
-103.9396985130364
 10
-14.02348100621055
 20
-103.9396985130364
 10
-13.68296775480356
 20
-103.4332525378836
 10
-13.68296775480356
 20
-103.4332525378836
 10
-13.68296775480356
 20
-103.4332525378836
 10
-13.11543770613823
 20
-103.0715736669489
 10
-13.11543770613823
 20
-103.0715736669489
 10
-13.11543770613823
 20
-103.0715736669489
 10
-12.32090280469492
 20
-102.8547574560768
 10
-12.32090280469492
 20
-102.8547574560768
 10
-12.32090280469492
 20
-102.8547574560768
 10
-11.29936305047395
 20
-102.7819439026682
 10
-11.29936305047395
 20
-102.7819439026682
 10
-11.29936305047395
 20
-102.7819439026682
 10
-10.62772490936919
 20
-102.8117095481888
 10
-10.62772490936919
 20
-102.8117095481888
 10
-10.62772490936919
 20
-102.8117095481888
 10
-10.04845343632708
 20
-102.8993820353971
 10
-10.04845343632708
 20
-102.8993820353971
 10
-10.04845343632708
 20
-102.8993820353971
 10
-9.56077224011233
 20
-103.0465380357244
 10
-9.56077224011233
 20
-103.0465380357244
 10
-9.56077224011233
 20
-103.0465380357244
 10
-9.164681320724296
 20
-103.2516008777391
 10
-9.164681320724296
 20
-103.2516008777391
 10
-9.164681320724296
 20
-103.2516008777391
 10
-8.777978763045799
 20
-103.6070208408674
 10
-8.777978763045799
 20
-103.6070208408674
 10
-8.777978763045799
 20
-103.6070208408674
 10
-8.546267784933013
 20
-104.0539833029011
 10
-8.546267784933013
 20
-104.0539833029011
 10
-8.546267784933013
 20
-104.0539833029011
 10
-8.468771995149998
 20
-104.5909593703295
 10
-8.468771995149998
 20
-104.5909593703295
 10
-8.468771995149998
 20
-104.5909593703295
 10
-8.582280393779328
 20
-105.2406913341129
 10
-8.582280393779328
 20
-105.2406913341129
 10
-8.582280393779328
 20
-105.2406913341129
 10
-8.922017253950704
 20
-105.7463728625111
 10
-8.922017253950704
 20
-105.7463728625111
 10
-8.922017253950704
 20
-105.7463728625111
 10
-9.487970631184085
 20
-106.1072395087682
 10
-9.487970631184085
 20
-106.1072395087682
 10
-9.487970631184085
 20
-106.1072395087682
 10
-10.28016441444019
 20
-106.3241034975627
 10
-10.28016441444019
 20
-106.3241034975627
 10
-10.28016441444019
 20
-106.3241034975627
 10
-11.29936305047395
 20
-106.396104826294
 10
-11.29936305047395
 20
-106.396104826294
 10
-11.29936305047395
 20
-106.396104826294
 10
-11.97021285586274
 20
-106.36715140545
 10
-11.97021285586274
 20
-106.36715140545
 10
-11.97021285586274
 20
-106.36715140545
 10
-12.54948432890485
 20
-106.2794789182422
 10
-12.54948432890485
 20
-106.2794789182422
 10
-12.54948432890485
 20
-106.2794789182422
 10
-13.03715358063924
 20
-106.1338518114249
 10
-13.03715358063924
 20
-106.1338518114249
 10
-13.03715358063924
 20
-106.1338518114249
 10
-13.43325644450764
 20
-105.9303178629198
 10
-13.43325644450764
 20
-105.9303178629198
 10
-13.43325644450764
 20
-105.9303178629198
 10
-13.8246531830409
 20
-105.5733690062819
 10
-13.8246531830409
 20
-105.5733690062819
 10
-13.8246531830409
 20
-105.5733690062819
 10
-14.05870527934089
 20
-105.1264065442483
 10
-14.05870527934089
 20
-105.1264065442483
 10
-14.05870527934089
 20
-105.1264065442483
 10
-14.13698940483956
 20
-104.5909593703295
 10
-14.13698940483956
 20
-104.5909593703295
 97
        0
 72
     1
 10
-14.13698940483956
 20
-104.5909593703295
 11
-14.13698940483956
 21
-104.5909593703295
 97
        0
 92
        1
 93
        2
 72
     4
 94
        3
 73
     0
 74
     0
 95
       77
 96
       73
 40
0.0
 40
0.0
 40
0.0
 40
0.0
 40
1.0
 40
1.0
 40
1.0
 40
2.0
 40
2.0
 40
2.0
 40
3.0
 40
3.0
 40
3.0
 40
4.0
 40
4.0
 40
4.0
 40
5.0
 40
5.0
 40
5.0
 40
6.0
 40
6.0
 40
6.0
 40
7.0
 40
7.0
 40
7.0
 40
8.0
 40
8.0
 40
8.0
 40
9.0
 40
9.0
 40
9.0
 40
10.0
 40
10.0
 40
10.0
 40
11.0
 40
11.0
 40
11.0
 40
12.0
 40
12.0
 40
12.0
 40
13.0
 40
13.0
 40
13.0
 40
14.0
 40
14.0
 40
14.0
 40
15.0
 40
15.0
 40
15.0
 40
16.0
 40
16.0
 40
16.0
 40
17.0
 40
17.0
 40
17.0
 40
18.0
 40
18.0
 40
18.0
 40
19.0
 40
19.0
 40
19.0
 40
20.0
 40
20.0
 40
20.0
 40
21.0
 40
21.0
 40
21.0
 40
22.0
 40
22.0
 40
22.0
 40
23.0
 40
23.0
 40
23.0
 40
24.0
 40
24.0
 40
24.0
 40
24.0
 10
-9.028478409057701
 20
-104.5909593703295
 10
-9.028478409057701
 20
-104.5909593703295
 10
-9.161551866821438
 20
-104.1095490264011
 10
-9.161551866821438
 20
-104.1095490264011
 10
-9.161551866821438
 20
-104.1095490264011
 10
-9.558419177444767
 20
-103.7620124204331
 10
-9.558419177444767
 20
-103.7620124204331
 10
-9.558419177444767
 20
-103.7620124204331
 10
-9.988957978727205
 20
-103.6070208408674
 10
-9.988957978727205
 20
-103.6070208408674
 10
-9.988957978727205
 20
-103.6070208408674
 10
-10.56900584300493
 20
-103.5130894458535
 10
-10.56900584300493
 20
-103.5130894458535
 10
-10.56900584300493
 20
-103.5130894458535
 10
-11.29936305047395
 20
-103.4825593535776
 10
-11.29936305047395
 20
-103.4825593535776
 10
-11.29936305047395
 20
-103.4825593535776
 10
-11.81912712143583
 20
-103.4958416159449
 10
-11.81912712143583
 20
-103.4958416159449
 10
-11.81912712143583
 20
-103.4958416159449
 10
-12.25984262014346
 20
-103.538125077078
 10
-12.25984262014346
 20
-103.538125077078
 10
-12.25984262014346
 20
-103.538125077078
 10
-12.61993287516554
 20
-103.6070208408674
 10
-12.61993287516554
 20
-103.6070208408674
 10
-12.61993287516554
 20
-103.6070208408674
 10
-13.04185970597437
 20
-103.7604357490012
 10
-13.04185970597437
 20
-103.7604357490012
 10
-13.04185970597437
 20
-103.7604357490012
 10
-13.33853671377742
 20
-103.9780641845503
 10
-13.33853671377742
 20
-103.9780641845503
 10
-13.33853671377742
 20
-103.9780641845503
 10
-13.51779947781266
 20
-104.2559405799736
 10
-13.51779947781266
 20
-104.2559405799736
 10
-13.51779947781266
 20
-104.2559405799736
 10
-13.57728299093186
 20
-104.5987949495678
 10
-13.57728299093186
 20
-104.5987949495678
 10
-13.57728299093186
 20
-104.5987949495678
 10
-13.44186841498124
 20
-105.0794408467412
 10
-13.44186841498124
 20
-105.0794408467412
 10
-13.44186841498124
 20
-105.0794408467412
 10
-13.03637718940395
 20
-105.4238718877673
 10
-13.03637718940395
 20
-105.4238718877673
 10
-13.03637718940395
 20
-105.4238718877673
 10
-12.60270893421801
 20
-105.5772867959005
 10
-12.60270893421801
 20
-105.5772867959005
 10
-12.60270893421801
 20
-105.5772867959005
 10
-12.0234374611759
 20
-105.6688770727281
 10
-12.0234374611759
 20
-105.6688770727281
 10
-12.0234374611759
 20
-105.6688770727281
 10
-11.29936305047395
 20
-105.699407165004
 10
-11.29936305047395
 20
-105.699407165004
 10
-11.29936305047395
 20
-105.699407165004
 10
-10.7850576071221
 20
-105.6861249026367
 10
-10.7850576071221
 20
-105.6861249026367
 10
-10.7850576071221
 20
-105.6861249026367
 10
-10.34748350679769
 20
-105.6438414415033
 10
-10.34748350679769
 20
-105.6438414415033
 10
-10.34748350679769
 20
-105.6438414415033
 10
-9.985828524824347
 20
-105.5749456777139
 10
-9.985828524824347
 20
-105.5749456777139
 10
-9.985828524824347
 20
-105.5749456777139
 10
-9.563125302779894
 20
-105.4199540981482
 10
-9.563125302779894
 20
-105.4199540981482
 10
-9.563125302779894
 20
-105.4199540981482
 10
-9.263306896593308
 20
-105.203902334031
 10
-9.263306896593308
 20
-105.203902334031
 10
-9.263306896593308
 20
-105.203902334031
 10
-9.087185530941603
 20
-104.9276026100397
 10
-9.087185530941603
 20
-104.9276026100397
 10
-9.087185530941603
 20
-104.9276026100397
 10
-9.028478409057701
 20
-104.5909593703295
 10
-9.028478409057701
 20
-104.5909593703295
 97
        0
 72
     1
 10
-9.028478409057701
 20
-104.5909593703295
 11
-9.028478409057701
 21
-104.5909593703295
 97
        0
 75
     0
 76
     1
 98
        1
 10
0.0
 20
0.0
450
        0
451
        0
460
0.0
461
0.0
452
        0
462
0.0
453
        0
470

  0
LWPOLYLINE
  5
9F
330
70
100
AcDbEntity
  8
Modo de isolamento
100
AcDbPolyline
 90
       11
 70
     0
 43
0.0
 10
-8.563491725880215
 20
-100.9619395129044
 10
-8.139223776884495
 20
-101.0081407636566
 10
-7.829228673272396
 20
-101.1474611847457
 10
-7.469926753966614
 20
-101.5975769896432
 10
-7.757215400060445
 20
-101.7830986614848
 10
-8.049986562724699
 20
-101.4645154763601
 10
-8.563491725880215
 20
-101.3556773696245
 10
-8.563491725880215
 20
-101.7377096354096
 10
-9.339237959424412
 20
-101.7377096354096
 10
-9.339237959424412
 20
-100.9619395129044
 10
-8.563491725880215
 20
-100.9619395129044
  0
HATCH
  5
A0
330
70
100
AcDbEntity
  8
Modo de isolamento
 62
     7
440
 33554687
100
AcDbHatch
 10
0.0
 20
0.0
 30
0.0
210
0.0
220
0.0
230
1.0
  2
SOLID
 70
     1
 71
     1
 91
        1
 92
        3
 72
     0
 73
     1
 93
       11
 10
-8.563491725880215
 20
-100.9619395129044
 10
-8.139223776884495
 20
-101.0081407636566
 10
-7.829228673272396
 20
-101.1474611847457
 10
-7.469926753966614
 20
-101.5975769896432
 10
-7.757215400060445
 20
-101.7830986614848
 10
-8.049986562724699
 20
-101.4645154763601
 10
-8.563491725880215
 20
-101.3556773696245
 10
-8.563491725880215
 20
-101.7377096354096
 10
-9.339237959424412
 20
-101.7377096354096
 10
-9.339237959424412
 20
-100.9619395129044
 10
-8.563491725880215
 20
-100.9619395129044
 97
        0
 75
     0
 76
     1
 98
        1
 10
0.0
 20
0.0
450
        0
451
        0
460
0.0
461
0.0
452
        0
462
0.0
453
        0
470

  0
SPLINE
  5
A1
330
70
100
AcDbEntity
  8
Modo de isolamento
100
AcDbSpline
210
0.0
220
0.0
230
1.0
 70
    11
 71
     3
 72
   110
 73
   106
 74
     0
 42
0.0000000001
 43
0.0000000001
 40
0.0
 40
0.0
 40
0.0
 40
0.0
 40
1.0
 40
1.0
 40
1.0
 40
2.0
 40
2.0
 40
2.0
 40
3.0
 40
3.0
 40
3.0
 40
4.0
 40
4.0
 40
4.0
 40
5.0
 40
5.0
 40
5.0
 40
6.0
 40
6.0
 40
6.0
 40
7.0
 40
7.0
 40
7.0
 40
8.0
 40
8.0
 40
8.0
 40
9.0
 40
9.0
 40
9.0
 40
10.0
 40
10.0
 40
10.0
 40
11.0
 40
11.0
 40
11.0
 40
12.0
 40
12.0
 40
12.0
 40
13.0
 40
13.0
 40
13.0
 40
14.0
 40
14.0
 40
14.0
 40
15.0
 40
15.0
 40
15.0
 40
16.0
 40
16.0
 40
16.0
 40
17.0
 40
17.0
 40
17.0
 40
18.0
 40
18.0
 40
18.0
 40
19.0
 40
19.0
 40
19.0
 40
20.0
 40
20.0
 40
20.0
 40
21.0
 40
21.0
 40
21.0
 40
22.0
 40
22.0
 40
22.0
 40
23.0
 40
23.0
 40
23.0
 40
24.0
 40
24.0
 40
24.0
 40
25.0
 40
25.0
 40
25.0
 40
26.0
 40
26.0
 40
26.0
 40
27.0
 40
27.0
 40
27.0
 40
28.0
 40
28.0
 40
28.0
 40
29.0
 40
29.0
 40
29.0
 40
30.0
 40
30.0
 40
30.0
 40
31.0
 40
31.0
 40
31.0
 40
32.0
 40
32.0
 40
32.0
 40
33.0
 40
33.0
 40
33.0
 40
34.0
 40
34.0
 40
34.0
 40
35.0
 40
35.0
 40
35.0
 40
35.0
 10
-11.56394523904984
 20
-97.3446730243365
 30
0.0
 10
-11.56394523904984
 20
-97.3446730243365
 30
0.0
 10
-11.25865626077319
 20
-96.76617794253001
 30
0.0
 10
-11.25865626077319
 20
-96.76617794253001
 30
0.0
 10
-11.25865626077319
 20
-96.76617794253001
 30
0.0
 10
-10.7850576071221
 20
-96.41940578331666
 30
0.0
 10
-10.7850576071221
 20
-96.41940578331666
 30
0.0
 10
-10.7850576071221
 20
-96.41940578331666
 30
0.0
 10
-10.14473789400889
 20
-96.30430876877502
 30
0.0
 10
-10.14473789400889
 20
-96.30430876877502
 30
0.0
 10
-10.14473789400889
 20
-96.30430876877502
 30
0.0
 10
-9.694634033591722
 20
-96.36068671695241
 30
0.0
 10
-9.694634033591722
 20
-96.36068671695241
 30
0.0
 10
-9.694634033591722
 20
-96.36068671695241
 30
0.0
 10
-9.295401715820469
 20
-96.5313494549944
 30
0.0
 10
-9.295401715820469
 20
-96.5313494549944
 30
0.0
 10
-9.295401715820469
 20
-96.5313494549944
 30
0.0
 10
-8.949405947842738
 20
-96.81472031146908
 30
0.0
 10
-8.949405947842738
 20
-96.81472031146908
 30
0.0
 10
-8.949405947842738
 20
-96.81472031146908
 30
0.0
 10
-8.682482641079968
 20
-97.18810477333885
 30
0.0
 10
-8.682482641079968
 20
-97.18810477333885
 30
0.0
 10
-8.682482641079968
 20
-97.18810477333885
 30
0.0
 10
-8.522008544943837
 20
-97.6257027626243
 30
0.0
 10
-8.522008544943837
 20
-97.6257027626243
 30
0.0
 10
-8.522008544943837
 20
-97.6257027626243
 30
0.0
 10
-8.468771995149998
 20
-98.12823094815797
 30
0.0
 10
-8.468771995149998
 20
-98.12823094815797
 30
0.0
 10
-8.468771995149998
 20
-98.12823094815797
 30
0.0
 10
-8.522784936179451
 20
-98.63472470123287
 30
0.0
 10
-8.522784936179451
 20
-98.63472470123287
 30
0.0
 10
-8.522784936179451
 20
-98.63472470123287
 30
0.0
 10
-8.684047368031558
 20
-99.07461603078314
 30
0.0
 10
-8.684047368031558
 20
-99.07461603078314
 30
0.0
 10
-8.684047368031558
 20
-99.07461603078314
 30
0.0
 10
-8.953323737461891
 20
-99.44881271732992
 30
0.0
 10
-8.953323737461891
 20
-99.44881271732992
 30
0.0
 10
-8.953323737461891
 20
-99.44881271732992
 30
0.0
 10
-9.303237295058778
 20
-99.73060690237264
 30
0.0
 10
-9.303237295058778
 20
-99.73060690237264
 30
0.0
 10
-9.303237295058778
 20
-99.73060690237264
 30
0.0
 10
-9.707940184920092
 20
-99.89892852222745
 30
0.0
 10
-9.707940184920092
 20
-99.89892852222745
 30
0.0
 10
-9.707940184920092
 20
-99.89892852222745
 30
0.0
 10
-10.16743240704647
 20
-99.95525869248274
 30
0.0
 10
-10.16743240704647
 20
-99.95525869248274
 30
0.0
 10
-10.16743240704647
 20
-99.95525869248274
 30
0.0
 10
-10.66059611983197
 20
-99.88483403518308
 30
0.0
 10
-10.66059611983197
 20
-99.88483403518308
 30
0.0
 10
-10.66059611983197
 20
-99.88483403518308
 30
0.0
 10
-11.08721713149557
 20
-99.67188783600805
 30
0.0
 10
-11.08721713149557
 20
-99.67188783600805
 30
0.0
 10
-11.08721713149557
 20
-99.67188783600805
 30
0.0
 10
-11.40347114291339
 20
-99.33529237422021
 30
0.0
 10
-11.40347114291339
 20
-99.33529237422021
 30
0.0
 10
-11.40347114291339
 20
-99.33529237422021
 30
0.0
 10
-11.56394523904984
 20
-98.90008328104405
 30
0.0
 10
-11.56394523904984
 20
-98.90008328104405
 30
0.0
 10
-11.56394523904984
 20
-98.90008328104405
 30
0.0
 10
-11.57881611732948
 20
-98.90008328104405
 30
0.0
 10
-11.57881611732948
 20
-98.90008328104405
 30
0.0
 10
-11.57881611732948
 20
-98.90008328104405
 30
0.0
 10
-11.81835073020021
 20
-99.36271690155399
 30
0.0
 10
-11.81835073020021
 20
-99.36271690155399
 30
0.0
 10
-11.81835073020021
 20
-99.36271690155399
 30
0.0
 10
-12.19331186350193
 20
-99.63982885022261
 30
0.0
 10
-12.19331186350193
 20
-99.63982885022261
 30
0.0
 10
-12.19331186350193
 20
-99.63982885022261
 30
0.0
 10
-12.70291118151897
 20
-99.7321835738046
 30
0.0
 10
-12.70291118151897
 20
-99.7321835738046
 30
0.0
 10
-12.70291118151897
 20
-99.7321835738046
 30
0.0
 10
-13.2649467691332
 20
-99.62258102031405
 30
0.0
 10
-13.2649467691332
 20
-99.62258102031405
 30
0.0
 10
-13.2649467691332
 20
-99.62258102031405
 30
0.0
 10
-13.72445093573994
 20
-99.29305669100926
 30
0.0
 10
-13.72445093573994
 20
-99.29305669100926
 30
0.0
 10
-13.72445093573994
 20
-99.29305669100926
 30
0.0
 10
-14.03443409487136
 20
-98.78656293793437
 30
0.0
 10
-14.03443409487136
 20
-98.78656293793437
 30
0.0
 10
-14.03443409487136
 20
-98.78656293793437
 30
0.0
 10
-14.13698940483956
 20
-98.14308988195726
 30
0.0
 10
-14.13698940483956
 20
-98.14308988195726
 30
0.0
 10
-14.13698940483956
 20
-98.14308988195726
 30
0.0
 10
-14.03130464096818
 20
-97.49025235323195
 30
0.0
 10
-14.03130464096818
 20
-97.49025235323195
 30
0.0
 10
-14.03130464096818
 20
-97.49025235323195
 30
0.0
 10
-13.71349784707914
 20
-96.9775474702731
 30
0.0
 10
-13.71349784707914
 20
-96.9775474702731
 30
0.0
 10
-13.71349784707914
 20
-96.9775474702731
 30
0.0
 10
-13.24538170999879
 20
-96.6424809019948
 30
0.0
 10
-13.24538170999879
 20
-96.6424809019948
 30
0.0
 10
-13.24538170999879
 20
-96.6424809019948
 30
0.0
 10
-12.68802835875865
 20
-96.5313494549944
 30
0.0
 10
-12.68802835875865
 20
-96.5313494549944
 30
0.0
 10
-12.68802835875865
 20
-96.5313494549944
 30
0.0
 10
-12.20113549825956
 20
-96.6213630603895
 30
0.0
 10
-12.20113549825956
 20
-96.6213630603895
 30
0.0
 10
-12.20113549825956
 20
-96.6213630603895
 30
0.0
 10
-11.83165688152858
 20
-96.89298054800703
 30
0.0
 10
-11.83165688152858
 20
-96.89298054800703
 30
0.0
 10
-11.83165688152858
 20
-96.89298054800703
 30
0.0
 10
-11.57881611732948
 20
-97.3446730243365
 30
0.0
 10
-11.57881611732948
 20
-97.3446730243365
 30
0.0
 10
-11.57881611732948
 20
-97.3446730243365
 30
0.0
 10
-11.56394523904984
 20
-97.3446730243365
 30
0.0
 10
-11.56394523904984
 20
-97.3446730243365
 30
0.0
  0
SPLINE
  5
A2
330
70
100
AcDbEntity
  8
Modo de isolamento
100
AcDbSpline
210
0.0
220
0.0
230
1.0
 70
    11
 71
     3
 72
    50
 73
    46
 74
     0
 42
0.0000000001
 43
0.0000000001
 40
0.0
 40
0.0
 40
0.0
 40
0.0
 40
1.0
 40
1.0
 40
1.0
 40
2.0
 40
2.0
 40
2.0
 40
3.0
 40
3.0
 40
3.0
 40
4.0
 40
4.0
 40
4.0
 40
5.0
 40
5.0
 40
5.0
 40
6.0
 40
6.0
 40
6.0
 40
7.0
 40
7.0
 40
7.0
 40
8.0
 40
8.0
 40
8.0
 40
9.0
 40
9.0
 40
9.0
 40
10.0
 40
10.0
 40
10.0
 40
11.0
 40
11.0
 40
11.0
 40
12.0
 40
12.0
 40
12.0
 40
13.0
 40
13.0
 40
13.0
 40
14.0
 40
14.0
 40
14.0
 40
15.0
 40
15.0
 40
15.0
 40
15.0
 10
-11.83244521724456
 20
-98.12823094815797
 30
0.0
 10
-11.83244521724456
 20
-98.12823094815797
 30
0.0
 10
-11.89349345731534
 20
-97.77677655257086
 30
0.0
 10
-11.89349345731534
 20
-97.77677655257086
 30
0.0
 10
-11.89349345731534
 20
-97.77677655257086
 30
0.0
 10
-12.07510928401815
 20
-97.48867568179969
 30
0.0
 10
-12.07510928401815
 20
-97.48867568179969
 30
0.0
 10
-12.07510928401815
 20
-97.48867568179969
 30
0.0
 10
-12.35143289697082
 20
-97.29221286577828
 30
0.0
 10
-12.35143289697082
 20
-97.29221286577828
 30
0.0
 10
-12.35143289697082
 20
-97.29221286577828
 30
0.0
 10
-12.68802835875865
 20
-97.22723489160767
 30
0.0
 10
-12.68802835875865
 20
-97.22723489160767
 30
0.0
 10
-12.68802835875865
 20
-97.22723489160767
 30
0.0
 10
-13.03324773550077
 20
-97.29378953721024
 30
0.0
 10
-13.03324773550077
 20
-97.29378953721024
 30
0.0
 10
-13.03324773550077
 20
-97.29378953721024
 30
0.0
 10
-13.31974804587863
 20
-97.4918290246639
 30
0.0
 10
-13.31974804587863
 20
-97.4918290246639
 30
0.0
 10
-13.31974804587863
 20
-97.4918290246639
 30
0.0
 10
-13.51309335247754
 20
-97.78379990713183
 30
0.0
 10
-13.51309335247754
 20
-97.78379990713183
 30
0.0
 10
-13.51309335247754
 20
-97.78379990713183
 30
0.0
 10
-13.57728299093186
 20
-98.13530208064102
 30
0.0
 10
-13.57728299093186
 20
-98.13530208064102
 30
0.0
 10
-13.57728299093186
 20
-98.13530208064102
 30
0.0
 10
-13.51388168819351
 20
-98.49143871260254
 30
0.0
 10
-13.51388168819351
 20
-98.49143871260254
 30
0.0
 10
-13.51388168819351
 20
-98.49143871260254
 30
0.0
 10
-13.32366583549746
 20
-98.77872735869607
 30
0.0
 10
-13.32366583549746
 20
-98.77872735869607
 30
0.0
 10
-13.32366583549746
 20
-98.77872735869607
 30
0.0
 10
-12.72560569455656
 20
-99.03238034757217
 30
0.0
 10
-12.72560569455656
 20
-99.03238034757217
 30
0.0
 10
-12.72560569455656
 20
-99.03238034757217
 30
0.0
 10
-12.35612707782526
 20
-98.96740237340155
 30
0.0
 10
-12.35612707782526
 20
-98.96740237340155
 30
0.0
 10
-12.35612707782526
 20
-98.96740237340155
 30
0.0
 10
-12.071191494399
 20
-98.77089177945807
 30
0.0
 10
-12.071191494399
 20
-98.77089177945807
 30
0.0
 10
-12.071191494399
 20
-98.77089177945807
 30
0.0
 10
-11.89271706608005
 20
-98.47973312166717
 30
0.0
 10
-11.89271706608005
 20
-98.47973312166717
 30
0.0
 10
-11.89271706608005
 20
-98.47973312166717
 30
0.0
 10
-11.83244521724456
 20
-98.12823094815797
 30
0.0
 10
-11.83244521724456
 20
-98.12823094815797
 30
0.0
  0
SPLINE
  5
A3
330
70
100
AcDbEntity
  8
Modo de isolamento
100
AcDbSpline
210
0.0
220
0.0
230
1.0
 70
    11
 71
     3
 72
    53
 73
    49
 74
     0
 42
0.0000000001
 43
0.0000000001
 40
0.0
 40
0.0
 40
0.0
 40
0.0
 40
1.0
 40
1.0
 40
1.0
 40
2.0
 40
2.0
 40
2.0
 40
3.0
 40
3.0
 40
3.0
 40
4.0
 40
4.0
 40
4.0
 40
5.0
 40
5.0
 40
5.0
 40
6.0
 40
6.0
 40
6.0
 40
7.0
 40
7.0
 40
7.0
 40
8.0
 40
8.0
 40
8.0
 40
9.0
 40
9.0
 40
9.0
 40
10.0
 40
10.0
 40
10.0
 40
11.0
 40
11.0
 40
11.0
 40
12.0
 40
12.0
 40
12.0
 40
13.0
 40
13.0
 40
13.0
 40
14.0
 40
14.0
 40
14.0
 40
15.0
 40
15.0
 40
15.0
 40
16.0
 40
16.0
 40
16.0
 40
16.0
 10
-9.028478409057701
 20
-98.12823094815797
 30
0.0
 10
-9.028478409057701
 20
-98.12823094815797
 30
0.0
 10
-9.106750590076011
 20
-97.68676294717577
 30
0.0
 10
-9.106750590076011
 20
-97.68676294717577
 30
0.0
 10
-9.106750590076011
 20
-97.68676294717577
 30
0.0
 10
-9.339237959424412
 20
-97.32589630091808
 30
0.0
 10
-9.339237959424412
 20
-97.32589630091808
 30
0.0
 10
-9.339237959424412
 20
-97.32589630091808
 30
0.0
 10
-9.695410424827336
 20
-97.08476112765435
 30
0.0
 10
-9.695410424827336
 20
-97.08476112765435
 30
0.0
 10
-9.695410424827336
 20
-97.08476112765435
 30
0.0
 10
-10.14473789400889
 20
-97.00415977292951
 30
0.0
 10
-10.14473789400889
 20
-97.00415977292951
 30
0.0
 10
-10.14473789400889
 20
-97.00415977292951
 30
0.0
 10
-10.59640648137764
 20
-97.08710224584123
 30
0.0
 10
-10.59640648137764
 20
-97.08710224584123
 30
0.0
 10
-10.59640648137764
 20
-97.08710224584123
 30
0.0
 10
-10.9588378545866
 20
-97.3368374450982
 30
0.0
 10
-10.9588378545866
 20
-97.3368374450982
 30
0.0
 10
-10.9588378545866
 20
-97.3368374450982
 30
0.0
 10
-11.19680774050575
 20
-97.703198552407
 30
0.0
 10
-11.19680774050575
 20
-97.703198552407
 30
0.0
 10
-11.19680774050575
 20
-97.703198552407
 30
0.0
 10
-11.27665659295601
 20
-98.14308988195726
 30
0.0
 10
-11.27665659295601
 20
-98.14308988195726
 30
0.0
 10
-11.27665659295601
 20
-98.14308988195726
 30
0.0
 10
-11.19446662231855
 20
-98.59244124009984
 30
0.0
 10
-11.19446662231855
 20
-98.59244124009984
 30
0.0
 10
-11.19446662231855
 20
-98.59244124009984
 30
0.0
 10
-10.94709643020982
 20
-98.94939009673805
 30
0.0
 10
-10.94709643020982
 20
-98.94939009673805
 30
0.0
 10
-10.94709643020982
 20
-98.94939009673805
 30
0.0
 10
-10.58779451090372
 20
-99.18187746608678
 30
0.0
 10
-10.58779451090372
 20
-99.18187746608678
 30
0.0
 10
-10.58779451090372
 20
-99.18187746608678
 30
0.0
 10
-10.16039710800482
 20
-99.25937325586948
 30
0.0
 10
-10.16039710800482
 20
-99.25937325586948
 30
0.0
 10
-10.16039710800482
 20
-99.25937325586948
 30
0.0
 10
-9.718116882345283
 20
-99.17953634789958
 30
0.0
 10
-9.718116882345283
 20
-99.17953634789958
 30
0.0
 10
-9.718116882345283
 20
-99.17953634789958
 30
0.0
 10
-9.354120782184732
 20
-98.94155451750007
 30
0.0
 10
-9.354120782184732
 20
-98.94155451750007
 30
0.0
 10
-9.354120782184732
 20
-98.94155451750007
 30
0.0
 10
-9.109880043979188
 20
-98.57758230630055
 30
0.0
 10
-9.109880043979188
 20
-98.57758230630055
 30
0.0
 10
-9.109880043979188
 20
-98.57758230630055
 30
0.0
 10
-9.028478409057701
 20
-98.12823094815797
 30
0.0
 10
-9.028478409057701
 20
-98.12823094815797
 30
0.0
  0
HATCH
  5
A4
330
70
100
AcDbEntity
  8
Modo de isolamento
 62
     7
440
 33554687
100
AcDbHatch
 10
0.0
 20
0.0
 30
0.0
210
0.0
220
0.0
230
1.0
  2
SOLID
 70
     1
 71
     1
 91
        3
 92
        1
 93
        2
 72
     4
 94
        3
 73
     0
 74
     0
 95
      110
 96
      106
 40
0.0
 40
0.0
 40
0.0
 40
0.0
 40
1.0
 40
1.0
 40
1.0
 40
2.0
 40
2.0
 40
2.0
 40
3.0
 40
3.0
 40
3.0
 40
4.0
 40
4.0
 40
4.0
 40
5.0
 40
5.0
 40
5.0
 40
6.0
 40
6.0
 40
6.0
 40
7.0
 40
7.0
 40
7.0
 40
8.0
 40
8.0
 40
8.0
 40
9.0
 40
9.0
 40
9.0
 40
10.0
 40
10.0
 40
10.0
 40
11.0
 40
11.0
 40
11.0
 40
12.0
 40
12.0
 40
12.0
 40
13.0
 40
13.0
 40
13.0
 40
14.0
 40
14.0
 40
14.0
 40
15.0
 40
15.0
 40
15.0
 40
16.0
 40
16.0
 40
16.0
 40
17.0
 40
17.0
 40
17.0
 40
18.0
 40
18.0
 40
18.0
 40
19.0
 40
19.0
 40
19.0
 40
20.0
 40
20.0
 40
20.0
 40
21.0
 40
21.0
 40
21.0
 40
22.0
 40
22.0
 40
22.0
 40
23.0
 40
23.0
 40
23.0
 40
24.0
 40
24.0
 40
24.0
 40
25.0
 40
25.0
 40
25.0
 40
26.0
 40
26.0
 40
26.0
 40
27.0
 40
27.0
 40
27.0
 40
28.0
 40
28.0
 40
28.0
 40
29.0
 40
29.0
 40
29.0
 40
30.0
 40
30.0
 40
30.0
 40
31.0
 40
31.0
 40
31.0
 40
32.0
 40
32.0
 40
32.0
 40
33.0
 40
33.0
 40
33.0
 40
34.0
 40
34.0
 40
34.0
 40
35.0
 40
35.0
 40
35.0
 40
35.0
 10
-11.56394523904984
 20
-97.3446730243365
 10
-11.56394523904984
 20
-97.3446730243365
 10
-11.25865626077319
 20
-96.76617794253001
 10
-11.25865626077319
 20
-96.76617794253001
 10
-11.25865626077319
 20
-96.76617794253001
 10
-10.7850576071221
 20
-96.41940578331666
 10
-10.7850576071221
 20
-96.41940578331666
 10
-10.7850576071221
 20
-96.41940578331666
 10
-10.14473789400889
 20
-96.30430876877502
 10
-10.14473789400889
 20
-96.30430876877502
 10
-10.14473789400889
 20
-96.30430876877502
 10
-9.694634033591722
 20
-96.36068671695241
 10
-9.694634033591722
 20
-96.36068671695241
 10
-9.694634033591722
 20
-96.36068671695241
 10
-9.295401715820469
 20
-96.5313494549944
 10
-9.295401715820469
 20
-96.5313494549944
 10
-9.295401715820469
 20
-96.5313494549944
 10
-8.949405947842738
 20
-96.81472031146908
 10
-8.949405947842738
 20
-96.81472031146908
 10
-8.949405947842738
 20
-96.81472031146908
 10
-8.682482641079968
 20
-97.18810477333885
 10
-8.682482641079968
 20
-97.18810477333885
 10
-8.682482641079968
 20
-97.18810477333885
 10
-8.522008544943837
 20
-97.6257027626243
 10
-8.522008544943837
 20
-97.6257027626243
 10
-8.522008544943837
 20
-97.6257027626243
 10
-8.468771995149998
 20
-98.12823094815797
 10
-8.468771995149998
 20
-98.12823094815797
 10
-8.468771995149998
 20
-98.12823094815797
 10
-8.522784936179451
 20
-98.63472470123287
 10
-8.522784936179451
 20
-98.63472470123287
 10
-8.522784936179451
 20
-98.63472470123287
 10
-8.684047368031558
 20
-99.07461603078314
 10
-8.684047368031558
 20
-99.07461603078314
 10
-8.684047368031558
 20
-99.07461603078314
 10
-8.953323737461891
 20
-99.44881271732992
 10
-8.953323737461891
 20
-99.44881271732992
 10
-8.953323737461891
 20
-99.44881271732992
 10
-9.303237295058778
 20
-99.73060690237264
 10
-9.303237295058778
 20
-99.73060690237264
 10
-9.303237295058778
 20
-99.73060690237264
 10
-9.707940184920092
 20
-99.89892852222745
 10
-9.707940184920092
 20
-99.89892852222745
 10
-9.707940184920092
 20
-99.89892852222745
 10
-10.16743240704647
 20
-99.95525869248274
 10
-10.16743240704647
 20
-99.95525869248274
 10
-10.16743240704647
 20
-99.95525869248274
 10
-10.66059611983197
 20
-99.88483403518308
 10
-10.66059611983197
 20
-99.88483403518308
 10
-10.66059611983197
 20
-99.88483403518308
 10
-11.08721713149557
 20
-99.67188783600805
 10
-11.08721713149557
 20
-99.67188783600805
 10
-11.08721713149557
 20
-99.67188783600805
 10
-11.40347114291339
 20
-99.33529237422021
 10
-11.40347114291339
 20
-99.33529237422021
 10
-11.40347114291339
 20
-99.33529237422021
 10
-11.56394523904984
 20
-98.90008328104405
 10
-11.56394523904984
 20
-98.90008328104405
 10
-11.56394523904984
 20
-98.90008328104405
 10
-11.57881611732948
 20
-98.90008328104405
 10
-11.57881611732948
 20
-98.90008328104405
 10
-11.57881611732948
 20
-98.90008328104405
 10
-11.81835073020021
 20
-99.36271690155399
 10
-11.81835073020021
 20
-99.36271690155399
 10
-11.81835073020021
 20
-99.36271690155399
 10
-12.19331186350193
 20
-99.63982885022261
 10
-12.19331186350193
 20
-99.63982885022261
 10
-12.19331186350193
 20
-99.63982885022261
 10
-12.70291118151897
 20
-99.7321835738046
 10
-12.70291118151897
 20
-99.7321835738046
 10
-12.70291118151897
 20
-99.7321835738046
 10
-13.2649467691332
 20
-99.62258102031405
 10
-13.2649467691332
 20
-99.62258102031405
 10
-13.2649467691332
 20
-99.62258102031405
 10
-13.72445093573994
 20
-99.29305669100926
 10
-13.72445093573994
 20
-99.29305669100926
 10
-13.72445093573994
 20
-99.29305669100926
 10
-14.03443409487136
 20
-98.78656293793437
 10
-14.03443409487136
 20
-98.78656293793437
 10
-14.03443409487136
 20
-98.78656293793437
 10
-14.13698940483956
 20
-98.14308988195726
 10
-14.13698940483956
 20
-98.14308988195726
 10
-14.13698940483956
 20
-98.14308988195726
 10
-14.03130464096818
 20
-97.49025235323195
 10
-14.03130464096818
 20
-97.49025235323195
 10
-14.03130464096818
 20
-97.49025235323195
 10
-13.71349784707914
 20
-96.9775474702731
 10
-13.71349784707914
 20
-96.9775474702731
 10
-13.71349784707914
 20
-96.9775474702731
 10
-13.24538170999879
 20
-96.6424809019948
 10
-13.24538170999879
 20
-96.6424809019948
 10
-13.24538170999879
 20
-96.6424809019948
 10
-12.68802835875865
 20
-96.5313494549944
 10
-12.68802835875865
 20
-96.5313494549944
 10
-12.68802835875865
 20
-96.5313494549944
 10
-12.20113549825956
 20
-96.6213630603895
 10
-12.20113549825956
 20
-96.6213630603895
 10
-12.20113549825956
 20
-96.6213630603895
 10
-11.83165688152858
 20
-96.89298054800703
 10
-11.83165688152858
 20
-96.89298054800703
 10
-11.83165688152858
 20
-96.89298054800703
 10
-11.57881611732948
 20
-97.3446730243365
 10
-11.57881611732948
 20
-97.3446730243365
 10
-11.57881611732948
 20
-97.3446730243365
 10
-11.56394523904984
 20
-97.3446730243365
 10
-11.56394523904984
 20
-97.3446730243365
 97
        0
 72
     1
 10
-11.56394523904984
 20
-97.3446730243365
 11
-11.56394523904984
 21
-97.3446730243365
 97
        0
 92
        1
 93
        2
 72
     4
 94
        3
 73
     0
 74
     0
 95
       50
 96
       46
 40
0.0
 40
0.0
 40
0.0
 40
0.0
 40
1.0
 40
1.0
 40
1.0
 40
2.0
 40
2.0
 40
2.0
 40
3.0
 40
3.0
 40
3.0
 40
4.0
 40
4.0
 40
4.0
 40
5.0
 40
5.0
 40
5.0
 40
6.0
 40
6.0
 40
6.0
 40
7.0
 40
7.0
 40
7.0
 40
8.0
 40
8.0
 40
8.0
 40
9.0
 40
9.0
 40
9.0
 40
10.0
 40
10.0
 40
10.0
 40
11.0
 40
11.0
 40
11.0
 40
12.0
 40
12.0
 40
12.0
 40
13.0
 40
13.0
 40
13.0
 40
14.0
 40
14.0
 40
14.0
 40
15.0
 40
15.0
 40
15.0
 40
15.0
 10
-11.83244521724456
 20
-98.12823094815797
 10
-11.83244521724456
 20
-98.12823094815797
 10
-11.89349345731534
 20
-97.77677655257086
 10
-11.89349345731534
 20
-97.77677655257086
 10
-11.89349345731534
 20
-97.77677655257086
 10
-12.07510928401815
 20
-97.48867568179969
 10
-12.07510928401815
 20
-97.48867568179969
 10
-12.07510928401815
 20
-97.48867568179969
 10
-12.35143289697082
 20
-97.29221286577828
 10
-12.35143289697082
 20
-97.29221286577828
 10
-12.35143289697082
 20
-97.29221286577828
 10
-12.68802835875865
 20
-97.22723489160767
 10
-12.68802835875865
 20
-97.22723489160767
 10
-12.68802835875865
 20
-97.22723489160767
 10
-13.03324773550077
 20
-97.29378953721024
 10
-13.03324773550077
 20
-97.29378953721024
 10
-13.03324773550077
 20
-97.29378953721024
 10
-13.31974804587863
 20
-97.4918290246639
 10
-13.31974804587863
 20
-97.4918290246639
 10
-13.31974804587863
 20
-97.4918290246639
 10
-13.51309335247754
 20
-97.78379990713183
 10
-13.51309335247754
 20
-97.78379990713183
 10
-13.51309335247754
 20
-97.78379990713183
 10
-13.57728299093186
 20
-98.13530208064102
 10
-13.57728299093186
 20
-98.13530208064102
 10
-13.57728299093186
 20
-98.13530208064102
 10
-13.51388168819351
 20
-98.49143871260254
 10
-13.51388168819351
 20
-98.49143871260254
 10
-13.51388168819351
 20
-98.49143871260254
 10
-13.32366583549746
 20
-98.77872735869607
 10
-13.32366583549746
 20
-98.77872735869607
 10
-13.32366583549746
 20
-98.77872735869607
 10
-12.72560569455656
 20
-99.03238034757217
 10
-12.72560569455656
 20
-99.03238034757217
 10
-12.72560569455656
 20
-99.03238034757217
 10
-12.35612707782526
 20
-98.96740237340155
 10
-12.35612707782526
 20
-98.96740237340155
 10
-12.35612707782526
 20
-98.96740237340155
 10
-12.071191494399
 20
-98.77089177945807
 10
-12.071191494399
 20
-98.77089177945807
 10
-12.071191494399
 20
-98.77089177945807
 10
-11.89271706608005
 20
-98.47973312166717
 10
-11.89271706608005
 20
-98.47973312166717
 10
-11.89271706608005
 20
-98.47973312166717
 10
-11.83244521724456
 20
-98.12823094815797
 10
-11.83244521724456
 20
-98.12823094815797
 97
        0
 72
     1
 10
-11.83244521724456
 20
-98.12823094815797
 11
-11.83244521724456
 21
-98.12823094815797
 97
        0
 92
        1
 93
        2
 72
     4
 94
        3
 73
     0
 74
     0
 95
       53
 96
       49
 40
0.0
 40
0.0
 40
0.0
 40
0.0
 40
1.0
 40
1.0
 40
1.0
 40
2.0
 40
2.0
 40
2.0
 40
3.0
 40
3.0
 40
3.0
 40
4.0
 40
4.0
 40
4.0
 40
5.0
 40
5.0
 40
5.0
 40
6.0
 40
6.0
 40
6.0
 40
7.0
 40
7.0
 40
7.0
 40
8.0
 40
8.0
 40
8.0
 40
9.0
 40
9.0
 40
9.0
 40
10.0
 40
10.0
 40
10.0
 40
11.0
 40
11.0
 40
11.0
 40
12.0
 40
12.0
 40
12.0
 40
13.0
 40
13.0
 40
13.0
 40
14.0
 40
14.0
 40
14.0
 40
15.0
 40
15.0
 40
15.0
 40
16.0
 40
16.0
 40
16.0
 40
16.0
 10
-9.028478409057701
 20
-98.12823094815797
 10
-9.028478409057701
 20
-98.12823094815797
 10
-9.106750590076011
 20
-97.68676294717577
 10
-9.106750590076011
 20
-97.68676294717577
 10
-9.106750590076011
 20
-97.68676294717577
 10
-9.339237959424412
 20
-97.32589630091808
 10
-9.339237959424412
 20
-97.32589630091808
 10
-9.339237959424412
 20
-97.32589630091808
 10
-9.695410424827336
 20
-97.08476112765435
 10
-9.695410424827336
 20
-97.08476112765435
 10
-9.695410424827336
 20
-97.08476112765435
 10
-10.14473789400889
 20
-97.00415977292951
 10
-10.14473789400889
 20
-97.00415977292951
 10
-10.14473789400889
 20
-97.00415977292951
 10
-10.59640648137764
 20
-97.08710224584123
 10
-10.59640648137764
 20
-97.08710224584123
 10
-10.59640648137764
 20
-97.08710224584123
 10
-10.9588378545866
 20
-97.3368374450982
 10
-10.9588378545866
 20
-97.3368374450982
 10
-10.9588378545866
 20
-97.3368374450982
 10
-11.19680774050575
 20
-97.703198552407
 10
-11.19680774050575
 20
-97.703198552407
 10
-11.19680774050575
 20
-97.703198552407
 10
-11.27665659295601
 20
-98.14308988195726
 10
-11.27665659295601
 20
-98.14308988195726
 10
-11.27665659295601
 20
-98.14308988195726
 10
-11.19446662231855
 20
-98.59244124009984
 10
-11.19446662231855
 20
-98.59244124009984
 10
-11.19446662231855
 20
-98.59244124009984
 10
-10.94709643020982
 20
-98.94939009673805
 10
-10.94709643020982
 20
-98.94939009673805
 10
-10.94709643020982
 20
-98.94939009673805
 10
-10.58779451090372
 20
-99.18187746608678
 10
-10.58779451090372
 20
-99.18187746608678
 10
-10.58779451090372
 20
-99.18187746608678
 10
-10.16039710800482
 20
-99.25937325586948
 10
-10.16039710800482
 20
-99.25937325586948
 10
-10.16039710800482
 20
-99.25937325586948
 10
-9.718116882345283
 20
-99.17953634789958
 10
-9.718116882345283
 20
-99.17953634789958
 10
-9.718116882345283
 20
-99.17953634789958
 10
-9.354120782184732
 20
-98.94155451750007
 10
-9.354120782184732
 20
-98.94155451750007
 10
-9.354120782184732
 20
-98.94155451750007
 10
-9.109880043979188
 20
-98.57758230630055
 10
-9.109880043979188
 20
-98.57758230630055
 10
-9.109880043979188
 20
-98.57758230630055
 10
-9.028478409057701
 20
-98.12823094815797
 10
-9.028478409057701
 20
-98.12823094815797
 97
        0
 72
     1
 10
-9.028478409057701
 20
-98.12823094815797
 11
-9.028478409057701
 21
-98.12823094815797
 97
        0
 75
     0
 76
     1
 98
        1
 10
0.0
 20
0.0
450
        0
451
        0
460
0.0
461
0.0
452
        0
462
0.0
453
        0
470

  0
SPLINE
  5
A5
330
70
100
AcDbEntity
  8
Modo de isolamento
 62
     7
370
    35
100
AcDbSpline
210
0.0
220
0.0
230
1.0
 70
     8
 71
     3
 72
     8
 73
     4
 74
     0
 42
0.0000000001
 43
0.0000000001
 40
0.0
 40
0.0
 40
0.0
 40
0.0
 40
1.0
 40
1.0
 40
1.0
 40
1.0
 10
1.536139587301291
 20
-31.32548001575974
 30
0.0
 10
1.506145724732835
 20
-31.35228716500434
 30
0.0
 10
1.478628024544402
 20
-31.38120443523366
 30
0.0
 10
1.453586486735992
 20
-31.41261939968978
 30
0.0
  0
SPLINE
  5
A6
330
70
100
AcDbEntity
  8
Modo de isolamento
 62
     7
370
    35
100
AcDbSpline
210
0.0
220
0.0
230
1.0
 70
     8
 71
     3
 72
     8
 73
     4
 74
     0
 42
0.0000000001
 43
0.0000000001
 40
0.0
 40
0.0
 40
0.0
 40
0.0
 40
1.0
 40
1.0
 40
1.0
 40
1.0
 10
1.453586486735992
 20
-31.41261939968978
 30
0.0
 10
1.221806922042418
 20
-31.70364384080626
 30
0.0
 10
1.258141913488412
 20
-32.12558191036224
 30
0.0
 10
1.536139587301291
 20
-32.37250912926751
 30
0.0
  0
SPLINE
  5
A7
330
70
100
AcDbEntity
  8
Modo de isolamento
 62
     7
370
    35
100
AcDbSpline
210
0.0
220
0.0
230
1.0
 70
     8
 71
     3
 72
     8
 73
     4
 74
     0
 42
0.0000000001
 43
0.0000000001
 40
0.0
 40
0.0
 40
0.0
 40
0.0
 40
1.0
 40
1.0
 40
1.0
 40
1.0
 10
39.78642110239693
 20
-20.84903077250212
 30
0.0
 10
39.81393880258536
 20
-20.84903077250212
 30
0.0
 10
39.83615966846522
 20
-20.82644386522695
 30
0.0
 10
39.83615966846522
 20
-20.7989476968853
 30
0.0
  0
SPLINE
  5
A8
330
70
100
AcDbEntity
  8
Modo de isolamento
 62
     7
370
    35
100
AcDbSpline
210
0.0
220
0.0
230
1.0
 70
     8
 71
     3
 72
     8
 73
     4
 74
     0
 42
0.0000000001
 43
0.0000000001
 40
0.0
 40
0.0
 40
0.0
 40
0.0
 40
1.0
 40
1.0
 40
1.0
 40
1.0
 10
28.23646934001206
 20
-20.7989476968853
 30
0.0
 10
28.23646934001206
 20
-20.82644386522695
 30
0.0
 10
28.25870097181532
 20
-20.84903077250212
 30
0.0
 10
28.28621867200375
 20
-20.84903077250212
 30
0.0
  0
SPLINE
  5
A9
330
70
100
AcDbEntity
  8
Modo de isolamento
 62
     7
370
    35
100
AcDbSpline
210
0.0
220
0.0
230
1.0
 70
     8
 71
     3
 72
     8
 73
     4
 74
     0
 42
0.0000000001
 43
0.0000000001
 40
0.0
 40
0.0
 40
0.0
 40
0.0
 40
1.0
 40
1.0
 40
1.0
 40
1.0
 10
39.83615966846522
 20
-19.19908841722884
 30
0.0
 10
39.83615966846522
 20
-19.17122620749188
 30
0.0
 10
39.81393880258536
 20
-19.14900534161202
 30
0.0
 10
39.78642110239693
 20
-19.14900534161202
 30
0.0
  0
SPLINE
  5
AA
330
70
100
AcDbEntity
  8
Modo de isolamento
 62
     7
370
    35
100
AcDbSpline
210
0.0
220
0.0
230
1.0
 70
     8
 71
     3
 72
     8
 73
     4
 74
     0
 42
0.0000000001
 43
0.0000000001
 40
0.0
 40
0.0
 40
0.0
 40
0.0
 40
1.0
 40
1.0
 40
1.0
 40
1.0
 10
28.28621867200375
 20
-19.14900534161202
 30
0.0
 10
28.25870097181532
 20
-19.14900534161202
 30
0.0
 10
28.23646934001206
 20
-19.17122620749188
 30
0.0
 10
28.23646934001206
 20
-19.19908841722884
 30
0.0
  0
SPLINE
  5
AB
330
70
100
AcDbEntity
  8
Modo de isolamento
 62
     7
370
    35
100
AcDbSpline
210
0.0
220
0.0
230
1.0
 70
     8
 71
     3
 72
     8
 73
     4
 74
     0
 42
0.0000000001
 43
0.0000000001
 40
0.0
 40
0.0
 40
0.0
 40
0.0
 40
1.0
 40
1.0
 40
1.0
 40
1.0
 10
32.17559151784673
 20
-20.89805878762658
 30
0.0
 10
32.17523624237481
 20
-20.87090712883346
 30
0.0
 10
32.15301537649495
 20
-20.84903077250212
 30
0.0
 10
32.12549767630652
 20
-20.84903077250212
 30
0.0
  0
SPLINE
  5
AC
330
70
100
AcDbEntity
  8
Modo de isolamento
 62
     7
370
    35
100
AcDbSpline
210
0.0
220
0.0
230
1.0
 70
     8
 71
     3
 72
     8
 73
     4
 74
     0
 42
0.0000000001
 43
0.0000000001
 40
0.0
 40
0.0
 40
0.0
 40
0.0
 40
1.0
 40
1.0
 40
1.0
 40
1.0
 10
35.94714209809416
 20
-20.84903077250212
 30
0.0
 10
35.91962439790573
 20
-20.84903077250212
 30
0.0
 10
35.8973927661028
 20
-20.87090712883346
 30
0.0
 10
35.89704825655427
 20
-20.89805878762658
 30
0.0
  0
SPLINE
  5
AD
330
70
100
AcDbEntity
  8
Modo de isolamento
 62
     7
370
    35
100
AcDbSpline
210
0.0
220
0.0
230
1.0
 70
     8
 71
     3
 72
     8
 73
     4
 74
     0
 42
0.0000000001
 43
0.0000000001
 40
0.0
 40
0.0
 40
0.0
 40
0.0
 40
1.0
 40
1.0
 40
1.0
 40
1.0
 10
35.68784483321247
 20
-27.94902805805351
 30
0.0
 10
35.7425249581171
 20
-27.94902805805351
 30
0.0
 10
35.78697745580054
 20
-27.90529687723762
 30
0.0
 10
35.78767724082066
 20
-27.85060598640928
 30
0.0
  0
SPLINE
  5
AE
330
70
100
AcDbEntity
  8
Modo de isolamento
 62
     7
370
    35
100
AcDbSpline
210
0.0
220
0.0
230
1.0
 70
     8
 71
     3
 72
     8
 73
     4
 74
     0
 42
0.0000000001
 43
0.0000000001
 40
0.0
 40
0.0
 40
0.0
 40
0.0
 40
1.0
 40
1.0
 40
1.0
 40
1.0
 10
32.28459649218471
 20
-27.85060598640928
 30
0.0
 10
32.28566231860046
 20
-27.90529687723762
 30
0.0
 10
32.33010405036019
 20
-27.94902805805351
 30
0.0
 10
32.38478417526513
 20
-27.94902805805351
 30
0.0
  0
SPLINE
  5
AF
330
70
100
AcDbEntity
  8
Modo de isolamento
 62
     7
370
    35
100
AcDbSpline
210
0.0
220
0.0
230
1.0
 70
     8
 71
     3
 72
     8
 73
     4
 74
     0
 42
0.0000000001
 43
0.0000000001
 40
0.0
 40
0.0
 40
0.0
 40
0.0
 40
1.0
 40
1.0
 40
1.0
 40
1.0
 10
66.53614491162746
 20
-32.37250912926751
 30
0.0
 10
66.68607116077618
 20
-32.23952844353687
 30
0.0
 10
66.77144493327003
 20
-32.04901466320256
 30
0.0
 10
66.77144493327003
 20
-31.84900533843702
 30
0.0
  0
SPLINE
  5
B0
330
70
100
AcDbEntity
  8
Modo de isolamento
 62
     7
370
    35
100
AcDbSpline
210
0.0
220
0.0
230
1.0
 70
     8
 71
     3
 72
     8
 73
     4
 74
     0
 42
0.0000000001
 43
0.0000000001
 40
0.0
 40
0.0
 40
0.0
 40
0.0
 40
1.0
 40
1.0
 40
1.0
 40
1.0
 10
66.77144493327003
 20
-31.84900533843702
 30
0.0
 10
66.77144493327003
 20
-31.6489744818247
 30
0.0
 10
66.68607116077618
 20
-31.45846070149039
 30
0.0
 10
66.53614491162746
 20
-31.32548001575974
 30
0.0
  0
SPLINE
  5
B1
330
70
100
AcDbEntity
  8
Modo de isolamento
 62
     7
370
    35
100
AcDbSpline
210
0.0
220
0.0
230
1.0
 70
     8
 71
     3
 72
     8
 73
     4
 74
     0
 42
0.0000000001
 43
0.0000000001
 40
0.0
 40
0.0
 40
0.0
 40
0.0
 40
1.0
 40
1.0
 40
1.0
 40
1.0
 10
67.55073629795693
 20
-28.72092323337052
 30
0.0
 10
67.53592238737036
 20
-28.2905231480289
 30
0.0
 10
67.18243405873694
 20
-27.94902805805351
 30
0.0
 10
66.75134495429827
 20
-27.94902805805351
 30
0.0
  0
SPLINE
  5
B2
330
70
100
AcDbEntity
  8
Modo de isolamento
 62
     7
370
    35
100
AcDbSpline
210
0.0
220
0.0
230
1.0
 70
     8
 71
     3
 72
     8
 73
     4
 74
     0
 42
0.0000000001
 43
0.0000000001
 40
0.0
 40
0.0
 40
0.0
 40
0.0
 40
1.0
 40
1.0
 40
1.0
 40
1.0
 10
67.15104062612761
 20
-28.73502659301326
 30
0.0
 10
67.14363367083432
 20
-28.51983731626584
 30
0.0
 10
66.9668895065176
 20
-28.34908977127815
 30
0.0
 10
66.75134495429827
 20
-28.34908977127815
 30
0.0
  0
SPLINE
  5
B3
330
70
100
AcDbEntity
  8
Modo de isolamento
 62
     7
370
    35
100
AcDbSpline
210
0.0
220
0.0
230
1.0
 70
     8
 71
     3
 72
     8
 73
     4
 74
     0
 42
0.0000000001
 43
0.0000000001
 40
0.0
 40
0.0
 40
0.0
 40
0.0
 40
1.0
 40
1.0
 40
1.0
 40
1.0
 10
1.321294820102399
 20
-27.94902805805351
 30
0.0
 10
0.8901949497403389
 20
-27.94902805805351
 30
0.0
 10
0.5367173870303143
 20
-28.2905231480289
 30
0.0
 10
0.52190347644374
 20
-28.72092323337052
 30
0.0
  0
SPLINE
  5
B4
330
70
100
AcDbEntity
  8
Modo de isolamento
 62
     7
370
    35
100
AcDbSpline
210
0.0
220
0.0
230
1.0
 70
     8
 71
     3
 72
     8
 73
     4
 74
     0
 42
0.0000000001
 43
0.0000000001
 40
0.0
 40
0.0
 40
0.0
 40
0.0
 40
1.0
 40
1.0
 40
1.0
 40
1.0
 10
1.321294820102399
 20
-28.34908977127815
 30
0.0
 10
1.105750267883064
 20
-28.34908977127815
 30
0.0
 10
0.9290061035663566
 20
-28.51983731626584
 30
0.0
 10
0.9215991482730693
 20
-28.73502659301326
 30
0.0
  0
SPLINE
  5
B5
330
70
100
AcDbEntity
  8
Modo de isolamento
 62
     7
370
    35
100
AcDbSpline
210
0.0
220
0.0
230
1.0
 70
     8
 71
     3
 72
     8
 73
     4
 74
     0
 42
0.0000000001
 43
0.0000000001
 40
0.0
 40
0.0
 40
0.0
 40
0.0
 40
1.0
 40
1.0
 40
1.0
 40
1.0
 10
127.1641841081681
 20
-119.4547913641185
 30
0.0
 10
127.1087934323193
 20
-119.4547913641185
 30
0.0
 10
127.0639964250877
 20
-119.4995937543118
 30
0.0
 10
127.0639964250877
 20
-119.5549790471989
 30
0.0
  0
SPLINE
  5
B6
330
70
100
AcDbEntity
  8
Modo de isolamento
 62
     7
370
    35
100
AcDbSpline
210
0.0
220
0.0
230
1.0
 70
     8
 71
     3
 72
     8
 73
     4
 74
     0
 42
0.0000000001
 43
0.0000000001
 40
0.0
 40
0.0
 40
0.0
 40
0.0
 40
1.0
 40
1.0
 40
1.0
 40
1.0
 10
138.5641988554809
 20
-119.5549790471989
 30
0.0
 10
138.5641988554809
 20
-119.4995937543118
 30
0.0
 10
138.5193910823259
 20
-119.4547913641185
 30
0.0
 10
138.4640111724005
 20
-119.4547913641185
 30
0.0
  0
SPLINE
  5
B7
330
70
100
AcDbEntity
  8
Modo de isolamento
 62
     7
370
    35
100
AcDbSpline
210
0.0
220
0.0
230
1.0
 70
     8
 71
     3
 72
     8
 73
     4
 74
     0
 42
0.0000000001
 43
0.0000000001
 40
0.0
 40
0.0
 40
0.0
 40
0.0
 40
1.0
 40
1.0
 40
1.0
 40
1.0
 10
138.4640111724005
 20
-130.9549937945116
 30
0.0
 10
138.5193910823259
 20
-130.9549937945116
 30
0.0
 10
138.5641988554809
 20
-130.9101914043183
 30
0.0
 10
138.5641988554809
 20
-130.8548061114312
 30
0.0
  0
SPLINE
  5
B8
330
70
100
AcDbEntity
  8
Modo de isolamento
 62
     7
370
    35
100
AcDbSpline
210
0.0
220
0.0
230
1.0
 70
     8
 71
     3
 72
     8
 73
     4
 74
     0
 42
0.0000000001
 43
0.0000000001
 40
0.0
 40
0.0
 40
0.0
 40
0.0
 40
1.0
 40
1.0
 40
1.0
 40
1.0
 10
127.0639964250877
 20
-130.8548061114312
 30
0.0
 10
127.0639964250877
 20
-130.9101914043183
 30
0.0
 10
127.1087934323193
 20
-130.9549937945116
 30
0.0
 10
127.1641841081681
 20
-130.9549937945116
 30
0.0
  0
SPLINE
  5
B9
330
70
100
AcDbEntity
  8
Modo de isolamento
 62
     7
370
    35
100
AcDbSpline
210
0.0
220
0.0
230
1.0
 70
     8
 71
     3
 72
     8
 73
     4
 74
     0
 42
0.0000000001
 43
0.0000000001
 40
0.0
 40
0.0
 40
0.0
 40
0.0
 40
1.0
 40
1.0
 40
1.0
 40
1.0
 10
127.0139025835475
 20
-130.8548061114312
 30
0.0
 10
127.0139025835475
 20
-130.9377091045067
 30
0.0
 10
127.0812757321309
 20
-131.0047323605799
 30
0.0
 10
127.1641841081681
 20
-131.0047323605799
 30
0.0
  0
SPLINE
  5
BA
330
70
100
AcDbEntity
  8
Modo de isolamento
 62
     7
370
    35
100
AcDbSpline
210
0.0
220
0.0
230
1.0
 70
     8
 71
     3
 72
     8
 73
     4
 74
     0
 42
0.0000000001
 43
0.0000000001
 40
0.0
 40
0.0
 40
0.0
 40
0.0
 40
1.0
 40
1.0
 40
1.0
 40
1.0
 10
138.6139374215492
 20
-119.5549790471989
 30
0.0
 10
138.6139374215492
 20
-119.4720760541234
 30
0.0
 10
138.5469087825143
 20
-119.4046975225782
 30
0.0
 10
138.4640111724005
 20
-119.4046975225782
 30
0.0
  0
SPLINE
  5
BB
330
70
100
AcDbEntity
  8
Modo de isolamento
 62
     7
370
    35
100
AcDbSpline
210
0.0
220
0.0
230
1.0
 70
     8
 71
     3
 72
     8
 73
     4
 74
     0
 42
0.0000000001
 43
0.0000000001
 40
0.0
 40
0.0
 40
0.0
 40
0.0
 40
1.0
 40
1.0
 40
1.0
 40
1.0
 10
127.1641841081681
 20
-119.4046975225782
 30
0.0
 10
127.0812757321309
 20
-119.4046975225782
 30
0.0
 10
127.0139025835475
 20
-119.4720760541234
 30
0.0
 10
127.0139025835475
 20
-119.5549790471989
 30
0.0
  0
SPLINE
  5
BC
330
70
100
AcDbEntity
  8
Modo de isolamento
 62
     7
370
    35
100
AcDbSpline
210
0.0
220
0.0
230
1.0
 70
     8
 71
     3
 72
     8
 73
     4
 74
     0
 42
0.0000000001
 43
0.0000000001
 40
0.0
 40
0.0
 40
0.0
 40
0.0
 40
1.0
 40
1.0
 40
1.0
 40
1.0
 10
138.4640111724005
 20
-131.0047323605799
 30
0.0
 10
138.5469087825143
 20
-131.0047323605799
 30
0.0
 10
138.6139374215492
 20
-130.9377091045067
 30
0.0
 10
138.6139374215492
 20
-130.8548061114312
 30
0.0
  0
LINE
  5
BD
330
70
100
AcDbEntity
  8
Modo de isolamento
 62
     7
370
    35
100
AcDbLine
 10
99.2996812295274
 20
-79.73977367385225
 30
0.0
 11
99.20477961483216
 21
-79.73977367385225
 31
0.0
  0
LINE
  5
BE
330
70
100
AcDbEntity
  8
Modo de isolamento
 62
     7
370
    35
100
AcDbLine
 10
99.2996812295274
 20
-170.6698688362933
 30
0.0
 11
99.18396908491658
 21
-170.1775673829319
 31
0.0
  0
LINE
  5
BF
330
70
100
AcDbEntity
  8
Modo de isolamento
 62
     7
370
    35
100
AcDbLine
 10
99.06508099290528
 20
-166.2211282173222
 30
0.0
 11
99.06508099290528
 21
-83.7399171054694
 31
0.0
  0
LWPOLYLINE
  5
C0
330
70
100
AcDbEntity
  8
Modo de isolamento
 62
     7
370
    35
100
AcDbPolyline
 90
        7
 70
     0
 43
0.0
 10
99.06508099290528
 20
-166.2211282173222
 10
99.0689567253262
 20
-167.1609987123536
 10
99.08060545443568
 20
-168.0481996186734
 10
99.09895058789464
 20
-168.8330946464855
 10
99.12329234068261
 20
-169.4717642113147
 10
99.15222037683532
 20
-169.9284708304633
 10
99.18396908491658
 20
-170.1775673829319
  0
LWPOLYLINE
  5
C1
330
70
100
AcDbEntity
  8
Modo de isolamento
 62
     7
370
    35
100
AcDbPolyline
 90
        7
 70
     0
 43
0.0
 10
99.20477961483216
 20
-79.73977367385225
 10
99.16844462338616
 20
-79.87629634837867
 10
99.13493030386872
 20
-80.27564751065947
 10
99.10600226771601
 20
-80.9113429891518
 10
99.08378140183614
 20
-81.74002841035848
 10
99.06966727627001
 20
-82.70451518922435
 10
99.06508099290528
 20
-83.7399171054694
  0
LINE
  5
C2
330
70
100
AcDbEntity
  8
Modo de isolamento
 62
     7
370
    35
100
AcDbLine
 10
165.5291227073819
 20
-78.94038233019358
 30
0.0
 11
165.5291227073819
 21
-78.84548071549835
 31
0.0
  0
LINE
  5
C3
330
70
100
AcDbEntity
  8
Modo de isolamento
 62
     7
370
    35
100
AcDbLine
 10
100.099072573186
 20
-78.94038233019358
 30
0.0
 11
100.099072573186
 21
-78.84548071549835
 31
0.0
  0
LINE
  5
C4
330
70
100
AcDbEntity
  8
Modo de isolamento
 62
     7
370
    35
100
AcDbLine
 10
104.0992160048032
 20
-78.70578209357147
 30
0.0
 11
161.5289685098414
 21
-78.70578209357147
 31
0.0
  0
LWPOLYLINE
  5
C5
330
70
100
AcDbEntity
  8
Modo de isolamento
 62
     7
370
    35
100
AcDbPolyline
 90
        7
 70
     0
 43
0.0
 10
104.0992160048032
 20
-78.70578209357147
 10
103.0638140885581
 20
-78.71072365240812
 10
102.0989720342203
 20
-78.72448250250234
 10
101.2706418884856
 20
-78.7467033683822
 10
100.6349356440699
 20
-78.7756314045349
 10
100.2352399722405
 20
-78.80950099952428
 10
100.099072573186
 20
-78.84548071549835
  0
LWPOLYLINE
  5
C6
330
70
100
AcDbEntity
  8
Modo de isolamento
 62
     7
370
    35
100
AcDbPolyline
 90
        7
 70
     0
 43
0.0
 10
165.5291227073819
 20
-78.84548071549835
 10
165.392944542404
 20
-78.80950099952428
 10
164.9932488705747
 20
-78.7756314045349
 10
164.3575426261589
 20
-78.7467033683822
 10
163.5292232463476
 20
-78.72448250250234
 10
162.5643704260864
 20
-78.71072365240812
 10
161.5289685098414
 20
-78.70578209357147
  0
LINE
  5
C7
330
70
100
AcDbEntity
  8
Modo de isolamento
 62
     7
370
    35
100
AcDbLine
 10
100.5911936973306
 20
-171.5847973783077
 30
0.0
 11
100.099072573186
 21
-171.4693678391858
 31
0.0
  0
LWPOLYLINE
  5
C8
330
70
100
AcDbEntity
  8
Modo de isolamento
 62
     7
370
    35
100
AcDbPolyline
 90
        7
 70
     0
 43
0.0
 10
100.5911936973306
 20
-171.5847973783077
 10
100.8406078445393
 20
-171.6166887348738
 10
101.2971045281817
 20
-171.6456167710265
 10
101.9359867199979
 20
-171.6699935130655
 10
102.7209194285418
 20
-171.6884436142776
 10
103.6077946656791
 20
-171.6999443119404
 10
104.5479504576804
 20
-171.7038604165741
  0
LINE
  5
C9
330
70
100
AcDbEntity
  8
Modo de isolamento
 62
     7
370
    35
100
AcDbLine
 10
161.0802340569642
 20
-171.7038604165741
 30
0.0
 11
104.5479504576804
 21
-171.7038604165741
 31
0.0
  0
LWPOLYLINE
  5
CA
330
70
100
AcDbEntity
  8
Modo de isolamento
 62
     7
370
    35
100
AcDbPolyline
 90
        7
 70
     0
 43
0.0
 10
161.0802340569642
 20
-171.7038604165741
 10
162.0501965242716
 20
-171.6999443119404
 10
162.9374378028041
 20
-171.6884436142776
 10
163.6922085605701
 20
-171.6699935130655
 10
164.3310799864629
 20
-171.6456167710265
 10
164.7875766701053
 20
-171.6166887348738
 10
165.0366355418421
 20
-171.5847973783077
  0
LINE
  5
CB
330
70
100
AcDbEntity
  8
Modo de isolamento
 62
     7
370
    35
100
AcDbLine
 10
165.5291227073819
 20
-171.4693678391858
 30
0.0
 11
165.0366355418421
 21
-171.5847973783077
 31
0.0
  0
LINE
  5
CC
330
70
100
AcDbEntity
  8
Modo de isolamento
 62
     7
370
    35
100
AcDbLine
 10
166.3285140510406
 20
-79.73977367385225
 30
0.0
 11
166.4234048998124
 21
-79.73977367385225
 31
0.0
  0
LINE
  5
CD
330
70
100
AcDbEntity
  8
Modo de isolamento
 62
     7
370
    35
100
AcDbLine
 10
166.4438709201795
 20
-170.1775673829319
 30
0.0
 11
166.3285140510406
 21
-170.6698688362933
 31
0.0
  0
LWPOLYLINE
  5
CE
330
70
100
AcDbEntity
  8
Modo de isolamento
 62
     7
370
    35
100
AcDbPolyline
 90
        7
 70
     0
 43
0.0
 10
166.4438709201795
 20
-170.1775673829319
 10
166.4759749037327
 20
-169.9284708304633
 10
166.5049029398854
 20
-169.4717642113147
 10
166.5292446926733
 20
-168.8330946464855
 10
166.5475898261323
 20
-168.0481996186734
 10
166.5592277893184
 20
-167.1609987123536
 10
166.5631142876627
 20
-166.2211282173222
  0
LINE
  5
CF
330
70
100
AcDbEntity
  8
Modo de isolamento
 62
     7
370
    35
100
AcDbLine
 10
166.5631142876627
 20
-83.7399171054694
 30
0.0
 11
166.5631142876627
 21
-166.2211282173222
 31
0.0
  0
LWPOLYLINE
  5
D0
330
70
100
AcDbEntity
  8
Modo de isolamento
 62
     7
370
    35
100
AcDbPolyline
 90
        7
 70
     0
 43
0.0
 10
166.5631142876627
 20
-83.7399171054694
 10
166.558172728826
 20
-82.70451518922435
 10
166.5444138787318
 20
-81.74002841035848
 10
166.5221822469286
 20
-80.9113429891518
 10
166.4932649766992
 20
-80.27564751065947
 10
166.4597506571818
 20
-79.87629634837867
 10
166.4234048998124
 20
-79.73977367385225
  0
LWPOLYLINE
  5
D1
330
70
100
AcDbEntity
  8
Modo de isolamento
 62
     7
370
    35
100
AcDbPolyline
 90
        4
 70
     0
 43
0.0
 10
165.5291227073819
 20
-170.6698688362933
 10
165.5291227073819
 20
-171.0617699795872
 10
165.5291227073819
 20
-171.3531981428309
 10
165.5291227073819
 20
-171.4693678391858
  0
LWPOLYLINE
  5
D2
330
70
100
AcDbEntity
  8
Modo de isolamento
 62
     7
370
    35
100
AcDbPolyline
 90
        4
 70
     0
 43
0.0
 10
100.099072573186
 20
-170.6698688362933
 10
100.099072573186
 20
-171.0617699795872
 10
100.099072573186
 20
-171.3531981428309
 10
100.099072573186
 20
-171.4693678391858
  0
LINE
  5
D3
330
70
100
AcDbEntity
  8
Modo de isolamento
 62
     7
370
    35
100
AcDbLine
 10
165.5291227073819
 20
-171.4693678391858
 30
0.0
 11
100.099072573186
 21
-171.4693678391858
 31
0.0
  0
LWPOLYLINE
  5
D4
330
70
100
AcDbEntity
  8
Modo de isolamento
 62
     7
370
    35
100
AcDbPolyline
 90
        4
 70
     0
 43
0.0
 10
165.5291227073819
 20
-79.73977367385225
 10
165.5291227073819
 20
-79.34784023278813
 10
165.5291227073819
 20
-79.05643898435295
 10
165.5291227073819
 20
-78.94038233019358
  0
LINE
  5
D5
330
70
100
AcDbEntity
  8
Modo de isolamento
 62
     7
370
    35
100
AcDbLine
 10
100.099072573186
 20
-78.94038233019358
 30
0.0
 11
165.5291227073819
 21
-78.94038233019358
 31
0.0
  0
LWPOLYLINE
  5
D6
330
70
100
AcDbEntity
  8
Modo de isolamento
 62
     7
370
    35
100
AcDbPolyline
 90
        4
 70
     0
 43
0.0
 10
100.099072573186
 20
-79.73977367385225
 10
100.099072573186
 20
-79.34784023278813
 10
100.099072573186
 20
-79.05643898435295
 10
100.099072573186
 20
-78.94038233019358
  0
LWPOLYLINE
  5
D7
330
70
100
AcDbEntity
  8
Modo de isolamento
 62
     7
370
    35
100
AcDbPolyline
 90
        4
 70
     0
 43
0.0
 10
165.5291227073819
 20
-79.73977367385225
 10
165.921056148446
 20
-79.73977367385225
 10
166.2124466309578
 20
-79.73977367385225
 10
166.3285140510406
 20
-79.73977367385225
  0
LWPOLYLINE
  5
D8
330
70
100
AcDbEntity
  8
Modo de isolamento
 62
     7
370
    35
100
AcDbPolyline
 90
        4
 70
     0
 43
0.0
 10
165.5291227073819
 20
-170.6698688362933
 10
165.921056148446
 20
-170.6698688362933
 10
166.2124466309578
 20
-170.6698688362933
 10
166.3285140510406
 20
-170.6698688362933
  0
LINE
  5
D9
330
70
100
AcDbEntity
  8
Modo de isolamento
 62
     7
370
    35
100
AcDbLine
 10
166.3285140510406
 20
-79.73977367385225
 30
0.0
 11
166.3285140510406
 21
-170.6698688362933
 31
0.0
  0
LWPOLYLINE
  5
DA
330
70
100
AcDbEntity
  8
Modo de isolamento
 62
     7
370
    35
100
AcDbPolyline
 90
        4
 70
     0
 43
0.0
 10
100.099072573186
 20
-170.6698688362933
 10
99.70713913212193
 20
-170.6698688362933
 10
99.41573788368677
 20
-170.6698688362933
 10
99.2996812295274
 20
-170.6698688362933
  0
LWPOLYLINE
  5
DB
330
70
100
AcDbEntity
  8
Modo de isolamento
 62
     7
370
    35
100
AcDbPolyline
 90
        4
 70
     0
 43
0.0
 10
100.099072573186
 20
-79.73977367385225
 10
99.70713913212193
 20
-79.73977367385225
 10
99.41573788368677
 20
-79.73977367385225
 10
99.2996812295274
 20
-79.73977367385225
  0
LINE
  5
DC
330
70
100
AcDbEntity
  8
Modo de isolamento
 62
     7
370
    35
100
AcDbLine
 10
99.2996812295274
 20
-170.6698688362933
 30
0.0
 11
99.2996812295274
 21
-79.73977367385225
 31
0.0
  0
LINE
  5
DD
330
70
100
AcDbEntity
  8
Modo de isolamento
 62
     7
370
    35
100
AcDbLine
 10
138.6139374215492
 20
-119.5549790471989
 30
0.0
 11
138.6139374215492
 21
-130.8548061114312
 31
0.0
  0
LWPOLYLINE
  5
DE
330
70
100
AcDbEntity
  8
Modo de isolamento
 62
     7
370
    35
100
AcDbPolyline
 90
        3
 70
     0
 43
0.0
 10
138.5641988554809
 20
-130.8548061114312
 10
138.5994787864345
 20
-130.8548061114312
 10
138.6139374215492
 20
-130.8548061114312
  0
LINE
  5
DF
330
70
100
AcDbEntity
  8
Modo de isolamento
 62
     7
370
    35
100
AcDbLine
 10
127.1641841081681
 20
-119.4046975225782
 30
0.0
 11
138.4640111724005
 21
-119.4046975225782
 31
0.0
  0
LWPOLYLINE
  5
E0
330
70
100
AcDbEntity
  8
Modo de isolamento
 62
     7
370
    35
100
AcDbPolyline
 90
        3
 70
     0
 43
0.0
 10
127.1641841081681
 20
-119.4046975225782
 10
127.1641841081681
 20
-119.4195114331648
 10
127.1641841081681
 20
-119.4547913641185
  0
LINE
  5
E1
330
70
100
AcDbEntity
  8
Modo de isolamento
 62
     7
370
    35
100
AcDbLine
 10
127.0139025835475
 20
-130.8548061114312
 30
0.0
 11
127.0139025835475
 21
-119.5549790471989
 31
0.0
  0
LWPOLYLINE
  5
E2
330
70
100
AcDbEntity
  8
Modo de isolamento
 62
     7
370
    35
100
AcDbPolyline
 90
        3
 70
     0
 43
0.0
 10
127.0639964250877
 20
-119.5549790471989
 10
127.0287164941341
 20
-119.5549790471989
 10
127.0139025835475
 20
-119.5549790471989
  0
LWPOLYLINE
  5
E3
330
70
100
AcDbEntity
  8
Modo de isolamento
 62
     7
370
    35
100
AcDbPolyline
 90
        3
 70
     0
 43
0.0
 10
138.6139374215492
 20
-119.5549790471989
 10
138.5994787864345
 20
-119.5549790471989
 10
138.5641988554809
 20
-119.5549790471989
  0
LWPOLYLINE
  5
E4
330
70
100
AcDbEntity
  8
Modo de isolamento
 62
     7
370
    35
100
AcDbPolyline
 90
        3
 70
     0
 43
0.0
 10
138.4640111724005
 20
-119.4547913641185
 10
138.4640111724005
 20
-119.4195114331648
 10
138.4640111724005
 20
-119.4046975225782
  0
LINE
  5
E5
330
70
100
AcDbEntity
  8
Modo de isolamento
 62
     7
370
    35
100
AcDbLine
 10
138.4640111724005
 20
-131.0047323605799
 30
0.0
 11
127.1641841081681
 21
-131.0047323605799
 31
0.0
  0
LWPOLYLINE
  5
E6
330
70
100
AcDbEntity
  8
Modo de isolamento
 62
     7
370
    35
100
AcDbPolyline
 90
        3
 70
     0
 43
0.0
 10
138.4640111724005
 20
-131.0047323605799
 10
138.4640111724005
 20
-130.9902683425036
 10
138.4640111724005
 20
-130.9549937945116
  0
LWPOLYLINE
  5
E7
330
70
100
AcDbEntity
  8
Modo de isolamento
 62
     7
370
    35
100
AcDbPolyline
 90
        3
 70
     0
 43
0.0
 10
127.0139025835475
 20
-130.8548061114312
 10
127.0287164941341
 20
-130.8548061114312
 10
127.0639964250877
 20
-130.8548061114312
  0
LWPOLYLINE
  5
E8
330
70
100
AcDbEntity
  8
Modo de isolamento
 62
     7
370
    35
100
AcDbPolyline
 90
        3
 70
     0
 43
0.0
 10
127.1641841081681
 20
-130.9549937945116
 10
127.1641841081681
 20
-130.9902683425036
 10
127.1641841081681
 20
-131.0047323605799
  0
LINE
  5
E9
330
70
100
AcDbEntity
  8
Modo de isolamento
 62
     7
370
    35
100
AcDbLine
 10
127.1641841081681
 20
-130.9549937945116
 30
0.0
 11
138.4640111724005
 21
-130.9549937945116
 31
0.0
  0
LINE
  5
EA
330
70
100
AcDbEntity
  8
Modo de isolamento
 62
     7
370
    35
100
AcDbLine
 10
138.5641988554809
 20
-130.8548061114312
 30
0.0
 11
138.5641988554809
 21
-119.5549790471989
 31
0.0
  0
LINE
  5
EB
330
70
100
AcDbEntity
  8
Modo de isolamento
 62
     7
370
    35
100
AcDbLine
 10
138.4640111724005
 20
-119.4547913641185
 30
0.0
 11
127.1641841081681
 21
-119.4547913641185
 31
0.0
  0
LINE
  5
EC
330
70
100
AcDbEntity
  8
Modo de isolamento
 62
     7
370
    35
100
AcDbLine
 10
127.0639964250877
 20
-119.5549790471989
 30
0.0
 11
127.0639964250877
 21
-130.8548061114312
 31
0.0
  0
SPLINE
  5
ED
330
70
100
AcDbEntity
  8
Modo de isolamento
 62
    98
370
    18
100
AcDbSpline
210
0.0
220
0.0
230
1.0
 70
    24
 71
     3
 72
     8
 73
     4
 74
     0
 42
0.0000000001
 43
0.0000000001
 40
0.0
 40
0.0
 40
0.0
 40
0.0
 40
1.0
 40
1.0
 40
1.0
 40
1.0
 10
166.8473220973802
 20
-171.7822554782843
 30
0.0
 10
166.8473220973802
 20
-171.7822554782843
 30
0.0
 10
182.5795410938711
 20
-171.7822554782843
 30
0.0
 10
182.5795410938711
 20
-171.7822554782843
 30
0.0
  0
SPLINE
  5
EE
330
70
100
AcDbEntity
  8
Modo de isolamento
 62
    98
370
    18
100
AcDbSpline
210
0.0
220
0.0
230
1.0
 70
    24
 71
     3
 72
     8
 73
     4
 74
     0
 42
0.0000000001
 43
0.0000000001
 40
0.0
 40
0.0
 40
0.0
 40
0.0
 40
1.0
 40
1.0
 40
1.0
 40
1.0
 10
166.3842073689573
 20
-67.84805915824745
 30
0.0
 10
166.3842073689573
 20
-67.84805915824745
 30
0.0
 10
182.5795410938711
 20
-67.84805915824745
 30
0.0
 10
182.5795410938711
 20
-67.84805915824745
 30
0.0
  0
SPLINE
  5
EF
330
70
100
AcDbEntity
  8
Modo de isolamento
 62
    98
370
    18
100
AcDbSpline
210
0.0
220
0.0
230
1.0
 70
    24
 71
     3
 72
     8
 73
     4
 74
     0
 42
0.0000000001
 43
0.0000000001
 40
0.0
 40
0.0
 40
0.0
 40
0.0
 40
1.0
 40
1.0
 40
1.0
 40
1.0
 10
180.5792863573648
 20
-171.7822554782843
 30
0.0
 10
180.5792863573648
 20
-171.7822554782843
 30
0.0
 10
180.5792863573648
 20
-67.84805915824745
 30
0.0
 10
180.5792863573648
 20
-67.84805915824745
 30
0.0
  0
SPLINE
  5
F0
330
70
100
AcDbEntity
  8
Modo de isolamento
 62
    98
370
    18
100
AcDbSpline
210
0.0
220
0.0
230
1.0
 70
    24
 71
     3
 72
     8
 73
     4
 74
     0
 42
0.0000000001
 43
0.0000000001
 40
0.0
 40
0.0
 40
0.0
 40
0.0
 40
1.0
 40
1.0
 40
1.0
 40
1.0
 10
180.5792863573648
 20
-171.7822554782843
 30
0.0
 10
180.5792863573648
 20
-171.7822554782843
 30
0.0
 10
180.9479438720567
 20
-168.9822568141283
 30
0.0
 10
180.9479438720567
 20
-168.9822568141283
 30
0.0
  0
SPLINE
  5
F1
330
70
100
AcDbEntity
  8
Modo de isolamento
 62
    98
370
    18
100
AcDbSpline
210
0.0
220
0.0
230
1.0
 70
    24
 71
     3
 72
     8
 73
     4
 74
     0
 42
0.0000000001
 43
0.0000000001
 40
0.0
 40
0.0
 40
0.0
 40
0.0
 40
1.0
 40
1.0
 40
1.0
 40
1.0
 10
180.9479438720567
 20
-168.9822568141283
 30
0.0
 10
180.9479438720567
 20
-168.9822568141283
 30
0.0
 10
180.2106396085963
 20
-168.9822568141283
 30
0.0
 10
180.2106396085963
 20
-168.9822568141283
 30
0.0
  0
SPLINE
  5
F2
330
70
100
AcDbEntity
  8
Modo de isolamento
 62
    98
370
    18
100
AcDbSpline
210
0.0
220
0.0
230
1.0
 70
    24
 71
     3
 72
     8
 73
     4
 74
     0
 42
0.0000000001
 43
0.0000000001
 40
0.0
 40
0.0
 40
0.0
 40
0.0
 40
1.0
 40
1.0
 40
1.0
 40
1.0
 10
180.2106396085963
 20
-168.9822568141283
 30
0.0
 10
180.2106396085963
 20
-168.9822568141283
 30
0.0
 10
180.5792863573648
 20
-171.7822554782843
 30
0.0
 10
180.5792863573648
 20
-171.7822554782843
 30
0.0
  0
SPLINE
  5
F3
330
70
100
AcDbEntity
  8
Modo de isolamento
 62
    98
370
    18
100
AcDbSpline
210
0.0
220
0.0
230
1.0
 70
    24
 71
     3
 72
     8
 73
     4
 74
     0
 42
0.0000000001
 43
0.0000000001
 40
0.0
 40
0.0
 40
0.0
 40
0.0
 40
1.0
 40
1.0
 40
1.0
 40
1.0
 10
180.934884806983
 20
-168.9822568141283
 30
0.0
 10
180.934884806983
 20
-168.9822568141283
 30
0.0
 10
180.934884806983
 20
-169.0812117989804
 30
0.0
 10
180.934884806983
 20
-169.0812117989804
 30
0.0
  0
SPLINE
  5
F4
330
70
100
AcDbEntity
  8
Modo de isolamento
 62
    98
370
    18
100
AcDbSpline
210
0.0
220
0.0
230
1.0
 70
    24
 71
     3
 72
     8
 73
     4
 74
     0
 42
0.0000000001
 43
0.0000000001
 40
0.0
 40
0.0
 40
0.0
 40
0.0
 40
1.0
 40
1.0
 40
1.0
 40
1.0
 10
180.934884806983
 20
-168.9822568141283
 30
0.0
 10
180.934884806983
 20
-168.9822568141283
 30
0.0
 10
180.934884806983
 20
-169.0812117989804
 30
0.0
 10
180.934884806983
 20
-169.0812117989804
 30
0.0
  0
SPLINE
  5
F5
330
70
100
AcDbEntity
  8
Modo de isolamento
 62
    98
370
    18
100
AcDbSpline
210
0.0
220
0.0
230
1.0
 70
    24
 71
     3
 72
     8
 73
     4
 74
     0
 42
0.0000000001
 43
0.0000000001
 40
0.0
 40
0.0
 40
0.0
 40
0.0
 40
1.0
 40
1.0
 40
1.0
 40
1.0
 10
180.8840911804223
 20
-168.9822568141283
 30
0.0
 10
180.8840911804223
 20
-168.9822568141283
 30
0.0
 10
180.8840911804223
 20
-169.4670813336943
 30
0.0
 10
180.8840911804223
 20
-169.4670813336943
 30
0.0
  0
SPLINE
  5
F6
330
70
100
AcDbEntity
  8
Modo de isolamento
 62
    98
370
    18
100
AcDbSpline
210
0.0
220
0.0
230
1.0
 70
    24
 71
     3
 72
     8
 73
     4
 74
     0
 42
0.0000000001
 43
0.0000000001
 40
0.0
 40
0.0
 40
0.0
 40
0.0
 40
1.0
 40
1.0
 40
1.0
 40
1.0
 10
180.8332867879382
 20
-168.9822568141283
 30
0.0
 10
180.8332867879382
 20
-168.9822568141283
 30
0.0
 10
180.8332867879382
 20
-169.8529481769274
 30
0.0
 10
180.8332867879382
 20
-169.8529481769274
 30
0.0
  0
SPLINE
  5
F7
330
70
100
AcDbEntity
  8
Modo de isolamento
 62
    98
370
    18
100
AcDbSpline
210
0.0
220
0.0
230
1.0
 70
    24
 71
     3
 72
     8
 73
     4
 74
     0
 42
0.0000000001
 43
0.0000000001
 40
0.0
 40
0.0
 40
0.0
 40
0.0
 40
1.0
 40
1.0
 40
1.0
 40
1.0
 10
180.7824931613776
 20
-168.9822568141283
 30
0.0
 10
180.7824931613776
 20
-168.9822568141283
 30
0.0
 10
180.7824931613776
 20
-170.2388177116413
 30
0.0
 10
180.7824931613776
 20
-170.2388177116413
 30
0.0
  0
SPLINE
  5
F8
330
70
100
AcDbEntity
  8
Modo de isolamento
 62
    98
370
    18
100
AcDbSpline
210
0.0
220
0.0
230
1.0
 70
    24
 71
     3
 72
     8
 73
     4
 74
     0
 42
0.0000000001
 43
0.0000000001
 40
0.0
 40
0.0
 40
0.0
 40
0.0
 40
1.0
 40
1.0
 40
1.0
 40
1.0
 10
180.7316887688936
 20
-168.9822568141283
 30
0.0
 10
180.7316887688936
 20
-168.9822568141283
 30
0.0
 10
180.7316887688936
 20
-170.6246495656234
 30
0.0
 10
180.7316887688936
 20
-170.6246495656234
 30
0.0
  0
SPLINE
  5
F9
330
70
100
AcDbEntity
  8
Modo de isolamento
 62
    98
370
    18
100
AcDbSpline
210
0.0
220
0.0
230
1.0
 70
    24
 71
     3
 72
     8
 73
     4
 74
     0
 42
0.0000000001
 43
0.0000000001
 40
0.0
 40
0.0
 40
0.0
 40
0.0
 40
1.0
 40
1.0
 40
1.0
 40
1.0
 10
180.6808843764095
 20
-168.9822568141283
 30
0.0
 10
180.6808843764095
 20
-168.9822568141283
 30
0.0
 10
180.6808843764095
 20
-171.0105191003373
 30
0.0
 10
180.6808843764095
 20
-171.0105191003373
 30
0.0
  0
SPLINE
  5
FA
330
70
100
AcDbEntity
  8
Modo de isolamento
 62
    98
370
    18
100
AcDbSpline
210
0.0
220
0.0
230
1.0
 70
    24
 71
     3
 72
     8
 73
     4
 74
     0
 42
0.0000000001
 43
0.0000000001
 40
0.0
 40
0.0
 40
0.0
 40
0.0
 40
1.0
 40
1.0
 40
1.0
 40
1.0
 10
180.6300907498489
 20
-168.9822568141283
 30
0.0
 10
180.6300907498489
 20
-168.9822568141283
 30
0.0
 10
180.6300907498489
 20
-171.3963859435704
 30
0.0
 10
180.6300907498489
 20
-171.3963859435704
 30
0.0
  0
SPLINE
  5
FB
330
70
100
AcDbEntity
  8
Modo de isolamento
 62
    98
370
    18
100
AcDbSpline
210
0.0
220
0.0
230
1.0
 70
    24
 71
     3
 72
     8
 73
     4
 74
     0
 42
0.0000000001
 43
0.0000000001
 40
0.0
 40
0.0
 40
0.0
 40
0.0
 40
1.0
 40
1.0
 40
1.0
 40
1.0
 10
180.5792863573648
 20
-168.9822568141283
 30
0.0
 10
180.5792863573648
 20
-168.9822568141283
 30
0.0
 10
180.5792863573648
 20
-171.7822554782843
 30
0.0
 10
180.5792863573648
 20
-171.7822554782843
 30
0.0
  0
SPLINE
  5
FC
330
70
100
AcDbEntity
  8
Modo de isolamento
 62
    98
370
    18
100
AcDbSpline
210
0.0
220
0.0
230
1.0
 70
    24
 71
     3
 72
     8
 73
     4
 74
     0
 42
0.0000000001
 43
0.0000000001
 40
0.0
 40
0.0
 40
0.0
 40
0.0
 40
1.0
 40
1.0
 40
1.0
 40
1.0
 10
180.2236879077467
 20
-168.9822568141283
 30
0.0
 10
180.2236879077467
 20
-168.9822568141283
 30
0.0
 10
180.2236879077467
 20
-169.0812117989804
 30
0.0
 10
180.2236879077467
 20
-169.0812117989804
 30
0.0
  0
SPLINE
  5
FD
330
70
100
AcDbEntity
  8
Modo de isolamento
 62
    98
370
    18
100
AcDbSpline
210
0.0
220
0.0
230
1.0
 70
    24
 71
     3
 72
     8
 73
     4
 74
     0
 42
0.0000000001
 43
0.0000000001
 40
0.0
 40
0.0
 40
0.0
 40
0.0
 40
1.0
 40
1.0
 40
1.0
 40
1.0
 10
180.2236879077467
 20
-168.9822568141283
 30
0.0
 10
180.2236879077467
 20
-168.9822568141283
 30
0.0
 10
180.2236879077467
 20
-169.0812117989804
 30
0.0
 10
180.2236879077467
 20
-169.0812117989804
 30
0.0
  0
SPLINE
  5
FE
330
70
100
AcDbEntity
  8
Modo de isolamento
 62
    98
370
    18
100
AcDbSpline
210
0.0
220
0.0
230
1.0
 70
    24
 71
     3
 72
     8
 73
     4
 74
     0
 42
0.0000000001
 43
0.0000000001
 40
0.0
 40
0.0
 40
0.0
 40
0.0
 40
1.0
 40
1.0
 40
1.0
 40
1.0
 10
180.2744923002307
 20
-168.9822568141283
 30
0.0
 10
180.2744923002307
 20
-168.9822568141283
 30
0.0
 10
180.2744923002307
 20
-169.4670813336943
 30
0.0
 10
180.2744923002307
 20
-169.4670813336943
 30
0.0
  0
SPLINE
  5
FF
330
70
100
AcDbEntity
  8
Modo de isolamento
 62
    98
370
    18
100
AcDbSpline
210
0.0
220
0.0
230
1.0
 70
    24
 71
     3
 72
     8
 73
     4
 74
     0
 42
0.0000000001
 43
0.0000000001
 40
0.0
 40
0.0
 40
0.0
 40
0.0
 40
1.0
 40
1.0
 40
1.0
 40
1.0
 10
180.3252859267914
 20
-168.9822568141283
 30
0.0
 10
180.3252859267914
 20
-168.9822568141283
 30
0.0
 10
180.3252859267914
 20
-169.8529481769274
 30
0.0
 10
180.3252859267914
 20
-169.8529481769274
 30
0.0
  0
SPLINE
  5
100
330
70
100
AcDbEntity
  8
Modo de isolamento
 62
    98
370
    18
100
AcDbSpline
210
0.0
220
0.0
230
1.0
 70
    24
 71
     3
 72
     8
 73
     4
 74
     0
 42
0.0000000001
 43
0.0000000001
 40
0.0
 40
0.0
 40
0.0
 40
0.0
 40
1.0
 40
1.0
 40
1.0
 40
1.0
 10
180.3760903192754
 20
-168.9822568141283
 30
0.0
 10
180.3760903192754
 20
-168.9822568141283
 30
0.0
 10
180.3760903192754
 20
-170.2388177116413
 30
0.0
 10
180.3760903192754
 20
-170.2388177116413
 30
0.0
  0
SPLINE
  5
101
330
70
100
AcDbEntity
  8
Modo de isolamento
 62
    98
370
    18
100
AcDbSpline
210
0.0
220
0.0
230
1.0
 70
    24
 71
     3
 72
     8
 73
     4
 74
     0
 42
0.0000000001
 43
0.0000000001
 40
0.0
 40
0.0
 40
0.0
 40
0.0
 40
1.0
 40
1.0
 40
1.0
 40
1.0
 10
180.4268839458361
 20
-168.9822568141283
 30
0.0
 10
180.4268839458361
 20
-168.9822568141283
 30
0.0
 10
180.4268839458361
 20
-170.6246495656234
 30
0.0
 10
180.4268839458361
 20
-170.6246495656234
 30
0.0
  0
SPLINE
  5
102
330
70
100
AcDbEntity
  8
Modo de isolamento
 62
    98
370
    18
100
AcDbSpline
210
0.0
220
0.0
230
1.0
 70
    24
 71
     3
 72
     8
 73
     4
 74
     0
 42
0.0000000001
 43
0.0000000001
 40
0.0
 40
0.0
 40
0.0
 40
0.0
 40
1.0
 40
1.0
 40
1.0
 40
1.0
 10
180.4776883383201
 20
-168.9822568141283
 30
0.0
 10
180.4776883383201
 20
-168.9822568141283
 30
0.0
 10
180.4776883383201
 20
-171.0105191003373
 30
0.0
 10
180.4776883383201
 20
-171.0105191003373
 30
0.0
  0
SPLINE
  5
103
330
70
100
AcDbEntity
  8
Modo de isolamento
 62
    98
370
    18
100
AcDbSpline
210
0.0
220
0.0
230
1.0
 70
    24
 71
     3
 72
     8
 73
     4
 74
     0
 42
0.0000000001
 43
0.0000000001
 40
0.0
 40
0.0
 40
0.0
 40
0.0
 40
1.0
 40
1.0
 40
1.0
 40
1.0
 10
180.5284927308042
 20
-168.9822568141283
 30
0.0
 10
180.5284927308042
 20
-168.9822568141283
 30
0.0
 10
180.5284927308042
 20
-171.3963859435704
 30
0.0
 10
180.5284927308042
 20
-171.3963859435704
 30
0.0
  0
SPLINE
  5
104
330
70
100
AcDbEntity
  8
Modo de isolamento
 62
    98
370
    18
100
AcDbSpline
210
0.0
220
0.0
230
1.0
 70
    24
 71
     3
 72
     8
 73
     4
 74
     0
 42
0.0000000001
 43
0.0000000001
 40
0.0
 40
0.0
 40
0.0
 40
0.0
 40
1.0
 40
1.0
 40
1.0
 40
1.0
 10
180.5792863573648
 20
-168.9822568141283
 30
0.0
 10
180.5792863573648
 20
-168.9822568141283
 30
0.0
 10
180.5792863573648
 20
-171.7822554782843
 30
0.0
 10
180.5792863573648
 20
-171.7822554782843
 30
0.0
  0
SPLINE
  5
105
330
70
100
AcDbEntity
  8
Modo de isolamento
 62
    98
370
    18
100
AcDbSpline
210
0.0
220
0.0
230
1.0
 70
    24
 71
     3
 72
     8
 73
     4
 74
     0
 42
0.0000000001
 43
0.0000000001
 40
0.0
 40
0.0
 40
0.0
 40
0.0
 40
1.0
 40
1.0
 40
1.0
 40
1.0
 10
180.5792863573648
 20
-67.84805915824745
 30
0.0
 10
180.5792863573648
 20
-67.84805915824745
 30
0.0
 10
180.2106396085963
 20
-70.64806051388426
 30
0.0
 10
180.2106396085963
 20
-70.64806051388426
 30
0.0
  0
SPLINE
  5
106
330
70
100
AcDbEntity
  8
Modo de isolamento
 62
    98
370
    18
100
AcDbSpline
210
0.0
220
0.0
230
1.0
 70
    24
 71
     3
 72
     8
 73
     4
 74
     0
 42
0.0000000001
 43
0.0000000001
 40
0.0
 40
0.0
 40
0.0
 40
0.0
 40
1.0
 40
1.0
 40
1.0
 40
1.0
 10
180.2106396085963
 20
-70.64806051388426
 30
0.0
 10
180.2106396085963
 20
-70.64806051388426
 30
0.0
 10
180.9479438720567
 20
-70.64806051388426
 30
0.0
 10
180.9479438720567
 20
-70.64806051388426
 30
0.0
  0
SPLINE
  5
107
330
70
100
AcDbEntity
  8
Modo de isolamento
 62
    98
370
    18
100
AcDbSpline
210
0.0
220
0.0
230
1.0
 70
    24
 71
     3
 72
     8
 73
     4
 74
     0
 42
0.0000000001
 43
0.0000000001
 40
0.0
 40
0.0
 40
0.0
 40
0.0
 40
1.0
 40
1.0
 40
1.0
 40
1.0
 10
180.9479438720567
 20
-70.64806051388426
 30
0.0
 10
180.9479438720567
 20
-70.64806051388426
 30
0.0
 10
180.5792863573648
 20
-67.84805915824745
 30
0.0
 10
180.5792863573648
 20
-67.84805915824745
 30
0.0
  0
SPLINE
  5
108
330
70
100
AcDbEntity
  8
Modo de isolamento
 62
    98
370
    18
100
AcDbSpline
210
0.0
220
0.0
230
1.0
 70
    24
 71
     3
 72
     8
 73
     4
 74
     0
 42
0.0000000001
 43
0.0000000001
 40
0.0
 40
0.0
 40
0.0
 40
0.0
 40
1.0
 40
1.0
 40
1.0
 40
1.0
 10
180.2236879077467
 20
-70.64806051388426
 30
0.0
 10
180.2236879077467
 20
-70.64806051388426
 30
0.0
 10
180.2236879077467
 20
-70.54928316676811
 30
0.0
 10
180.2236879077467
 20
-70.54928316676811
 30
0.0
  0
SPLINE
  5
109
330
70
100
AcDbEntity
  8
Modo de isolamento
 62
    98
370
    18
100
AcDbSpline
210
0.0
220
0.0
230
1.0
 70
    24
 71
     3
 72
     8
 73
     4
 74
     0
 42
0.0000000001
 43
0.0000000001
 40
0.0
 40
0.0
 40
0.0
 40
0.0
 40
1.0
 40
1.0
 40
1.0
 40
1.0
 10
180.2236879077467
 20
-70.64806051388426
 30
0.0
 10
180.2236879077467
 20
-70.64806051388426
 30
0.0
 10
180.2236879077467
 20
-70.54928316676811
 30
0.0
 10
180.2236879077467
 20
-70.54928316676811
 30
0.0
  0
SPLINE
  5
10A
330
70
100
AcDbEntity
  8
Modo de isolamento
 62
    98
370
    18
100
AcDbSpline
210
0.0
220
0.0
230
1.0
 70
    24
 71
     3
 72
     8
 73
     4
 74
     0
 42
0.0000000001
 43
0.0000000001
 40
0.0
 40
0.0
 40
0.0
 40
0.0
 40
1.0
 40
1.0
 40
1.0
 40
1.0
 10
180.2744923002307
 20
-70.64806051388426
 30
0.0
 10
180.2744923002307
 20
-70.64806051388426
 30
0.0
 10
180.2744923002307
 20
-70.1633355791096
 30
0.0
 10
180.2744923002307
 20
-70.1633355791096
 30
0.0
  0
SPLINE
  5
10B
330
70
100
AcDbEntity
  8
Modo de isolamento
 62
    98
370
    18
100
AcDbSpline
210
0.0
220
0.0
230
1.0
 70
    24
 71
     3
 72
     8
 73
     4
 74
     0
 42
0.0000000001
 43
0.0000000001
 40
0.0
 40
0.0
 40
0.0
 40
0.0
 40
1.0
 40
1.0
 40
1.0
 40
1.0
 10
180.3252859267914
 20
-70.64806051388426
 30
0.0
 10
180.3252859267914
 20
-70.64806051388426
 30
0.0
 10
180.3252859267914
 20
-69.7773987573745
 30
0.0
 10
180.3252859267914
 20
-69.7773987573745
 30
0.0
  0
SPLINE
  5
10C
330
70
100
AcDbEntity
  8
Modo de isolamento
 62
    98
370
    18
100
AcDbSpline
210
0.0
220
0.0
230
1.0
 70
    24
 71
     3
 72
     8
 73
     4
 74
     0
 42
0.0000000001
 43
0.0000000001
 40
0.0
 40
0.0
 40
0.0
 40
0.0
 40
1.0
 40
1.0
 40
1.0
 40
1.0
 10
180.3760903192754
 20
-70.64806051388426
 30
0.0
 10
180.3760903192754
 20
-70.64806051388426
 30
0.0
 10
180.3760903192754
 20
-69.39146193563939
 30
0.0
 10
180.3760903192754
 20
-69.39146193563939
 30
0.0
  0
SPLINE
  5
10D
330
70
100
AcDbEntity
  8
Modo de isolamento
 62
    98
370
    18
100
AcDbSpline
210
0.0
220
0.0
230
1.0
 70
    24
 71
     3
 72
     8
 73
     4
 74
     0
 42
0.0000000001
 43
0.0000000001
 40
0.0
 40
0.0
 40
0.0
 40
0.0
 40
1.0
 40
1.0
 40
1.0
 40
1.0
 10
180.4268839458361
 20
-70.64806051388426
 30
0.0
 10
180.4268839458361
 20
-70.64806051388426
 30
0.0
 10
180.4268839458361
 20
-69.00588038937619
 30
0.0
 10
180.4268839458361
 20
-69.00588038937619
 30
0.0
  0
SPLINE
  5
10E
330
70
100
AcDbEntity
  8
Modo de isolamento
 62
    98
370
    18
100
AcDbSpline
210
0.0
220
0.0
230
1.0
 70
    24
 71
     3
 72
     8
 73
     4
 74
     0
 42
0.0000000001
 43
0.0000000001
 40
0.0
 40
0.0
 40
0.0
 40
0.0
 40
1.0
 40
1.0
 40
1.0
 40
1.0
 10
180.4776883383201
 20
-70.64806051388426
 30
0.0
 10
180.4776883383201
 20
-70.64806051388426
 30
0.0
 10
180.4776883383201
 20
-68.61993280171768
 30
0.0
 10
180.4776883383201
 20
-68.61993280171768
 30
0.0
  0
SPLINE
  5
10F
330
70
100
AcDbEntity
  8
Modo de isolamento
 62
    98
370
    18
100
AcDbSpline
210
0.0
220
0.0
230
1.0
 70
    24
 71
     3
 72
     8
 73
     4
 74
     0
 42
0.0000000001
 43
0.0000000001
 40
0.0
 40
0.0
 40
0.0
 40
0.0
 40
1.0
 40
1.0
 40
1.0
 40
1.0
 10
180.5284927308042
 20
-70.64806051388426
 30
0.0
 10
180.5284927308042
 20
-70.64806051388426
 30
0.0
 10
180.5284927308042
 20
-68.23399597998257
 30
0.0
 10
180.5284927308042
 20
-68.23399597998257
 30
0.0
  0
SPLINE
  5
110
330
70
100
AcDbEntity
  8
Modo de isolamento
 62
    98
370
    18
100
AcDbSpline
210
0.0
220
0.0
230
1.0
 70
    24
 71
     3
 72
     8
 73
     4
 74
     0
 42
0.0000000001
 43
0.0000000001
 40
0.0
 40
0.0
 40
0.0
 40
0.0
 40
1.0
 40
1.0
 40
1.0
 40
1.0
 10
180.5792863573648
 20
-70.64806051388426
 30
0.0
 10
180.5792863573648
 20
-70.64806051388426
 30
0.0
 10
180.5792863573648
 20
-67.84805915824745
 30
0.0
 10
180.5792863573648
 20
-67.84805915824745
 30
0.0
  0
SPLINE
  5
111
330
70
100
AcDbEntity
  8
Modo de isolamento
 62
    98
370
    18
100
AcDbSpline
210
0.0
220
0.0
230
1.0
 70
    24
 71
     3
 72
     8
 73
     4
 74
     0
 42
0.0000000001
 43
0.0000000001
 40
0.0
 40
0.0
 40
0.0
 40
0.0
 40
1.0
 40
1.0
 40
1.0
 40
1.0
 10
180.934884806983
 20
-70.64806051388426
 30
0.0
 10
180.934884806983
 20
-70.64806051388426
 30
0.0
 10
180.934884806983
 20
-70.54928316676811
 30
0.0
 10
180.934884806983
 20
-70.54928316676811
 30
0.0
  0
SPLINE
  5
112
330
70
100
AcDbEntity
  8
Modo de isolamento
 62
    98
370
    18
100
AcDbSpline
210
0.0
220
0.0
230
1.0
 70
    24
 71
     3
 72
     8
 73
     4
 74
     0
 42
0.0000000001
 43
0.0000000001
 40
0.0
 40
0.0
 40
0.0
 40
0.0
 40
1.0
 40
1.0
 40
1.0
 40
1.0
 10
180.934884806983
 20
-70.64806051388426
 30
0.0
 10
180.934884806983
 20
-70.64806051388426
 30
0.0
 10
180.934884806983
 20
-70.54928316676811
 30
0.0
 10
180.934884806983
 20
-70.54928316676811
 30
0.0
  0
SPLINE
  5
113
330
70
100
AcDbEntity
  8
Modo de isolamento
 62
    98
370
    18
100
AcDbSpline
210
0.0
220
0.0
230
1.0
 70
    24
 71
     3
 72
     8
 73
     4
 74
     0
 42
0.0000000001
 43
0.0000000001
 40
0.0
 40
0.0
 40
0.0
 40
0.0
 40
1.0
 40
1.0
 40
1.0
 40
1.0
 10
180.8840911804223
 20
-70.64806051388426
 30
0.0
 10
180.8840911804223
 20
-70.64806051388426
 30
0.0
 10
180.8840911804223
 20
-70.1633355791096
 30
0.0
 10
180.8840911804223
 20
-70.1633355791096
 30
0.0
  0
SPLINE
  5
114
330
70
100
AcDbEntity
  8
Modo de isolamento
 62
    98
370
    18
100
AcDbSpline
210
0.0
220
0.0
230
1.0
 70
    24
 71
     3
 72
     8
 73
     4
 74
     0
 42
0.0000000001
 43
0.0000000001
 40
0.0
 40
0.0
 40
0.0
 40
0.0
 40
1.0
 40
1.0
 40
1.0
 40
1.0
 10
180.8332867879382
 20
-70.64806051388426
 30
0.0
 10
180.8332867879382
 20
-70.64806051388426
 30
0.0
 10
180.8332867879382
 20
-69.7773987573745
 30
0.0
 10
180.8332867879382
 20
-69.7773987573745
 30
0.0
  0
SPLINE
  5
115
330
70
100
AcDbEntity
  8
Modo de isolamento
 62
    98
370
    18
100
AcDbSpline
210
0.0
220
0.0
230
1.0
 70
    24
 71
     3
 72
     8
 73
     4
 74
     0
 42
0.0000000001
 43
0.0000000001
 40
0.0
 40
0.0
 40
0.0
 40
0.0
 40
1.0
 40
1.0
 40
1.0
 40
1.0
 10
180.7824931613776
 20
-70.64806051388426
 30
0.0
 10
180.7824931613776
 20
-70.64806051388426
 30
0.0
 10
180.7824931613776
 20
-69.39146193563939
 30
0.0
 10
180.7824931613776
 20
-69.39146193563939
 30
0.0
  0
SPLINE
  5
116
330
70
100
AcDbEntity
  8
Modo de isolamento
 62
    98
370
    18
100
AcDbSpline
210
0.0
220
0.0
230
1.0
 70
    24
 71
     3
 72
     8
 73
     4
 74
     0
 42
0.0000000001
 43
0.0000000001
 40
0.0
 40
0.0
 40
0.0
 40
0.0
 40
1.0
 40
1.0
 40
1.0
 40
1.0
 10
180.7316887688936
 20
-70.64806051388426
 30
0.0
 10
180.7316887688936
 20
-70.64806051388426
 30
0.0
 10
180.7316887688936
 20
-69.00588038937619
 30
0.0
 10
180.7316887688936
 20
-69.00588038937619
 30
0.0
  0
SPLINE
  5
117
330
70
100
AcDbEntity
  8
Modo de isolamento
 62
    98
370
    18
100
AcDbSpline
210
0.0
220
0.0
230
1.0
 70
    24
 71
     3
 72
     8
 73
     4
 74
     0
 42
0.0000000001
 43
0.0000000001
 40
0.0
 40
0.0
 40
0.0
 40
0.0
 40
1.0
 40
1.0
 40
1.0
 40
1.0
 10
180.6808843764095
 20
-70.64806051388426
 30
0.0
 10
180.6808843764095
 20
-70.64806051388426
 30
0.0
 10
180.6808843764095
 20
-68.61993280171768
 30
0.0
 10
180.6808843764095
 20
-68.61993280171768
 30
0.0
  0
SPLINE
  5
118
330
70
100
AcDbEntity
  8
Modo de isolamento
 62
    98
370
    18
100
AcDbSpline
210
0.0
220
0.0
230
1.0
 70
    24
 71
     3
 72
     8
 73
     4
 74
     0
 42
0.0000000001
 43
0.0000000001
 40
0.0
 40
0.0
 40
0.0
 40
0.0
 40
1.0
 40
1.0
 40
1.0
 40
1.0
 10
180.6300907498489
 20
-70.64806051388426
 30
0.0
 10
180.6300907498489
 20
-70.64806051388426
 30
0.0
 10
180.6300907498489
 20
-68.23399597998257
 30
0.0
 10
180.6300907498489
 20
-68.23399597998257
 30
0.0
  0
SPLINE
  5
119
330
70
100
AcDbEntity
  8
Modo de isolamento
 62
    98
370
    18
100
AcDbSpline
210
0.0
220
0.0
230
1.0
 70
    24
 71
     3
 72
     8
 73
     4
 74
     0
 42
0.0000000001
 43
0.0000000001
 40
0.0
 40
0.0
 40
0.0
 40
0.0
 40
1.0
 40
1.0
 40
1.0
 40
1.0
 10
180.5792863573648
 20
-70.64806051388426
 30
0.0
 10
180.5792863573648
 20
-70.64806051388426
 30
0.0
 10
180.5792863573648
 20
-67.84805915824745
 30
0.0
 10
180.5792863573648
 20
-67.84805915824745
 30
0.0
  0
SPLINE
  5
11A
330
70
100
AcDbEntity
  8
Modo de isolamento
 62
    98
370
    18
100
AcDbSpline
210
0.0
220
0.0
230
1.0
 70
    24
 71
     3
 72
     8
 73
     4
 74
     0
 42
0.0000000001
 43
0.0000000001
 40
0.0
 40
0.0
 40
0.0
 40
0.0
 40
1.0
 40
1.0
 40
1.0
 40
1.0
 10
99.15200087161878
 20
-172.5920323137059
 30
0.0
 10
99.15200087161878
 20
-172.5920323137059
 30
0.0
 10
99.15200087161878
 20
-187.4215332972532
 30
0.0
 10
99.15200087161878
 20
-187.4215332972532
 30
0.0
  0
SPLINE
  5
11B
330
70
100
AcDbEntity
  8
Modo de isolamento
 62
    98
370
    18
100
AcDbSpline
210
0.0
220
0.0
230
1.0
 70
    24
 71
     3
 72
     8
 73
     4
 74
     0
 42
0.0000000001
 43
0.0000000001
 40
0.0
 40
0.0
 40
0.0
 40
0.0
 40
1.0
 40
1.0
 40
1.0
 40
1.0
 10
166.5239167568076
 20
-172.1097538328134
 30
0.0
 10
166.5239167568076
 20
-172.1097538328134
 30
0.0
 10
166.5239167568076
 20
-187.4215332972532
 30
0.0
 10
166.5239167568076
 20
-187.4215332972532
 30
0.0
  0
SPLINE
  5
11C
330
70
100
AcDbEntity
  8
Modo de isolamento
 62
    98
370
    18
100
AcDbSpline
210
0.0
220
0.0
230
1.0
 70
    24
 71
     3
 72
     8
 73
     4
 74
     0
 42
0.0000000001
 43
0.0000000001
 40
0.0
 40
0.0
 40
0.0
 40
0.0
 40
1.0
 40
1.0
 40
1.0
 40
1.0
 10
99.15200087161878
 20
-185.4215302142062
 30
0.0
 10
99.15200087161878
 20
-185.4215302142062
 30
0.0
 10
166.5239167568076
 20
-185.4215302142062
 30
0.0
 10
166.5239167568076
 20
-185.4215302142062
 30
0.0
  0
SPLINE
  5
11D
330
70
100
AcDbEntity
  8
Modo de isolamento
 62
    98
370
    18
100
AcDbSpline
210
0.0
220
0.0
230
1.0
 70
    24
 71
     3
 72
     8
 73
     4
 74
     0
 42
0.0000000001
 43
0.0000000001
 40
0.0
 40
0.0
 40
0.0
 40
0.0
 40
1.0
 40
1.0
 40
1.0
 40
1.0
 10
99.15200087161878
 20
-185.4215302142062
 30
0.0
 10
99.15200087161878
 20
-185.4215302142062
 30
0.0
 10
101.9519914613322
 20
-185.7901473566854
 30
0.0
 10
101.9519914613322
 20
-185.7901473566854
 30
0.0
  0
SPLINE
  5
11E
330
70
100
AcDbEntity
  8
Modo de isolamento
 62
    98
370
    18
100
AcDbSpline
210
0.0
220
0.0
230
1.0
 70
    24
 71
     3
 72
     8
 73
     4
 74
     0
 42
0.0000000001
 43
0.0000000001
 40
0.0
 40
0.0
 40
0.0
 40
0.0
 40
1.0
 40
1.0
 40
1.0
 40
1.0
 10
101.9519914613322
 20
-185.7901473566854
 30
0.0
 10
101.9519914613322
 20
-185.7901473566854
 30
0.0
 10
101.9519914613322
 20
-185.052913071727
 30
0.0
 10
101.9519914613322
 20
-185.052913071727
 30
0.0
  0
SPLINE
  5
11F
330
70
100
AcDbEntity
  8
Modo de isolamento
 62
    98
370
    18
100
AcDbSpline
210
0.0
220
0.0
230
1.0
 70
    24
 71
     3
 72
     8
 73
     4
 74
     0
 42
0.0000000001
 43
0.0000000001
 40
0.0
 40
0.0
 40
0.0
 40
0.0
 40
1.0
 40
1.0
 40
1.0
 40
1.0
 10
101.9519914613322
 20
-185.052913071727
 30
0.0
 10
101.9519914613322
 20
-185.052913071727
 30
0.0
 10
99.15200087161878
 20
-185.4215302142062
 30
0.0
 10
99.15200087161878
 20
-185.4215302142062
 30
0.0
  0
SPLINE
  5
120
330
70
100
AcDbEntity
  8
Modo de isolamento
 62
    98
370
    18
100
AcDbSpline
210
0.0
220
0.0
230
1.0
 70
    24
 71
     3
 72
     8
 73
     4
 74
     0
 42
0.0000000001
 43
0.0000000001
 40
0.0
 40
0.0
 40
0.0
 40
0.0
 40
1.0
 40
1.0
 40
1.0
 40
1.0
 10
101.9519914613322
 20
-185.7771313553052
 30
0.0
 10
101.9519914613322
 20
-185.7771313553052
 30
0.0
 10
101.853214114216
 20
-185.7771313553052
 30
0.0
 10
101.853214114216
 20
-185.7771313553052
 30
0.0
  0
SPLINE
  5
121
330
70
100
AcDbEntity
  8
Modo de isolamento
 62
    98
370
    18
100
AcDbSpline
210
0.0
220
0.0
230
1.0
 70
    24
 71
     3
 72
     8
 73
     4
 74
     0
 42
0.0000000001
 43
0.0000000001
 40
0.0
 40
0.0
 40
0.0
 40
0.0
 40
1.0
 40
1.0
 40
1.0
 40
1.0
 10
101.9519914613322
 20
-185.7771313553052
 30
0.0
 10
101.9519914613322
 20
-185.7771313553052
 30
0.0
 10
101.853214114216
 20
-185.7771313553052
 30
0.0
 10
101.853214114216
 20
-185.7771313553052
 30
0.0
  0
SPLINE
  5
122
330
70
100
AcDbEntity
  8
Modo de isolamento
 62
    98
370
    18
100
AcDbSpline
210
0.0
220
0.0
230
1.0
 70
    24
 71
     3
 72
     8
 73
     4
 74
     0
 42
0.0000000001
 43
0.0000000001
 40
0.0
 40
0.0
 40
0.0
 40
0.0
 40
1.0
 40
1.0
 40
1.0
 40
1.0
 10
101.9519914613322
 20
-185.726329654302
 30
0.0
 10
101.9519914613322
 20
-185.726329654302
 30
0.0
 10
101.4672772924809
 20
-185.726329654302
 30
0.0
 10
101.4672772924809
 20
-185.726329654302
 30
0.0
  0
SPLINE
  5
123
330
70
100
AcDbEntity
  8
Modo de isolamento
 62
    98
370
    18
100
AcDbSpline
210
0.0
220
0.0
230
1.0
 70
    24
 71
     3
 72
     8
 73
     4
 74
     0
 42
0.0000000001
 43
0.0000000001
 40
0.0
 40
0.0
 40
0.0
 40
0.0
 40
1.0
 40
1.0
 40
1.0
 40
1.0
 10
101.9519914613322
 20
-185.6755306447796
 30
0.0
 10
101.9519914613322
 20
-185.6755306447796
 30
0.0
 10
101.0813404707458
 20
-185.6755306447796
 30
0.0
 10
101.0813404707458
 20
-185.6755306447796
 30
0.0
  0
SPLINE
  5
124
330
70
100
AcDbEntity
  8
Modo de isolamento
 62
    98
370
    18
100
AcDbSpline
210
0.0
220
0.0
230
1.0
 70
    24
 71
     3
 72
     8
 73
     4
 74
     0
 42
0.0000000001
 43
0.0000000001
 40
0.0
 40
0.0
 40
0.0
 40
0.0
 40
1.0
 40
1.0
 40
1.0
 40
1.0
 10
101.9519914613322
 20
-185.6247289437765
 30
0.0
 10
101.9519914613322
 20
-185.6247289437765
 30
0.0
 10
100.6954036490107
 20
-185.6247289437765
 30
0.0
 10
100.6954036490107
 20
-185.6247289437765
 30
0.0
  0
SPLINE
  5
125
330
70
100
AcDbEntity
  8
Modo de isolamento
 62
    98
370
    18
100
AcDbSpline
210
0.0
220
0.0
230
1.0
 70
    24
 71
     3
 72
     8
 73
     4
 74
     0
 42
0.0000000001
 43
0.0000000001
 40
0.0
 40
0.0
 40
0.0
 40
0.0
 40
1.0
 40
1.0
 40
1.0
 40
1.0
 10
101.9519914613322
 20
-185.5739299342541
 30
0.0
 10
101.9519914613322
 20
-185.5739299342541
 30
0.0
 10
100.3094668272756
 20
-185.5739299342541
 30
0.0
 10
100.3094668272756
 20
-185.5739299342541
 30
0.0
  0
SPLINE
  5
126
330
70
100
AcDbEntity
  8
Modo de isolamento
 62
    98
370
    18
100
AcDbSpline
210
0.0
220
0.0
230
1.0
 70
    24
 71
     3
 72
     8
 73
     4
 74
     0
 42
0.0000000001
 43
0.0000000001
 40
0.0
 40
0.0
 40
0.0
 40
0.0
 40
1.0
 40
1.0
 40
1.0
 40
1.0
 10
101.9519914613322
 20
-185.5231309247318
 30
0.0
 10
101.9519914613322
 20
-185.5231309247318
 30
0.0
 10
99.92387451508902
 20
-185.5231309247318
 30
0.0
 10
99.92387451508902
 20
-185.5231309247318
 30
0.0
  0
SPLINE
  5
127
330
70
100
AcDbEntity
  8
Modo de isolamento
 62
    98
370
    18
100
AcDbSpline
210
0.0
220
0.0
230
1.0
 70
    24
 71
     3
 72
     8
 73
     4
 74
     0
 42
0.0000000001
 43
0.0000000001
 40
0.0
 40
0.0
 40
0.0
 40
0.0
 40
1.0
 40
1.0
 40
1.0
 40
1.0
 10
101.9519914613322
 20
-185.4723292237286
 30
0.0
 10
101.9519914613322
 20
-185.4723292237286
 30
0.0
 10
99.53793769335391
 20
-185.4723292237286
 30
0.0
 10
99.53793769335391
 20
-185.4723292237286
 30
0.0
  0
SPLINE
  5
128
330
70
100
AcDbEntity
  8
Modo de isolamento
 62
    98
370
    18
100
AcDbSpline
210
0.0
220
0.0
230
1.0
 70
    24
 71
     3
 72
     8
 73
     4
 74
     0
 42
0.0000000001
 43
0.0000000001
 40
0.0
 40
0.0
 40
0.0
 40
0.0
 40
1.0
 40
1.0
 40
1.0
 40
1.0
 10
101.9519914613322
 20
-185.0659290731073
 30
0.0
 10
101.9519914613322
 20
-185.0659290731073
 30
0.0
 10
101.853214114216
 20
-185.0659290731073
 30
0.0
 10
101.853214114216
 20
-185.0659290731073
 30
0.0
  0
SPLINE
  5
129
330
70
100
AcDbEntity
  8
Modo de isolamento
 62
    98
370
    18
100
AcDbSpline
210
0.0
220
0.0
230
1.0
 70
    24
 71
     3
 72
     8
 73
     4
 74
     0
 42
0.0000000001
 43
0.0000000001
 40
0.0
 40
0.0
 40
0.0
 40
0.0
 40
1.0
 40
1.0
 40
1.0
 40
1.0
 10
101.9519914613322
 20
-185.0659290731073
 30
0.0
 10
101.9519914613322
 20
-185.0659290731073
 30
0.0
 10
101.853214114216
 20
-185.0659290731073
 30
0.0
 10
101.853214114216
 20
-185.0659290731073
 30
0.0
  0
SPLINE
  5
12A
330
70
100
AcDbEntity
  8
Modo de isolamento
 62
    98
370
    18
100
AcDbSpline
210
0.0
220
0.0
230
1.0
 70
    24
 71
     3
 72
     8
 73
     4
 74
     0
 42
0.0000000001
 43
0.0000000001
 40
0.0
 40
0.0
 40
0.0
 40
0.0
 40
1.0
 40
1.0
 40
1.0
 40
1.0
 10
101.9519914613322
 20
-185.1167307741104
 30
0.0
 10
101.9519914613322
 20
-185.1167307741104
 30
0.0
 10
101.4672772924809
 20
-185.1167307741104
 30
0.0
 10
101.4672772924809
 20
-185.1167307741104
 30
0.0
  0
SPLINE
  5
12B
330
70
100
AcDbEntity
  8
Modo de isolamento
 62
    98
370
    18
100
AcDbSpline
210
0.0
220
0.0
230
1.0
 70
    24
 71
     3
 72
     8
 73
     4
 74
     0
 42
0.0000000001
 43
0.0000000001
 40
0.0
 40
0.0
 40
0.0
 40
0.0
 40
1.0
 40
1.0
 40
1.0
 40
1.0
 10
101.9519914613322
 20
-185.1675297836328
 30
0.0
 10
101.9519914613322
 20
-185.1675297836328
 30
0.0
 10
101.0813404707458
 20
-185.1675297836328
 30
0.0
 10
101.0813404707458
 20
-185.1675297836328
 30
0.0
  0
SPLINE
  5
12C
330
70
100
AcDbEntity
  8
Modo de isolamento
 62
    98
370
    18
100
AcDbSpline
210
0.0
220
0.0
230
1.0
 70
    24
 71
     3
 72
     8
 73
     4
 74
     0
 42
0.0000000001
 43
0.0000000001
 40
0.0
 40
0.0
 40
0.0
 40
0.0
 40
1.0
 40
1.0
 40
1.0
 40
1.0
 10
101.9519914613322
 20
-185.218331484636
 30
0.0
 10
101.9519914613322
 20
-185.218331484636
 30
0.0
 10
100.6954036490107
 20
-185.218331484636
 30
0.0
 10
100.6954036490107
 20
-185.218331484636
 30
0.0
  0
SPLINE
  5
12D
330
70
100
AcDbEntity
  8
Modo de isolamento
 62
    98
370
    18
100
AcDbSpline
210
0.0
220
0.0
230
1.0
 70
    24
 71
     3
 72
     8
 73
     4
 74
     0
 42
0.0000000001
 43
0.0000000001
 40
0.0
 40
0.0
 40
0.0
 40
0.0
 40
1.0
 40
1.0
 40
1.0
 40
1.0
 10
101.9519914613322
 20
-185.2691304941583
 30
0.0
 10
101.9519914613322
 20
-185.2691304941583
 30
0.0
 10
100.3094668272756
 20
-185.2691304941583
 30
0.0
 10
100.3094668272756
 20
-185.2691304941583
 30
0.0
  0
SPLINE
  5
12E
330
70
100
AcDbEntity
  8
Modo de isolamento
 62
    98
370
    18
100
AcDbSpline
210
0.0
220
0.0
230
1.0
 70
    24
 71
     3
 72
     8
 73
     4
 74
     0
 42
0.0000000001
 43
0.0000000001
 40
0.0
 40
0.0
 40
0.0
 40
0.0
 40
1.0
 40
1.0
 40
1.0
 40
1.0
 10
101.9519914613322
 20
-185.3199295036807
 30
0.0
 10
101.9519914613322
 20
-185.3199295036807
 30
0.0
 10
99.92387451508902
 20
-185.3199295036807
 30
0.0
 10
99.92387451508902
 20
-185.3199295036807
 30
0.0
  0
SPLINE
  5
12F
330
70
100
AcDbEntity
  8
Modo de isolamento
 62
    98
370
    18
100
AcDbSpline
210
0.0
220
0.0
230
1.0
 70
    24
 71
     3
 72
     8
 73
     4
 74
     0
 42
0.0000000001
 43
0.0000000001
 40
0.0
 40
0.0
 40
0.0
 40
0.0
 40
1.0
 40
1.0
 40
1.0
 40
1.0
 10
101.9519914613322
 20
-185.3707312046839
 30
0.0
 10
101.9519914613322
 20
-185.3707312046839
 30
0.0
 10
99.53793769335391
 20
-185.3707312046839
 30
0.0
 10
99.53793769335391
 20
-185.3707312046839
 30
0.0
  0
SPLINE
  5
130
330
70
100
AcDbEntity
  8
Modo de isolamento
 62
    98
370
    18
100
AcDbSpline
210
0.0
220
0.0
230
1.0
 70
    24
 71
     3
 72
     8
 73
     4
 74
     0
 42
0.0000000001
 43
0.0000000001
 40
0.0
 40
0.0
 40
0.0
 40
0.0
 40
1.0
 40
1.0
 40
1.0
 40
1.0
 10
166.5239167568076
 20
-185.4215302142062
 30
0.0
 10
166.5239167568076
 20
-185.4215302142062
 30
0.0
 10
163.7239154011708
 20
-185.052913071727
 30
0.0
 10
163.7239154011708
 20
-185.052913071727
 30
0.0
  0
SPLINE
  5
131
330
70
100
AcDbEntity
  8
Modo de isolamento
 62
    98
370
    18
100
AcDbSpline
210
0.0
220
0.0
230
1.0
 70
    24
 71
     3
 72
     8
 73
     4
 74
     0
 42
0.0000000001
 43
0.0000000001
 40
0.0
 40
0.0
 40
0.0
 40
0.0
 40
1.0
 40
1.0
 40
1.0
 40
1.0
 10
163.7239154011708
 20
-185.052913071727
 30
0.0
 10
163.7239154011708
 20
-185.052913071727
 30
0.0
 10
163.7239154011708
 20
-185.7901473566854
 30
0.0
 10
163.7239154011708
 20
-185.7901473566854
 30
0.0
  0
SPLINE
  5
132
330
70
100
AcDbEntity
  8
Modo de isolamento
 62
    98
370
    18
100
AcDbSpline
210
0.0
220
0.0
230
1.0
 70
    24
 71
     3
 72
     8
 73
     4
 74
     0
 42
0.0000000001
 43
0.0000000001
 40
0.0
 40
0.0
 40
0.0
 40
0.0
 40
1.0
 40
1.0
 40
1.0
 40
1.0
 10
163.7239154011708
 20
-185.7901473566854
 30
0.0
 10
163.7239154011708
 20
-185.7901473566854
 30
0.0
 10
166.5239167568076
 20
-185.4215302142062
 30
0.0
 10
166.5239167568076
 20
-185.4215302142062
 30
0.0
  0
SPLINE
  5
133
330
70
100
AcDbEntity
  8
Modo de isolamento
 62
    98
370
    18
100
AcDbSpline
210
0.0
220
0.0
230
1.0
 70
    24
 71
     3
 72
     8
 73
     4
 74
     0
 42
0.0000000001
 43
0.0000000001
 40
0.0
 40
0.0
 40
0.0
 40
0.0
 40
1.0
 40
1.0
 40
1.0
 40
1.0
 10
163.7239154011708
 20
-185.0659290731073
 30
0.0
 10
163.7239154011708
 20
-185.0659290731073
 30
0.0
 10
163.8226927482869
 20
-185.0659290731073
 30
0.0
 10
163.8226927482869
 20
-185.0659290731073
 30
0.0
  0
SPLINE
  5
134
330
70
100
AcDbEntity
  8
Modo de isolamento
 62
    98
370
    18
100
AcDbSpline
210
0.0
220
0.0
230
1.0
 70
    24
 71
     3
 72
     8
 73
     4
 74
     0
 42
0.0000000001
 43
0.0000000001
 40
0.0
 40
0.0
 40
0.0
 40
0.0
 40
1.0
 40
1.0
 40
1.0
 40
1.0
 10
163.7239154011708
 20
-185.0659290731073
 30
0.0
 10
163.7239154011708
 20
-185.0659290731073
 30
0.0
 10
163.8226927482869
 20
-185.0659290731073
 30
0.0
 10
163.8226927482869
 20
-185.0659290731073
 30
0.0
  0
SPLINE
  5
135
330
70
100
AcDbEntity
  8
Modo de isolamento
 62
    98
370
    18
100
AcDbSpline
210
0.0
220
0.0
230
1.0
 70
    24
 71
     3
 72
     8
 73
     4
 74
     0
 42
0.0000000001
 43
0.0000000001
 40
0.0
 40
0.0
 40
0.0
 40
0.0
 40
1.0
 40
1.0
 40
1.0
 40
1.0
 10
163.7239154011708
 20
-185.1167307741104
 30
0.0
 10
163.7239154011708
 20
-185.1167307741104
 30
0.0
 10
164.208629570022
 20
-185.1167307741104
 30
0.0
 10
164.208629570022
 20
-185.1167307741104
 30
0.0
  0
SPLINE
  5
136
330
70
100
AcDbEntity
  8
Modo de isolamento
 62
    98
370
    18
100
AcDbSpline
210
0.0
220
0.0
230
1.0
 70
    24
 71
     3
 72
     8
 73
     4
 74
     0
 42
0.0000000001
 43
0.0000000001
 40
0.0
 40
0.0
 40
0.0
 40
0.0
 40
1.0
 40
1.0
 40
1.0
 40
1.0
 10
163.7239154011708
 20
-185.1675297836328
 30
0.0
 10
163.7239154011708
 20
-185.1675297836328
 30
0.0
 10
164.5945663917571
 20
-185.1675297836328
 30
0.0
 10
164.5945663917571
 20
-185.1675297836328
 30
0.0
  0
SPLINE
  5
137
330
70
100
AcDbEntity
  8
Modo de isolamento
 62
    98
370
    18
100
AcDbSpline
210
0.0
220
0.0
230
1.0
 70
    24
 71
     3
 72
     8
 73
     4
 74
     0
 42
0.0000000001
 43
0.0000000001
 40
0.0
 40
0.0
 40
0.0
 40
0.0
 40
1.0
 40
1.0
 40
1.0
 40
1.0
 10
163.7239154011708
 20
-185.218331484636
 30
0.0
 10
163.7239154011708
 20
-185.218331484636
 30
0.0
 10
164.9805139794157
 20
-185.218331484636
 30
0.0
 10
164.9805139794157
 20
-185.218331484636
 30
0.0
  0
SPLINE
  5
138
330
70
100
AcDbEntity
  8
Modo de isolamento
 62
    98
370
    18
100
AcDbSpline
210
0.0
220
0.0
230
1.0
 70
    24
 71
     3
 72
     8
 73
     4
 74
     0
 42
0.0000000001
 43
0.0000000001
 40
0.0
 40
0.0
 40
0.0
 40
0.0
 40
1.0
 40
1.0
 40
1.0
 40
1.0
 10
163.7239154011708
 20
-185.2691304941583
 30
0.0
 10
163.7239154011708
 20
-185.2691304941583
 30
0.0
 10
165.3664508011508
 20
-185.2691304941583
 30
0.0
 10
165.3664508011508
 20
-185.2691304941583
 30
0.0
  0
SPLINE
  5
139
330
70
100
AcDbEntity
  8
Modo de isolamento
 62
    98
370
    18
100
AcDbSpline
210
0.0
220
0.0
230
1.0
 70
    24
 71
     3
 72
     8
 73
     4
 74
     0
 42
0.0000000001
 43
0.0000000001
 40
0.0
 40
0.0
 40
0.0
 40
0.0
 40
1.0
 40
1.0
 40
1.0
 40
1.0
 10
163.7239154011708
 20
-185.3199295036807
 30
0.0
 10
163.7239154011708
 20
-185.3199295036807
 30
0.0
 10
165.7520323474139
 20
-185.3199295036807
 30
0.0
 10
165.7520323474139
 20
-185.3199295036807
 30
0.0
  0
SPLINE
  5
13A
330
70
100
AcDbEntity
  8
Modo de isolamento
 62
    98
370
    18
100
AcDbSpline
210
0.0
220
0.0
230
1.0
 70
    24
 71
     3
 72
     8
 73
     4
 74
     0
 42
0.0000000001
 43
0.0000000001
 40
0.0
 40
0.0
 40
0.0
 40
0.0
 40
1.0
 40
1.0
 40
1.0
 40
1.0
 10
163.7239154011708
 20
-185.3707312046839
 30
0.0
 10
163.7239154011708
 20
-185.3707312046839
 30
0.0
 10
166.1379691691491
 20
-185.3707312046839
 30
0.0
 10
166.1379691691491
 20
-185.3707312046839
 30
0.0
  0
SPLINE
  5
13B
330
70
100
AcDbEntity
  8
Modo de isolamento
 62
    98
370
    18
100
AcDbSpline
210
0.0
220
0.0
230
1.0
 70
    24
 71
     3
 72
     8
 73
     4
 74
     0
 42
0.0000000001
 43
0.0000000001
 40
0.0
 40
0.0
 40
0.0
 40
0.0
 40
1.0
 40
1.0
 40
1.0
 40
1.0
 10
163.7239154011708
 20
-185.7771313553052
 30
0.0
 10
163.7239154011708
 20
-185.7771313553052
 30
0.0
 10
163.8226927482869
 20
-185.7771313553052
 30
0.0
 10
163.8226927482869
 20
-185.7771313553052
 30
0.0
  0
SPLINE
  5
13C
330
70
100
AcDbEntity
  8
Modo de isolamento
 62
    98
370
    18
100
AcDbSpline
210
0.0
220
0.0
230
1.0
 70
    24
 71
     3
 72
     8
 73
     4
 74
     0
 42
0.0000000001
 43
0.0000000001
 40
0.0
 40
0.0
 40
0.0
 40
0.0
 40
1.0
 40
1.0
 40
1.0
 40
1.0
 10
163.7239154011708
 20
-185.7771313553052
 30
0.0
 10
163.7239154011708
 20
-185.7771313553052
 30
0.0
 10
163.8226927482869
 20
-185.7771313553052
 30
0.0
 10
163.8226927482869
 20
-185.7771313553052
 30
0.0
  0
SPLINE
  5
13D
330
70
100
AcDbEntity
  8
Modo de isolamento
 62
    98
370
    18
100
AcDbSpline
210
0.0
220
0.0
230
1.0
 70
    24
 71
     3
 72
     8
 73
     4
 74
     0
 42
0.0000000001
 43
0.0000000001
 40
0.0
 40
0.0
 40
0.0
 40
0.0
 40
1.0
 40
1.0
 40
1.0
 40
1.0
 10
163.7239154011708
 20
-185.726329654302
 30
0.0
 10
163.7239154011708
 20
-185.726329654302
 30
0.0
 10
164.208629570022
 20
-185.726329654302
 30
0.0
 10
164.208629570022
 20
-185.726329654302
 30
0.0
  0
SPLINE
  5
13E
330
70
100
AcDbEntity
  8
Modo de isolamento
 62
    98
370
    18
100
AcDbSpline
210
0.0
220
0.0
230
1.0
 70
    24
 71
     3
 72
     8
 73
     4
 74
     0
 42
0.0000000001
 43
0.0000000001
 40
0.0
 40
0.0
 40
0.0
 40
0.0
 40
1.0
 40
1.0
 40
1.0
 40
1.0
 10
163.7239154011708
 20
-185.6755306447796
 30
0.0
 10
163.7239154011708
 20
-185.6755306447796
 30
0.0
 10
164.5945663917571
 20
-185.6755306447796
 30
0.0
 10
164.5945663917571
 20
-185.6755306447796
 30
0.0
  0
SPLINE
  5
13F
330
70
100
AcDbEntity
  8
Modo de isolamento
 62
    98
370
    18
100
AcDbSpline
210
0.0
220
0.0
230
1.0
 70
    24
 71
     3
 72
     8
 73
     4
 74
     0
 42
0.0000000001
 43
0.0000000001
 40
0.0
 40
0.0
 40
0.0
 40
0.0
 40
1.0
 40
1.0
 40
1.0
 40
1.0
 10
163.7239154011708
 20
-185.6247289437765
 30
0.0
 10
163.7239154011708
 20
-185.6247289437765
 30
0.0
 10
164.9805139794157
 20
-185.6247289437765
 30
0.0
 10
164.9805139794157
 20
-185.6247289437765
 30
0.0
  0
SPLINE
  5
140
330
70
100
AcDbEntity
  8
Modo de isolamento
 62
    98
370
    18
100
AcDbSpline
210
0.0
220
0.0
230
1.0
 70
    24
 71
     3
 72
     8
 73
     4
 74
     0
 42
0.0000000001
 43
0.0000000001
 40
0.0
 40
0.0
 40
0.0
 40
0.0
 40
1.0
 40
1.0
 40
1.0
 40
1.0
 10
163.7239154011708
 20
-185.5739299342541
 30
0.0
 10
163.7239154011708
 20
-185.5739299342541
 30
0.0
 10
165.3664508011508
 20
-185.5739299342541
 30
0.0
 10
165.3664508011508
 20
-185.5739299342541
 30
0.0
  0
SPLINE
  5
141
330
70
100
AcDbEntity
  8
Modo de isolamento
 62
    98
370
    18
100
AcDbSpline
210
0.0
220
0.0
230
1.0
 70
    24
 71
     3
 72
     8
 73
     4
 74
     0
 42
0.0000000001
 43
0.0000000001
 40
0.0
 40
0.0
 40
0.0
 40
0.0
 40
1.0
 40
1.0
 40
1.0
 40
1.0
 10
163.7239154011708
 20
-185.5231309247318
 30
0.0
 10
163.7239154011708
 20
-185.5231309247318
 30
0.0
 10
165.7520323474139
 20
-185.5231309247318
 30
0.0
 10
165.7520323474139
 20
-185.5231309247318
 30
0.0
  0
SPLINE
  5
142
330
70
100
AcDbEntity
  8
Modo de isolamento
 62
    98
370
    18
100
AcDbSpline
210
0.0
220
0.0
230
1.0
 70
    24
 71
     3
 72
     8
 73
     4
 74
     0
 42
0.0000000001
 43
0.0000000001
 40
0.0
 40
0.0
 40
0.0
 40
0.0
 40
1.0
 40
1.0
 40
1.0
 40
1.0
 10
163.7239154011708
 20
-185.4723292237286
 30
0.0
 10
163.7239154011708
 20
-185.4723292237286
 30
0.0
 10
166.1379691691491
 20
-185.4723292237286
 30
0.0
 10
166.1379691691491
 20
-185.4723292237286
 30
0.0
  0
SPLINE
  5
143
330
70
100
AcDbEntity
  8
Modo de isolamento
 62
    98
370
    18
100
AcDbSpline
210
0.0
220
0.0
230
1.0
 70
    24
 71
     3
 72
     8
 73
     4
 74
     0
 42
0.0000000001
 43
0.0000000001
 40
0.0
 40
0.0
 40
0.0
 40
0.0
 40
1.0
 40
1.0
 40
1.0
 40
1.0
 10
3.086238324613469
 20
88.97106369740287
 30
0.0
 10
3.086238324613469
 20
88.97106369740287
 30
0.0
 10
83.84096087164252
 20
88.97106369740287
 30
0.0
 10
83.84096087164252
 20
88.97106369740287
 30
0.0
  0
SPLINE
  5
144
330
70
100
AcDbEntity
  8
Modo de isolamento
 62
    98
370
    18
100
AcDbSpline
210
0.0
220
0.0
230
1.0
 70
    24
 71
     3
 72
     8
 73
     4
 74
     0
 42
0.0000000001
 43
0.0000000001
 40
0.0
 40
0.0
 40
0.0
 40
0.0
 40
1.0
 40
1.0
 40
1.0
 40
1.0
 10
67.64562714672878
 20
-173.3488631420106
 30
0.0
 10
67.64562714672878
 20
-173.3488631420106
 30
0.0
 10
83.84096087164252
 20
-173.3488631420106
 30
0.0
 10
83.84096087164252
 20
-173.3488631420106
 30
0.0
  0
SPLINE
  5
145
330
70
100
AcDbEntity
  8
Modo de isolamento
 62
    98
370
    18
100
AcDbSpline
210
0.0
220
0.0
230
1.0
 70
    24
 71
     3
 72
     8
 73
     4
 74
     0
 42
0.0000000001
 43
0.0000000001
 40
0.0
 40
0.0
 40
0.0
 40
0.0
 40
1.0
 40
1.0
 40
1.0
 40
1.0
 10
81.84070613513631
 20
88.97106369740287
 30
0.0
 10
81.84070613513631
 20
88.97106369740287
 30
0.0
 10
81.84070613513631
 20
-173.3488631420106
 30
0.0
 10
81.84070613513631
 20
-173.3488631420106
 30
0.0
  0
SPLINE
  5
146
330
70
100
AcDbEntity
  8
Modo de isolamento
 62
    98
370
    18
100
AcDbSpline
210
0.0
220
0.0
230
1.0
 70
    24
 71
     3
 72
     8
 73
     4
 74
     0
 42
0.0000000001
 43
0.0000000001
 40
0.0
 40
0.0
 40
0.0
 40
0.0
 40
1.0
 40
1.0
 40
1.0
 40
1.0
 10
81.84070613513631
 20
88.97106369740287
 30
0.0
 10
81.84070613513631
 20
88.97106369740287
 30
0.0
 10
81.47205938636778
 20
86.17108387361254
 30
0.0
 10
81.47205938636778
 20
86.17108387361254
 30
0.0
  0
SPLINE
  5
147
330
70
100
AcDbEntity
  8
Modo de isolamento
 62
    98
370
    18
100
AcDbSpline
210
0.0
220
0.0
230
1.0
 70
    24
 71
     3
 72
     8
 73
     4
 74
     0
 42
0.0000000001
 43
0.0000000001
 40
0.0
 40
0.0
 40
0.0
 40
0.0
 40
1.0
 40
1.0
 40
1.0
 40
1.0
 10
81.47205938636778
 20
86.17108387361254
 30
0.0
 10
81.47205938636778
 20
86.17108387361254
 30
0.0
 10
82.2093636498282
 20
86.17108387361254
 30
0.0
 10
82.2093636498282
 20
86.17108387361254
 30
0.0
  0
SPLINE
  5
148
330
70
100
AcDbEntity
  8
Modo de isolamento
 62
    98
370
    18
100
AcDbSpline
210
0.0
220
0.0
230
1.0
 70
    24
 71
     3
 72
     8
 73
     4
 74
     0
 42
0.0000000001
 43
0.0000000001
 40
0.0
 40
0.0
 40
0.0
 40
0.0
 40
1.0
 40
1.0
 40
1.0
 40
1.0
 10
82.2093636498282
 20
86.17108387361254
 30
0.0
 10
82.2093636498282
 20
86.17108387361254
 30
0.0
 10
81.84070613513631
 20
88.97106369740287
 30
0.0
 10
81.84070613513631
 20
88.97106369740287
 30
0.0
  0
SPLINE
  5
149
330
70
100
AcDbEntity
  8
Modo de isolamento
 62
    98
370
    18
100
AcDbSpline
210
0.0
220
0.0
230
1.0
 70
    24
 71
     3
 72
     8
 73
     4
 74
     0
 42
0.0000000001
 43
0.0000000001
 40
0.0
 40
0.0
 40
0.0
 40
0.0
 40
1.0
 40
1.0
 40
1.0
 40
1.0
 10
81.48510768551817
 20
86.17108387361254
 30
0.0
 10
81.48510768551817
 20
86.17108387361254
 30
0.0
 10
81.48510768551817
 20
86.2698504548056
 30
0.0
 10
81.48510768551817
 20
86.2698504548056
 30
0.0
  0
SPLINE
  5
14A
330
70
100
AcDbEntity
  8
Modo de isolamento
 62
    98
370
    18
100
AcDbSpline
210
0.0
220
0.0
230
1.0
 70
    24
 71
     3
 72
     8
 73
     4
 74
     0
 42
0.0000000001
 43
0.0000000001
 40
0.0
 40
0.0
 40
0.0
 40
0.0
 40
1.0
 40
1.0
 40
1.0
 40
1.0
 10
81.48510768551817
 20
86.17108387361254
 30
0.0
 10
81.48510768551817
 20
86.17108387361254
 30
0.0
 10
81.48510768551817
 20
86.2698504548056
 30
0.0
 10
81.48510768551817
 20
86.2698504548056
 30
0.0
  0
SPLINE
  5
14B
330
70
100
AcDbEntity
  8
Modo de isolamento
 62
    98
370
    18
100
AcDbSpline
210
0.0
220
0.0
230
1.0
 70
    24
 71
     3
 72
     8
 73
     4
 74
     0
 42
0.0000000001
 43
0.0000000001
 40
0.0
 40
0.0
 40
0.0
 40
0.0
 40
1.0
 40
1.0
 40
1.0
 40
1.0
 10
81.53591207800253
 20
86.17108387361254
 30
0.0
 10
81.53591207800253
 20
86.17108387361254
 30
0.0
 10
81.53591207800253
 20
86.65578727654072
 30
0.0
 10
81.53591207800253
 20
86.65578727654072
 30
0.0
  0
SPLINE
  5
14C
330
70
100
AcDbEntity
  8
Modo de isolamento
 62
    98
370
    18
100
AcDbSpline
210
0.0
220
0.0
230
1.0
 70
    24
 71
     3
 72
     8
 73
     4
 74
     0
 42
0.0000000001
 43
0.0000000001
 40
0.0
 40
0.0
 40
0.0
 40
0.0
 40
1.0
 40
1.0
 40
1.0
 40
1.0
 10
81.58670570456285
 20
86.17108387361254
 30
0.0
 10
81.58670570456285
 20
86.17108387361254
 30
0.0
 10
81.58670570456285
 20
87.04172409827583
 30
0.0
 10
81.58670570456285
 20
87.04172409827583
 30
0.0
  0
SPLINE
  5
14D
330
70
100
AcDbEntity
  8
Modo de isolamento
 62
    98
370
    18
100
AcDbSpline
210
0.0
220
0.0
230
1.0
 70
    24
 71
     3
 72
     8
 73
     4
 74
     0
 42
0.0000000001
 43
0.0000000001
 40
0.0
 40
0.0
 40
0.0
 40
0.0
 40
1.0
 40
1.0
 40
1.0
 40
1.0
 10
81.63751009704691
 20
86.17108387361254
 30
0.0
 10
81.63751009704691
 20
86.17108387361254
 30
0.0
 10
81.63751009704691
 20
87.42766092001096
 30
0.0
 10
81.63751009704691
 20
87.42766092001096
 30
0.0
  0
SPLINE
  5
14E
330
70
100
AcDbEntity
  8
Modo de isolamento
 62
    98
370
    18
100
AcDbSpline
210
0.0
220
0.0
230
1.0
 70
    24
 71
     3
 72
     8
 73
     4
 74
     0
 42
0.0000000001
 43
0.0000000001
 40
0.0
 40
0.0
 40
0.0
 40
0.0
 40
1.0
 40
1.0
 40
1.0
 40
1.0
 10
81.68830372360757
 20
86.17108387361254
 30
0.0
 10
81.68830372360757
 20
86.17108387361254
 30
0.0
 10
81.68830372360757
 20
87.81361927359252
 30
0.0
 10
81.68830372360757
 20
87.81361927359252
 30
0.0
  0
SPLINE
  5
14F
330
70
100
AcDbEntity
  8
Modo de isolamento
 62
    98
370
    18
100
AcDbSpline
210
0.0
220
0.0
230
1.0
 70
    24
 71
     3
 72
     8
 73
     4
 74
     0
 42
0.0000000001
 43
0.0000000001
 40
0.0
 40
0.0
 40
0.0
 40
0.0
 40
1.0
 40
1.0
 40
1.0
 40
1.0
 10
81.73910811609159
 20
86.17108387361254
 30
0.0
 10
81.73910811609159
 20
86.17108387361254
 30
0.0
 10
81.73910811609159
 20
88.19919005393265
 30
0.0
 10
81.73910811609159
 20
88.19919005393265
 30
0.0
  0
SPLINE
  5
150
330
70
100
AcDbEntity
  8
Modo de isolamento
 62
    98
370
    18
100
AcDbSpline
210
0.0
220
0.0
230
1.0
 70
    24
 71
     3
 72
     8
 73
     4
 74
     0
 42
0.0000000001
 43
0.0000000001
 40
0.0
 40
0.0
 40
0.0
 40
0.0
 40
1.0
 40
1.0
 40
1.0
 40
1.0
 10
81.78991250857565
 20
86.17108387361254
 30
0.0
 10
81.78991250857565
 20
86.17108387361254
 30
0.0
 10
81.78991250857565
 20
88.58512687566777
 30
0.0
 10
81.78991250857565
 20
88.58512687566777
 30
0.0
  0
SPLINE
  5
151
330
70
100
AcDbEntity
  8
Modo de isolamento
 62
    98
370
    18
100
AcDbSpline
210
0.0
220
0.0
230
1.0
 70
    24
 71
     3
 72
     8
 73
     4
 74
     0
 42
0.0000000001
 43
0.0000000001
 40
0.0
 40
0.0
 40
0.0
 40
0.0
 40
1.0
 40
1.0
 40
1.0
 40
1.0
 10
81.84070613513631
 20
86.17108387361254
 30
0.0
 10
81.84070613513631
 20
86.17108387361254
 30
0.0
 10
81.84070613513631
 20
88.97106369740287
 30
0.0
 10
81.84070613513631
 20
88.97106369740287
 30
0.0
  0
SPLINE
  5
152
330
70
100
AcDbEntity
  8
Modo de isolamento
 62
    98
370
    18
100
AcDbSpline
210
0.0
220
0.0
230
1.0
 70
    24
 71
     3
 72
     8
 73
     4
 74
     0
 42
0.0000000001
 43
0.0000000001
 40
0.0
 40
0.0
 40
0.0
 40
0.0
 40
1.0
 40
1.0
 40
1.0
 40
1.0
 10
82.19630458475442
 20
86.17108387361254
 30
0.0
 10
82.19630458475442
 20
86.17108387361254
 30
0.0
 10
82.19630458475442
 20
86.2698504548056
 30
0.0
 10
82.19630458475442
 20
86.2698504548056
 30
0.0
  0
SPLINE
  5
153
330
70
100
AcDbEntity
  8
Modo de isolamento
 62
    98
370
    18
100
AcDbSpline
210
0.0
220
0.0
230
1.0
 70
    24
 71
     3
 72
     8
 73
     4
 74
     0
 42
0.0000000001
 43
0.0000000001
 40
0.0
 40
0.0
 40
0.0
 40
0.0
 40
1.0
 40
1.0
 40
1.0
 40
1.0
 10
82.19630458475442
 20
86.17108387361254
 30
0.0
 10
82.19630458475442
 20
86.17108387361254
 30
0.0
 10
82.19630458475442
 20
86.2698504548056
 30
0.0
 10
82.19630458475442
 20
86.2698504548056
 30
0.0
  0
SPLINE
  5
154
330
70
100
AcDbEntity
  8
Modo de isolamento
 62
    98
370
    18
100
AcDbSpline
210
0.0
220
0.0
230
1.0
 70
    24
 71
     3
 72
     8
 73
     4
 74
     0
 42
0.0000000001
 43
0.0000000001
 40
0.0
 40
0.0
 40
0.0
 40
0.0
 40
1.0
 40
1.0
 40
1.0
 40
1.0
 10
82.14551095819379
 20
86.17108387361254
 30
0.0
 10
82.14551095819379
 20
86.17108387361254
 30
0.0
 10
82.14551095819379
 20
86.65578727654072
 30
0.0
 10
82.14551095819379
 20
86.65578727654072
 30
0.0
  0
SPLINE
  5
155
330
70
100
AcDbEntity
  8
Modo de isolamento
 62
    98
370
    18
100
AcDbSpline
210
0.0
220
0.0
230
1.0
 70
    24
 71
     3
 72
     8
 73
     4
 74
     0
 42
0.0000000001
 43
0.0000000001
 40
0.0
 40
0.0
 40
0.0
 40
0.0
 40
1.0
 40
1.0
 40
1.0
 40
1.0
 10
82.09470656571005
 20
86.17108387361254
 30
0.0
 10
82.09470656571005
 20
86.17108387361254
 30
0.0
 10
82.09470656571005
 20
87.04172409827583
 30
0.0
 10
82.09470656571005
 20
87.04172409827583
 30
0.0
  0
SPLINE
  5
156
330
70
100
AcDbEntity
  8
Modo de isolamento
 62
    98
370
    18
100
AcDbSpline
210
0.0
220
0.0
230
1.0
 70
    24
 71
     3
 72
     8
 73
     4
 74
     0
 42
0.0000000001
 43
0.0000000001
 40
0.0
 40
0.0
 40
0.0
 40
0.0
 40
1.0
 40
1.0
 40
1.0
 40
1.0
 10
82.04391293914907
 20
86.17108387361254
 30
0.0
 10
82.04391293914907
 20
86.17108387361254
 30
0.0
 10
82.04391293914907
 20
87.42766092001096
 30
0.0
 10
82.04391293914907
 20
87.42766092001096
 30
0.0
  0
SPLINE
  5
157
330
70
100
AcDbEntity
  8
Modo de isolamento
 62
    98
370
    18
100
AcDbSpline
210
0.0
220
0.0
230
1.0
 70
    24
 71
     3
 72
     8
 73
     4
 74
     0
 42
0.0000000001
 43
0.0000000001
 40
0.0
 40
0.0
 40
0.0
 40
0.0
 40
1.0
 40
1.0
 40
1.0
 40
1.0
 10
81.99310854666505
 20
86.17108387361254
 30
0.0
 10
81.99310854666505
 20
86.17108387361254
 30
0.0
 10
81.99310854666505
 20
87.81361927359252
 30
0.0
 10
81.99310854666505
 20
87.81361927359252
 30
0.0
  0
SPLINE
  5
158
330
70
100
AcDbEntity
  8
Modo de isolamento
 62
    98
370
    18
100
AcDbSpline
210
0.0
220
0.0
230
1.0
 70
    24
 71
     3
 72
     8
 73
     4
 74
     0
 42
0.0000000001
 43
0.0000000001
 40
0.0
 40
0.0
 40
0.0
 40
0.0
 40
1.0
 40
1.0
 40
1.0
 40
1.0
 10
81.942304154181
 20
86.17108387361254
 30
0.0
 10
81.942304154181
 20
86.17108387361254
 30
0.0
 10
81.942304154181
 20
88.19919005393265
 30
0.0
 10
81.942304154181
 20
88.19919005393265
 30
0.0
  0
SPLINE
  5
159
330
70
100
AcDbEntity
  8
Modo de isolamento
 62
    98
370
    18
100
AcDbSpline
210
0.0
220
0.0
230
1.0
 70
    24
 71
     3
 72
     8
 73
     4
 74
     0
 42
0.0000000001
 43
0.0000000001
 40
0.0
 40
0.0
 40
0.0
 40
0.0
 40
1.0
 40
1.0
 40
1.0
 40
1.0
 10
81.89151052762033
 20
86.17108387361254
 30
0.0
 10
81.89151052762033
 20
86.17108387361254
 30
0.0
 10
81.89151052762033
 20
88.58512687566777
 30
0.0
 10
81.89151052762033
 20
88.58512687566777
 30
0.0
  0
SPLINE
  5
15A
330
70
100
AcDbEntity
  8
Modo de isolamento
 62
    98
370
    18
100
AcDbSpline
210
0.0
220
0.0
230
1.0
 70
    24
 71
     3
 72
     8
 73
     4
 74
     0
 42
0.0000000001
 43
0.0000000001
 40
0.0
 40
0.0
 40
0.0
 40
0.0
 40
1.0
 40
1.0
 40
1.0
 40
1.0
 10
81.84070613513631
 20
86.17108387361254
 30
0.0
 10
81.84070613513631
 20
86.17108387361254
 30
0.0
 10
81.84070613513631
 20
88.97106369740287
 30
0.0
 10
81.84070613513631
 20
88.97106369740287
 30
0.0
  0
SPLINE
  5
15B
330
70
100
AcDbEntity
  8
Modo de isolamento
 62
    98
370
    18
100
AcDbSpline
210
0.0
220
0.0
230
1.0
 70
    24
 71
     3
 72
     8
 73
     4
 74
     0
 42
0.0000000001
 43
0.0000000001
 40
0.0
 40
0.0
 40
0.0
 40
0.0
 40
1.0
 40
1.0
 40
1.0
 40
1.0
 10
81.84070613513631
 20
-173.3488631420106
 30
0.0
 10
81.84070613513631
 20
-173.3488631420106
 30
0.0
 10
82.2093636498282
 20
-170.5488725522972
 30
0.0
 10
82.2093636498282
 20
-170.5488725522972
 30
0.0
  0
SPLINE
  5
15C
330
70
100
AcDbEntity
  8
Modo de isolamento
 62
    98
370
    18
100
AcDbSpline
210
0.0
220
0.0
230
1.0
 70
    24
 71
     3
 72
     8
 73
     4
 74
     0
 42
0.0000000001
 43
0.0000000001
 40
0.0
 40
0.0
 40
0.0
 40
0.0
 40
1.0
 40
1.0
 40
1.0
 40
1.0
 10
82.2093636498282
 20
-170.5488725522972
 30
0.0
 10
82.2093636498282
 20
-170.5488725522972
 30
0.0
 10
81.47205938636778
 20
-170.5488725522972
 30
0.0
 10
81.47205938636778
 20
-170.5488725522972
 30
0.0
  0
SPLINE
  5
15D
330
70
100
AcDbEntity
  8
Modo de isolamento
 62
    98
370
    18
100
AcDbSpline
210
0.0
220
0.0
230
1.0
 70
    24
 71
     3
 72
     8
 73
     4
 74
     0
 42
0.0000000001
 43
0.0000000001
 40
0.0
 40
0.0
 40
0.0
 40
0.0
 40
1.0
 40
1.0
 40
1.0
 40
1.0
 10
81.47205938636778
 20
-170.5488725522972
 30
0.0
 10
81.47205938636778
 20
-170.5488725522972
 30
0.0
 10
81.84070613513631
 20
-173.3488631420106
 30
0.0
 10
81.84070613513631
 20
-173.3488631420106
 30
0.0
  0
SPLINE
  5
15E
330
70
100
AcDbEntity
  8
Modo de isolamento
 62
    98
370
    18
100
AcDbSpline
210
0.0
220
0.0
230
1.0
 70
    24
 71
     3
 72
     8
 73
     4
 74
     0
 42
0.0000000001
 43
0.0000000001
 40
0.0
 40
0.0
 40
0.0
 40
0.0
 40
1.0
 40
1.0
 40
1.0
 40
1.0
 10
82.19630458475442
 20
-170.5488725522972
 30
0.0
 10
82.19630458475442
 20
-170.5488725522972
 30
0.0
 10
82.19630458475442
 20
-170.6480051748853
 30
0.0
 10
82.19630458475442
 20
-170.6480051748853
 30
0.0
  0
SPLINE
  5
15F
330
70
100
AcDbEntity
  8
Modo de isolamento
 62
    98
370
    18
100
AcDbSpline
210
0.0
220
0.0
230
1.0
 70
    24
 71
     3
 72
     8
 73
     4
 74
     0
 42
0.0000000001
 43
0.0000000001
 40
0.0
 40
0.0
 40
0.0
 40
0.0
 40
1.0
 40
1.0
 40
1.0
 40
1.0
 10
82.19630458475442
 20
-170.5488725522972
 30
0.0
 10
82.19630458475442
 20
-170.5488725522972
 30
0.0
 10
82.19630458475442
 20
-170.6480051748853
 30
0.0
 10
82.19630458475442
 20
-170.6480051748853
 30
0.0
  0
SPLINE
  5
160
330
70
100
AcDbEntity
  8
Modo de isolamento
 62
    98
370
    18
100
AcDbSpline
210
0.0
220
0.0
230
1.0
 70
    24
 71
     3
 72
     8
 73
     4
 74
     0
 42
0.0000000001
 43
0.0000000001
 40
0.0
 40
0.0
 40
0.0
 40
0.0
 40
1.0
 40
1.0
 40
1.0
 40
1.0
 10
82.14551095819379
 20
-170.5488725522972
 30
0.0
 10
82.14551095819379
 20
-170.5488725522972
 30
0.0
 10
82.14551095819379
 20
-171.0339419966204
 30
0.0
 10
82.14551095819379
 20
-171.0339419966204
 30
0.0
  0
SPLINE
  5
161
330
70
100
AcDbEntity
  8
Modo de isolamento
 62
    98
370
    18
100
AcDbSpline
210
0.0
220
0.0
230
1.0
 70
    24
 71
     3
 72
     8
 73
     4
 74
     0
 42
0.0000000001
 43
0.0000000001
 40
0.0
 40
0.0
 40
0.0
 40
0.0
 40
1.0
 40
1.0
 40
1.0
 40
1.0
 10
82.09470656571005
 20
-170.5488725522972
 30
0.0
 10
82.09470656571005
 20
-170.5488725522972
 30
0.0
 10
82.09470656571005
 20
-171.4195235428836
 30
0.0
 10
82.09470656571005
 20
-171.4195235428836
 30
0.0
  0
SPLINE
  5
162
330
70
100
AcDbEntity
  8
Modo de isolamento
 62
    98
370
    18
100
AcDbSpline
210
0.0
220
0.0
230
1.0
 70
    24
 71
     3
 72
     8
 73
     4
 74
     0
 42
0.0000000001
 43
0.0000000001
 40
0.0
 40
0.0
 40
0.0
 40
0.0
 40
1.0
 40
1.0
 40
1.0
 40
1.0
 10
82.04391293914907
 20
-170.5488725522972
 30
0.0
 10
82.04391293914907
 20
-170.5488725522972
 30
0.0
 10
82.04391293914907
 20
-171.8054603646187
 30
0.0
 10
82.04391293914907
 20
-171.8054603646187
 30
0.0
  0
SPLINE
  5
163
330
70
100
AcDbEntity
  8
Modo de isolamento
 62
    98
370
    18
100
AcDbSpline
210
0.0
220
0.0
230
1.0
 70
    24
 71
     3
 72
     8
 73
     4
 74
     0
 42
0.0000000001
 43
0.0000000001
 40
0.0
 40
0.0
 40
0.0
 40
0.0
 40
1.0
 40
1.0
 40
1.0
 40
1.0
 10
81.99310854666505
 20
-170.5488725522972
 30
0.0
 10
81.99310854666505
 20
-170.5488725522972
 30
0.0
 10
81.99310854666505
 20
-172.1914079522772
 30
0.0
 10
81.99310854666505
 20
-172.1914079522772
 30
0.0
  0
SPLINE
  5
164
330
70
100
AcDbEntity
  8
Modo de isolamento
 62
    98
370
    18
100
AcDbSpline
210
0.0
220
0.0
230
1.0
 70
    24
 71
     3
 72
     8
 73
     4
 74
     0
 42
0.0000000001
 43
0.0000000001
 40
0.0
 40
0.0
 40
0.0
 40
0.0
 40
1.0
 40
1.0
 40
1.0
 40
1.0
 10
81.942304154181
 20
-170.5488725522972
 30
0.0
 10
81.942304154181
 20
-170.5488725522972
 30
0.0
 10
81.942304154181
 20
-172.5773447740123
 30
0.0
 10
81.942304154181
 20
-172.5773447740123
 30
0.0
  0
SPLINE
  5
165
330
70
100
AcDbEntity
  8
Modo de isolamento
 62
    98
370
    18
100
AcDbSpline
210
0.0
220
0.0
230
1.0
 70
    24
 71
     3
 72
     8
 73
     4
 74
     0
 42
0.0000000001
 43
0.0000000001
 40
0.0
 40
0.0
 40
0.0
 40
0.0
 40
1.0
 40
1.0
 40
1.0
 40
1.0
 10
81.89151052762033
 20
-170.5488725522972
 30
0.0
 10
81.89151052762033
 20
-170.5488725522972
 30
0.0
 10
81.89151052762033
 20
-172.9632815957474
 30
0.0
 10
81.89151052762033
 20
-172.9632815957474
 30
0.0
  0
SPLINE
  5
166
330
70
100
AcDbEntity
  8
Modo de isolamento
 62
    98
370
    18
100
AcDbSpline
210
0.0
220
0.0
230
1.0
 70
    24
 71
     3
 72
     8
 73
     4
 74
     0
 42
0.0000000001
 43
0.0000000001
 40
0.0
 40
0.0
 40
0.0
 40
0.0
 40
1.0
 40
1.0
 40
1.0
 40
1.0
 10
81.84070613513631
 20
-170.5488725522972
 30
0.0
 10
81.84070613513631
 20
-170.5488725522972
 30
0.0
 10
81.84070613513631
 20
-173.3488631420106
 30
0.0
 10
81.84070613513631
 20
-173.3488631420106
 30
0.0
  0
SPLINE
  5
167
330
70
100
AcDbEntity
  8
Modo de isolamento
 62
    98
370
    18
100
AcDbSpline
210
0.0
220
0.0
230
1.0
 70
    24
 71
     3
 72
     8
 73
     4
 74
     0
 42
0.0000000001
 43
0.0000000001
 40
0.0
 40
0.0
 40
0.0
 40
0.0
 40
1.0
 40
1.0
 40
1.0
 40
1.0
 10
81.48510768551817
 20
-170.5488725522972
 30
0.0
 10
81.48510768551817
 20
-170.5488725522972
 30
0.0
 10
81.48510768551817
 20
-170.6480051748853
 30
0.0
 10
81.48510768551817
 20
-170.6480051748853
 30
0.0
  0
SPLINE
  5
168
330
70
100
AcDbEntity
  8
Modo de isolamento
 62
    98
370
    18
100
AcDbSpline
210
0.0
220
0.0
230
1.0
 70
    24
 71
     3
 72
     8
 73
     4
 74
     0
 42
0.0000000001
 43
0.0000000001
 40
0.0
 40
0.0
 40
0.0
 40
0.0
 40
1.0
 40
1.0
 40
1.0
 40
1.0
 10
81.48510768551817
 20
-170.5488725522972
 30
0.0
 10
81.48510768551817
 20
-170.5488725522972
 30
0.0
 10
81.48510768551817
 20
-170.6480051748853
 30
0.0
 10
81.48510768551817
 20
-170.6480051748853
 30
0.0
  0
SPLINE
  5
169
330
70
100
AcDbEntity
  8
Modo de isolamento
 62
    98
370
    18
100
AcDbSpline
210
0.0
220
0.0
230
1.0
 70
    24
 71
     3
 72
     8
 73
     4
 74
     0
 42
0.0000000001
 43
0.0000000001
 40
0.0
 40
0.0
 40
0.0
 40
0.0
 40
1.0
 40
1.0
 40
1.0
 40
1.0
 10
81.53591207800253
 20
-170.5488725522972
 30
0.0
 10
81.53591207800253
 20
-170.5488725522972
 30
0.0
 10
81.53591207800253
 20
-171.0339419966204
 30
0.0
 10
81.53591207800253
 20
-171.0339419966204
 30
0.0
  0
SPLINE
  5
16A
330
70
100
AcDbEntity
  8
Modo de isolamento
 62
    98
370
    18
100
AcDbSpline
210
0.0
220
0.0
230
1.0
 70
    24
 71
     3
 72
     8
 73
     4
 74
     0
 42
0.0000000001
 43
0.0000000001
 40
0.0
 40
0.0
 40
0.0
 40
0.0
 40
1.0
 40
1.0
 40
1.0
 40
1.0
 10
81.58670570456285
 20
-170.5488725522972
 30
0.0
 10
81.58670570456285
 20
-170.5488725522972
 30
0.0
 10
81.58670570456285
 20
-171.4195235428836
 30
0.0
 10
81.58670570456285
 20
-171.4195235428836
 30
0.0
  0
SPLINE
  5
16B
330
70
100
AcDbEntity
  8
Modo de isolamento
 62
    98
370
    18
100
AcDbSpline
210
0.0
220
0.0
230
1.0
 70
    24
 71
     3
 72
     8
 73
     4
 74
     0
 42
0.0000000001
 43
0.0000000001
 40
0.0
 40
0.0
 40
0.0
 40
0.0
 40
1.0
 40
1.0
 40
1.0
 40
1.0
 10
81.63751009704691
 20
-170.5488725522972
 30
0.0
 10
81.63751009704691
 20
-170.5488725522972
 30
0.0
 10
81.63751009704691
 20
-171.8054603646187
 30
0.0
 10
81.63751009704691
 20
-171.8054603646187
 30
0.0
  0
SPLINE
  5
16C
330
70
100
AcDbEntity
  8
Modo de isolamento
 62
    98
370
    18
100
AcDbSpline
210
0.0
220
0.0
230
1.0
 70
    24
 71
     3
 72
     8
 73
     4
 74
     0
 42
0.0000000001
 43
0.0000000001
 40
0.0
 40
0.0
 40
0.0
 40
0.0
 40
1.0
 40
1.0
 40
1.0
 40
1.0
 10
81.68830372360757
 20
-170.5488725522972
 30
0.0
 10
81.68830372360757
 20
-170.5488725522972
 30
0.0
 10
81.68830372360757
 20
-172.1914079522772
 30
0.0
 10
81.68830372360757
 20
-172.1914079522772
 30
0.0
  0
SPLINE
  5
16D
330
70
100
AcDbEntity
  8
Modo de isolamento
 62
    98
370
    18
100
AcDbSpline
210
0.0
220
0.0
230
1.0
 70
    24
 71
     3
 72
     8
 73
     4
 74
     0
 42
0.0000000001
 43
0.0000000001
 40
0.0
 40
0.0
 40
0.0
 40
0.0
 40
1.0
 40
1.0
 40
1.0
 40
1.0
 10
81.73910811609159
 20
-170.5488725522972
 30
0.0
 10
81.73910811609159
 20
-170.5488725522972
 30
0.0
 10
81.73910811609159
 20
-172.5773447740123
 30
0.0
 10
81.73910811609159
 20
-172.5773447740123
 30
0.0
  0
SPLINE
  5
16E
330
70
100
AcDbEntity
  8
Modo de isolamento
 62
    98
370
    18
100
AcDbSpline
210
0.0
220
0.0
230
1.0
 70
    24
 71
     3
 72
     8
 73
     4
 74
     0
 42
0.0000000001
 43
0.0000000001
 40
0.0
 40
0.0
 40
0.0
 40
0.0
 40
1.0
 40
1.0
 40
1.0
 40
1.0
 10
81.78991250857565
 20
-170.5488725522972
 30
0.0
 10
81.78991250857565
 20
-170.5488725522972
 30
0.0
 10
81.78991250857565
 20
-172.9632815957474
 30
0.0
 10
81.78991250857565
 20
-172.9632815957474
 30
0.0
  0
SPLINE
  5
16F
330
70
100
AcDbEntity
  8
Modo de isolamento
 62
    98
370
    18
100
AcDbSpline
210
0.0
220
0.0
230
1.0
 70
    24
 71
     3
 72
     8
 73
     4
 74
     0
 42
0.0000000001
 43
0.0000000001
 40
0.0
 40
0.0
 40
0.0
 40
0.0
 40
1.0
 40
1.0
 40
1.0
 40
1.0
 10
81.84070613513631
 20
-170.5488725522972
 30
0.0
 10
81.84070613513631
 20
-170.5488725522972
 30
0.0
 10
81.84070613513631
 20
-173.3488631420106
 30
0.0
 10
81.84070613513631
 20
-173.3488631420106
 30
0.0
  0
SPLINE
  5
170
330
70
100
AcDbEntity
  8
Modo de isolamento
 62
    98
370
    18
100
AcDbSpline
210
0.0
220
0.0
230
1.0
 70
    24
 71
     3
 72
     8
 73
     4
 74
     0
 42
0.0000000001
 43
0.0000000001
 40
0.0
 40
0.0
 40
0.0
 40
0.0
 40
1.0
 40
1.0
 40
1.0
 40
1.0
 10
0.3571525507850579
 20
-173.3488631420106
 30
0.0
 10
0.3571525507850579
 20
-173.3488631420106
 30
0.0
 10
-8.712766482117276
 20
-173.3488631420106
 30
0.0
 10
-8.712766482117276
 20
-173.3488631420106
 30
0.0
  0
SPLINE
  5
171
330
70
100
AcDbEntity
  8
Modo de isolamento
 62
    98
370
    18
100
AcDbSpline
210
0.0
220
0.0
230
1.0
 70
    24
 71
     3
 72
     8
 73
     4
 74
     0
 42
0.0000000001
 43
0.0000000001
 40
0.0
 40
0.0
 40
0.0
 40
0.0
 40
1.0
 40
1.0
 40
1.0
 40
1.0
 10
-0.2408361668324784
 20
-27.94902805805351
 30
0.0
 10
-0.2408361668324784
 20
-27.94902805805351
 30
0.0
 10
-8.712766482117276
 20
-27.94902805805351
 30
0.0
 10
-8.712766482117276
 20
-27.94902805805351
 30
0.0
  0
SPLINE
  5
172
330
70
100
AcDbEntity
  8
Modo de isolamento
 62
    98
370
    18
100
AcDbSpline
210
0.0
220
0.0
230
1.0
 70
    24
 71
     3
 72
     8
 73
     4
 74
     0
 42
0.0000000001
 43
0.0000000001
 40
0.0
 40
0.0
 40
0.0
 40
0.0
 40
1.0
 40
1.0
 40
1.0
 40
1.0
 10
-6.712867021082963
 20
-173.3488631420106
 30
0.0
 10
-6.712867021082963
 20
-173.3488631420106
 30
0.0
 10
-6.712867021082963
 20
-27.94902805805351
 30
0.0
 10
-6.712867021082963
 20
-27.94902805805351
 30
0.0
  0
SPLINE
  5
173
330
70
100
AcDbEntity
  8
Modo de isolamento
 62
    98
370
    18
100
AcDbSpline
210
0.0
220
0.0
230
1.0
 70
    24
 71
     3
 72
     8
 73
     4
 74
     0
 42
0.0000000001
 43
0.0000000001
 40
0.0
 40
0.0
 40
0.0
 40
0.0
 40
1.0
 40
1.0
 40
1.0
 40
1.0
 10
-6.712867021082963
 20
-173.3488631420106
 30
0.0
 10
-6.712867021082963
 20
-173.3488631420106
 30
0.0
 10
-6.344214889352751
 20
-170.5488725522972
 30
0.0
 10
-6.344214889352751
 20
-170.5488725522972
 30
0.0
  0
SPLINE
  5
174
330
70
100
AcDbEntity
  8
Modo de isolamento
 62
    98
370
    18
100
AcDbSpline
210
0.0
220
0.0
230
1.0
 70
    24
 71
     3
 72
     8
 73
     4
 74
     0
 42
0.0000000001
 43
0.0000000001
 40
0.0
 40
0.0
 40
0.0
 40
0.0
 40
1.0
 40
1.0
 40
1.0
 40
1.0
 10
-6.344214889352751
 20
-170.5488725522972
 30
0.0
 10
-6.344214889352751
 20
-170.5488725522972
 30
0.0
 10
-7.081169260302953
 20
-170.5488725522972
 30
0.0
 10
-7.081169260302953
 20
-170.5488725522972
 30
0.0
  0
SPLINE
  5
175
330
70
100
AcDbEntity
  8
Modo de isolamento
 62
    98
370
    18
100
AcDbSpline
210
0.0
220
0.0
230
1.0
 70
    24
 71
     3
 72
     8
 73
     4
 74
     0
 42
0.0000000001
 43
0.0000000001
 40
0.0
 40
0.0
 40
0.0
 40
0.0
 40
1.0
 40
1.0
 40
1.0
 40
1.0
 10
-7.081169260302953
 20
-170.5488725522972
 30
0.0
 10
-7.081169260302953
 20
-170.5488725522972
 30
0.0
 10
-6.712867021082963
 20
-173.3488631420106
 30
0.0
 10
-6.712867021082963
 20
-173.3488631420106
 30
0.0
  0
SPLINE
  5
176
330
70
100
AcDbEntity
  8
Modo de isolamento
 62
    98
370
    18
100
AcDbSpline
210
0.0
220
0.0
230
1.0
 70
    24
 71
     3
 72
     8
 73
     4
 74
     0
 42
0.0000000001
 43
0.0000000001
 40
0.0
 40
0.0
 40
0.0
 40
0.0
 40
1.0
 40
1.0
 40
1.0
 40
1.0
 10
-6.357268571464831
 20
-170.5488725522972
 30
0.0
 10
-6.357268571464831
 20
-170.5488725522972
 30
0.0
 10
-6.357268571464831
 20
-170.6480051748853
 30
0.0
 10
-6.357268571464831
 20
-170.6480051748853
 30
0.0
  0
SPLINE
  5
177
330
70
100
AcDbEntity
  8
Modo de isolamento
 62
    98
370
    18
100
AcDbSpline
210
0.0
220
0.0
230
1.0
 70
    24
 71
     3
 72
     8
 73
     4
 74
     0
 42
0.0000000001
 43
0.0000000001
 40
0.0
 40
0.0
 40
0.0
 40
0.0
 40
1.0
 40
1.0
 40
1.0
 40
1.0
 10
-6.357268571464831
 20
-170.5488725522972
 30
0.0
 10
-6.357268571464831
 20
-170.5488725522972
 30
0.0
 10
-6.357268571464831
 20
-170.6480051748853
 30
0.0
 10
-6.357268571464831
 20
-170.6480051748853
 30
0.0
  0
SPLINE
  5
178
330
70
100
AcDbEntity
  8
Modo de isolamento
 62
    98
370
    18
100
AcDbSpline
210
0.0
220
0.0
230
1.0
 70
    24
 71
     3
 72
     8
 73
     4
 74
     0
 42
0.0000000001
 43
0.0000000001
 40
0.0
 40
0.0
 40
0.0
 40
0.0
 40
1.0
 40
1.0
 40
1.0
 40
1.0
 10
-6.408067580987179
 20
-170.5488725522972
 30
0.0
 10
-6.408067580987179
 20
-170.5488725522972
 30
0.0
 10
-6.408067580987179
 20
-171.0339419966204
 30
0.0
 10
-6.408067580987179
 20
-171.0339419966204
 30
0.0
  0
SPLINE
  5
179
330
70
100
AcDbEntity
  8
Modo de isolamento
 62
    98
370
    18
100
AcDbSpline
210
0.0
220
0.0
230
1.0
 70
    24
 71
     3
 72
     8
 73
     4
 74
     0
 42
0.0000000001
 43
0.0000000001
 40
0.0
 40
0.0
 40
0.0
 40
0.0
 40
1.0
 40
1.0
 40
1.0
 40
1.0
 10
-6.458866590509527
 20
-170.5488725522972
 30
0.0
 10
-6.458866590509527
 20
-170.5488725522972
 30
0.0
 10
-6.458866590509527
 20
-171.4195235428836
 30
0.0
 10
-6.458866590509527
 20
-171.4195235428836
 30
0.0
  0
SPLINE
  5
17A
330
70
100
AcDbEntity
  8
Modo de isolamento
 62
    98
370
    18
100
AcDbSpline
210
0.0
220
0.0
230
1.0
 70
    24
 71
     3
 72
     8
 73
     4
 74
     0
 42
0.0000000001
 43
0.0000000001
 40
0.0
 40
0.0
 40
0.0
 40
0.0
 40
1.0
 40
1.0
 40
1.0
 40
1.0
 10
-6.509665600031874
 20
-170.5488725522972
 30
0.0
 10
-6.509665600031874
 20
-170.5488725522972
 30
0.0
 10
-6.509665600031874
 20
-171.8054603646187
 30
0.0
 10
-6.509665600031874
 20
-171.8054603646187
 30
0.0
  0
SPLINE
  5
17B
330
70
100
AcDbEntity
  8
Modo de isolamento
 62
    98
370
    18
100
AcDbSpline
210
0.0
220
0.0
230
1.0
 70
    24
 71
     3
 72
     8
 73
     4
 74
     0
 42
0.0000000001
 43
0.0000000001
 40
0.0
 40
0.0
 40
0.0
 40
0.0
 40
1.0
 40
1.0
 40
1.0
 40
1.0
 10
-6.560469992515918
 20
-170.5488725522972
 30
0.0
 10
-6.560469992515918
 20
-170.5488725522972
 30
0.0
 10
-6.560469992515918
 20
-172.1914079522772
 30
0.0
 10
-6.560469992515918
 20
-172.1914079522772
 30
0.0
  0
SPLINE
  5
17C
330
70
100
AcDbEntity
  8
Modo de isolamento
 62
    98
370
    18
100
AcDbSpline
210
0.0
220
0.0
230
1.0
 70
    24
 71
     3
 72
     8
 73
     4
 74
     0
 42
0.0000000001
 43
0.0000000001
 40
0.0
 40
0.0
 40
0.0
 40
0.0
 40
1.0
 40
1.0
 40
1.0
 40
1.0
 10
-6.611269002038266
 20
-170.5488725522972
 30
0.0
 10
-6.611269002038266
 20
-170.5488725522972
 30
0.0
 10
-6.611269002038266
 20
-172.5773447740123
 30
0.0
 10
-6.611269002038266
 20
-172.5773447740123
 30
0.0
  0
SPLINE
  5
17D
330
70
100
AcDbEntity
  8
Modo de isolamento
 62
    98
370
    18
100
AcDbSpline
210
0.0
220
0.0
230
1.0
 70
    24
 71
     3
 72
     8
 73
     4
 74
     0
 42
0.0000000001
 43
0.0000000001
 40
0.0
 40
0.0
 40
0.0
 40
0.0
 40
1.0
 40
1.0
 40
1.0
 40
1.0
 10
-6.662068011560614
 20
-170.5488725522972
 30
0.0
 10
-6.662068011560614
 20
-170.5488725522972
 30
0.0
 10
-6.662068011560614
 20
-172.9632815957474
 30
0.0
 10
-6.662068011560614
 20
-172.9632815957474
 30
0.0
  0
SPLINE
  5
17E
330
70
100
AcDbEntity
  8
Modo de isolamento
 62
    98
370
    18
100
AcDbSpline
210
0.0
220
0.0
230
1.0
 70
    24
 71
     3
 72
     8
 73
     4
 74
     0
 42
0.0000000001
 43
0.0000000001
 40
0.0
 40
0.0
 40
0.0
 40
0.0
 40
1.0
 40
1.0
 40
1.0
 40
1.0
 10
-6.712867021082963
 20
-170.5488725522972
 30
0.0
 10
-6.712867021082963
 20
-170.5488725522972
 30
0.0
 10
-6.712867021082963
 20
-173.3488631420106
 30
0.0
 10
-6.712867021082963
 20
-173.3488631420106
 30
0.0
  0
SPLINE
  5
17F
330
70
100
AcDbEntity
  8
Modo de isolamento
 62
    98
370
    18
100
AcDbSpline
210
0.0
220
0.0
230
1.0
 70
    24
 71
     3
 72
     8
 73
     4
 74
     0
 42
0.0000000001
 43
0.0000000001
 40
0.0
 40
0.0
 40
0.0
 40
0.0
 40
1.0
 40
1.0
 40
1.0
 40
1.0
 10
-7.068465470701094
 20
-170.5488725522972
 30
0.0
 10
-7.068465470701094
 20
-170.5488725522972
 30
0.0
 10
-7.068465470701094
 20
-170.6480051748853
 30
0.0
 10
-7.068465470701094
 20
-170.6480051748853
 30
0.0
  0
SPLINE
  5
180
330
70
100
AcDbEntity
  8
Modo de isolamento
 62
    98
370
    18
100
AcDbSpline
210
0.0
220
0.0
230
1.0
 70
    24
 71
     3
 72
     8
 73
     4
 74
     0
 42
0.0000000001
 43
0.0000000001
 40
0.0
 40
0.0
 40
0.0
 40
0.0
 40
1.0
 40
1.0
 40
1.0
 40
1.0
 10
-7.068465470701094
 20
-170.5488725522972
 30
0.0
 10
-7.068465470701094
 20
-170.5488725522972
 30
0.0
 10
-7.068465470701094
 20
-170.6480051748853
 30
0.0
 10
-7.068465470701094
 20
-170.6480051748853
 30
0.0
  0
SPLINE
  5
181
330
70
100
AcDbEntity
  8
Modo de isolamento
 62
    98
370
    18
100
AcDbSpline
210
0.0
220
0.0
230
1.0
 70
    24
 71
     3
 72
     8
 73
     4
 74
     0
 42
0.0000000001
 43
0.0000000001
 40
0.0
 40
0.0
 40
0.0
 40
0.0
 40
1.0
 40
1.0
 40
1.0
 40
1.0
 10
-7.017666461178746
 20
-170.5488725522972
 30
0.0
 10
-7.017666461178746
 20
-170.5488725522972
 30
0.0
 10
-7.017666461178746
 20
-171.0339419966204
 30
0.0
 10
-7.017666461178746
 20
-171.0339419966204
 30
0.0
  0
SPLINE
  5
182
330
70
100
AcDbEntity
  8
Modo de isolamento
 62
    98
370
    18
100
AcDbSpline
210
0.0
220
0.0
230
1.0
 70
    24
 71
     3
 72
     8
 73
     4
 74
     0
 42
0.0000000001
 43
0.0000000001
 40
0.0
 40
0.0
 40
0.0
 40
0.0
 40
1.0
 40
1.0
 40
1.0
 40
1.0
 10
-6.966867451656398
 20
-170.5488725522972
 30
0.0
 10
-6.966867451656398
 20
-170.5488725522972
 30
0.0
 10
-6.966867451656398
 20
-171.4195235428836
 30
0.0
 10
-6.966867451656398
 20
-171.4195235428836
 30
0.0
  0
SPLINE
  5
183
330
70
100
AcDbEntity
  8
Modo de isolamento
 62
    98
370
    18
100
AcDbSpline
210
0.0
220
0.0
230
1.0
 70
    24
 71
     3
 72
     8
 73
     4
 74
     0
 42
0.0000000001
 43
0.0000000001
 40
0.0
 40
0.0
 40
0.0
 40
0.0
 40
1.0
 40
1.0
 40
1.0
 40
1.0
 10
-6.91606844213405
 20
-170.5488725522972
 30
0.0
 10
-6.91606844213405
 20
-170.5488725522972
 30
0.0
 10
-6.91606844213405
 20
-171.8054603646187
 30
0.0
 10
-6.91606844213405
 20
-171.8054603646187
 30
0.0
  0
SPLINE
  5
184
330
70
100
AcDbEntity
  8
Modo de isolamento
 62
    98
370
    18
100
AcDbSpline
210
0.0
220
0.0
230
1.0
 70
    24
 71
     3
 72
     8
 73
     4
 74
     0
 42
0.0000000001
 43
0.0000000001
 40
0.0
 40
0.0
 40
0.0
 40
0.0
 40
1.0
 40
1.0
 40
1.0
 40
1.0
 10
-6.865269432611702
 20
-170.5488725522972
 30
0.0
 10
-6.865269432611702
 20
-170.5488725522972
 30
0.0
 10
-6.865269432611702
 20
-172.1914079522772
 30
0.0
 10
-6.865269432611702
 20
-172.1914079522772
 30
0.0
  0
SPLINE
  5
185
330
70
100
AcDbEntity
  8
Modo de isolamento
 62
    98
370
    18
100
AcDbSpline
210
0.0
220
0.0
230
1.0
 70
    24
 71
     3
 72
     8
 73
     4
 74
     0
 42
0.0000000001
 43
0.0000000001
 40
0.0
 40
0.0
 40
0.0
 40
0.0
 40
1.0
 40
1.0
 40
1.0
 40
1.0
 10
-6.814470423089354
 20
-170.5488725522972
 30
0.0
 10
-6.814470423089354
 20
-170.5488725522972
 30
0.0
 10
-6.814470423089354
 20
-172.5773447740123
 30
0.0
 10
-6.814470423089354
 20
-172.5773447740123
 30
0.0
  0
SPLINE
  5
186
330
70
100
AcDbEntity
  8
Modo de isolamento
 62
    98
370
    18
100
AcDbSpline
210
0.0
220
0.0
230
1.0
 70
    24
 71
     3
 72
     8
 73
     4
 74
     0
 42
0.0000000001
 43
0.0000000001
 40
0.0
 40
0.0
 40
0.0
 40
0.0
 40
1.0
 40
1.0
 40
1.0
 40
1.0
 10
-6.76366603060531
 20
-170.5488725522972
 30
0.0
 10
-6.76366603060531
 20
-170.5488725522972
 30
0.0
 10
-6.76366603060531
 20
-172.9632815957474
 30
0.0
 10
-6.76366603060531
 20
-172.9632815957474
 30
0.0
  0
SPLINE
  5
187
330
70
100
AcDbEntity
  8
Modo de isolamento
 62
    98
370
    18
100
AcDbSpline
210
0.0
220
0.0
230
1.0
 70
    24
 71
     3
 72
     8
 73
     4
 74
     0
 42
0.0000000001
 43
0.0000000001
 40
0.0
 40
0.0
 40
0.0
 40
0.0
 40
1.0
 40
1.0
 40
1.0
 40
1.0
 10
-6.712867021082963
 20
-170.5488725522972
 30
0.0
 10
-6.712867021082963
 20
-170.5488725522972
 30
0.0
 10
-6.712867021082963
 20
-173.3488631420106
 30
0.0
 10
-6.712867021082963
 20
-173.3488631420106
 30
0.0
  0
SPLINE
  5
188
330
70
100
AcDbEntity
  8
Modo de isolamento
 62
    98
370
    18
100
AcDbSpline
210
0.0
220
0.0
230
1.0
 70
    24
 71
     3
 72
     8
 73
     4
 74
     0
 42
0.0000000001
 43
0.0000000001
 40
0.0
 40
0.0
 40
0.0
 40
0.0
 40
1.0
 40
1.0
 40
1.0
 40
1.0
 10
-6.712867021082963
 20
-27.94902805805351
 30
0.0
 10
-6.712867021082963
 20
-27.94902805805351
 30
0.0
 10
-7.081169260302953
 20
-30.74902941369031
 30
0.0
 10
-7.081169260302953
 20
-30.74902941369031
 30
0.0
  0
SPLINE
  5
189
330
70
100
AcDbEntity
  8
Modo de isolamento
 62
    98
370
    18
100
AcDbSpline
210
0.0
220
0.0
230
1.0
 70
    24
 71
     3
 72
     8
 73
     4
 74
     0
 42
0.0000000001
 43
0.0000000001
 40
0.0
 40
0.0
 40
0.0
 40
0.0
 40
1.0
 40
1.0
 40
1.0
 40
1.0
 10
-7.081169260302953
 20
-30.74902941369031
 30
0.0
 10
-7.081169260302953
 20
-30.74902941369031
 30
0.0
 10
-6.344214889352751
 20
-30.74902941369031
 30
0.0
 10
-6.344214889352751
 20
-30.74902941369031
 30
0.0
  0
SPLINE
  5
18A
330
70
100
AcDbEntity
  8
Modo de isolamento
 62
    98
370
    18
100
AcDbSpline
210
0.0
220
0.0
230
1.0
 70
    24
 71
     3
 72
     8
 73
     4
 74
     0
 42
0.0000000001
 43
0.0000000001
 40
0.0
 40
0.0
 40
0.0
 40
0.0
 40
1.0
 40
1.0
 40
1.0
 40
1.0
 10
-6.344214889352751
 20
-30.74902941369031
 30
0.0
 10
-6.344214889352751
 20
-30.74902941369031
 30
0.0
 10
-6.712867021082963
 20
-27.94902805805351
 30
0.0
 10
-6.712867021082963
 20
-27.94902805805351
 30
0.0
  0
SPLINE
  5
18B
330
70
100
AcDbEntity
  8
Modo de isolamento
 62
    98
370
    18
100
AcDbSpline
210
0.0
220
0.0
230
1.0
 70
    24
 71
     3
 72
     8
 73
     4
 74
     0
 42
0.0000000001
 43
0.0000000001
 40
0.0
 40
0.0
 40
0.0
 40
0.0
 40
1.0
 40
1.0
 40
1.0
 40
1.0
 10
-7.068465470701094
 20
-30.74902941369031
 30
0.0
 10
-7.068465470701094
 20
-30.74902941369031
 30
0.0
 10
-7.068465470701094
 20
-30.64989679110225
 30
0.0
 10
-7.068465470701094
 20
-30.64989679110225
 30
0.0
  0
SPLINE
  5
18C
330
70
100
AcDbEntity
  8
Modo de isolamento
 62
    98
370
    18
100
AcDbSpline
210
0.0
220
0.0
230
1.0
 70
    24
 71
     3
 72
     8
 73
     4
 74
     0
 42
0.0000000001
 43
0.0000000001
 40
0.0
 40
0.0
 40
0.0
 40
0.0
 40
1.0
 40
1.0
 40
1.0
 40
1.0
 10
-7.068465470701094
 20
-30.74902941369031
 30
0.0
 10
-7.068465470701094
 20
-30.74902941369031
 30
0.0
 10
-7.068465470701094
 20
-30.64989679110225
 30
0.0
 10
-7.068465470701094
 20
-30.64989679110225
 30
0.0
  0
SPLINE
  5
18D
330
70
100
AcDbEntity
  8
Modo de isolamento
 62
    98
370
    18
100
AcDbSpline
210
0.0
220
0.0
230
1.0
 70
    24
 71
     3
 72
     8
 73
     4
 74
     0
 42
0.0000000001
 43
0.0000000001
 40
0.0
 40
0.0
 40
0.0
 40
0.0
 40
1.0
 40
1.0
 40
1.0
 40
1.0
 10
-7.017666461178746
 20
-30.74902941369031
 30
0.0
 10
-7.017666461178746
 20
-30.74902941369031
 30
0.0
 10
-7.017666461178746
 20
-30.26432601076245
 30
0.0
 10
-7.017666461178746
 20
-30.26432601076245
 30
0.0
  0
SPLINE
  5
18E
330
70
100
AcDbEntity
  8
Modo de isolamento
 62
    98
370
    18
100
AcDbSpline
210
0.0
220
0.0
230
1.0
 70
    24
 71
     3
 72
     8
 73
     4
 74
     0
 42
0.0000000001
 43
0.0000000001
 40
0.0
 40
0.0
 40
0.0
 40
0.0
 40
1.0
 40
1.0
 40
1.0
 40
1.0
 10
-6.966867451656398
 20
-30.74902941369031
 30
0.0
 10
-6.966867451656398
 20
-30.74902941369031
 30
0.0
 10
-6.966867451656398
 20
-29.87838918902733
 30
0.0
 10
-6.966867451656398
 20
-29.87838918902733
 30
0.0
  0
SPLINE
  5
18F
330
70
100
AcDbEntity
  8
Modo de isolamento
 62
    98
370
    18
100
AcDbSpline
210
0.0
220
0.0
230
1.0
 70
    24
 71
     3
 72
     8
 73
     4
 74
     0
 42
0.0000000001
 43
0.0000000001
 40
0.0
 40
0.0
 40
0.0
 40
0.0
 40
1.0
 40
1.0
 40
1.0
 40
1.0
 10
-6.91606844213405
 20
-30.74902941369031
 30
0.0
 10
-6.91606844213405
 20
-30.74902941369031
 30
0.0
 10
-6.91606844213405
 20
-29.49243083544544
 30
0.0
 10
-6.91606844213405
 20
-29.49243083544544
 30
0.0
  0
SPLINE
  5
190
330
70
100
AcDbEntity
  8
Modo de isolamento
 62
    98
370
    18
100
AcDbSpline
210
0.0
220
0.0
230
1.0
 70
    24
 71
     3
 72
     8
 73
     4
 74
     0
 42
0.0000000001
 43
0.0000000001
 40
0.0
 40
0.0
 40
0.0
 40
0.0
 40
1.0
 40
1.0
 40
1.0
 40
1.0
 10
-6.865269432611702
 20
-30.74902941369031
 30
0.0
 10
-6.865269432611702
 20
-30.74902941369031
 30
0.0
 10
-6.865269432611702
 20
-29.10649401371032
 30
0.0
 10
-6.865269432611702
 20
-29.10649401371032
 30
0.0
  0
SPLINE
  5
191
330
70
100
AcDbEntity
  8
Modo de isolamento
 62
    98
370
    18
100
AcDbSpline
210
0.0
220
0.0
230
1.0
 70
    24
 71
     3
 72
     8
 73
     4
 74
     0
 42
0.0000000001
 43
0.0000000001
 40
0.0
 40
0.0
 40
0.0
 40
0.0
 40
1.0
 40
1.0
 40
1.0
 40
1.0
 10
-6.814470423089354
 20
-30.74902941369031
 30
0.0
 10
-6.814470423089354
 20
-30.74902941369031
 30
0.0
 10
-6.814470423089354
 20
-28.72055719197521
 30
0.0
 10
-6.814470423089354
 20
-28.72055719197521
 30
0.0
  0
SPLINE
  5
192
330
70
100
AcDbEntity
  8
Modo de isolamento
 62
    98
370
    18
100
AcDbSpline
210
0.0
220
0.0
230
1.0
 70
    24
 71
     3
 72
     8
 73
     4
 74
     0
 42
0.0000000001
 43
0.0000000001
 40
0.0
 40
0.0
 40
0.0
 40
0.0
 40
1.0
 40
1.0
 40
1.0
 40
1.0
 10
-6.76366603060531
 20
-30.74902941369031
 30
0.0
 10
-6.76366603060531
 20
-30.74902941369031
 30
0.0
 10
-6.76366603060531
 20
-28.3349864116354
 30
0.0
 10
-6.76366603060531
 20
-28.3349864116354
 30
0.0
  0
SPLINE
  5
193
330
70
100
AcDbEntity
  8
Modo de isolamento
 62
    98
370
    18
100
AcDbSpline
210
0.0
220
0.0
230
1.0
 70
    24
 71
     3
 72
     8
 73
     4
 74
     0
 42
0.0000000001
 43
0.0000000001
 40
0.0
 40
0.0
 40
0.0
 40
0.0
 40
1.0
 40
1.0
 40
1.0
 40
1.0
 10
-6.712867021082963
 20
-30.74902941369031
 30
0.0
 10
-6.712867021082963
 20
-30.74902941369031
 30
0.0
 10
-6.712867021082963
 20
-27.94902805805351
 30
0.0
 10
-6.712867021082963
 20
-27.94902805805351
 30
0.0
  0
SPLINE
  5
194
330
70
100
AcDbEntity
  8
Modo de isolamento
 62
    98
370
    18
100
AcDbSpline
210
0.0
220
0.0
230
1.0
 70
    24
 71
     3
 72
     8
 73
     4
 74
     0
 42
0.0000000001
 43
0.0000000001
 40
0.0
 40
0.0
 40
0.0
 40
0.0
 40
1.0
 40
1.0
 40
1.0
 40
1.0
 10
-6.357268571464831
 20
-30.74902941369031
 30
0.0
 10
-6.357268571464831
 20
-30.74902941369031
 30
0.0
 10
-6.357268571464831
 20
-30.64989679110225
 30
0.0
 10
-6.357268571464831
 20
-30.64989679110225
 30
0.0
  0
SPLINE
  5
195
330
70
100
AcDbEntity
  8
Modo de isolamento
 62
    98
370
    18
100
AcDbSpline
210
0.0
220
0.0
230
1.0
 70
    24
 71
     3
 72
     8
 73
     4
 74
     0
 42
0.0000000001
 43
0.0000000001
 40
0.0
 40
0.0
 40
0.0
 40
0.0
 40
1.0
 40
1.0
 40
1.0
 40
1.0
 10
-6.357268571464831
 20
-30.74902941369031
 30
0.0
 10
-6.357268571464831
 20
-30.74902941369031
 30
0.0
 10
-6.357268571464831
 20
-30.64989679110225
 30
0.0
 10
-6.357268571464831
 20
-30.64989679110225
 30
0.0
  0
SPLINE
  5
196
330
70
100
AcDbEntity
  8
Modo de isolamento
 62
    98
370
    18
100
AcDbSpline
210
0.0
220
0.0
230
1.0
 70
    24
 71
     3
 72
     8
 73
     4
 74
     0
 42
0.0000000001
 43
0.0000000001
 40
0.0
 40
0.0
 40
0.0
 40
0.0
 40
1.0
 40
1.0
 40
1.0
 40
1.0
 10
-6.408067580987179
 20
-30.74902941369031
 30
0.0
 10
-6.408067580987179
 20
-30.74902941369031
 30
0.0
 10
-6.408067580987179
 20
-30.26432601076245
 30
0.0
 10
-6.408067580987179
 20
-30.26432601076245
 30
0.0
  0
SPLINE
  5
197
330
70
100
AcDbEntity
  8
Modo de isolamento
 62
    98
370
    18
100
AcDbSpline
210
0.0
220
0.0
230
1.0
 70
    24
 71
     3
 72
     8
 73
     4
 74
     0
 42
0.0000000001
 43
0.0000000001
 40
0.0
 40
0.0
 40
0.0
 40
0.0
 40
1.0
 40
1.0
 40
1.0
 40
1.0
 10
-6.458866590509527
 20
-30.74902941369031
 30
0.0
 10
-6.458866590509527
 20
-30.74902941369031
 30
0.0
 10
-6.458866590509527
 20
-29.87838918902733
 30
0.0
 10
-6.458866590509527
 20
-29.87838918902733
 30
0.0
  0
SPLINE
  5
198
330
70
100
AcDbEntity
  8
Modo de isolamento
 62
    98
370
    18
100
AcDbSpline
210
0.0
220
0.0
230
1.0
 70
    24
 71
     3
 72
     8
 73
     4
 74
     0
 42
0.0000000001
 43
0.0000000001
 40
0.0
 40
0.0
 40
0.0
 40
0.0
 40
1.0
 40
1.0
 40
1.0
 40
1.0
 10
-6.509665600031874
 20
-30.74902941369031
 30
0.0
 10
-6.509665600031874
 20
-30.74902941369031
 30
0.0
 10
-6.509665600031874
 20
-29.49243083544544
 30
0.0
 10
-6.509665600031874
 20
-29.49243083544544
 30
0.0
  0
SPLINE
  5
199
330
70
100
AcDbEntity
  8
Modo de isolamento
 62
    98
370
    18
100
AcDbSpline
210
0.0
220
0.0
230
1.0
 70
    24
 71
     3
 72
     8
 73
     4
 74
     0
 42
0.0000000001
 43
0.0000000001
 40
0.0
 40
0.0
 40
0.0
 40
0.0
 40
1.0
 40
1.0
 40
1.0
 40
1.0
 10
-6.560469992515918
 20
-30.74902941369031
 30
0.0
 10
-6.560469992515918
 20
-30.74902941369031
 30
0.0
 10
-6.560469992515918
 20
-29.10649401371032
 30
0.0
 10
-6.560469992515918
 20
-29.10649401371032
 30
0.0
  0
SPLINE
  5
19A
330
70
100
AcDbEntity
  8
Modo de isolamento
 62
    98
370
    18
100
AcDbSpline
210
0.0
220
0.0
230
1.0
 70
    24
 71
     3
 72
     8
 73
     4
 74
     0
 42
0.0000000001
 43
0.0000000001
 40
0.0
 40
0.0
 40
0.0
 40
0.0
 40
1.0
 40
1.0
 40
1.0
 40
1.0
 10
-6.611269002038266
 20
-30.74902941369031
 30
0.0
 10
-6.611269002038266
 20
-30.74902941369031
 30
0.0
 10
-6.611269002038266
 20
-28.72055719197521
 30
0.0
 10
-6.611269002038266
 20
-28.72055719197521
 30
0.0
  0
SPLINE
  5
19B
330
70
100
AcDbEntity
  8
Modo de isolamento
 62
    98
370
    18
100
AcDbSpline
210
0.0
220
0.0
230
1.0
 70
    24
 71
     3
 72
     8
 73
     4
 74
     0
 42
0.0000000001
 43
0.0000000001
 40
0.0
 40
0.0
 40
0.0
 40
0.0
 40
1.0
 40
1.0
 40
1.0
 40
1.0
 10
-6.662068011560614
 20
-30.74902941369031
 30
0.0
 10
-6.662068011560614
 20
-30.74902941369031
 30
0.0
 10
-6.662068011560614
 20
-28.3349864116354
 30
0.0
 10
-6.662068011560614
 20
-28.3349864116354
 30
0.0
  0
SPLINE
  5
19C
330
70
100
AcDbEntity
  8
Modo de isolamento
 62
    98
370
    18
100
AcDbSpline
210
0.0
220
0.0
230
1.0
 70
    24
 71
     3
 72
     8
 73
     4
 74
     0
 42
0.0000000001
 43
0.0000000001
 40
0.0
 40
0.0
 40
0.0
 40
0.0
 40
1.0
 40
1.0
 40
1.0
 40
1.0
 10
-6.712867021082963
 20
-30.74902941369031
 30
0.0
 10
-6.712867021082963
 20
-30.74902941369031
 30
0.0
 10
-6.712867021082963
 20
-27.94902805805351
 30
0.0
 10
-6.712867021082963
 20
-27.94902805805351
 30
0.0
  0
LINE
  5
19D
330
70
100
AcDbEntity
  8
Modo de isolamento
 62
     7
370
    35
100
AcDbLine
 10
1.321294820102399
 20
-28.73502659301326
 30
0.0
 11
1.321294820102399
 21
-31.45213033853624
 31
0.0
  0
LINE
  5
19E
330
70
100
AcDbEntity
  8
Modo de isolamento
 62
     7
370
    35
100
AcDbLine
 10
66.75134495429827
 20
-28.73502659301326
 30
0.0
 11
66.75134495429827
 21
-31.45213033853624
 31
0.0
  0
LWPOLYLINE
  5
19F
330
70
100
AcDbEntity
  8
Modo de isolamento
 62
     7
370
    35
100
AcDbPolyline
 90
        3
 70
     0
 43
0.0
 10
1.390089070573481
 20
-32.19084493796094
 10
1.453231211264076
 20
-32.47058669136322
 10
1.536484096849816
 20
-32.74505314230372
  0
LWPOLYLINE
  5
1A0
330
70
100
AcDbEntity
  8
Modo de isolamento
 62
     7
370
    35
100
AcDbPolyline
 90
        3
 70
     0
 43
0.0
 10
1.321294820102399
 20
-31.45213033853624
 10
1.322705156066673
 20
-31.55653826358609
 10
1.326580888487579
 20
-31.66096772048273
  0
LWPOLYLINE
  5
1A1
330
70
100
AcDbEntity
  8
Modo de isolamento
 62
     7
370
    35
100
AcDbPolyline
 90
        3
 70
     0
 43
0.0
 10
66.74569284451779
 20
-31.66096772048273
 10
66.74993461833399
 20
-31.55653826358609
 10
66.75134495429827
 20
-31.45213033853624
  0
LWPOLYLINE
  5
1A2
330
70
100
AcDbEntity
  8
Modo de isolamento
 62
     7
370
    35
100
AcDbPolyline
 90
        3
 70
     0
 43
0.0
 10
66.53614491162746
 20
-32.74505314230372
 10
66.61939779721321
 20
-32.47058669136322
 10
66.68255070382719
 20
-32.19084493796094
  0
LWPOLYLINE
  5
1A3
330
70
100
AcDbEntity
  8
Modo de isolamento
 62
     7
370
    35
100
AcDbPolyline
 90
        7
 70
     0
 43
0.0
 10
0.8062422791341569
 20
-32.04055264741691
 10
0.7741382955809851
 20
-32.95317997330638
 10
0.7452102594282778
 20
-33.78151011904114
 10
0.7208685066403095
 20
-34.47965871912702
 10
0.7025233731813541
 20
-35.00848087611287
 10
0.6908746440718531
 20
-35.33761668603492
 10
0.6869989116509469
 20
-35.44979760777337
  0
LWPOLYLINE
  5
1A4
330
70
100
AcDbEntity
  8
Modo de isolamento
 62
     7
370
    35
100
AcDbPolyline
 90
        7
 70
     0
 43
0.0
 10
0.2873032398216174
 20
-35.43569424813063
 10
0.2911789722425234
 20
-35.32385783594071
 10
0.3028277013520245
 20
-34.99435598462334
 10
0.3211728348109799
 20
-34.4658998690328
 10
0.3455145875989482
 20
-33.76775126894692
 10
0.3744426237516554
 20
-32.93907661366364
 10
0.4061913318329111
 20
-32.0267937973227
  0
LINE
  5
1A5
330
70
100
AcDbEntity
  8
Modo de isolamento
 62
     7
370
    35
100
AcDbLine
 10
0.6869989116509469
 20
-35.44979760777337
 30
0.0
 11
0.2873032398216174
 21
-35.43569424813063
 31
0.0
  0
LWPOLYLINE
  5
1A6
330
70
100
AcDbEntity
  8
Modo de isolamento
 62
     7
370
    35
100
AcDbPolyline
 90
        7
 70
     0
 43
0.0
 10
67.66609316709585
 20
-32.0267937973227
 10
67.69819715064902
 20
-32.93907661366364
 10
67.72712518680172
 20
-33.76775126894692
 10
67.75146693958969
 20
-34.4658998690328
 10
67.76981207304865
 20
-34.99435598462334
 10
67.78145003623476
 20
-35.32385783594071
 10
67.78533653457905
 20
-35.43569424813063
  0
LWPOLYLINE
  5
1A7
330
70
100
AcDbEntity
  8
Modo de isolamento
 62
     7
370
    35
100
AcDbPolyline
 90
        7
 70
     0
 43
0.0
 10
67.38563009682633
 20
-35.44979760777337
 10
67.38175436440542
 20
-35.33761668603492
 10
67.37011640121932
 20
-35.00848087611287
 10
67.35177126776036
 20
-34.47965871912702
 10
67.3274295149724
 20
-33.78151011904114
 10
67.29850147881968
 20
-32.95317997330638
 10
67.26639749526651
 20
-32.04055264741691
  0
LINE
  5
1A8
330
70
100
AcDbEntity
  8
Modo de isolamento
 62
     7
370
    35
100
AcDbLine
 10
67.78533653457905
 20
-35.43569424813063
 30
0.0
 11
67.38563009682633
 21
-35.44979760777337
 31
0.0
  0
LINE
  5
1A9
330
70
100
AcDbEntity
  8
Modo de isolamento
 62
     7
370
    35
100
AcDbLine
 10
0.52190347644374
 20
-28.72092323337052
 30
0.0
 11
0.4061913318329111
 21
-32.0267937973227
 31
0.0
  0
LINE
  5
1AA
330
70
100
AcDbEntity
  8
Modo de isolamento
 62
     7
370
    35
100
AcDbLine
 10
0.4061913318329111
 20
-32.0267937973227
 30
0.0
 11
0.8062422791341569
 21
-32.04055264741691
 31
0.0
  0
LINE
  5
1AB
330
70
100
AcDbEntity
  8
Modo de isolamento
 62
     7
370
    35
100
AcDbLine
 10
0.8062422791341569
 20
-32.04055264741691
 30
0.0
 11
0.9215991482730693
 21
-28.73502659301326
 31
0.0
  0
LINE
  5
1AC
330
70
100
AcDbEntity
  8
Modo de isolamento
 62
     7
370
    35
100
AcDbLine
 10
0.9215991482730693
 20
-28.73502659301326
 30
0.0
 11
0.52190347644374
 21
-28.72092323337052
 31
0.0
  0
LINE
  5
1AD
330
70
100
AcDbEntity
  8
Modo de isolamento
 62
     7
370
    35
100
AcDbLine
 10
67.66609316709585
 20
-32.0267937973227
 30
0.0
 11
67.55073629795693
 21
-28.72092323337052
 31
0.0
  0
LINE
  5
1AE
330
70
100
AcDbEntity
  8
Modo de isolamento
 62
     7
370
    35
100
AcDbLine
 10
67.15104062612761
 20
-28.73502659301326
 30
0.0
 11
67.26639749526651
 21
-32.04055264741691
 31
0.0
  0
LINE
  5
1AF
330
70
100
AcDbEntity
  8
Modo de isolamento
 62
     7
370
    35
100
AcDbLine
 10
67.26639749526651
 20
-32.04055264741691
 30
0.0
 11
67.66609316709585
 21
-32.0267937973227
 31
0.0
  0
LINE
  5
1B0
330
70
100
AcDbEntity
  8
Modo de isolamento
 62
     7
370
    35
100
AcDbLine
 10
67.15104062612761
 20
-28.73502659301326
 30
0.0
 11
67.55073629795693
 21
-28.72092323337052
 31
0.0
  0
LWPOLYLINE
  5
1B1
330
70
100
AcDbEntity
  8
Modo de isolamento
 62
     7
370
    35
100
AcDbPolyline
 90
        4
 70
     0
 43
0.0
 10
1.321294820102399
 20
-27.94902805805351
 10
1.321294820102399
 20
-28.05169190351395
 10
1.321294820102399
 20
-28.33285475880391
 10
1.321294820102399
 20
-28.72092323337052
  0
LWPOLYLINE
  5
1B2
330
70
100
AcDbEntity
  8
Modo de isolamento
 62
     7
370
    35
100
AcDbPolyline
 90
        4
 70
     0
 43
0.0
 10
66.75134495429827
 20
-27.94902805805351
 10
66.75134495429827
 20
-28.05169190351395
 10
66.75134495429827
 20
-28.33285475880391
 10
66.75134495429827
 20
-28.72092323337052
  0
LINE
  5
1B3
330
70
100
AcDbEntity
  8
Modo de isolamento
 62
     7
370
    35
100
AcDbLine
 10
1.321294820102399
 20
-27.94902805805351
 30
0.0
 11
66.75134495429827
 21
-27.94902805805351
 31
0.0
  0
LINE
  5
1B4
330
70
100
AcDbEntity
  8
Modo de isolamento
 62
     7
370
    35
100
AcDbLine
 10
66.25885778875842
 20
-32.04055264741691
 30
0.0
 11
66.75134495429827
 21
-28.73502659301326
 31
0.0
  0
LINE
  5
1B5
330
70
100
AcDbEntity
  8
Modo de isolamento
 62
     7
370
    35
100
AcDbLine
 10
66.75134495429827
 20
-28.73502659301326
 30
0.0
 11
66.75134495429827
 21
-28.72092323337052
 31
0.0
  0
LINE
  5
1B6
330
70
100
AcDbEntity
  8
Modo de isolamento
 62
     7
370
    35
100
AcDbLine
 10
1.321294820102399
 20
-28.73502659301326
 30
0.0
 11
1.813415944246946
 21
-32.04055264741691
 31
0.0
  0
LINE
  5
1B7
330
70
100
AcDbEntity
  8
Modo de isolamento
 62
     7
370
    35
100
AcDbLine
 10
1.321294820102399
 20
-28.73502659301326
 30
0.0
 11
1.321294820102399
 21
-28.72092323337052
 31
0.0
  0
LINE
  5
1B8
330
70
100
AcDbEntity
  8
Modo de isolamento
 62
     7
370
    35
100
AcDbLine
 10
62.30245630388054
 20
-35.44979760777337
 30
0.0
 11
5.770172704596733
 21
-35.44979760777337
 31
0.0
  0
LWPOLYLINE
  5
1B9
330
70
100
AcDbEntity
  8
Modo de isolamento
 62
     7
370
    35
100
AcDbPolyline
 90
        7
 70
     0
 43
0.0
 10
66.25885778875842
 20
-32.04055264741691
 10
66.00979891702164
 20
-32.95317997330638
 10
65.55330223337925
 20
-33.78151011904114
 10
64.91443080748645
 20
-34.47965871912702
 10
64.12949809894245
 20
-35.00848087611287
 10
63.24225682040992
 20
-35.33761668603492
 10
62.30245630388054
 20
-35.44979760777337
  0
LINE
  5
1BA
330
70
100
AcDbEntity
  8
Modo de isolamento
 62
     7
370
    35
100
AcDbLine
 10
66.25885778875842
 20
-32.0267937973227
 30
0.0
 11
66.25885778875842
 21
-32.04055264741691
 31
0.0
  0
LINE
  5
1BB
330
70
100
AcDbEntity
  8
Modo de isolamento
 62
     7
370
    35
100
AcDbLine
 10
62.30245630388054
 20
-35.44979760777337
 30
0.0
 11
62.30245630388054
 21
-35.43569424813063
 31
0.0
  0
LINE
  5
1BC
330
70
100
AcDbEntity
  8
Modo de isolamento
 62
     7
370
    35
100
AcDbLine
 10
1.813415944246946
 20
-32.0267937973227
 30
0.0
 11
1.321294820102399
 21
-28.72092323337052
 31
0.0
  0
LINE
  5
1BD
330
70
100
AcDbEntity
  8
Modo de isolamento
 62
     7
370
    35
100
AcDbLine
 10
62.30245630388054
 20
-35.43569424813063
 30
0.0
 11
5.770172704596733
 21
-35.43569424813063
 31
0.0
  0
LWPOLYLINE
  5
1BE
330
70
100
AcDbEntity
  8
Modo de isolamento
 62
     7
370
    35
100
AcDbPolyline
 90
        7
 70
     0
 43
0.0
 10
62.30245630388054
 20
-35.43569424813063
 10
63.24225682040992
 20
-35.32385783594071
 10
64.12949809894245
 20
-34.99435598462334
 10
64.91443080748645
 20
-34.4658998690328
 10
65.55330223337925
 20
-33.76775126894692
 10
66.00979891702164
 20
-32.93907661366364
 10
66.25885778875842
 20
-32.0267937973227
  0
LINE
  5
1BF
330
70
100
AcDbEntity
  8
Modo de isolamento
 62
     7
370
    35
100
AcDbLine
 10
66.75134495429827
 20
-28.72092323337052
 30
0.0
 11
66.25885778875842
 21
-32.0267937973227
 31
0.0
  0
LWPOLYLINE
  5
1C0
330
70
100
AcDbEntity
  8
Modo de isolamento
 62
     7
370
    35
100
AcDbPolyline
 90
        7
 70
     0
 43
0.0
 10
5.770172704596733
 20
-35.44979760777337
 10
4.830016912595444
 20
-35.33761668603492
 10
3.943141675458221
 20
-35.00848087611287
 10
3.15820896691422
 20
-34.47965871912702
 10
2.51932677509803
 20
-33.78151011904114
 10
2.062830091455643
 20
-32.95317997330638
 10
1.813415944246946
 20
-32.04055264741691
  0
LINE
  5
1C1
330
70
100
AcDbEntity
  8
Modo de isolamento
 62
     7
370
    35
100
AcDbLine
 10
5.770172704596733
 20
-35.43569424813063
 30
0.0
 11
5.770172704596733
 21
-35.44979760777337
 31
0.0
  0
LWPOLYLINE
  5
1C2
330
70
100
AcDbEntity
  8
Modo de isolamento
 62
     7
370
    35
100
AcDbPolyline
 90
        7
 70
     0
 43
0.0
 10
1.813415944246946
 20
-32.0267937973227
 10
2.062830091455643
 20
-32.93907661366364
 10
2.51932677509803
 20
-33.76775126894692
 10
3.15820896691422
 20
-34.4658998690328
 10
3.943141675458221
 20
-34.99435598462334
 10
4.830016912595444
 20
-35.32385783594071
 10
5.770172704596733
 20
-35.43569424813063
  0
LINE
  5
1C3
330
70
100
AcDbEntity
  8
Modo de isolamento
 62
     7
370
    35
100
AcDbLine
 10
1.813415944246946
 20
-32.04055264741691
 30
0.0
 11
1.813415944246946
 21
-32.0267937973227
 31
0.0
  0
LWPOLYLINE
  5
1C4
330
70
100
AcDbEntity
  8
Modo de isolamento
 62
     7
370
    35
100
AcDbPolyline
 90
       17
 70
     0
 43
0.0
 10
1.536139587301291
 20
-172.54911652288
 10
1.540015319722198
 20
-172.6274386155525
 10
1.551653282908307
 20
-172.7050501572811
 10
1.570708967311095
 20
-172.7812513630455
 10
1.597160841083779
 20
-172.8549764064299
 10
1.630675160601225
 20
-172.9262360533576
 10
1.671251925863434
 20
-172.9932646923925
 10
1.717814544531264
 20
-173.0564175990065
 10
1.770729058000023
 20
-173.1146181808604
 10
1.828940405777353
 20
-173.1675434602526
 10
1.891738036919423
 20
-173.2141060789204
 10
1.95911118550284
 20
-173.2546720782592
 10
2.03002632288203
 20
-173.2881863977766
 10
2.104106641738293
 20
-173.3146490374727
 10
2.180307847502663
 20
-173.3336939559521
 10
2.257919389231306
 20
-173.3449874095897
 10
2.336230715980392
 20
-173.3488631420106
  0
LINE
  5
1C5
330
70
100
AcDbEntity
  8
Modo de isolamento
 62
     7
370
    35
100
AcDbLine
 10
2.346469109125619
 20
-173.3488631420106
 30
0.0
 11
2.336230715980392
 21
-173.3488631420106
 31
0.0
  0
LINE
  5
1C6
330
70
100
AcDbEntity
  8
Modo de isolamento
 62
     7
370
    35
100
AcDbLine
 10
65.73639829249689
 20
-173.3488631420106
 30
0.0
 11
65.72617066527505
 21
-173.3488631420106
 31
0.0
  0
LWPOLYLINE
  5
1C7
330
70
100
AcDbEntity
  8
Modo de isolamento
 62
     7
370
    35
100
AcDbPolyline
 90
       17
 70
     0
 43
0.0
 10
66.53614491162746
 20
-172.54911652288
 10
66.53226917920656
 20
-172.6274386155525
 10
66.52097572556897
 20
-172.7050501572811
 10
66.50193080708958
 20
-172.7812513630455
 10
66.4754681673935
 20
-172.8549764064299
 10
66.44195384787605
 20
-172.9262360533576
 10
66.40138784853724
 20
-172.9936199678644
 10
66.35481446394601
 20
-173.0564175990065
 10
66.30189995047726
 20
-173.1146181808604
 10
66.24368860269993
 20
-173.1675434602526
 10
66.18090173748125
 20
-173.2141060789204
 10
66.11351782297444
 20
-173.2546720782592
 10
66.04261345151865
 20
-173.2881863977766
 10
65.968522366739
 20
-173.3146490374727
 10
65.89232116097462
 20
-173.3336939559521
 10
65.81472038516936
 20
-173.3449874095897
 10
65.73639829249689
 20
-173.3488631420106
  0
LINE
  5
1C8
330
70
100
AcDbEntity
  8
Modo de isolamento
 62
     7
370
    35
100
AcDbLine
 10
1.536139587301291
 20
-172.54911652288
 30
0.0
 11
1.536139587301291
 21
-30.18071784970479
 31
0.0
  0
LINE
  5
1C9
330
70
100
AcDbEntity
  8
Modo de isolamento
 62
     7
370
    35
100
AcDbLine
 10
66.53614491162746
 20
-30.18071784970479
 30
0.0
 11
66.53614491162746
 21
-172.54911652288
 31
0.0
  0
LINE
  5
1CA
330
70
100
AcDbEntity
  8
Modo de isolamento
 62
     7
370
    35
100
AcDbLine
 10
2.346469109125619
 20
-173.3488631420106
 30
0.0
 11
65.72617066527505
 21
-173.3488631420106
 31
0.0
  0
LWPOLYLINE
  5
1CB
330
70
100
AcDbEntity
  8
Modo de isolamento
 62
     7
370
    35
100
AcDbPolyline
 90
        3
 70
     0
 43
0.0
 10
35.68784483321247
 20
-27.85060598640928
 10
35.68784483321247
 20
-27.92011078782419
 10
35.68784483321247
 20
-27.94902805805351
  0
LWPOLYLINE
  5
1CC
330
70
100
AcDbEntity
  8
Modo de isolamento
 62
     7
370
    35
100
AcDbPolyline
 90
        3
 70
     0
 43
0.0
 10
32.38478417526513
 20
-27.94902805805351
 10
32.38478417526513
 20
-27.92011078782419
 10
32.38478417526513
 20
-27.85060598640928
  0
LINE
  5
1CD
330
70
100
AcDbEntity
  8
Modo de isolamento
 62
     7
370
    35
100
AcDbLine
 10
32.38478417526513
 20
-27.85060598640928
 30
0.0
 11
35.68784483321247
 21
-27.85060598640928
 31
0.0
  0
LINE
  5
1CE
330
70
100
AcDbEntity
  8
Modo de isolamento
 62
     7
370
    35
100
AcDbLine
 10
35.89704825655427
 20
-20.89805878762658
 30
0.0
 11
35.78767724082066
 21
-27.85060598640928
 31
0.0
  0
LINE
  5
1CF
330
70
100
AcDbEntity
  8
Modo de isolamento
 62
     7
370
    35
100
AcDbLine
 10
35.68784483321247
 20
-27.85060598640928
 30
0.0
 11
35.79720508302205
 21
-20.89805878762658
 31
0.0
  0
LWPOLYLINE
  5
1D0
330
70
100
AcDbEntity
  8
Modo de isolamento
 62
     7
370
    35
100
AcDbPolyline
 90
        3
 70
     0
 43
0.0
 10
35.78767724082066
 20
-27.85060598640928
 10
35.75840469511943
 20
-27.85131653735311
 10
35.68784483321247
 20
-27.85060598640928
  0
LINE
  5
1D1
330
70
100
AcDbEntity
  8
Modo de isolamento
 62
     7
370
    35
100
AcDbLine
 10
32.27542392545523
 20
-20.89805878762658
 30
0.0
 11
32.38478417526513
 21
-27.85060598640928
 31
0.0
  0
LINE
  5
1D2
330
70
100
AcDbEntity
  8
Modo de isolamento
 62
     7
370
    35
100
AcDbLine
 10
32.28459649218471
 20
-27.85060598640928
 30
0.0
 11
32.17559151784673
 21
-20.89805878762658
 31
0.0
  0
LWPOLYLINE
  5
1D3
330
70
100
AcDbEntity
  8
Modo de isolamento
 62
     7
370
    35
100
AcDbPolyline
 90
        3
 70
     0
 43
0.0
 10
32.38478417526513
 20
-27.85060598640928
 10
32.31387980380933
 20
-27.85131653735311
 10
32.28459649218471
 20
-27.85060598640928
  0
LINE
  5
1D4
330
70
100
AcDbEntity
  8
Modo de isolamento
 62
     7
370
    35
100
AcDbLine
 10
35.79720508302205
 20
-20.89805878762658
 30
0.0
 11
32.27542392545523
 21
-20.89805878762658
 31
0.0
  0
LWPOLYLINE
  5
1D5
330
70
100
AcDbEntity
  8
Modo de isolamento
 62
     7
370
    35
100
AcDbPolyline
 90
        3
 70
     0
 43
0.0
 10
35.79720508302205
 20
-20.89805878762658
 10
35.79720508302205
 20
-20.86350017354017
 10
35.79720508302205
 20
-20.84903077250212
  0
LINE
  5
1D6
330
70
100
AcDbEntity
  8
Modo de isolamento
 62
     7
370
    35
100
AcDbLine
 10
35.89704825655427
 20
-20.89805878762658
 30
0.0
 11
35.79720508302205
 21
-20.89805878762658
 31
0.0
  0
LWPOLYLINE
  5
1D7
330
70
100
AcDbEntity
  8
Modo de isolamento
 62
     7
370
    35
100
AcDbPolyline
 90
        3
 70
     0
 43
0.0
 10
32.27542392545523
 20
-20.89805878762658
 10
32.27542392545523
 20
-20.86350017354017
 10
32.27542392545523
 20
-20.84903077250212
  0
LINE
  5
1D8
330
70
100
AcDbEntity
  8
Modo de isolamento
 62
     7
370
    35
100
AcDbLine
 10
32.27542392545523
 20
-20.89805878762658
 30
0.0
 11
32.17559151784673
 21
-20.89805878762658
 31
0.0
  0
LINE
  5
1D9
330
70
100
AcDbEntity
  8
Modo de isolamento
 62
     7
370
    35
100
AcDbLine
 10
39.6862334193165
 20
-20.84903077250212
 30
0.0
 11
28.38640635508417
 21
-20.84903077250212
 31
0.0
  0
LWPOLYLINE
  5
1DA
330
70
100
AcDbEntity
  8
Modo de isolamento
 62
     7
370
    35
100
AcDbPolyline
 90
        3
 70
     0
 43
0.0
 10
28.38640635508417
 20
-19.14900534161202
 10
28.31549121770498
 20
-19.14900534161202
 10
28.28621867200375
 20
-19.14900534161202
  0
LWPOLYLINE
  5
1DB
330
70
100
AcDbEntity
  8
Modo de isolamento
 62
     7
370
    35
100
AcDbPolyline
 90
        3
 70
     0
 43
0.0
 10
39.78642110239693
 20
-19.14900534161202
 10
39.75713779077231
 20
-19.14900534161202
 10
39.6862334193165
 20
-19.14900534161202
  0
LWPOLYLINE
  5
1DC
330
70
100
AcDbEntity
  8
Modo de isolamento
 62
     7
370
    35
100
AcDbPolyline
 90
        3
 70
     0
 43
0.0
 10
28.38640635508417
 20
-19.19908841722884
 10
28.28022205267473
 20
-19.19908841722884
 10
28.23612483046354
 20
-19.19908841722884
  0
LINE
  5
1DD
330
70
100
AcDbEntity
  8
Modo de isolamento
 62
     7
370
    35
100
AcDbLine
 10
28.23612483046354
 20
-20.7989476968853
 30
0.0
 11
28.23612483046354
 21
-19.19908841722884
 31
0.0
  0
LINE
  5
1DE
330
70
100
AcDbEntity
  8
Modo de isolamento
 62
     7
370
    35
100
AcDbLine
 10
28.38640635508417
 20
-20.7989476968853
 30
0.0
 11
39.6862334193165
 21
-20.7989476968853
 31
0.0
  0
LINE
  5
1DF
330
70
100
AcDbEntity
  8
Modo de isolamento
 62
     7
370
    35
100
AcDbLine
 10
28.38640635508417
 20
-19.19908841722884
 30
0.0
 11
28.38640635508417
 21
-20.7989476968853
 31
0.0
  0
LWPOLYLINE
  5
1E0
330
70
100
AcDbEntity
  8
Modo de isolamento
 62
     7
370
    35
100
AcDbPolyline
 90
        3
 70
     0
 43
0.0
 10
28.38640635508417
 20
-20.7989476968853
 10
28.38640635508417
 20
-20.83421686191554
 10
28.38640635508417
 20
-20.84903077250212
  0
LWPOLYLINE
  5
1E1
330
70
100
AcDbEntity
  8
Modo de isolamento
 62
     7
370
    35
100
AcDbPolyline
 90
        3
 70
     0
 43
0.0
 10
28.38640635508417
 20
-20.7989476968853
 10
28.28022205267473
 20
-20.7989476968853
 10
28.23612483046354
 20
-20.7989476968853
  0
LWPOLYLINE
  5
1E2
330
70
100
AcDbEntity
  8
Modo de isolamento
 62
     7
370
    35
100
AcDbPolyline
 90
        3
 70
     0
 43
0.0
 10
28.28621867200375
 20
-20.84903077250212
 10
28.31549121770498
 20
-20.84903077250212
 10
28.38640635508417
 20
-20.84903077250212
  0
LWPOLYLINE
  5
1E3
330
70
100
AcDbEntity
  8
Modo de isolamento
 62
     7
370
    35
100
AcDbPolyline
 90
        3
 70
     0
 43
0.0
 10
39.83615966846522
 20
-19.19908841722884
 10
39.79241772172626
 20
-19.19908841722884
 10
39.6862334193165
 20
-19.19908841722884
  0
LINE
  5
1E4
330
70
100
AcDbEntity
  8
Modo de isolamento
 62
     7
370
    35
100
AcDbLine
 10
39.6862334193165
 20
-20.7989476968853
 30
0.0
 11
39.6862334193165
 21
-19.19908841722884
 31
0.0
  0
LINE
  5
1E5
330
70
100
AcDbEntity
  8
Modo de isolamento
 62
     7
370
    35
100
AcDbLine
 10
39.83615966846522
 20
-19.19908841722884
 30
0.0
 11
39.83615966846522
 21
-20.7989476968853
 31
0.0
  0
LINE
  5
1E6
330
70
100
AcDbEntity
  8
Modo de isolamento
 62
     7
370
    35
100
AcDbLine
 10
39.6862334193165
 20
-19.19908841722884
 30
0.0
 11
28.38640635508417
 21
-19.19908841722884
 31
0.0
  0
LWPOLYLINE
  5
1E7
330
70
100
AcDbEntity
  8
Modo de isolamento
 62
     7
370
    35
100
AcDbPolyline
 90
        3
 70
     0
 43
0.0
 10
39.6862334193165
 20
-19.19908841722884
 10
39.6862334193165
 20
-19.16345321080329
 10
39.6862334193165
 20
-19.14900534161202
  0
LINE
  5
1E8
330
70
100
AcDbEntity
  8
Modo de isolamento
 62
     7
370
    35
100
AcDbLine
 10
28.38640635508417
 20
-19.14900534161202
 30
0.0
 11
39.6862334193165
 21
-19.14900534161202
 31
0.0
  0
LWPOLYLINE
  5
1E9
330
70
100
AcDbEntity
  8
Modo de isolamento
 62
     7
370
    35
100
AcDbPolyline
 90
        3
 70
     0
 43
0.0
 10
28.38640635508417
 20
-19.14900534161202
 10
28.38640635508417
 20
-19.16345321080329
 10
28.38640635508417
 20
-19.19908841722884
  0
LWPOLYLINE
  5
1EA
330
70
100
AcDbEntity
  8
Modo de isolamento
 62
     7
370
    35
100
AcDbPolyline
 90
        3
 70
     0
 43
0.0
 10
39.83615966846522
 20
-20.7989476968853
 10
39.79241772172626
 20
-20.7989476968853
 10
39.6862334193165
 20
-20.7989476968853
  0
LWPOLYLINE
  5
1EB
330
70
100
AcDbEntity
  8
Modo de isolamento
 62
     7
370
    35
100
AcDbPolyline
 90
        3
 70
     0
 43
0.0
 10
39.6862334193165
 20
-20.84903077250212
 10
39.6862334193165
 20
-20.83421686191554
 10
39.6862334193165
 20
-20.7989476968853
  0
LINE
  5
1EC
330
70
100
AcDbEntity
  8
Modo de isolamento
 62
     7
370
    35
100
AcDbLine
 10
100.0709770886308
 20
-67.94326261692507
 30
0.0
 11
100.0709770886308
 21
-72.53899509628583
 31
0.0
  0
LWPOLYLINE
  5
1ED
330
70
100
AcDbEntity
  8
Modo de isolamento
 62
     7
370
    35
100
AcDbPolyline
 90
        3
 70
     0
 43
0.0
 10
39.6862334193165
 20
-20.84903077250212
 10
39.75713779077231
 20
-20.84903077250212
 10
39.78642110239693
 20
-20.84903077250212
  0
MTEXT
  5
1EE
330
70
100
AcDbEntity
  8
Modo de isolamento
100
AcDbMText
 10
178.6349834419406
 20
-126.9975884014103
 30
0.0
 40
0.2
 41
0.0
 46
0.0
 71
     7
 72
     1
  1
\C250;\FMyriad Pro|b0|i0|c1;\H5.245100;\W1.000000;210
 11
0.0000000000000001
 21
1.0
 31
0.0
 73
     1
 44
1.0
  0
MTEXT
  5
1EF
330
70
100
AcDbEntity
  8
Modo de isolamento
100
AcDbMText
 10
79.84969107433011
 20
-61.26826712878016
 30
0.0
 40
0.2
 41
0.0
 46
0.0
 71
     7
 72
     1
  1
\C250;\FMyriad Pro|b0|i0|c1;\H5.744633;\W1.000000;520
 11
0.0000000000000001
 21
1.0
 31
0.0
 73
     1
 44
1.0
  0
ENDSEC
  0
SECTION
  2
OBJECTS
  0
DICTIONARY
  5
C
330
0
100
AcDbDictionary
281
     1
  3
ACAD_COLOR
350
63
  3
ACAD_DETAILVIEWSTYLE
350
6A
  3
ACAD_GROUP
350
D
  3
ACAD_LAYOUT
350
62
  3
ACAD_MATERIAL
350
10
  3
ACAD_MLEADERSTYLE
350
66
  3
ACAD_MLINESTYLE
350
5F
  3
ACAD_PLOTSETTINGS
350
61
  3
ACAD_PLOTSTYLENAME
350
E
  3
ACAD_SCALELIST
350
42
  3
ACAD_SECTIONVIEWSTYLE
350
68
  3
ACAD_TABLESTYLE
350
64
  3
ACAD_VISUALSTYLE
350
29
  3
ACDB_RECOMPOSE_DATA
350
1F8
  3
AcDbVariableDictionary
350
1F0
  0
DICTIONARY
  5
63
102
{ACAD_REACTORS
330
C
102
}
330
C
100
AcDbDictionary
281
     1
  0
DICTIONARY
  5
6A
102
{ACAD_REACTORS
330
C
102
}
330
C
100
AcDbDictionary
281
     1
  3
Imperial24
350
6B
  0
DICTIONARY
  5
D
102
{ACAD_REACTORS
330
C
102
}
330
C
100
AcDbDictionary
281
     1
  0
DICTIONARY
  5
62
102
{ACAD_REACTORS
330
C
102
}
330
C
100
AcDbDictionary
281
     1
  3
Layout1
350
6F
  3
Layout2
350
77
  3
Model
350
73
  0
DICTIONARY
  5
10
102
{ACAD_REACTORS
330
C
102
}
330
C
100
AcDbDictionary
281
     1
  3
ByBlock
350
19
  3
ByLayer
350
11
  3
Global
350
21
  0
DICTIONARY
  5
66
102
{ACAD_REACTORS
330
C
102
}
330
C
100
AcDbDictionary
281
     1
  3
Standard
350
67
  0
DICTIONARY
  5
5F
102
{ACAD_REACTORS
330
C
102
}
330
C
100
AcDbDictionary
281
     1
  3
Standard
350
60
  0
DICTIONARY
  5
61
102
{ACAD_REACTORS
330
C
102
}
330
C
100
AcDbDictionary
281
     1
  0
ACDBDICTIONARYWDFLT
  5
E
102
{ACAD_REACTORS
330
C
102
}
330
C
100
AcDbDictionary
281
     1
  3
Normal
350
F
100
AcDbDictionaryWithDefault
340
F
  0
DICTIONARY
  5
42
102
{ACAD_REACTORS
330
C
102
}
330
C
100
AcDbDictionary
281
     1
  3
A0
350
43
  3
A1
350
44
  3
A2
350
45
  3
A3
350
46
  3
A4
350
47
  3
A5
350
48
  3
A6
350
49
  3
A7
350
4A
  3
A8
350
4B
  3
A9
350
4C
  3
B0
350
4D
  3
B1
350
4E
  3
B2
350
4F
  3
B3
350
50
  3
B4
350
51
  3
B5
350
52
  3
B6
350
53
  0
DICTIONARY
  5
68
102
{ACAD_REACTORS
330
C
102
}
330
C
100
AcDbDictionary
281
     1
  3
Imperial24
350
69
  0
DICTIONARY
  5
64
102
{ACAD_REACTORS
330
C
102
}
330
C
100
AcDbDictionary
281
     1
  3
Standard
350
65
  0
DICTIONARY
  5
29
102
{ACAD_REACTORS
330
C
102
}
330
C
100
AcDbDictionary
281
     1
  3
2dWireframe
350
2F
  3
Basic
350
2E
  3
Brighten
350
35
  3
ColorChange
350
39
  3
Conceptual
350
32
  3
Dim
350
34
  3
EdgeColorOff
350
41
  3
Facepattern
350
38
  3
Flat
350
2A
  3
FlatWithEdges
350
2B
  3
Gouraud
350
2C
  3
GouraudWithEdges
350
2D
  3
Hidden
350
31
  3
JitterOff
350
3F
  3
Linepattern
350
37
  3
OverhangOff
350
40
  3
Realistic
350
33
  3
Shaded
350
3E
  3
Shaded with edges
350
3D
  3
Shades of Gray
350
3A
  3
Sketchy
350
3B
  3
Thicken
350
36
  3
Wireframe
350
30
  3
X-Ray
350
3C
  0
XRECORD
  5
1F8
102
{ACAD_REACTORS
330
C
102
}
330
C
100
AcDbXrecord
280
     1
 90
        1
330
65
  0
DICTIONARY
  5
1F0
102
{ACAD_REACTORS
330
C
102
}
330
C
100
AcDbDictionary
281
     1
  3
CANNOSCALE
350
1F5
  3
CMLEADERSTYLE
350
1F2
  3
CTABLESTYLE
350
1F1
  3
CVIEWDETAILSTYLE
350
1F3
  3
CVIEWSECTIONSTYLE
350
1F4
  0
ACDBDETAILVIEWSTYLE
  5
6B
102
{ACAD_REACTORS
330
6A
102
}
330
6A
100
AcDbModelDocViewStyle
 70
     0
  3
Imperial24
290
     1
300
Imperial24
 90
        0
100
AcDbDetailViewStyle
 70
     0
 71
     0
 90
        3
 71
     1
340
55
 62
   256
 40
0.24
340
0
 62
   256
 40
0.24
300

 40
0.36
280
     3
 71
     2
340
5D
 90
       25
 62
   256
 71
     3
340
55
 62
   256
 40
0.24
 90
        1
 40
0.75
 90
        1
300
%<\AcVar ViewType \f "%tc1">% %<\AcVar ViewDetailId>%\PSCALE %<\AcVar ViewScale \f "%sn">%
 71
     4
340
5D
 90
       25
 62
   256
340
5D
 90
       25
 62
   256
280
     0
  0
LAYOUT
  5
6F
102
{ACAD_REACTORS
330
62
102
}
330
62
100
AcDbPlotSettings
  1

  2

  4

  6

 40
0.0
 41
0.0
 42
0.0
 43
0.0
 44
0.0
 45
0.0
 46
0.0
 47
0.0
 48
0.0
 49
0.0
140
0.0
141
0.0
142
1.0
143
1.0
 70
   688
 72
     0
 73
     0
 74
     5
  7

 75
    16
147
1.0
 76
     0
 77
     2
 78
   300
148
0.0
149
0.0
100
AcDbLayout
  1
Layout1
 70
     1
 71
     1
 10
0.0
 20
0.0
 11
12.0
 21
9.0
 12
0.0
 22
0.0
 32
0.0
 14
0.0
 24
0.0
 34
0.0
 15
0.0
 25
0.0
 35
0.0
146
0.0
 13
0.0
 23
0.0
 33
0.0
 16
1.0
 26
0.0
 36
0.0
 17
0.0
 27
1.0
 37
0.0
 76
     0
330
6C
  0
LAYOUT
  5
77
102
{ACAD_REACTORS
330
62
102
}
330
62
100
AcDbPlotSettings
  1

  2

  4

  6

 40
0.0
 41
0.0
 42
0.0
 43
0.0
 44
0.0
 45
0.0
 46
0.0
 47
0.0
 48
0.0
 49
0.0
140
0.0
141
0.0
142
1.0
143
1.0
 70
   688
 72
     0
 73
     0
 74
     5
  7

 75
    16
147
1.0
 76
     0
 77
     2
 78
   300
148
0.0
149
0.0
100
AcDbLayout
  1
Layout2
 70
     1
 71
     2
 10
0.0
 20
0.0
 11
12.0
 21
9.0
 12
0.0
 22
0.0
 32
0.0
 14
0.0
 24
0.0
 34
0.0
 15
0.0
 25
0.0
 35
0.0
146
0.0
 13
0.0
 23
0.0
 33
0.0
 16
1.0
 26
0.0
 36
0.0
 17
0.0
 27
1.0
 37
0.0
 76
     0
330
74
  0
LAYOUT
  5
73
102
{ACAD_REACTORS
330
62
102
}
330
62
100
AcDbPlotSettings
  1

  2

  4

  6

 40
0.0
 41
0.0
 42
0.0
 43
0.0
 44
0.0
 45
0.0
 46
0.0
 47
0.0
 48
0.0
 49
0.0
140
0.0
141
0.0
142
1.0
143
1.0
 70
  1712
 72
     0
 73
     0
 74
     0
  7

 75
     0
147
1.0
 76
     0
 77
     2
 78
   300
148
0.0
149
0.0
100
AcDbLayout
  1
Model
 70
     1
 71
     0
 10
0.0
 20
0.0
 11
12.0
 21
9.0
 12
0.0
 22
0.0
 32
0.0
 14
0.0
 24
0.0
 34
0.0
 15
0.0
 25
0.0
 35
0.0
146
0.0
 13
0.0
 23
0.0
 33
0.0
 16
1.0
 26
0.0
 36
0.0
 17
0.0
 27
1.0
 37
0.0
 76
     0
330
70
  0
MATERIAL
  5
19
102
{ACAD_XDICTIONARY
360
1A
102
}
102
{ACAD_REACTORS
330
10
102
}
330
10
100
AcDbMaterial
  1
ByBlock
 72
     0
 43
0.0208333333333333
 43
0.0
 43
0.0
 43
0.0
 43
0.0
 43
0.0208333333333333
 43
0.0
 43
0.0
 43
0.0
 43
0.0
 43
1.0
 43
0.0
 43
0.0
 43
0.0
 43
0.0
 43
1.0
 77
     0
 47
0.0208333333333333
 47
0.0
 47
0.0
 47
0.0
 47
0.0
 47
0.0208333333333333
 47
0.0
 47
0.0
 47
0.0
 47
0.0
 47
1.0
 47
0.0
 47
0.0
 47
0.0
 47
0.0
 47
1.0
171
     0
 49
0.0208333333333333
 49
0.0
 49
0.0
 49
0.0
 49
0.0
 49
0.0208333333333333
 49
0.0
 49
0.0
 49
0.0
 49
0.0
 49
1.0
 49
0.0
 49
0.0
 49
0.0
 49
0.0
 49
1.0
175
     0
142
0.0208333333333333
142
0.0
142
0.0
142
0.0
142
0.0
142
0.0208333333333333
142
0.0
142
0.0
142
0.0
142
0.0
142
1.0
142
0.0
142
0.0
142
0.0
142
0.0
142
1.0
179
     0
144
0.0208333333333333
144
0.0
144
0.0
144
0.0
144
0.0
144
0.0208333333333333
144
0.0
144
0.0
144
0.0
144
0.0
144
1.0
144
0.0
144
0.0
144
0.0
144
0.0
144
1.0
147
0.0208333333333333
147
0.0
147
0.0
147
0.0
147
0.0
147
0.0208333333333333
147
0.0
147
0.0
147
0.0
147
0.0
147
1.0
147
0.0
147
0.0
147
0.0
147
0.0
147
1.0
  0
MATERIAL
  5
11
102
{ACAD_XDICTIONARY
360
12
102
}
102
{ACAD_REACTORS
330
10
102
}
330
10
100
AcDbMaterial
  1
ByLayer
 72
     0
 43
0.0208333333333333
 43
0.0
 43
0.0
 43
0.0
 43
0.0
 43
0.0208333333333333
 43
0.0
 43
0.0
 43
0.0
 43
0.0
 43
1.0
 43
0.0
 43
0.0
 43
0.0
 43
0.0
 43
1.0
 77
     0
 47
0.0208333333333333
 47
0.0
 47
0.0
 47
0.0
 47
0.0
 47
0.0208333333333333
 47
0.0
 47
0.0
 47
0.0
 47
0.0
 47
1.0
 47
0.0
 47
0.0
 47
0.0
 47
0.0
 47
1.0
171
     0
 49
0.0208333333333333
 49
0.0
 49
0.0
 49
0.0
 49
0.0
 49
0.0208333333333333
 49
0.0
 49
0.0
 49
0.0
 49
0.0
 49
1.0
 49
0.0
 49
0.0
 49
0.0
 49
0.0
 49
1.0
175
     0
142
0.0208333333333333
142
0.0
142
0.0
142
0.0
142
0.0
142
0.0208333333333333
142
0.0
142
0.0
142
0.0
142
0.0
142
1.0
142
0.0
142
0.0
142
0.0
142
0.0
142
1.0
179
     0
144
0.0208333333333333
144
0.0
144
0.0
144
0.0
144
0.0
144
0.0208333333333333
144
0.0
144
0.0
144
0.0
144
0.0
144
1.0
144
0.0
144
0.0
144
0.0
144
0.0
144
1.0
147
0.0208333333333333
147
0.0
147
0.0
147
0.0
147
0.0
147
0.0208333333333333
147
0.0
147
0.0
147
0.0
147
0.0
147
1.0
147
0.0
147
0.0
147
0.0
147
0.0
147
1.0
  0
MATERIAL
  5
21
102
{ACAD_XDICTIONARY
360
22
102
}
102
{ACAD_REACTORS
330
10
102
}
330
10
100
AcDbMaterial
  1
Global
 72
     0
 43
0.0208333333333333
 43
0.0
 43
0.0
 43
0.0
 43
0.0
 43
0.0208333333333333
 43
0.0
 43
0.0
 43
0.0
 43
0.0
 43
1.0
 43
0.0
 43
0.0
 43
0.0
 43
0.0
 43
1.0
 77
     0
 47
0.0208333333333333
 47
0.0
 47
0.0
 47
0.0
 47
0.0
 47
0.0208333333333333
 47
0.0
 47
0.0
 47
0.0
 47
0.0
 47
1.0
 47
0.0
 47
0.0
 47
0.0
 47
0.0
 47
1.0
171
     0
 49
0.0208333333333333
 49
0.0
 49
0.0
 49
0.0
 49
0.0
 49
0.0208333333333333
 49
0.0
 49
0.0
 49
0.0
 49
0.0
 49
1.0
 49
0.0
 49
0.0
 49
0.0
 49
0.0
 49
1.0
175
     0
142
0.0208333333333333
142
0.0
142
0.0
142
0.0
142
0.0
142
0.0208333333333333
142
0.0
142
0.0
142
0.0
142
0.0
142
1.0
142
0.0
142
0.0
142
0.0
142
0.0
142
1.0
179
     0
144
0.0208333333333333
144
0.0
144
0.0
144
0.0
144
0.0
144
0.0208333333333333
144
0.0
144
0.0
144
0.0
144
0.0
144
1.0
144
0.0
144
0.0
144
0.0
144
0.0
144
1.0
147
0.0208333333333333
147
0.0
147
0.0
147
0.0
147
0.0
147
0.0208333333333333
147
0.0
147
0.0
147
0.0
147
0.0
147
1.0
147
0.0
147
0.0
147
0.0
147
0.0
147
1.0
  0
MLEADERSTYLE
  5
67
102
{ACAD_REACTORS
330
66
102
}
330
66
100
AcDbMLeaderStyle
179
     2
170
     2
171
     1
172
     0
 90
        2
 40
0.0
 41
0.0
173
     1
 91
-1056964608
340
5B
 92
       -2
290
     1
 42
0.09
291
     1
 43
0.36
  3
Standard
 44
0.18
300

342
55
174
     1
178
     6
175
     1
176
     0
 93
-1056964608
 45
0.18
292
     0
297
     0
 46
0.18
 94
-1056964608
 47
1.0
 49
1.0
140
1.0
293
     1
141
0.0
294
     1
177
     0
142
1.0
295
     1
296
     0
143
0.125
271
     0
272
     9
273
     9
298
     1
  0
MLINESTYLE
  5
60
102
{ACAD_REACTORS
330
5F
102
}
330
5F
100
AcDbMlineStyle
  2
STANDARD
 70
     0
  3

 62
   256
 51
90.0
 52
90.0
 71
     2
 49
0.5
 62
   256
  6
BYLAYER
 49
-0.5
 62
   256
  6
BYLAYER
  0
ACDBPLACEHOLDER
  5
F
102
{ACAD_REACTORS
330
E
102
}
330
E
  0
SCALE
  5
43
102
{ACAD_REACTORS
330
42
102
}
330
42
100
AcDbScale
 70
     0
300
1:1
140
1.0
141
1.0
290
     1
  0
SCALE
  5
44
102
{ACAD_REACTORS
330
42
102
}
330
42
100
AcDbScale
 70
     0
300
1/128" = 1'-0"
140
0.0078125
141
12.0
290
     0
  0
SCALE
  5
45
102
{ACAD_REACTORS
330
42
102
}
330
42
100
AcDbScale
 70
     0
300
1/64" = 1'-0"
140
0.015625
141
12.0
290
     0
  0
SCALE
  5
46
102
{ACAD_REACTORS
330
42
102
}
330
42
100
AcDbScale
 70
     0
300
1/32" = 1'-0"
140
0.03125
141
12.0
290
     0
  0
SCALE
  5
47
102
{ACAD_REACTORS
330
42
102
}
330
42
100
AcDbScale
 70
     0
300
1/16" = 1'-0"
140
0.0625
141
12.0
290
     0
  0
SCALE
  5
48
102
{ACAD_REACTORS
330
42
102
}
330
42
100
AcDbScale
 70
     0
300
3/32" = 1'-0"
140
0.09375
141
12.0
290
     0
  0
SCALE
  5
49
102
{ACAD_REACTORS
330
42
102
}
330
42
100
AcDbScale
 70
     0
300
1/8" = 1'-0"
140
0.125
141
12.0
290
     0
  0
SCALE
  5
4A
102
{ACAD_REACTORS
330
42
102
}
330
42
100
AcDbScale
 70
     0
300
3/16" = 1'-0"
140
0.1875
141
12.0
290
     0
  0
SCALE
  5
4B
102
{ACAD_REACTORS
330
42
102
}
330
42
100
AcDbScale
 70
     0
300
1/4" = 1'-0"
140
0.25
141
12.0
290
     0
  0
SCALE
  5
4C
102
{ACAD_REACTORS
330
42
102
}
330
42
100
AcDbScale
 70
     0
300
3/8" = 1'-0"
140
0.375
141
12.0
290
     0
  0
SCALE
  5
4D
102
{ACAD_REACTORS
330
42
102
}
330
42
100
AcDbScale
 70
     0
300
1/2" = 1'-0"
140
0.5
141
12.0
290
     0
  0
SCALE
  5
4E
102
{ACAD_REACTORS
330
42
102
}
330
42
100
AcDbScale
 70
     0
300
3/4" = 1'-0"
140
0.75
141
12.0
290
     0
  0
SCALE
  5
4F
102
{ACAD_REACTORS
330
42
102
}
330
42
100
AcDbScale
 70
     0
300
1" = 1'-0"
140
1.0
141
12.0
290
     0
  0
SCALE
  5
50
102
{ACAD_REACTORS
330
42
102
}
330
42
100
AcDbScale
 70
     0
300
1-1/2" = 1'-0"
140
1.5
141
12.0
290
     0
  0
SCALE
  5
51
102
{ACAD_REACTORS
330
42
102
}
330
42
100
AcDbScale
 70
     0
300
3" = 1'-0"
140
3.0
141
12.0
290
     0
  0
SCALE
  5
52
102
{ACAD_REACTORS
330
42
102
}
330
42
100
AcDbScale
 70
     0
300
6" = 1'-0"
140
6.0
141
12.0
290
     0
  0
SCALE
  5
53
102
{ACAD_REACTORS
330
42
102
}
330
42
100
AcDbScale
 70
     0
300
1'-0" = 1'-0"
140
12.0
141
12.0
290
     0
  0
ACDBSECTIONVIEWSTYLE
  5
69
102
{ACAD_REACTORS
330
68
102
}
330
68
100
AcDbModelDocViewStyle
 70
     0
  3
Imperial24
290
     1
300
Imperial24
 90
        0
100
AcDbSectionViewStyle
 70
     0
 71
     0
 90
       78
 71
     1
340
55
 62
   256
 40
0.24
340
0
340
0
 62
   256
 40
0.24
300
I, O, Q, S, X, Z
 40
0.48
 90
        3
 40
0.18
 90
        1
 71
     2
340
5D
 90
       25
 62
   256
340
5D
 90
       50
 62
   256
 40
0.24
 40
0.0
 40
0.24
 71
     3
340
55
 62
   256
 40
0.24
 90
        1
 40
0.75
 90
        1
300
%<\AcVar ViewType \f "%tc1">% %<\AcVar ViewSectionStartId>%-%<\AcVar ViewSectionEndId>%\PSCALE %<\AcVar ViewScale \f "%sn">%
 71
     4
 62
   256
 62
   257
300
ANSI31
 40
1.0
 90
        0
290
     0
290
     0
 90
        6
 40
0.0
 40
1.570796326794896
 40
0.2617993877991494
 40
1.308996938995747
 40
-0.2617993877991494
 40
1.832595714594046
  0
TABLESTYLE
  5
65
102
{ACAD_XDICTIONARY
360
1F6
102
}
102
{ACAD_REACTORS
330
64
102
}
330
64
100
AcDbTableStyle
280
     0
  3
Standard
 70
     0
 71
     0
 40
0.06
 41
0.06
280
     0
281
     0
  7
Standard
140
0.18
170
     2
 62
     0
 63
     7
283
     0
 90
      512
 91
        0
  1

274
    -2
284
     1
 64
     0
275
    -2
285
     1
 65
     0
276
    -2
286
     1
 66
     0
277
    -2
287
     1
 67
     0
278
    -2
288
     1
 68
     0
279
    -2
289
     1
 69
     0
  7
Standard
140
0.25
170
     5
 62
     0
 63
     7
283
     0
 90
      512
 91
        0
  1

274
    -2
284
     1
 64
     0
275
    -2
285
     1
 65
     0
276
    -2
286
     1
 66
     0
277
    -2
287
     1
 67
     0
278
    -2
288
     1
 68
     0
279
    -2
289
     1
 69
     0
  7
Standard
140
0.18
170
     5
 62
     0
 63
     7
283
     0
 90
      512
 91
        0
  1

274
    -2
284
     1
 64
     0
275
    -2
285
     1
 65
     0
276
    -2
286
     1
 66
     0
277
    -2
287
     1
 67
     0
278
    -2
288
     1
 68
     0
279
    -2
289
     1
 69
     0
  0
VISUALSTYLE
  5
2F
102
{ACAD_REACTORS
330
29
102
}
330
29
100
AcDbVisualStyle
  2
2dWireframe
 70
     4
177
     3
291
     0
 70
    58
 90
        0
176
     1
 90
        2
176
     1
 90
        0
176
     1
 90
        0
176
     1
 40
0.6
176
     1
 40
30.0
176
     1
 62
     7
420
 16777215
176
     1
 90
        1
176
     1
 90
        4
176
     1
 62
     7
176
     1
 62
   257
176
     1
 90
        1
176
     1
 90
        1
176
     1
 40
1.0
176
     1
 90
        0
176
     1
 62
   257
176
     1
 40
1.0
176
     1
 90
        1
176
     1
 90
        6
176
     1
 90
        2
176
     1
 62
     7
176
     1
 90
        5
176
     1
 90
        0
176
     1
 90
        0
176
     1
290
     0
176
     1
 90
        1
176
     1
 40
0.0
176
     1
 90
        0
176
     1
290
     1
176
     1
290
     1
176
     1
290
     0
176
     1
290
     0
176
     1
290
     0
176
     1
290
     0
176
     1
290
     0
176
     1
290
     0
176
     1
290
     0
176
     1
 90
       50
176
     1
 40
0.0
176
     1
 40
1.0
176
     1
 90
        0
176
     1
 62
    18
420
        0
176
     1
 90
       50
176
     1
 90
        3
176
     1
 62
     5
420
      255
176
     1
290
     0
176
     1
 90
       50
176
     1
 90
       50
176
     1
 90
       50
176
     1
290
     0
176
     1
 90
       50
176
     1
 62
   256
176
     0
 40
1.0
176
     0
 90
        2
176
     1
  1
strokes_ogs.tif
176
     1
290
     0
176
     1
 40
1.0
176
     1
 40
1.0
176
     1
  0
VISUALSTYLE
  5
2E
102
{ACAD_REACTORS
330
29
102
}
330
29
100
AcDbVisualStyle
  2
Basic
 70
     7
177
     3
291
     1
 70
    58
 90
        1
176
     1
 90
        0
176
     1
 90
        1
176
     1
 90
        0
176
     1
 40
0.6
176
     1
 40
30.0
176
     1
 62
     7
420
 16777215
176
     1
 90
        0
176
     1
 90
        4
176
     1
 62
     7
176
     1
 62
   257
176
     1
 90
        1
176
     1
 90
        1
176
     1
 40
1.0
176
     1
 90
        8
176
     1
 62
     7
176
     1
 40
1.0
176
     1
 90
        1
176
     1
 90
        6
176
     1
 90
        2
176
     1
 62
     7
176
     1
 90
        5
176
     1
 90
        0
176
     1
 90
        0
176
     1
290
     0
176
     1
 90
        1
176
     1
 40
0.0
176
     1
 90
        0
176
     1
290
     0
176
     1
290
     1
176
     1
290
     1
176
     1
290
     0
176
     1
290
     0
176
     1
290
     0
176
     1
290
     0
176
     1
290
     0
176
     1
290
     0
176
     1
 90
       50
176
     1
 40
0.0
176
     1
 40
1.0
176
     1
 90
        0
176
     1
 62
    18
420
        0
176
     1
 90
       50
176
     1
 90
        3
176
     1
 62
     5
420
      255
176
     1
290
     0
176
     1
 90
       50
176
     1
 90
       50
176
     1
 90
       50
176
     1
290
     0
176
     1
 90
       50
176
     1
 62
   256
176
     0
 40
1.0
176
     0
 90
        2
176
     1
  1
strokes_ogs.tif
176
     1
290
     0
176
     1
 40
1.0
176
     1
 40
1.0
176
     1
  0
VISUALSTYLE
  5
35
102
{ACAD_REACTORS
330
29
102
}
330
29
100
AcDbVisualStyle
  2
Brighten
 70
    12
177
     3
291
     1
 70
    58
 90
        2
176
     1
 90
        2
176
     1
 90
        0
176
     1
 90
        0
176
     1
 40
0.6
176
     1
 40
30.0
176
     1
 62
     7
420
 16777215
176
     1
 90
        1
176
     1
 90
        4
176
     1
 62
     7
176
     1
 62
   257
176
     1
 90
        1
176
     1
 90
        1
176
     1
 40
1.0
176
     1
 90
        8
176
     1
 62
     7
176
     1
 40
1.0
176
     1
 90
        1
176
     1
 90
        6
176
     1
 90
        2
176
     1
 62
     7
176
     1
 90
        5
176
     1
 90
        0
176
     1
 90
        0
176
     1
290
     0
176
     1
 90
        1
176
     1
 40
50.0
176
     1
 90
        0
176
     1
290
     0
176
     1
290
     1
176
     1
290
     1
176
     1
290
     0
176
     1
290
     0
176
     1
290
     0
176
     1
290
     0
176
     1
290
     0
176
     1
290
     0
176
     1
 90
       50
176
     1
 40
0.0
176
     1
 40
1.0
176
     1
 90
        0
176
     1
 62
    18
420
        0
176
     1
 90
       50
176
     1
 90
        3
176
     1
 62
     5
420
      255
176
     1
290
     0
176
     1
 90
       50
176
     1
 90
       50
176
     1
 90
       50
176
     1
290
     0
176
     1
 90
       50
176
     1
 62
   256
176
     0
 40
1.0
176
     0
 90
        2
176
     1
  1
strokes_ogs.tif
176
     1
290
     0
176
     1
 40
1.0
176
     1
 40
1.0
176
     1
  0
VISUALSTYLE
  5
39
102
{ACAD_REACTORS
330
29
102
}
330
29
100
AcDbVisualStyle
  2
ColorChange
 70
    16
177
     3
291
     1
 70
    58
 90
        2
176
     1
 90
        2
176
     1
 90
        3
176
     1
 90
        0
176
     1
 40
0.6
176
     1
 40
30.0
176
     1
 62
     8
420
  8421504
176
     1
 90
        1
176
     1
 90
        4
176
     1
 62
     7
176
     1
 62
   257
176
     1
 90
        1
176
     1
 90
        1
176
     1
 40
1.0
176
     1
 90
        8
176
     1
 62
     8
420
  8421504
176
     1
 40
1.0
176
     1
 90
        1
176
     1
 90
        6
176
     1
 90
        2
176
     1
 62
     7
176
     1
 90
        5
176
     1
 90
        0
176
     1
 90
        0
176
     1
290
     0
176
     1
 90
        1
176
     1
 40
0.0
176
     1
 90
        0
176
     1
290
     0
176
     1
290
     1
176
     1
290
     1
176
     1
290
     0
176
     1
290
     0
176
     1
290
     0
176
     1
290
     0
176
     1
290
     0
176
     1
290
     0
176
     1
 90
       50
176
     1
 40
0.0
176
     1
 40
1.0
176
     1
 90
        0
176
     1
 62
    18
420
        0
176
     1
 90
       50
176
     1
 90
        3
176
     1
 62
     5
420
      255
176
     1
290
     0
176
     1
 90
       50
176
     1
 90
       50
176
     1
 90
       50
176
     1
290
     0
176
     1
 90
       50
176
     1
 62
   256
176
     0
 40
1.0
176
     0
 90
        2
176
     1
  1
strokes_ogs.tif
176
     1
290
     0
176
     1
 40
1.0
176
     1
 40
1.0
176
     1
  0
VISUALSTYLE
  5
32
102
{ACAD_REACTORS
330
29
102
}
330
29
100
AcDbVisualStyle
  2
Conceptual
 70
     9
177
     3
291
     0
 70
    58
 90
        3
176
     1
 90
        2
176
     1
 90
        0
176
     1
 90
        0
176
     1
 40
0.6
176
     1
 40
30.0
176
     1
 62
     7
420
 16777215
176
     1
 90
        2
176
     1
 90
        2
176
     1
 62
     7
176
     1
 62
   257
176
     1
 90
        1
176
     1
 90
        1
176
     1
 40
179.0
176
     1
 90
        8
176
     1
 62
     7
176
     1
 40
1.0
176
     1
 90
        1
176
     1
 90
        6
176
     1
 90
        2
176
     1
 62
     7
176
     1
 90
        3
176
     1
 90
        0
176
     1
 90
        0
176
     1
290
     0
176
     1
 90
        1
176
     1
 40
0.0
176
     1
 90
        0
176
     1
290
     0
176
     1
290
     1
176
     1
290
     1
176
     1
290
     0
176
     1
290
     0
176
     1
290
     0
176
     1
290
     0
176
     1
290
     0
176
     1
290
     0
176
     1
 90
       50
176
     1
 40
0.0
176
     1
 40
1.0
176
     1
 90
        0
176
     1
 62
    18
420
        0
176
     1
 90
       50
176
     1
 90
        3
176
     1
 62
     5
420
      255
176
     1
290
     0
176
     1
 90
       50
176
     1
 90
       50
176
     1
 90
       50
176
     1
290
     0
176
     1
 90
       50
176
     1
 62
   256
176
     0
 40
1.0
176
     0
 90
        2
176
     1
  1
strokes_ogs.tif
176
     1
290
     0
176
     1
 40
1.0
176
     1
 40
1.0
176
     1
  0
VISUALSTYLE
  5
34
102
{ACAD_REACTORS
330
29
102
}
330
29
100
AcDbVisualStyle
  2
Dim
 70
    11
177
     3
291
     1
 70
    58
 90
        2
176
     1
 90
        2
176
     1
 90
        0
176
     1
 90
        0
176
     1
 40
0.6
176
     1
 40
30.0
176
     1
 62
     7
420
 16777215
176
     1
 90
        1
176
     1
 90
        4
176
     1
 62
     7
176
     1
 62
   257
176
     1
 90
        1
176
     1
 90
        1
176
     1
 40
1.0
176
     1
 90
        8
176
     1
 62
     7
176
     1
 40
1.0
176
     1
 90
        1
176
     1
 90
        6
176
     1
 90
        2
176
     1
 62
     7
176
     1
 90
        5
176
     1
 90
        0
176
     1
 90
        0
176
     1
290
     0
176
     1
 90
        1
176
     1
 40
-50.0
176
     1
 90
        0
176
     1
290
     0
176
     1
290
     1
176
     1
290
     1
176
     1
290
     0
176
     1
290
     0
176
     1
290
     0
176
     1
290
     0
176
     1
290
     0
176
     1
290
     0
176
     1
 90
       50
176
     1
 40
0.0
176
     1
 40
1.0
176
     1
 90
        0
176
     1
 62
    18
420
        0
176
     1
 90
       50
176
     1
 90
        3
176
     1
 62
     5
420
      255
176
     1
290
     0
176
     1
 90
       50
176
     1
 90
       50
176
     1
 90
       50
176
     1
290
     0
176
     1
 90
       50
176
     1
 62
   256
176
     0
 40
1.0
176
     0
 90
        2
176
     1
  1
strokes_ogs.tif
176
     1
290
     0
176
     1
 40
1.0
176
     1
 40
1.0
176
     1
  0
VISUALSTYLE
  5
41
102
{ACAD_REACTORS
330
29
102
}
330
29
100
AcDbVisualStyle
  2
EdgeColorOff
 70
    22
177
     3
291
     1
 70
    58
 90
        2
176
     0
 90
        2
176
     0
 90
        0
176
     0
 90
        0
176
     0
 40
0.6
176
     0
 40
30.0
176
     0
 62
     7
420
 16777215
176
     0
 90
        1
176
     0
 90
        4
176
     0
 62
     7
176
     0
 62
   257
176
     0
 90
        1
176
     0
 90
        1
176
     0
 40
1.0
176
     0
 90
        8
176
     2
 62
     7
176
     0
 40
1.0
176
     0
 90
        1
176
     0
 90
        6
176
     0
 90
        2
176
     0
 62
     7
176
     0
 90
        5
176
     0
 90
        0
176
     0
 90
        0
176
     0
290
     0
176
     0
 90
        1
176
     0
 40
0.0
176
     0
 90
        0
176
     0
290
     0
176
     0
290
     1
176
     0
290
     1
176
     0
290
     0
176
     0
290
     0
176
     0
290
     0
176
     0
290
     0
176
     0
290
     0
176
     0
290
     0
176
     0
 90
       50
176
     0
 40
0.0
176
     0
 40
1.0
176
     0
 90
        0
176
     0
 62
    18
420
        0
176
     0
 90
       50
176
     0
 90
        3
176
     0
 62
     5
420
      255
176
     0
290
     0
176
     0
 90
       50
176
     0
 90
       50
176
     0
 90
       50
176
     0
290
     0
176
     0
 90
       50
176
     0
 62
   256
176
     0
 40
1.0
176
     0
 90
        2
176
     0
  1
strokes_ogs.tif
176
     0
290
     0
176
     0
 40
1.0
176
     0
 40
1.0
176
     0
  0
VISUALSTYLE
  5
38
102
{ACAD_REACTORS
330
29
102
}
330
29
100
AcDbVisualStyle
  2
Facepattern
 70
    15
177
     3
291
     1
 70
    58
 90
        2
176
     1
 90
        2
176
     1
 90
        0
176
     1
 90
        0
176
     1
 40
0.6
176
     1
 40
30.0
176
     1
 62
     7
420
 16777215
176
     1
 90
        1
176
     1
 90
        4
176
     1
 62
     7
176
     1
 62
   257
176
     1
 90
        1
176
     1
 90
        1
176
     1
 40
1.0
176
     1
 90
        8
176
     1
 62
     7
176
     1
 40
1.0
176
     1
 90
        1
176
     1
 90
        6
176
     1
 90
        2
176
     1
 62
     7
176
     1
 90
        5
176
     1
 90
        0
176
     1
 90
        0
176
     1
290
     0
176
     1
 90
        1
176
     1
 40
0.0
176
     1
 90
        0
176
     1
290
     0
176
     1
290
     1
176
     1
290
     1
176
     1
290
     0
176
     1
290
     0
176
     1
290
     0
176
     1
290
     0
176
     1
290
     0
176
     1
290
     0
176
     1
 90
       50
176
     1
 40
0.0
176
     1
 40
1.0
176
     1
 90
        0
176
     1
 62
    18
420
        0
176
     1
 90
       50
176
     1
 90
        3
176
     1
 62
     5
420
      255
176
     1
290
     0
176
     1
 90
       50
176
     1
 90
       50
176
     1
 90
       50
176
     1
290
     0
176
     1
 90
       50
176
     1
 62
   256
176
     0
 40
1.0
176
     0
 90
        2
176
     1
  1
strokes_ogs.tif
176
     1
290
     0
176
     1
 40
1.0
176
     1
 40
1.0
176
     1
  0
VISUALSTYLE
  5
2A
102
{ACAD_REACTORS
330
29
102
}
330
29
100
AcDbVisualStyle
  2
Flat
 70
     0
177
     3
291
     1
 70
    58
 90
        2
176
     1
 90
        1
176
     1
 90
        1
176
     1
 90
        2
176
     1
 40
0.6
176
     1
 40
30.0
176
     1
 62
     7
420
 16777215
176
     1
 90
        0
176
     1
 90
        0
176
     1
 62
     7
176
     1
 62
   257
176
     1
 90
        1
176
     1
 90
        1
176
     1
 40
1.0
176
     1
 90
        8
176
     1
 62
     7
176
     1
 40
1.0
176
     1
 90
        1
176
     1
 90
        6
176
     1
 90
        2
176
     1
 62
     7
176
     1
 90
        5
176
     1
 90
        0
176
     1
 90
        0
176
     1
290
     0
176
     1
 90
       13
176
     1
 40
0.0
176
     1
 90
        0
176
     1
290
     0
176
     1
290
     1
176
     1
290
     1
176
     1
290
     0
176
     1
290
     0
176
     1
290
     0
176
     1
290
     0
176
     1
290
     0
176
     1
290
     0
176
     1
 90
       50
176
     1
 40
0.0
176
     1
 40
1.0
176
     1
 90
        0
176
     1
 62
    18
420
        0
176
     1
 90
       50
176
     1
 90
        3
176
     1
 62
     5
420
      255
176
     1
290
     0
176
     1
 90
       50
176
     1
 90
       50
176
     1
 90
       50
176
     1
290
     0
176
     1
 90
       50
176
     1
 62
   256
176
     0
 40
1.0
176
     0
 90
        2
176
     1
  1
strokes_ogs.tif
176
     1
290
     0
176
     1
 40
1.0
176
     1
 40
1.0
176
     1
  0
VISUALSTYLE
  5
2B
102
{ACAD_REACTORS
330
29
102
}
330
29
100
AcDbVisualStyle
  2
FlatWithEdges
 70
     1
177
     3
291
     1
 70
    58
 90
        2
176
     1
 90
        1
176
     1
 90
        1
176
     1
 90
        2
176
     1
 40
0.6
176
     1
 40
30.0
176
     1
 62
     7
420
 16777215
176
     1
 90
        1
176
     1
 90
        0
176
     1
 62
     7
176
     1
 62
   257
176
     1
 90
        1
176
     1
 90
        1
176
     1
 40
1.0
176
     1
 90
        0
176
     1
 62
   257
176
     1
 40
1.0
176
     1
 90
        1
176
     1
 90
        6
176
     1
 90
        2
176
     1
 62
     7
176
     1
 90
        5
176
     1
 90
        0
176
     1
 90
        0
176
     1
290
     0
176
     1
 90
       13
176
     1
 40
0.0
176
     1
 90
        0
176
     1
290
     0
176
     1
290
     1
176
     1
290
     1
176
     1
290
     0
176
     1
290
     0
176
     1
290
     0
176
     1
290
     0
176
     1
290
     0
176
     1
290
     0
176
     1
 90
       50
176
     1
 40
0.0
176
     1
 40
1.0
176
     1
 90
        0
176
     1
 62
    18
420
        0
176
     1
 90
       50
176
     1
 90
        3
176
     1
 62
     5
420
      255
176
     1
290
     0
176
     1
 90
       50
176
     1
 90
       50
176
     1
 90
       50
176
     1
290
     0
176
     1
 90
       50
176
     1
 62
   256
176
     0
 40
1.0
176
     0
 90
        2
176
     1
  1
strokes_ogs.tif
176
     1
290
     0
176
     1
 40
1.0
176
     1
 40
1.0
176
     1
  0
VISUALSTYLE
  5
2C
102
{ACAD_REACTORS
330
29
102
}
330
29
100
AcDbVisualStyle
  2
Gouraud
 70
     2
177
     3
291
     1
 70
    58
 90
        2
176
     1
 90
        2
176
     1
 90
        1
176
     1
 90
        2
176
     1
 40
0.6
176
     1
 40
30.0
176
     1
 62
     7
420
 16777215
176
     1
 90
        0
176
     1
 90
        0
176
     1
 62
     7
176
     1
 62
   257
176
     1
 90
        1
176
     1
 90
        1
176
     1
 40
1.0
176
     1
 90
        0
176
     1
 62
     7
176
     1
 40
1.0
176
     1
 90
        1
176
     1
 90
        6
176
     1
 90
        2
176
     1
 62
     7
176
     1
 90
        5
176
     1
 90
        0
176
     1
 90
        0
176
     1
290
     0
176
     1
 90
       13
176
     1
 40
0.0
176
     1
 90
        0
176
     1
290
     0
176
     1
290
     1
176
     1
290
     1
176
     1
290
     0
176
     1
290
     0
176
     1
290
     0
176
     1
290
     0
176
     1
290
     0
176
     1
290
     0
176
     1
 90
       50
176
     1
 40
0.0
176
     1
 40
1.0
176
     1
 90
        0
176
     1
 62
    18
420
        0
176
     1
 90
       50
176
     1
 90
        3
176
     1
 62
     5
420
      255
176
     1
290
     0
176
     1
 90
       50
176
     1
 90
       50
176
     1
 90
       50
176
     1
290
     0
176
     1
 90
       50
176
     1
 62
   256
176
     0
 40
1.0
176
     0
 90
        2
176
     1
  1
strokes_ogs.tif
176
     1
290
     0
176
     1
 40
1.0
176
     1
 40
1.0
176
     1
  0
VISUALSTYLE
  5
2D
102
{ACAD_REACTORS
330
29
102
}
330
29
100
AcDbVisualStyle
  2
GouraudWithEdges
 70
     3
177
     3
291
     1
 70
    58
 90
        2
176
     1
 90
        2
176
     1
 90
        1
176
     1
 90
        2
176
     1
 40
0.6
176
     1
 40
30.0
176
     1
 62
     7
420
 16777215
176
     1
 90
        1
176
     1
 90
        0
176
     1
 62
     7
176
     1
 62
   257
176
     1
 90
        1
176
     1
 90
        1
176
     1
 40
1.0
176
     1
 90
        0
176
     1
 62
   257
176
     1
 40
1.0
176
     1
 90
        1
176
     1
 90
        6
176
     1
 90
        2
176
     1
 62
     7
176
     1
 90
        5
176
     1
 90
        0
176
     1
 90
        0
176
     1
290
     0
176
     1
 90
       13
176
     1
 40
0.0
176
     1
 90
        0
176
     1
290
     0
176
     1
290
     1
176
     1
290
     1
176
     1
290
     0
176
     1
290
     0
176
     1
290
     0
176
     1
290
     0
176
     1
290
     0
176
     1
290
     0
176
     1
 90
       50
176
     1
 40
0.0
176
     1
 40
1.0
176
     1
 90
        0
176
     1
 62
    18
420
        0
176
     1
 90
       50
176
     1
 90
        3
176
     1
 62
     5
420
      255
176
     1
290
     0
176
     1
 90
       50
176
     1
 90
       50
176
     1
 90
       50
176
     1
290
     0
176
     1
 90
       50
176
     1
 62
   256
176
     0
 40
1.0
176
     0
 90
        2
176
     1
  1
strokes_ogs.tif
176
     1
290
     0
176
     1
 40
1.0
176
     1
 40
1.0
176
     1
  0
VISUALSTYLE
  5
31
102
{ACAD_REACTORS
330
29
102
}
330
29
100
AcDbVisualStyle
  2
Hidden
 70
     6
177
     3
291
     0
 70
    58
 90
        1
176
     1
 90
        2
176
     1
 90
        2
176
     1
 90
        0
176
     1
 40
0.6
176
     1
 40
30.0
176
     1
 62
     7
420
 16777215
176
     1
 90
        2
176
     1
 90
        2
176
     1
 62
     7
176
     1
 62
   257
176
     1
 90
        2
176
     1
 90
        1
176
     1
 40
40.0
176
     1
 90
        0
176
     1
 62
   257
176
     1
 40
1.0
176
     1
 90
        1
176
     1
 90
        6
176
     1
 90
        2
176
     1
 62
     7
176
     1
 90
        3
176
     1
 90
        0
176
     1
 90
        0
176
     1
290
     0
176
     1
 90
        1
176
     1
 40
0.0
176
     1
 90
        0
176
     1
290
     0
176
     1
290
     1
176
     1
290
     1
176
     1
290
     0
176
     1
290
     0
176
     1
290
     0
176
     1
290
     0
176
     1
290
     0
176
     1
290
     0
176
     1
 90
       50
176
     1
 40
0.0
176
     1
 40
1.0
176
     1
 90
        0
176
     1
 62
    18
420
        0
176
     1
 90
       50
176
     1
 90
        3
176
     1
 62
     5
420
      255
176
     1
290
     0
176
     1
 90
       50
176
     1
 90
       50
176
     1
 90
       50
176
     1
290
     0
176
     1
 90
       50
176
     1
 62
   256
176
     0
 40
1.0
176
     0
 90
        2
176
     1
  1
strokes_ogs.tif
176
     1
290
     0
176
     1
 40
1.0
176
     1
 40
1.0
176
     1
  0
VISUALSTYLE
  5
3F
102
{ACAD_REACTORS
330
29
102
}
330
29
100
AcDbVisualStyle
  2
JitterOff
 70
    20
177
     3
291
     1
 70
    58
 90
        2
176
     0
 90
        2
176
     0
 90
        0
176
     0
 90
        0
176
     0
 40
0.6
176
     0
 40
30.0
176
     0
 62
     7
420
 16777215
176
     0
 90
        1
176
     0
 90
        4
176
     0
 62
     7
176
     0
 62
   257
176
     0
 90
        1
176
     0
 90
        1
176
     0
 40
1.0
176
     0
 90
       10
176
     2
 62
     7
176
     0
 40
1.0
176
     0
 90
        1
176
     0
 90
        6
176
     0
 90
        2
176
     0
 62
     7
176
     0
 90
        5
176
     0
 90
        0
176
     0
 90
        0
176
     0
290
     0
176
     0
 90
        1
176
     0
 40
0.0
176
     0
 90
        0
176
     0
290
     0
176
     0
290
     1
176
     0
290
     1
176
     0
290
     0
176
     0
290
     0
176
     0
290
     0
176
     0
290
     0
176
     0
290
     0
176
     0
290
     0
176
     0
 90
       50
176
     0
 40
0.0
176
     0
 40
1.0
176
     0
 90
        0
176
     0
 62
    18
420
        0
176
     0
 90
       50
176
     0
 90
        3
176
     0
 62
     5
420
      255
176
     0
290
     0
176
     0
 90
       50
176
     0
 90
       50
176
     0
 90
       50
176
     0
290
     0
176
     0
 90
       50
176
     0
 62
   256
176
     0
 40
1.0
176
     0
 90
        2
176
     0
  1
strokes_ogs.tif
176
     0
290
     0
176
     0
 40
1.0
176
     0
 40
1.0
176
     0
  0
VISUALSTYLE
  5
37
102
{ACAD_REACTORS
330
29
102
}
330
29
100
AcDbVisualStyle
  2
Linepattern
 70
    14
177
     3
291
     1
 70
    58
 90
        2
176
     1
 90
        2
176
     1
 90
        0
176
     1
 90
        0
176
     1
 40
0.6
176
     1
 40
30.0
176
     1
 62
     7
420
 16777215
176
     1
 90
        1
176
     1
 90
        4
176
     1
 62
     7
176
     1
 62
   257
176
     1
 90
        7
176
     1
 90
        7
176
     1
 40
1.0
176
     1
 90
        8
176
     1
 62
     7
176
     1
 40
1.0
176
     1
 90
        1
176
     1
 90
        6
176
     1
 90
        2
176
     1
 62
     7
176
     1
 90
        5
176
     1
 90
        0
176
     1
 90
        0
176
     1
290
     0
176
     1
 90
        1
176
     1
 40
0.0
176
     1
 90
        0
176
     1
290
     0
176
     1
290
     1
176
     1
290
     1
176
     1
290
     0
176
     1
290
     0
176
     1
290
     0
176
     1
290
     0
176
     1
290
     0
176
     1
290
     0
176
     1
 90
       50
176
     1
 40
0.0
176
     1
 40
1.0
176
     1
 90
        0
176
     1
 62
    18
420
        0
176
     1
 90
       50
176
     1
 90
        3
176
     1
 62
     5
420
      255
176
     1
290
     0
176
     1
 90
       50
176
     1
 90
       50
176
     1
 90
       50
176
     1
290
     0
176
     1
 90
       50
176
     1
 62
   256
176
     0
 40
1.0
176
     0
 90
        2
176
     1
  1
strokes_ogs.tif
176
     1
290
     0
176
     1
 40
1.0
176
     1
 40
1.0
176
     1
  0
VISUALSTYLE
  5
40
102
{ACAD_REACTORS
330
29
102
}
330
29
100
AcDbVisualStyle
  2
OverhangOff
 70
    21
177
     3
291
     1
 70
    58
 90
        2
176
     0
 90
        2
176
     0
 90
        0
176
     0
 90
        0
176
     0
 40
0.6
176
     0
 40
30.0
176
     0
 62
     7
420
 16777215
176
     0
 90
        1
176
     0
 90
        4
176
     0
 62
     7
176
     0
 62
   257
176
     0
 90
        1
176
     0
 90
        1
176
     0
 40
1.0
176
     0
 90
        9
176
     2
 62
     7
176
     0
 40
1.0
176
     0
 90
        1
176
     0
 90
        6
176
     0
 90
        2
176
     0
 62
     7
176
     0
 90
        5
176
     0
 90
        0
176
     0
 90
        0
176
     0
290
     0
176
     0
 90
        1
176
     0
 40
0.0
176
     0
 90
        0
176
     0
290
     0
176
     0
290
     1
176
     0
290
     1
176
     0
290
     0
176
     0
290
     0
176
     0
290
     0
176
     0
290
     0
176
     0
290
     0
176
     0
290
     0
176
     0
 90
       50
176
     0
 40
0.0
176
     0
 40
1.0
176
     0
 90
        0
176
     0
 62
    18
420
        0
176
     0
 90
       50
176
     0
 90
        3
176
     0
 62
     5
420
      255
176
     0
290
     0
176
     0
 90
       50
176
     0
 90
       50
176
     0
 90
       50
176
     0
290
     0
176
     0
 90
       50
176
     0
 62
   256
176
     0
 40
1.0
176
     0
 90
        2
176
     0
  1
strokes_ogs.tif
176
     0
290
     0
176
     0
 40
1.0
176
     0
 40
1.0
176
     0
  0
VISUALSTYLE
  5
33
102
{ACAD_REACTORS
330
29
102
}
330
29
100
AcDbVisualStyle
  2
Realistic
 70
     8
177
     3
291
     0
 70
    58
 90
        2
176
     1
 90
        3
176
     1
 90
        0
176
     1
 90
        2
176
     1
 40
0.6
176
     1
 40
30.0
176
     1
 62
     7
420
 16777215
176
     1
 90
        0
176
     1
 90
        0
176
     1
 62
     7
176
     1
 62
   257
176
     1
 90
        1
176
     1
 90
        1
176
     1
 40
1.0
176
     1
 90
        8
176
     1
 62
   257
176
     1
 40
1.0
176
     1
 90
        1
176
     1
 90
        6
176
     1
 90
        2
176
     1
 62
     7
176
     1
 90
        3
176
     1
 90
        0
176
     1
 90
        0
176
     1
290
     0
176
     1
 90
       13
176
     1
 40
0.0
176
     1
 90
        0
176
     1
290
     0
176
     1
290
     1
176
     1
290
     1
176
     1
290
     0
176
     1
290
     0
176
     1
290
     0
176
     1
290
     0
176
     1
290
     0
176
     1
290
     0
176
     1
 90
       50
176
     1
 40
0.0
176
     1
 40
1.0
176
     1
 90
        0
176
     1
 62
    18
420
        0
176
     1
 90
       50
176
     1
 90
        3
176
     1
 62
     5
420
      255
176
     1
290
     0
176
     1
 90
       50
176
     1
 90
       50
176
     1
 90
       50
176
     1
290
     0
176
     1
 90
       50
176
     1
 62
   256
176
     0
 40
1.0
176
     0
 90
        2
176
     1
  1
strokes_ogs.tif
176
     1
290
     0
176
     1
 40
1.0
176
     1
 40
1.0
176
     1
  0
VISUALSTYLE
  5
3E
102
{ACAD_REACTORS
330
29
102
}
330
29
100
AcDbVisualStyle
  2
Shaded
 70
    27
177
     3
291
     0
 70
    58
 90
        2
176
     1
 90
        2
176
     1
 90
        1
176
     1
 90
        2
176
     1
 40
0.6
176
     1
 40
30.0
176
     1
 62
     7
420
 16777215
176
     1
 90
        0
176
     1
 90
        4
176
     1
 62
     7
176
     1
 62
   257
176
     1
 90
        1
176
     1
 90
        1
176
     1
 40
1.0
176
     1
 90
        8
176
     1
 62
   257
176
     1
 40
1.0
176
     1
 90
        1
176
     1
 90
        6
176
     1
 90
        2
176
     1
 62
     8
420
  7895160
176
     1
 90
        3
176
     1
 90
        0
176
     1
 90
        0
176
     1
290
     0
176
     1
 90
        5
176
     1
 40
0.0
176
     1
 90
        0
176
     1
290
     0
176
     1
290
     1
176
     1
290
     1
176
     1
290
     0
176
     1
290
     0
176
     1
290
     0
176
     1
290
     0
176
     1
290
     0
176
     1
290
     0
176
     1
 90
       50
176
     1
 40
0.0
176
     1
 40
1.0
176
     1
 90
        0
176
     1
 62
    18
420
        0
176
     1
 90
       50
176
     1
 90
        3
176
     1
 62
     5
420
      255
176
     1
290
     0
176
     1
 90
       50
176
     1
 90
       50
176
     1
 90
       50
176
     1
290
     0
176
     1
 90
       50
176
     1
 62
   256
176
     0
 40
1.0
176
     0
 90
        2
176
     1
  1
strokes_ogs.tif
176
     1
290
     0
176
     1
 40
1.0
176
     1
 40
1.0
176
     1
  0
VISUALSTYLE
  5
3D
102
{ACAD_REACTORS
330
29
102
}
330
29
100
AcDbVisualStyle
  2
Shaded with edges
 70
    26
177
     3
291
     0
 70
    58
 90
        2
176
     1
 90
        2
176
     1
 90
        1
176
     1
 90
        2
176
     1
 40
0.6
176
     1
 40
30.0
176
     1
 62
     7
420
 16777215
176
     1
 90
        1
176
     1
 90
        2
176
     1
 62
     7
176
     1
 62
   257
176
     1
 90
        2
176
     1
 90
        1
176
     1
 40
1.0
176
     1
 90
        8
176
     1
 62
   257
176
     1
 40
1.0
176
     1
 90
        1
176
     1
 90
        6
176
     1
 90
        2
176
     1
 62
     7
176
     1
 90
        3
176
     1
 90
        0
176
     1
 90
        0
176
     1
290
     0
176
     1
 90
        5
176
     1
 40
0.0
176
     1
 90
        0
176
     1
290
     0
176
     1
290
     1
176
     1
290
     1
176
     1
290
     0
176
     1
290
     0
176
     1
290
     0
176
     1
290
     0
176
     1
290
     0
176
     1
290
     0
176
     1
 90
       50
176
     1
 40
0.0
176
     1
 40
1.0
176
     1
 90
        0
176
     1
 62
    18
420
        0
176
     1
 90
       50
176
     1
 90
        3
176
     1
 62
     5
420
      255
176
     1
290
     0
176
     1
 90
       50
176
     1
 90
       50
176
     1
 90
       50
176
     1
290
     0
176
     1
 90
       50
176
     1
 62
   256
176
     0
 40
1.0
176
     0
 90
        2
176
     1
  1
strokes_ogs.tif
176
     1
290
     0
176
     1
 40
1.0
176
     1
 40
1.0
176
     1
  0
VISUALSTYLE
  5
3A
102
{ACAD_REACTORS
330
29
102
}
330
29
100
AcDbVisualStyle
  2
Shades of Gray
 70
    23
177
     3
291
     0
 70
    58
 90
        2
176
     1
 90
        2
176
     1
 90
        3
176
     1
 90
        0
176
     1
 40
0.6
176
     1
 40
30.0
176
     1
 62
     7
420
 16777215
176
     1
 90
        2
176
     1
 90
        2
176
     1
 62
     7
176
     1
 62
     7
176
     1
 90
        1
176
     1
 90
        1
176
     1
 40
40.0
176
     1
 90
        8
176
     1
 62
     7
176
     1
 40
1.0
176
     1
 90
        1
176
     1
 90
        6
176
     1
 90
        2
176
     1
 62
     7
176
     1
 90
        3
176
     1
 90
        0
176
     1
 90
        0
176
     1
290
     0
176
     1
 90
        1
176
     1
 40
0.0
176
     1
 90
        0
176
     1
290
     0
176
     1
290
     1
176
     1
290
     1
176
     1
290
     0
176
     1
290
     0
176
     1
290
     0
176
     1
290
     0
176
     1
290
     0
176
     1
290
     0
176
     1
 90
       50
176
     1
 40
0.0
176
     1
 40
1.0
176
     1
 90
        0
176
     1
 62
    18
420
        0
176
     1
 90
       50
176
     1
 90
        3
176
     1
 62
     5
420
      255
176
     1
290
     0
176
     1
 90
       50
176
     1
 90
       50
176
     1
 90
       50
176
     1
290
     0
176
     1
 90
       50
176
     1
 62
   256
176
     0
 40
1.0
176
     0
 90
        2
176
     1
  1
strokes_ogs.tif
176
     1
290
     0
176
     1
 40
1.0
176
     1
 40
1.0
176
     1
  0
VISUALSTYLE
  5
3B
102
{ACAD_REACTORS
330
29
102
}
330
29
100
AcDbVisualStyle
  2
Sketchy
 70
    24
177
     3
291
     0
 70
    58
 90
        1
176
     1
 90
        2
176
     1
 90
        2
176
     1
 90
        0
176
     1
 40
0.6
176
     1
 40
30.0
176
     1
 62
     7
420
 16777215
176
     1
 90
        2
176
     1
 90
        2
176
     1
 62
     7
176
     1
 62
     7
176
     1
 90
        1
176
     1
 90
        1
176
     1
 40
40.0
176
     1
 90
       11
176
     1
 62
     7
176
     1
 40
1.0
176
     1
 90
        1
176
     1
 90
        6
176
     1
 90
        2
176
     1
 62
     7
176
     1
 90
        6
176
     1
 90
        0
176
     1
 90
        0
176
     1
290
     0
176
     1
 90
        1
176
     1
 40
0.0
176
     1
 90
        0
176
     1
290
     0
176
     1
290
     1
176
     1
290
     1
176
     1
290
     0
176
     1
290
     0
176
     1
290
     0
176
     1
290
     0
176
     1
290
     0
176
     1
290
     0
176
     1
 90
       50
176
     1
 40
0.0
176
     1
 40
1.0
176
     1
 90
        0
176
     1
 62
    18
420
        0
176
     1
 90
       50
176
     1
 90
        3
176
     1
 62
     5
420
      255
176
     1
290
     0
176
     1
 90
       50
176
     1
 90
       50
176
     1
 90
       50
176
     1
290
     0
176
     1
 90
       50
176
     1
 62
   256
176
     0
 40
1.0
176
     0
 90
        2
176
     1
  1
strokes_ogs.tif
176
     1
290
     0
176
     1
 40
1.0
176
     1
 40
1.0
176
     1
  0
VISUALSTYLE
  5
36
102
{ACAD_REACTORS
330
29
102
}
330
29
100
AcDbVisualStyle
  2
Thicken
 70
    13
177
     3
291
     1
 70
    58
 90
        2
176
     1
 90
        2
176
     1
 90
        0
176
     1
 90
        0
176
     1
 40
0.6
176
     1
 40
30.0
176
     1
 62
     7
420
 16777215
176
     1
 90
        1
176
     1
 90
        4
176
     1
 62
     7
176
     1
 62
   257
176
     1
 90
        1
176
     1
 90
        1
176
     1
 40
1.0
176
     1
 90
       12
176
     1
 62
     7
176
     1
 40
1.0
176
     1
 90
        1
176
     1
 90
        6
176
     1
 90
        2
176
     1
 62
     7
176
     1
 90
        5
176
     1
 90
        0
176
     1
 90
        0
176
     1
290
     0
176
     1
 90
        1
176
     1
 40
0.0
176
     1
 90
        0
176
     1
290
     0
176
     1
290
     1
176
     1
290
     1
176
     1
290
     0
176
     1
290
     0
176
     1
290
     0
176
     1
290
     0
176
     1
290
     0
176
     1
290
     0
176
     1
 90
       50
176
     1
 40
0.0
176
     1
 40
1.0
176
     1
 90
        0
176
     1
 62
    18
420
        0
176
     1
 90
       50
176
     1
 90
        3
176
     1
 62
     5
420
      255
176
     1
290
     0
176
     1
 90
       50
176
     1
 90
       50
176
     1
 90
       50
176
     1
290
     0
176
     1
 90
       50
176
     1
 62
   256
176
     0
 40
1.0
176
     0
 90
        2
176
     1
  1
strokes_ogs.tif
176
     1
290
     0
176
     1
 40
1.0
176
     1
 40
1.0
176
     1
  0
VISUALSTYLE
  5
30
102
{ACAD_REACTORS
330
29
102
}
330
29
100
AcDbVisualStyle
  2
Wireframe
 70
     5
177
     3
291
     0
 70
    58
 90
        0
176
     1
 90
        2
176
     1
 90
        0
176
     1
 90
        0
176
     1
 40
0.6
176
     1
 40
30.0
176
     1
 62
     7
420
 16777215
176
     1
 90
        1
176
     1
 90
        4
176
     1
 62
     7
176
     1
 62
   257
176
     1
 90
        1
176
     1
 90
        1
176
     1
 40
1.0
176
     1
 90
        0
176
     1
 62
   257
176
     1
 40
1.0
176
     1
 90
        1
176
     1
 90
        6
176
     1
 90
        2
176
     1
 62
     7
176
     1
 90
        3
176
     1
 90
        0
176
     1
 90
        0
176
     1
290
     0
176
     1
 90
        1
176
     1
 40
0.0
176
     1
 90
        0
176
     1
290
     0
176
     1
290
     1
176
     1
290
     1
176
     1
290
     0
176
     1
290
     0
176
     1
290
     0
176
     1
290
     0
176
     1
290
     0
176
     1
290
     0
176
     1
 90
       50
176
     1
 40
0.0
176
     1
 40
1.0
176
     1
 90
        0
176
     1
 62
    18
420
        0
176
     1
 90
       50
176
     1
 90
        3
176
     1
 62
     5
420
      255
176
     1
290
     0
176
     1
 90
       50
176
     1
 90
       50
176
     1
 90
       50
176
     1
290
     0
176
     1
 90
       50
176
     1
 62
   256
176
     0
 40
1.0
176
     0
 90
        2
176
     1
  1
strokes_ogs.tif
176
     1
290
     0
176
     1
 40
1.0
176
     1
 40
1.0
176
     1
  0
VISUALSTYLE
  5
3C
102
{ACAD_REACTORS
330
29
102
}
330
29
100
AcDbVisualStyle
  2
X-Ray
 70
    25
177
     3
291
     0
 70
    58
 90
        2
176
     1
 90
        2
176
     1
 90
        1
176
     1
 90
        1
176
     1
 40
0.5
176
     1
 40
30.0
176
     1
 62
     7
420
 16777215
176
     1
 90
        1
176
     1
 90
        0
176
     1
 62
     7
176
     1
 62
   257
176
     1
 90
        1
176
     1
 90
        1
176
     1
 40
1.0
176
     1
 90
        8
176
     1
 62
     7
176
     1
 40
1.0
176
     1
 90
        1
176
     1
 90
        6
176
     1
 90
        2
176
     1
 62
     7
176
     1
 90
        3
176
     1
 90
        0
176
     1
 90
        0
176
     1
290
     0
176
     1
 90
       13
176
     1
 40
0.0
176
     1
 90
        0
176
     1
290
     0
176
     1
290
     1
176
     1
290
     1
176
     1
290
     0
176
     1
290
     0
176
     1
290
     0
176
     1
290
     0
176
     1
290
     0
176
     1
290
     0
176
     1
 90
       50
176
     1
 40
0.0
176
     1
 40
1.0
176
     1
 90
        0
176
     1
 62
    18
420
        0
176
     1
 90
       50
176
     1
 90
        3
176
     1
 62
     5
420
      255
176
     1
290
     0
176
     1
 90
       50
176
     1
 90
       50
176
     1
 90
       50
176
     1
290
     0
176
     1
 90
       50
176
     1
 62
   256
176
     0
 40
1.0
176
     0
 90
        2
176
     1
  1
strokes_ogs.tif
176
     1
290
     0
176
     1
 40
1.0
176
     1
 40
1.0
176
     1
  0
DICTIONARYVAR
  5
1F5
102
{ACAD_REACTORS
330
1F0
102
}
330
1F0
100
DictionaryVariables
280
     0
  1
1:1
  0
DICTIONARYVAR
  5
1F2
102
{ACAD_REACTORS
330
1F0
102
}
330
1F0
100
DictionaryVariables
280
     0
  1
STANDARD
  0
DICTIONARYVAR
  5
1F1
102
{ACAD_REACTORS
330
1F0
102
}
330
1F0
100
DictionaryVariables
280
     0
  1
STANDARD
  0
DICTIONARYVAR
  5
1F3
102
{ACAD_REACTORS
330
1F0
102
}
330
1F0
100
DictionaryVariables
280
     0
  1
Imperial24
  0
DICTIONARYVAR
  5
1F4
102
{ACAD_REACTORS
330
1F0
102
}
330
1F0
100
DictionaryVariables
280
     0
  1
Imperial24
  0
DICTIONARY
  5
1A
330
19
100
AcDbDictionary
280
     1
281
     1
  3
BUMPTILE
360
1C
  3
DIFFUSETILE
360
1B
  3
OPACITYTILE
360
1F
  3
REFLECTIONTILE
360
1E
  3
REFRACTIONTILE
360
20
  3
SPECULARTILE
360
1D
  0
DICTIONARY
  5
12
330
11
100
AcDbDictionary
280
     1
281
     1
  3
BUMPTILE
360
14
  3
DIFFUSETILE
360
13
  3
OPACITYTILE
360
17
  3
REFLECTIONTILE
360
16
  3
REFRACTIONTILE
360
18
  3
SPECULARTILE
360
15
  0
DICTIONARY
  5
22
330
21
100
AcDbDictionary
280
     1
281
     1
  3
BUMPTILE
360
24
  3
DIFFUSETILE
360
23
  3
OPACITYTILE
360
27
  3
REFLECTIONTILE
360
26
  3
REFRACTIONTILE
360
28
  3
SPECULARTILE
360
25
  0
DICTIONARY
  5
1F6
330
65
100
AcDbDictionary
280
     1
281
     1
  3
ACAD_ROUNDTRIP_2008_TABLESTYLE_CELLSTYLEMAP
360
1F7
  0
XRECORD
  5
1C
102
{ACAD_REACTORS
330
1A
102
}
330
1A
100
AcDbXrecord
280
     1
270
     1
271
     1
  0
XRECORD
  5
1B
102
{ACAD_REACTORS
330
1A
102
}
330
1A
100
AcDbXrecord
280
     1
270
     1
271
     1
  0
XRECORD
  5
1F
102
{ACAD_REACTORS
330
1A
102
}
330
1A
100
AcDbXrecord
280
     1
270
     1
271
     1
  0
XRECORD
  5
1E
102
{ACAD_REACTORS
330
1A
102
}
330
1A
100
AcDbXrecord
280
     1
270
     1
271
     1
  0
XRECORD
  5
20
102
{ACAD_REACTORS
330
1A
102
}
330
1A
100
AcDbXrecord
280
     1
270
     1
271
     1
  0
XRECORD
  5
1D
102
{ACAD_REACTORS
330
1A
102
}
330
1A
100
AcDbXrecord
280
     1
270
     1
271
     1
  0
XRECORD
  5
14
102
{ACAD_REACTORS
330
12
102
}
330
12
100
AcDbXrecord
280
     1
270
     1
271
     1
  0
XRECORD
  5
13
102
{ACAD_REACTORS
330
12
102
}
330
12
100
AcDbXrecord
280
     1
270
     1
271
     1
  0
XRECORD
  5
17
102
{ACAD_REACTORS
330
12
102
}
330
12
100
AcDbXrecord
280
     1
270
     1
271
     1
  0
XRECORD
  5
16
102
{ACAD_REACTORS
330
12
102
}
330
12
100
AcDbXrecord
280
     1
270
     1
271
     1
  0
XRECORD
  5
18
102
{ACAD_REACTORS
330
12
102
}
330
12
100
AcDbXrecord
280
     1
270
     1
271
     1
  0
XRECORD
  5
15
102
{ACAD_REACTORS
330
12
102
}
330
12
100
AcDbXrecord
280
     1
270
     1
271
     1
  0
XRECORD
  5
24
102
{ACAD_REACTORS
330
22
102
}
330
22
100
AcDbXrecord
280
     1
270
     1
271
     1
  0
XRECORD
  5
23
102
{ACAD_REACTORS
330
22
102
}
330
22
100
AcDbXrecord
280
     1
270
     1
271
     1
  0
XRECORD
  5
27
102
{ACAD_REACTORS
330
22
102
}
330
22
100
AcDbXrecord
280
     1
270
     1
271
     1
  0
XRECORD
  5
26
102
{ACAD_REACTORS
330
22
102
}
330
22
100
AcDbXrecord
280
     1
270
     1
271
     1
  0
XRECORD
  5
28
102
{ACAD_REACTORS
330
22
102
}
330
22
100
AcDbXrecord
280
     1
270
     1
271
     1
  0
XRECORD
  5
25
102
{ACAD_REACTORS
330
22
102
}
330
22
100
AcDbXrecord
280
     1
270
     1
271
     1
  0
CELLSTYLEMAP
  5
1F7
102
{ACAD_REACTORS
330
1F6
102
}
330
1F6
100
AcDbCellStyleMap
 90
        3
300
CELLSTYLE
  1
TABLEFORMAT_BEGIN
 90
        5
170
     1
 91
        0
 92
    32768
 62
   257
 93
        1
300
CONTENTFORMAT
  1
CONTENTFORMAT_BEGIN
 90
        0
 91
        0
 92
      512
 93
        0
300

 40
0.0
140
1.0
 94
        5
 62
     0
340
55
144
0.25
309
CONTENTFORMAT_END
171
     0
 94
        0
309
TABLEFORMAT_END
  1
CELLSTYLE_BEGIN
 90
        1
 91
        1
300
_TITLE
309
CELLSTYLE_END
300
CELLSTYLE
  1
TABLEFORMAT_BEGIN
 90
        5
170
     1
 91
        0
 92
        0
 62
   257
 93
        1
300
CONTENTFORMAT
  1
CONTENTFORMAT_BEGIN
 90
        0
 91
        0
 92
      512
 93
        0
300

 40
0.0
140
1.0
 94
        5
 62
     0
340
55
144
0.18
309
CONTENTFORMAT_END
171
     0
 94
        0
309
TABLEFORMAT_END
  1
CELLSTYLE_BEGIN
 90
        2
 91
        1
300
_HEADER
309
CELLSTYLE_END
300
CELLSTYLE
  1
TABLEFORMAT_BEGIN
 90
        5
170
     1
 91
        0
 92
        0
 62
   257
 93
        1
300
CONTENTFORMAT
  1
CONTENTFORMAT_BEGIN
 90
        0
 91
        0
 92
      512
 93
        0
300

 40
0.0
140
1.0
 94
        2
 62
     0
340
55
144
0.18
309
CONTENTFORMAT_END
171
     0
 94
        0
309
TABLEFORMAT_END
  1
CELLSTYLE_BEGIN
 90
        3
 91
        2
300
_DATA
309
CELLSTYLE_END
  0
ENDSEC
  0
EOF
