  0
SECTION
  2
HEADER
  9
$ACADVER
  1
AC1032
  9
$ACADMAINTVER
 90
      228
  9
$DWGCODEPAGE
  3
ANSI_1252
  9
$REQUIREDVERSIONS
160
                 0
  9
$INSBASE
 10
0.0
 20
0.0
 30
0.0
  9
$EXTMIN
 10
1.000000000000000E+20
 20
1.000000000000000E+20
 30
1.000000000000000E+20
  9
$EXTMAX
 10
-1.000000000000000E+20
 20
-1.000000000000000E+20
 30
-1.000000000000000E+20
  9
$LIMMIN
 10
0.0
 20
0.0
  9
$LIMMAX
 10
12.0
 20
9.0
  9
$ORTHOMODE
 70
     0
  9
$REGENMODE
 70
     1
  9
$FILLMODE
 70
     1
  9
$QTEXTMODE
 70
     0
  9
$MIRRTEXT
 70
     0
  9
$LTSCALE
 40
1.0
  9
$ATTMODE
 70
     1
  9
$TEXTSIZE
 40
0.2
  9
$TRACEWID
 40
0.05
  9
$TEXTSTYLE
  7
Standard
  9
$CLAYER
  8
0
  9
$CELTYPE
  6
ByLayer
  9
$CECOLOR
 62
   256
  9
$CELTSCALE
 40
1.0
  9
$DISPSILH
 70
     0
  9
$DIMSCALE
 40
1.0
  9
$DIMASZ
 40
0.18
  9
$DIMEXO
 40
0.0625
  9
$DIMDLI
 40
0.38
  9
$DIMRND
 40
0.0
  9
$DIMDLE
 40
0.0
  9
$DIMEXE
 40
0.18
  9
$DIMTP
 40
0.0
  9
$DIMTM
 40
0.0
  9
$DIMTXT
 40
0.18
  9
$DIMCEN
 40
0.09
  9
$DIMTSZ
 40
0.0
  9
$DIMTOL
 70
     0
  9
$DIMLIM
 70
     0
  9
$DIMTIH
 70
     1
  9
$DIMTOH
 70
     1
  9
$DIMSE1
 70
     0
  9
$DIMSE2
 70
     0
  9
$DIMTAD
 70
     0
  9
$DIMZIN
 70
     0
  9
$DIMBLK
  1

  9
$DIMASO
 70
     1
  9
$DIMSHO
 70
     1
  9
$DIMPOST
  1

  9
$DIMAPOST
  1

  9
$DIMALT
 70
     0
  9
$DIMALTD
 70
     2
  9
$DIMALTF
 40
25.4
  9
$DIMLFAC
 40
1.0
  9
$DIMTOFL
 70
     0
  9
$DIMTVP
 40
0.0
  9
$DIMTIX
 70
     0
  9
$DIMSOXD
 70
     0
  9
$DIMSAH
 70
     0
  9
$DIMBLK1
  1

  9
$DIMBLK2
  1

  9
$DIMSTYLE
  2
Standard
  9
$DIMCLRD
 70
     0
  9
$DIMCLRE
 70
     0
  9
$DIMCLRT
 70
     0
  9
$DIMTFAC
 40
1.0
  9
$DIMGAP
 40
0.09
  9
$DIMJUST
 70
     0
  9
$DIMSD1
 70
     0
  9
$DIMSD2
 70
     0
  9
$DIMTOLJ
 70
     1
  9
$DIMTZIN
 70
     0
  9
$DIMALTZ
 70
     0
  9
$DIMALTTZ
 70
     0
  9
$DIMUPT
 70
     0
  9
$DIMDEC
 70
     4
  9
$DIMTDEC
 70
     4
  9
$DIMALTU
 70
     2
  9
$DIMALTTD
 70
     2
  9
$DIMTXSTY
  7
Standard
  9
$DIMAUNIT
 70
     0
  9
$DIMADEC
 70
     0
  9
$DIMALTRND
 40
0.0
  9
$DIMAZIN
 70
     0
  9
$DIMDSEP
 70
    46
  9
$DIMATFIT
 70
     3
  9
$DIMFRAC
 70
     0
  9
$DIMLDRBLK
  1

  9
$DIMLUNIT
 70
     2
  9
$DIMLWD
 70
    -2
  9
$DIMLWE
 70
    -2
  9
$DIMTMOVE
 70
     0
  9
$DIMFXL
 40
1.0
  9
$DIMFXLON
 70
     0
  9
$DIMJOGANG
 40
0.7853981633974483
  9
$DIMTFILL
 70
     0
  9
$DIMTFILLCLR
 70
     0
  9
$DIMARCSYM
 70
     0
  9
$DIMLTYPE
  6

  9
$DIMLTEX1
  6

  9
$DIMLTEX2
  6

  9
$DIMTXTDIRECTION
 70
     0
  9
$LUNITS
 70
     2
  9
$LUPREC
 70
     4
  9
$SKETCHINC
 40
0.1
  9
$FILLETRAD
 40
0.0
  9
$AUNITS
 70
     0
  9
$AUPREC
 70
     0
  9
$MENU
  1
.
  9
$ELEVATION
 40
0.0
  9
$PELEVATION
 40
0.0
  9
$THICKNESS
 40
0.0
  9
$LIMCHECK
 70
     0
  9
$CHAMFERA
 40
0.0
  9
$CHAMFERB
 40
0.0
  9
$CHAMFERC
 40
0.0
  9
$CHAMFERD
 40
0.0
  9
$SKPOLY
 70
     0
  9
$TDCREATE
 40
2459921.690844907
  9
$TDUCREATE
 40
2459921.815844908
  9
$TDUPDATE
 40
2459921.690844907
  9
$TDUUPDATE
 40
2459921.815844908
  9
$TDINDWG
 40
0.0000000000
  9
$TDUSRTIMER
 40
0.0000000000
  9
$USRTIMER
 70
     1
  9
$ANGBASE
 50
0.0
  9
$ANGDIR
 70
     0
  9
$PDMODE
 70
     0
  9
$PDSIZE
 40
0.0
  9
$PLINEWID
 40
0.0
  9
$SPLFRAME
 70
     0
  9
$SPLINETYPE
 70
     6
  9
$SPLINESEGS
 70
     8
  9
$HANDSEED
  5
15A
  9
$SURFTAB1
 70
     6
  9
$SURFTAB2
 70
     6
  9
$SURFTYPE
 70
     6
  9
$SURFU
 70
     6
  9
$SURFV
 70
     6
  9
$UCSBASE
  2

  9
$UCSNAME
  2

  9
$UCSORG
 10
0.0
 20
0.0
 30
0.0
  9
$UCSXDIR
 10
1.0
 20
0.0
 30
0.0
  9
$UCSYDIR
 10
0.0
 20
1.0
 30
0.0
  9
$UCSORTHOREF
  2

  9
$UCSORTHOVIEW
 70
     0
  9
$UCSORGTOP
 10
0.0
 20
0.0
 30
0.0
  9
$UCSORGBOTTOM
 10
0.0
 20
0.0
 30
0.0
  9
$UCSORGLEFT
 10
0.0
 20
0.0
 30
0.0
  9
$UCSORGRIGHT
 10
0.0
 20
0.0
 30
0.0
  9
$UCSORGFRONT
 10
0.0
 20
0.0
 30
0.0
  9
$UCSORGBACK
 10
0.0
 20
0.0
 30
0.0
  9
$PUCSBASE
  2

  9
$PUCSNAME
  2

  9
$PUCSORG
 10
0.0
 20
0.0
 30
0.0
  9
$PUCSXDIR
 10
1.0
 20
0.0
 30
0.0
  9
$PUCSYDIR
 10
0.0
 20
1.0
 30
0.0
  9
$PUCSORTHOREF
  2

  9
$PUCSORTHOVIEW
 70
     0
  9
$PUCSORGTOP
 10
0.0
 20
0.0
 30
0.0
  9
$PUCSORGBOTTOM
 10
0.0
 20
0.0
 30
0.0
  9
$PUCSORGLEFT
 10
0.0
 20
0.0
 30
0.0
  9
$PUCSORGRIGHT
 10
0.0
 20
0.0
 30
0.0
  9
$PUCSORGFRONT
 10
0.0
 20
0.0
 30
0.0
  9
$PUCSORGBACK
 10
0.0
 20
0.0
 30
0.0
  9
$USERI1
 70
     0
  9
$USERI2
 70
     0
  9
$USERI3
 70
     0
  9
$USERI4
 70
     0
  9
$USERI5
 70
     0
  9
$USERR1
 40
0.0
  9
$USERR2
 40
0.0
  9
$USERR3
 40
0.0
  9
$USERR4
 40
0.0
  9
$USERR5
 40
0.0
  9
$WORLDVIEW
 70
     1
  9
$SHADEDGE
 70
     3
  9
$SHADEDIF
 70
    70
  9
$TILEMODE
 70
     1
  9
$MAXACTVP
 70
    64
  9
$PINSBASE
 10
0.0
 20
0.0
 30
0.0
  9
$PLIMCHECK
 70
     0
  9
$PEXTMIN
 10
1.000000000000000E+20
 20
1.000000000000000E+20
 30
1.000000000000000E+20
  9
$PEXTMAX
 10
-1.000000000000000E+20
 20
-1.000000000000000E+20
 30
-1.000000000000000E+20
  9
$PLIMMIN
 10
0.0
 20
0.0
  9
$PLIMMAX
 10
12.0
 20
9.0
  9
$UNITMODE
 70
     0
  9
$VISRETAIN
 70
     1
  9
$PLINEGEN
 70
     0
  9
$PSLTSCALE
 70
     1
  9
$TREEDEPTH
 70
  3020
  9
$CMLSTYLE
  2
Standard
  9
$CMLJUST
 70
     0
  9
$CMLSCALE
 40
1.0
  9
$PROXYGRAPHICS
 70
     1
  9
$MEASUREMENT
 70
     0
  9
$CELWEIGHT
370
    -1
  9
$ENDCAPS
280
     0
  9
$JOINSTYLE
280
     0
  9
$LWDISPLAY
290
     1
  9
$INSUNITS
 70
     0
  9
$HYPERLINKBASE
  1

  9
$STYLESHEET
  1

  9
$XEDIT
290
     1
  9
$CEPSNTYPE
380
     0
  9
$PSTYLEMODE
290
     1
  9
$FINGERPRINTGUID
  2
{0689E941-5EB4-3F4F-8E5B-3344602F5469}
  9
$VERSIONGUID
  2
{2C30C6CB-2A23-8A4B-87F8-E642A778BB33}
  9
$EXTNAMES
290
     1
  9
$PSVPSCALE
 40
0.0
  9
$OLESTARTUP
290
     0
  9
$SORTENTS
280
   127
  9
$INDEXCTL
280
     0
  9
$HIDETEXT
280
     1
  9
$XCLIPFRAME
280
     2
  9
$HALOGAP
280
     0
  9
$OBSCOLOR
 70
   257
  9
$OBSLTYPE
280
     0
  9
$INTERSECTIONDISPLAY
280
     0
  9
$INTERSECTIONCOLOR
 70
   257
  9
$DIMASSOC
280
     2
  9
$PROJECTNAME
  1

  9
$CAMERADISPLAY
290
     0
  9
$LENSLENGTH
 40
50.0
  9
$CAMERAHEIGHT
 40
0.0
  9
$STEPSPERSEC
 40
2.0
  9
$STEPSIZE
 40
6.0
  9
$3DDWFPREC
 40
2.0
  9
$PSOLWIDTH
 40
0.25
  9
$PSOLHEIGHT
 40
4.0
  9
$LOFTANG1
 40
1.570796326794896
  9
$LOFTANG2
 40
1.570796326794896
  9
$LOFTMAG1
 40
0.0
  9
$LOFTMAG2
 40
0.0
  9
$LOFTPARAM
 70
     7
  9
$LOFTNORMALS
280
     1
  9
$LATITUDE
 40
37.795
  9
$LONGITUDE
 40
-122.394
  9
$NORTHDIRECTION
 40
0.0
  9
$TIMEZONE
 70
 -8000
  9
$LIGHTGLYPHDISPLAY
280
     1
  9
$TILEMODELIGHTSYNCH
280
     1
  9
$CMATERIAL
347
11
  9
$SOLIDHIST
280
     0
  9
$SHOWHIST
280
     1
  9
$DWFFRAME
280
     2
  9
$DGNFRAME
280
     0
  9
$REALWORLDSCALE
290
     1
  9
$INTERFERECOLOR
 62
     1
  9
$INTERFEREOBJVS
345
33
  9
$INTERFEREVPVS
346
30
  9
$CSHADOW
280
     0
  9
$SHADOWPLANELOCATION
 40
0.0
  0
ENDSEC
  0
SECTION
  2
CLASSES
  0
CLASS
  1
ACDBDICTIONARYWDFLT
  2
AcDbDictionaryWithDefault
  3
ObjectDBX Classes
 90
        0
 91
        1
280
     0
281
     0
  0
CLASS
  1
MATERIAL
  2
AcDbMaterial
  3
ObjectDBX Classes
 90
     1153
 91
        3
280
     0
281
     0
  0
CLASS
  1
VISUALSTYLE
  2
AcDbVisualStyle
  3
ObjectDBX Classes
 90
     4095
 91
       24
280
     0
281
     0
  0
CLASS
  1
SCALE
  2
AcDbScale
  3
ObjectDBX Classes
 90
     1153
 91
       17
280
     0
281
     0
  0
CLASS
  1
TABLESTYLE
  2
AcDbTableStyle
  3
ObjectDBX Classes
 90
     4095
 91
        1
280
     0
281
     0
  0
CLASS
  1
MLEADERSTYLE
  2
AcDbMLeaderStyle
  3
ACDB_MLEADERSTYLE_CLASS
 90
     4095
 91
        1
280
     0
281
     0
  0
CLASS
  1
ACDBSECTIONVIEWSTYLE
  2
AcDbSectionViewStyle
  3
ObjectDBX Classes
 90
     1025
 91
        1
280
     0
281
     0
  0
CLASS
  1
ACDBDETAILVIEWSTYLE
  2
AcDbDetailViewStyle
  3
ObjectDBX Classes
 90
     1025
 91
        1
280
     0
281
     0
  0
CLASS
  1
DICTIONARYVAR
  2
AcDbDictionaryVar
  3
ObjectDBX Classes
 90
        0
 91
        5
280
     0
281
     0
  0
CLASS
  1
CELLSTYLEMAP
  2
AcDbCellStyleMap
  3
ObjectDBX Classes
 90
     1152
 91
        1
280
     0
281
     0
  0
ENDSEC
  0
SECTION
  2
TABLES
  0
TABLE
  2
VPORT
  5
8
330
0
100
AcDbSymbolTable
 70
     1
  0
VPORT
  5
57
330
8
100
AcDbSymbolTableRecord
100
AcDbViewportTableRecord
  2
*Active
 70
     0
 10
0.0
 20
0.0
 11
1.0
 21
1.0
 12
0.0
 22
0.0
 13
0.0
 23
0.0
 14
1.0
 24
1.0
 15
0.0
 25
0.0
 16
0.0
 26
0.0
 36
1.0
 17
241.193555555556
 27
848.5005555555563
 37
0.0
 40
700.9678000000037
 41
0.7174578537463932
 42
50.0
 43
0.0
 44
0.0
 50
0.0
 51
0.0
 71
     0
 72
   100
 73
     1
 74
     1
 75
     0
 76
     0
 77
     0
 78
     0
281
     0
 65
     1
110
0.0
120
0.0
130
0.0
111
1.0
121
0.0
131
0.0
112
0.0
122
1.0
132
0.0
 79
     0
146
0.0
 60
     3
 61
     5
292
     1
282
     1
141
0.0
142
0.0
 63
   250
421
  3355443
  0
ENDTAB
  0
TABLE
  2
LTYPE
  5
5
330
0
100
AcDbSymbolTable
 70
     1
  0
LTYPE
  5
5B
330
5
100
AcDbSymbolTableRecord
100
AcDbLinetypeTableRecord
  2
ByBlock
 70
     0
  3

 72
    65
 73
     0
 40
0.0
  0
LTYPE
  5
5C
330
5
100
AcDbSymbolTableRecord
100
AcDbLinetypeTableRecord
  2
ByLayer
 70
     0
  3

 72
    65
 73
     0
 40
0.0
  0
LTYPE
  5
5D
330
5
100
AcDbSymbolTableRecord
100
AcDbLinetypeTableRecord
  2
Continuous
 70
     0
  3
Solid line
 72
    65
 73
     0
 40
0.0
  0
ENDTAB
  0
TABLE
  2
LAYER
  5
2
330
0
100
AcDbSymbolTable
 70
     2
  0
LAYER
  5
54
330
2
100
AcDbSymbolTableRecord
100
AcDbLayerTableRecord
  2
0
 70
     0
 62
     7
  6
Continuous
370
    -3
390
F
347
21
348
0
  0
LAYER
  5
78
330
2
100
AcDbSymbolTableRecord
100
AcDbLayerTableRecord
  2
1
 70
     0
 62
     7
  6
Continuous
370
     0
390
F
347
21
348
0
  0
ENDTAB
  0
TABLE
  2
STYLE
  5
3
330
0
100
AcDbSymbolTable
 70
     2
  0
STYLE
  5
55
330
3
100
AcDbSymbolTableRecord
100
AcDbTextStyleTableRecord
  2
Standard
 70
     0
 40
0.0
 41
1.0
 50
0.0
 71
     0
 42
0.2
  3
txt
  4

  0
STYLE
  5
5A
330
3
100
AcDbSymbolTableRecord
100
AcDbTextStyleTableRecord
  2
Annotative
 70
     0
 40
0.0
 41
1.0
 50
0.0
 71
     0
 42
0.2
  3
txt
  4

1001
AcadAnnotative
1000
AnnotativeData
1002
{
1070
     1
1070
     1
1002
}
  0
ENDTAB
  0
TABLE
  2
VIEW
  5
6
330
0
100
AcDbSymbolTable
 70
     0
  0
ENDTAB
  0
TABLE
  2
UCS
  5
7
330
0
100
AcDbSymbolTable
 70
     0
  0
ENDTAB
  0
TABLE
  2
APPID
  5
9
330
0
100
AcDbSymbolTable
 70
     2
  0
APPID
  5
56
330
9
100
AcDbSymbolTableRecord
100
AcDbRegAppTableRecord
  2
ACAD
 70
     0
  0
APPID
  5
5E
330
9
100
AcDbSymbolTableRecord
100
AcDbRegAppTableRecord
  2
AcadAnnotative
 70
     0
  0
ENDTAB
  0
TABLE
  2
DIMSTYLE
  5
A
330
0
100
AcDbSymbolTable
 70
     2
100
AcDbDimStyleTable
 71
     0
  0
DIMSTYLE
105
58
330
A
100
AcDbSymbolTableRecord
100
AcDbDimStyleTableRecord
  2
Standard
 70
     0
340
55
  0
DIMSTYLE
105
59
330
A
100
AcDbSymbolTableRecord
100
AcDbDimStyleTableRecord
  2
Annotative
 70
     0
340
55
1001
AcadAnnotative
1000
AnnotativeData
1002
{
1070
     1
1070
     1
1002
}
  0
ENDTAB
  0
TABLE
  2
BLOCK_RECORD
  5
1
330
0
100
AcDbSymbolTable
 70
     9
  0
BLOCK_RECORD
  5
70
330
1
100
AcDbSymbolTableRecord
100
AcDbBlockTableRecord
  2
*Model_Space
340
73
 70
     0
280
     1
281
     0
  0
BLOCK_RECORD
  5
6C
330
1
100
AcDbSymbolTableRecord
100
AcDbBlockTableRecord
  2
*Paper_Space
340
6F
 70
     0
280
     1
281
     0
  0
BLOCK_RECORD
  5
74
330
1
100
AcDbSymbolTableRecord
100
AcDbBlockTableRecord
  2
*Paper_Space0
340
77
 70
     0
280
     1
281
     0
  0
BLOCK_RECORD
  5
79
330
1
100
AcDbSymbolTableRecord
100
AcDbBlockTableRecord
  2
Block_0
340
0
102
{BLKREFS
331
7A
102
}
 70
     0
280
     1
281
     0
  0
BLOCK_RECORD
  5
7D
330
1
100
AcDbSymbolTableRecord
100
AcDbBlockTableRecord
  2
Block_1
340
0
102
{BLKREFS
331
7E
102
}
 70
     0
280
     1
281
     0
  0
BLOCK_RECORD
  5
AD
330
1
100
AcDbSymbolTableRecord
100
AcDbBlockTableRecord
  2
Block_2
340
0
102
{BLKREFS
331
AE
102
}
 70
     0
280
     1
281
     0
  0
BLOCK_RECORD
  5
12B
330
1
100
AcDbSymbolTableRecord
100
AcDbBlockTableRecord
  2
Block_3
340
0
102
{BLKREFS
331
12C
102
}
 70
     0
280
     1
281
     0
  0
BLOCK_RECORD
  5
131
330
1
100
AcDbSymbolTableRecord
100
AcDbBlockTableRecord
  2
Block_4
340
0
102
{BLKREFS
331
132
102
}
 70
     0
280
     1
281
     0
  0
BLOCK_RECORD
  5
137
330
1
100
AcDbSymbolTableRecord
100
AcDbBlockTableRecord
  2
Block_5
340
0
102
{BLKREFS
331
138
102
}
 70
     0
280
     1
281
     0
  0
BLOCK_RECORD
  5
144
330
1
100
AcDbSymbolTableRecord
100
AcDbBlockTableRecord
  2
Block_6
340
0
102
{BLKREFS
331
145
102
}
 70
     0
280
     1
281
     0
  0
BLOCK_RECORD
  5
14A
330
1
100
AcDbSymbolTableRecord
100
AcDbBlockTableRecord
  2
Block_7
340
0
102
{BLKREFS
331
14B
102
}
 70
     0
280
     1
281
     0
  0
ENDTAB
  0
ENDSEC
  0
SECTION
  2
BLOCKS
  0
BLOCK
  5
71
330
70
100
AcDbEntity
  8
0
100
AcDbBlockBegin
  2
*Model_Space
 70
     0
 10
0.0
 20
0.0
 30
0.0
  3
*Model_Space
  1

  0
ENDBLK
  5
72
330
70
100
AcDbEntity
  8
0
100
AcDbBlockEnd
  0
BLOCK
  5
6D
330
6C
100
AcDbEntity
 67
     1
  8
0
100
AcDbBlockBegin
  2
*Paper_Space
 70
     0
 10
0.0
 20
0.0
 30
0.0
  3
*Paper_Space
  1

  0
ENDBLK
  5
6E
330
6C
100
AcDbEntity
 67
     1
  8
0
100
AcDbBlockEnd
  0
BLOCK
  5
75
330
74
100
AcDbEntity
 67
     1
  8
0
100
AcDbBlockBegin
  2
*Paper_Space0
 70
     0
 10
0.0
 20
0.0
 30
0.0
  3
*Paper_Space0
  1

  0
ENDBLK
  5
76
330
74
100
AcDbEntity
 67
     1
  8
0
100
AcDbBlockEnd
  0
BLOCK
  5
7B
330
79
100
AcDbEntity
  8
0
100
AcDbBlockBegin
  2
Block_0
 70
     0
 10
0.0
 20
0.0
 30
0.0
  3
Block_0
  1

  0
ENDBLK
  5
7C
330
79
100
AcDbEntity
  8
0
100
AcDbBlockEnd
  0
BLOCK
  5
7F
330
7D
100
AcDbEntity
  8
0
100
AcDbBlockBegin
  2
Block_1
 70
     0
 10
0.0
 20
0.0
 30
0.0
  3
Block_1
  1

  0
LINE
  5
81
330
7D
100
AcDbEntity
  8
1
 62
     7
370
    35
100
AcDbLine
 10
196.6352677286268
 20
1132.404358618246
 30
0.0
 11
196.6352677286268
 21
1122.606717492502
 31
0.0
  0
LINE
  5
82
330
7D
100
AcDbEntity
  8
1
 62
     7
370
    35
100
AcDbLine
 10
202.5179232016608
 20
1110.841406546434
 30
0.0
 11
196.6352677286268
 21
1110.841406546434
 31
0.0
  0
LINE
  5
83
330
7D
100
AcDbEntity
  8
1
 62
     7
370
    35
100
AcDbLine
 10
59.27055630890482
 20
979.359350599746
 30
0.0
 11
59.27055630890482
 21
985.24200607278
 31
0.0
  0
LINE
  5
84
330
7D
100
AcDbEntity
  8
1
 62
     7
370
    35
100
AcDbLine
 10
71.03586725497279
 20
979.359350599746
 30
0.0
 11
59.27055630890482
 21
979.359350599746
 31
0.0
  0
LINE
  5
85
330
7D
100
AcDbEntity
  8
1
 62
     7
370
    35
100
AcDbLine
 10
59.27055630890482
 20
985.24200607278
 30
0.0
 11
49.47291518316069
 21
985.24200607278
 31
0.0
  0
LINE
  5
86
330
7D
100
AcDbEntity
  8
1
 62
     7
370
    35
100
AcDbLine
 10
196.6352677286268
 20
1122.606717492502
 30
0.0
 11
202.5179232016608
 21
1122.606717492502
 31
0.0
  0
LINE
  5
87
330
7D
100
AcDbEntity
  8
1
 62
     7
370
    35
100
AcDbLine
 10
202.5179232016608
 20
1122.606717492502
 30
0.0
 11
202.5179232016608
 21
1110.841406546434
 31
0.0
  0
LINE
  5
88
330
7D
100
AcDbEntity
  8
1
 62
     7
370
    35
100
AcDbLine
 10
71.03586725497279
 20
985.24200607278
 30
0.0
 11
71.03586725497279
 21
979.359350599746
 31
0.0
  0
LINE
  5
89
330
7D
100
AcDbEntity
  8
1
 62
     7
370
    35
100
AcDbLine
 10
48.19771626918918
 20
973.3763774185764
 30
0.0
 11
48.98209582376785
 21
973.380688228508
 31
0.0
  0
LINE
  5
8A
330
7D
100
AcDbEntity
  8
1
 62
     7
370
    35
100
AcDbLine
 10
48.98303626428969
 20
971.8119612778673
 30
0.0
 11
48.19869396652939
 21
971.8076512522911
 31
0.0
  0
LINE
  5
8B
330
7D
100
AcDbEntity
  8
1
 62
     7
370
    35
100
AcDbLine
 10
71.03587470633647
 20
985.2420139163214
 30
0.0
 11
188.7917270979142
 21
985.2420139163214
 31
0.0
  0
LINE
  5
8C
330
7D
100
AcDbEntity
  8
1
 62
     7
370
    35
100
AcDbLine
 10
196.6352677286268
 20
993.0855545470331
 30
0.0
 11
196.6352677286268
 21
1110.841406546434
 31
0.0
  0
LINE
  5
8D
330
7D
100
AcDbEntity
  8
1
 62
     7
370
    35
100
AcDbLine
 10
208.3994692058723
 20
973.4767029702535
 30
0.0
 11
208.4005786746948
 21
973.4767029702535
 31
0.0
  0
LINE
  5
8E
330
7D
100
AcDbEntity
  8
1
 62
     7
370
    35
100
AcDbLine
 10
208.4005786746948
 20
973.4767029702535
 30
0.0
 11
208.4005786746948
 21
973.4778120468982
 31
0.0
  0
LINE
  5
8F
330
7D
100
AcDbEntity
  8
1
 62
     7
370
    35
100
AcDbLine
 10
71.03587470633647
 20
985.2420139163214
 30
0.0
 11
71.03587470633647
 21
979.3593584432874
 31
0.0
  0
LINE
  5
90
330
7D
100
AcDbEntity
  8
1
 62
     7
370
    35
100
AcDbLine
 10
59.27056376026849
 20
985.2420139163214
 30
0.0
 11
49.47291283009781
 21
985.2420139163214
 31
0.0
  0
LINE
  5
91
330
7D
100
AcDbEntity
  8
1
 62
     7
370
    35
100
AcDbLine
 10
59.27056376026849
 20
979.3593584432874
 30
0.0
 11
59.27056376026849
 21
985.2420139163214
 31
0.0
  0
LINE
  5
92
330
7D
100
AcDbEntity
  8
1
 62
     7
370
    35
100
AcDbLine
 10
202.5179232016608
 20
1122.606717492502
 30
0.0
 11
202.5179232016608
 21
1110.841406546434
 31
0.0
  0
LINE
  5
93
330
7D
100
AcDbEntity
  8
1
 62
     7
370
    35
100
AcDbLine
 10
196.6352677286268
 20
1132.404368422672
 30
0.0
 11
196.6352677286268
 21
1122.606717492502
 31
0.0
  0
LINE
  5
94
330
7D
100
AcDbEntity
  8
1
 62
     7
370
    35
100
AcDbLine
 10
71.03587470633647
 20
979.3593584432874
 30
0.0
 11
59.27056376026849
 21
979.3593584432874
 31
0.0
  0
LINE
  5
95
330
7D
100
AcDbEntity
  8
1
 62
     7
370
    35
100
AcDbLine
 10
202.5179232016608
 20
1110.841406546434
 30
0.0
 11
196.6352677286268
 21
1110.841406546434
 31
0.0
  0
LINE
  5
96
330
7D
100
AcDbEntity
  8
1
 62
     7
370
    35
100
AcDbLine
 10
196.6352677286268
 20
1122.606717492502
 30
0.0
 11
202.5179232016608
 21
1122.606717492502
 31
0.0
  0
LINE
  5
97
330
7D
100
AcDbEntity
  8
1
 62
     7
370
    35
100
AcDbLine
 10
208.4005786746948
 20
973.4778120468982
 30
0.0
 11
208.4005786746948
 21
1132.894746190727
 31
0.0
  0
LINE
  5
98
330
7D
100
AcDbEntity
  8
1
 62
     7
370
    35
100
AcDbLine
 10
48.98253545421994
 20
971.9079948441113
 30
0.0
 11
48.98253545421994
 21
973.4767029702535
 31
0.0
  0
LINE
  5
99
330
7D
100
AcDbEntity
  8
1
 62
     7
370
    35
100
AcDbLine
 10
208.3994692058723
 20
973.4767029702535
 30
0.0
 11
48.98253545421994
 21
973.4767029702535
 31
0.0
  0
LINE
  5
9A
330
7D
100
AcDbEntity
  8
1
 62
     7
370
    35
100
AcDbLine
 10
209.8431372549012
 20
971.9079948441113
 30
0.0
 11
48.98253545421994
 21
971.9079948441113
 31
0.0
  0
LINE
  5
9B
330
7D
100
AcDbEntity
  8
1
 62
     7
370
    35
100
AcDbLine
 10
208.4005786746948
 20
1132.894746190727
 30
0.0
 11
209.9692868008369
 21
1132.894746190727
 31
0.0
  0
LINE
  5
9C
330
7D
100
AcDbEntity
  8
1
 62
     7
370
    35
100
AcDbLine
 10
209.9692868008369
 20
1132.894746190727
 30
0.0
 11
209.9692868008369
 21
971.9072875109558
 31
0.0
  0
LINE
  5
9D
330
7D
100
AcDbEntity
  8
1
 62
     7
370
    35
100
AcDbLine
 10
209.9731266061517
 20
1133.679081037124
 30
0.0
 11
209.9692868008369
 21
1132.894736386302
 31
0.0
  0
LINE
  5
9E
330
7D
100
AcDbEntity
  8
1
 62
     7
370
    35
100
AcDbLine
 10
208.4005598501972
 20
1132.894736386302
 30
0.0
 11
208.4044000476897
 21
1133.679118293941
 31
0.0
  0
SPLINE
  5
9F
330
7D
100
AcDbEntity
  8
1
 62
     7
370
    35
100
AcDbSpline
210
0.0
220
0.0
230
1.0
 70
     8
 71
     3
 72
     8
 73
     4
 74
     0
 42
0.0000000001
 43
0.0000000001
 40
0.0
 40
0.0
 40
0.0
 40
0.0
 40
1.0
 40
1.0
 40
1.0
 40
1.0
 10
144.5812134696016
 20
1105.403320228122
 30
0.0
 10
118.8199377132341
 20
1092.591634736549
 30
0.0
 10
97.22300190846546
 20
1072.732817535827
 30
0.0
 10
82.2998808221355
 20
1048.134381187691
 30
0.0
  0
SPLINE
  5
A0
330
7D
100
AcDbEntity
  8
1
 62
     7
370
    35
100
AcDbSpline
210
0.0
220
0.0
230
1.0
 70
     8
 71
     3
 72
    11
 73
     7
 74
     0
 42
0.0000000001
 43
0.0000000001
 40
0.0
 40
0.0
 40
0.0
 40
0.0
 40
1.0
 40
1.0
 40
1.0
 40
2.0
 40
2.0
 40
2.0
 40
2.0
 10
63.27266135300487
 20
994.2052626269642
 30
0.0
 10
63.21917361000942
 20
993.834421815116
 30
0.0
 10
63.19232662426021
 20
993.4602250273693
 30
0.0
 10
63.19232662426021
 20
993.0855467034916
 30
0.0
 10
63.19232662426021
 20
988.7536788284714
 30
0.0
 10
66.70399937995262
 20
985.24200607278
 30
0.0
 10
71.03586725497279
 20
985.24200607278
 30
0.0
  0
SPLINE
  5
A1
330
7D
100
AcDbEntity
  8
1
 62
     7
370
    35
100
AcDbSpline
210
0.0
220
0.0
230
1.0
 70
     8
 71
     3
 72
     8
 73
     4
 74
     0
 42
0.0000000001
 43
0.0000000001
 40
0.0
 40
0.0
 40
0.0
 40
0.0
 40
1.0
 40
1.0
 40
1.0
 40
1.0
 10
187.672011037619
 20
1118.604612611129
 30
0.0
 10
123.21008698886
 20
1109.30703069375
 30
0.0
 10
72.5702431076561
 20
1058.667186812547
 30
0.0
 10
63.27266119027718
 20
994.2052627637867
 30
0.0
  0
SPLINE
  5
A2
330
7D
100
AcDbEntity
  8
1
 62
     7
370
    35
100
AcDbSpline
210
0.0
220
0.0
230
1.0
 70
     8
 71
     3
 72
     8
 73
     4
 74
     0
 42
0.0000000001
 43
0.0000000001
 40
0.0
 40
0.0
 40
0.0
 40
0.0
 40
1.0
 40
1.0
 40
1.0
 40
1.0
 10
196.6352674655163
 20
1132.404358594424
 30
0.0
 10
118.059089800493
 20
1126.230090342914
 30
0.0
 10
55.64718306631494
 20
1063.818183608737
 30
0.0
 10
49.47291481480533
 20
985.2420059437127
 30
0.0
  0
SPLINE
  5
A3
330
7D
100
AcDbEntity
  8
1
 62
     7
370
    35
100
AcDbSpline
210
0.0
220
0.0
230
1.0
 70
     8
 71
     3
 72
    11
 73
     7
 74
     0
 42
0.0000000001
 43
0.0000000001
 40
0.0
 40
0.0
 40
0.0
 40
0.0
 40
1.0
 40
1.0
 40
1.0
 40
2.0
 40
2.0
 40
2.0
 40
2.0
 10
196.6352677286268
 20
1110.841406546434
 30
0.0
 10
196.6352677286268
 20
1111.21608487031
 30
0.0
 10
196.6084207428766
 20
1111.590281658058
 30
0.0
 10
196.554932999883
 20
1111.961122469905
 30
0.0
 10
195.9365309712066
 20
1116.248622699359
 30
0.0
 10
191.9595114038957
 20
1119.223014477078
 30
0.0
 10
187.6720111744425
 20
1118.604612448402
 30
0.0
  0
SPLINE
  5
A4
330
7D
100
AcDbEntity
  8
1
 62
     7
370
    35
100
AcDbSpline
210
0.0
220
0.0
230
1.0
 70
     8
 71
     3
 72
     8
 73
     4
 74
     0
 42
0.0000000001
 43
0.0000000001
 40
0.0
 40
0.0
 40
0.0
 40
0.0
 40
1.0
 40
1.0
 40
1.0
 40
1.0
 10
49.47291302706344
 20
985.242012960639
 30
0.0
 10
49.16532910334172
 20
981.3275775240482
 30
0.0
 10
49.00175944598868
 20
977.4031571987807
 30
0.0
 10
48.98253545018724
 20
973.4767029337527
 30
0.0
  0
SPLINE
  5
A5
330
7D
100
AcDbEntity
  8
1
 62
     7
370
    35
100
AcDbSpline
210
0.0
220
0.0
230
1.0
 70
     8
 71
     3
 72
     8
 73
     4
 74
     0
 42
0.0000000001
 43
0.0000000001
 40
0.0
 40
0.0
 40
0.0
 40
0.0
 40
1.0
 40
1.0
 40
1.0
 40
1.0
 10
208.4005787111946
 20
1132.89474619476
 30
0.0
 10
204.4741244461666
 20
1132.875522198959
 30
0.0
 10
200.5497041208991
 20
1132.711952541605
 30
0.0
 10
196.6352686843083
 20
1132.404368617883
 30
0.0
  0
SPLINE
  5
A6
330
7D
100
AcDbEntity
  8
1
 62
     7
370
    35
100
AcDbSpline
210
0.0
220
0.0
230
1.0
 70
     8
 71
     3
 72
     8
 73
     4
 74
     0
 42
0.0000000001
 43
0.0000000001
 40
0.0
 40
0.0
 40
0.0
 40
0.0
 40
1.0
 40
1.0
 40
1.0
 40
1.0
 10
208.4005607074869
 20
1132.894736294506
 30
0.0
 10
120.4978027644674
 20
1132.464351956836
 30
0.0
 10
49.35979122993285
 20
1061.283687625943
 30
0.0
 10
48.98209574108751
 20
973.3806875020281
 30
0.0
  0
SPLINE
  5
A7
330
7D
100
AcDbEntity
  8
1
 62
     7
370
    35
100
AcDbSpline
210
0.0
220
0.0
230
1.0
 70
     8
 71
     3
 72
     8
 73
     4
 74
     0
 42
0.0000000001
 43
0.0000000001
 40
0.0
 40
0.0
 40
0.0
 40
0.0
 40
1.0
 40
1.0
 40
1.0
 40
1.0
 10
208.4043994891526
 20
1133.679118370936
 30
0.0
 10
120.0652661620543
 20
1133.250811340961
 30
0.0
 10
48.57307272534399
 20
1061.715752748167
 30
0.0
 10
48.19771610652151
 20
973.3763785636993
 30
0.0
  0
SPLINE
  5
A8
330
7D
100
AcDbEntity
  8
1
 62
     7
370
    35
100
AcDbSpline
210
0.0
220
0.0
230
1.0
 70
     8
 71
     3
 72
     8
 73
     4
 74
     0
 42
0.0000000001
 43
0.0000000001
 40
0.0
 40
0.0
 40
0.0
 40
0.0
 40
1.0
 40
1.0
 40
1.0
 40
1.0
 10
188.7917270979142
 20
985.2420139163214
 30
0.0
 10
193.1235949729352
 20
985.2420139163214
 30
0.0
 10
196.6352677286268
 20
988.7536866720129
 30
0.0
 10
196.6352677286268
 20
993.0855545470331
 30
0.0
  0
SPLINE
  5
A9
330
7D
100
AcDbEntity
  8
1
 62
     7
370
    35
100
AcDbSpline
210
0.0
220
0.0
230
1.0
 70
     8
 71
     3
 72
    74
 73
    70
 74
     0
 42
0.0000000001
 43
0.0000000001
 40
0.0
 40
0.0
 40
0.0
 40
0.0
 40
1.0
 40
1.0
 40
1.0
 40
2.0
 40
2.0
 40
2.0
 40
3.0
 40
3.0
 40
3.0
 40
4.0
 40
4.0
 40
4.0
 40
5.0
 40
5.0
 40
5.0
 40
6.0
 40
6.0
 40
6.0
 40
7.0
 40
7.0
 40
7.0
 40
8.0
 40
8.0
 40
8.0
 40
9.0
 40
9.0
 40
9.0
 40
10.0
 40
10.0
 40
10.0
 40
11.0
 40
11.0
 40
11.0
 40
12.0
 40
12.0
 40
12.0
 40
13.0
 40
13.0
 40
13.0
 40
14.0
 40
14.0
 40
14.0
 40
15.0
 40
15.0
 40
15.0
 40
16.0
 40
16.0
 40
16.0
 40
17.0
 40
17.0
 40
17.0
 40
18.0
 40
18.0
 40
18.0
 40
19.0
 40
19.0
 40
19.0
 40
20.0
 40
20.0
 40
20.0
 40
21.0
 40
21.0
 40
21.0
 40
22.0
 40
22.0
 40
22.0
 40
23.0
 40
23.0
 40
23.0
 40
23.0
 10
48.98209593519641
 20
973.3806880395986
 30
0.0
 10
48.98187341313041
 20
973.3288993795831
 30
0.0
 10
48.98167722262133
 20
973.2773948809299
 30
0.0
 10
48.98150652970525
 20
973.2261694319932
 30
0.0
 10
48.98133583679009
 20
973.1749439830563
 30
0.0
 10
48.98119064146886
 20
973.1239975838343
 30
0.0
 10
48.98107015262394
 20
973.0733333520639
 30
0.0
 10
48.98100990820148
 20
973.0480012361795
 30
0.0
 10
48.9809557839917
 20
973.0226988626426
 30
0.0
 10
48.980908112635
 20
972.9976876251676
 30
0.0
 10
48.98086044127921
 20
972.9726763876923
 30
0.0
 10
48.98081909129541
 20
972.9479093203163
 30
0.0
 10
48.98078371875181
 20
972.9233821632888
 30
0.0
 10
48.9807129736655
 20
972.8743278492311
 30
0.0
 10
48.98066612839011
 20
972.8262314818657
 30
0.0
 10
48.98064060084653
 20
972.7790804058914
 30
0.0
 10
48.98061507330294
 20
972.731929329916
 30
0.0
 10
48.98061086349116
 20
972.6857235453307
 30
0.0
 10
48.98062551047951
 20
972.6404777460011
 30
0.0
 10
48.98063283397369
 20
972.6178548463359
 30
0.0
 10
48.98064487168904
 20
972.5954723696059
 30
0.0
 10
48.98066131606356
 20
972.5733348562698
 30
0.0
 10
48.98066953825128
 20
972.5622660996023
 30
0.0
 10
48.98067887673278
 20
972.5512438846845
 30
0.0
 10
48.98068923935444
 20
972.5403230911396
 30
0.0
 10
48.98069960197608
 20
972.5294022975949
 30
0.0
 10
48.98071097885076
 20
972.5185892426944
 30
0.0
 10
48.98072330614832
 20
972.5078827296128
 30
0.0
 10
48.98077261534126
 20
972.4650566772853
 30
0.0
 10
48.98083710102946
 20
972.4239313291191
 30
0.0
 10
48.98091295461473
 20
972.3844629727045
 30
0.0
 10
48.98098880819907
 20
972.3449946162899
 30
0.0
 10
48.98107602967957
 20
972.3071832516252
 30
0.0
 10
48.98117109672966
 20
972.2710335999263
 30
0.0
 10
48.98126616377886
 20
972.2348839482283
 30
0.0
 10
48.98136907639673
 20
972.2003960094944
 30
0.0
 10
48.98147641772357
 20
972.1676231355395
 30
0.0
 10
48.98150325305505
 20
972.1594299170519
 30
0.0
 10
48.98153039261888
 20
972.1513364586281
 30
0.0
 10
48.98155760916416
 20
972.1433936260027
 30
0.0
 10
48.98158482570943
 20
972.1354507933783
 30
0.0
 10
48.98161214877382
 20
972.1276493190789
 30
0.0
 10
48.98163952134201
 20
972.1199875959865
 30
0.0
 10
48.98169426647746
 20
972.1046641498023
 30
0.0
 10
48.98174920962538
 20
972.0898997084477
 30
0.0
 10
48.98180392301219
 20
972.0756854803793
 30
0.0
 10
48.98191334978673
 20
972.0472570242428
 30
0.0
 10
48.98202183406283
 20
972.0210255893961
 30
0.0
 10
48.9821262526375
 20
971.9969696159523
 30
0.0
 10
48.98223067121216
 20
971.9729136425076
 30
0.0
 10
48.98233102408539
 20
971.9510331304645
 30
0.0
 10
48.98242442642459
 20
971.931369675055
 30
0.0
 10
48.98247112759509
 20
971.9215379473489
 30
0.0
 10
48.98251609412454
 20
971.9122614708666
 30
0.0
 10
48.98255897803119
 20
971.9035517681705
 30
0.0
 10
48.9825804199836
 20
971.8991969168227
 30
0.0
 10
48.98260132112955
 20
971.8949880235895
 30
0.0
 10
48.98262155235443
 20
971.8909437167413
 30
0.0
 10
48.98264178357931
 20
971.8868994098938
 30
0.0
 10
48.98266137317841
 20
971.883013927605
 30
0.0
 10
48.98268029481187
 20
971.8792856511235
 30
0.0
 10
48.98275598134296
 20
971.8643725451993
 30
0.0
 10
48.98282095171362
 20
971.8519689445566
 30
0.0
 10
48.98287376521875
 20
971.8420190388879
 30
0.0
 10
48.98292657872389
 20
971.83206913322
 30
0.0
 10
48.98296723536351
 20
971.8245729225273
 30
0.0
 10
48.98299462169143
 20
971.8195461375216
 30
0.0
 10
48.98302200801936
 20
971.8145193525151
 30
0.0
 10
48.98303611272059
 20
971.8119633541554
 30
0.0
 10
48.98303613436382
 20
971.8119594320533
 30
0.0
  0
SPLINE
  5
AA
330
7D
100
AcDbEntity
  8
1
 62
     7
370
    35
100
AcDbSpline
210
0.0
220
0.0
230
1.0
 70
     8
 71
     3
 72
    74
 73
    70
 74
     0
 42
0.0000000001
 43
0.0000000001
 40
0.0
 40
0.0
 40
0.0
 40
0.0
 40
1.0
 40
1.0
 40
1.0
 40
2.0
 40
2.0
 40
2.0
 40
3.0
 40
3.0
 40
3.0
 40
4.0
 40
4.0
 40
4.0
 40
5.0
 40
5.0
 40
5.0
 40
6.0
 40
6.0
 40
6.0
 40
7.0
 40
7.0
 40
7.0
 40
8.0
 40
8.0
 40
8.0
 40
9.0
 40
9.0
 40
9.0
 40
10.0
 40
10.0
 40
10.0
 40
11.0
 40
11.0
 40
11.0
 40
12.0
 40
12.0
 40
12.0
 40
13.0
 40
13.0
 40
13.0
 40
14.0
 40
14.0
 40
14.0
 40
15.0
 40
15.0
 40
15.0
 40
16.0
 40
16.0
 40
16.0
 40
17.0
 40
17.0
 40
17.0
 40
18.0
 40
18.0
 40
18.0
 40
19.0
 40
19.0
 40
19.0
 40
20.0
 40
20.0
 40
20.0
 40
21.0
 40
21.0
 40
21.0
 40
22.0
 40
22.0
 40
22.0
 40
23.0
 40
23.0
 40
23.0
 40
23.0
 10
209.9692845841919
 20
1132.894736456434
 30
0.0
 10
209.9692851725085
 20
1132.894736453539
 30
0.0
 10
209.9667246256213
 20
1132.894749049431
 30
0.0
 10
209.9616591423073
 20
1132.894773609382
 30
0.0
 10
209.9565875557091
 20
1132.894798198925
 30
0.0
 10
209.9490049927681
 20
1132.894834781376
 30
0.0
 10
209.9388823020736
 20
1132.894882420946
 30
0.0
 10
209.9338209567277
 20
1132.894906240733
 30
0.0
 10
209.9281107274883
 20
1132.894932875932
 30
0.0
 10
209.9218137148518
 20
1132.894961840112
 30
0.0
 10
209.9155167022145
 20
1132.894990804294
 30
0.0
 10
209.9086256723331
 20
1132.895022132298
 30
0.0
 10
209.9011509941756
 20
1132.895055549259
 30
0.0
 10
209.8862016378598
 20
1132.89512238318
 30
0.0
 10
209.8689218118943
 20
1132.89519759044
 30
0.0
 10
209.8493423411919
 20
1132.895278794227
 30
0.0
 10
209.8297628704895
 20
1132.895359998013
 30
0.0
 10
209.8078837550493
 20
1132.895447198324
 30
0.0
 10
209.7836692765077
 20
1132.895537696207
 30
0.0
 10
209.7715620372373
 20
1132.89558294515
 30
0.0
 10
209.7588699192556
 20
1132.895629011592
 30
0.0
 10
209.7455818797907
 20
1132.895675514396
 30
0.0
 10
209.7389378600574
 20
1132.895698765799
 30
0.0
 10
209.7321353344569
 20
1132.895722157401
 30
0.0
 10
209.7252071238199
 20
1132.895745522212
 30
0.0
 10
209.718278913183
 20
1132.895768887026
 30
0.0
 10
209.7112296785581
 20
1132.895792210624
 30
0.0
 10
209.7040607642966
 20
1132.895815440904
 30
0.0
 10
209.6753851072481
 20
1132.895908362026
 30
0.0
 10
209.6447990301331
 20
1132.895999798624
 30
0.0
 10
209.6123516292664
 20
1132.896086370325
 30
0.0
 10
209.5799042284006
 20
1132.896172942025
 30
0.0
 10
209.5455955037833
 20
1132.89625464883
 30
0.0
 10
209.509420142992
 20
1132.89632792212
 30
0.0
 10
209.4732447822007
 20
1132.89640119541
 30
0.0
 10
209.4352027852356
 20
1132.896466035186
 30
0.0
 10
209.3952342111724
 20
1132.896518501854
 30
0.0
 10
209.3852420676567
 20
1132.896531618521
 30
0.0
 10
209.3751187633261
 20
1132.896543968623
 30
0.0
 10
209.3649279944894
 20
1132.89655541821
 30
0.0
 10
209.3547372256526
 20
1132.896566867797
 30
0.0
 10
209.3444681207784
 20
1132.896577432985
 30
0.0
 10
209.3341215704695
 20
1132.896587068022
 30
0.0
 10
209.3134284698517
 20
1132.896606338096
 30
0.0
 10
209.2924255874932
 20
1132.896621887566
 30
0.0
 10
209.2711177954952
 20
1132.896633350278
 30
0.0
 10
209.2285022114984
 20
1132.896656275704
 30
0.0
 10
209.1846691387209
 20
1132.896662862508
 30
0.0
 10
209.1396304754399
 20
1132.896650128563
 30
0.0
 10
209.0945918121588
 20
1132.896637394618
 30
0.0
 10
209.0483475583751
 20
1132.89660533992
 30
0.0
 10
209.0008747247384
 20
1132.896550798039
 30
0.0
 10
208.9771383079205
 20
1132.8965235271
 30
0.0
 10
208.9530941925996
 20
1132.896490629186
 30
0.0
 10
208.9287359950167
 20
1132.896451675543
 30
0.0
 10
208.9165568962262
 20
1132.896432198722
 30
0.0
 10
208.9043094837252
 20
1132.896411219483
 30
0.0
 10
208.892050909596
 20
1132.89638880847
 30
0.0
 10
208.8797923354659
 20
1132.896366397456
 30
0.0
 10
208.8675067197928
 20
1132.896342529974
 30
0.0
 10
208.8551943383954
 20
1132.89631718799
 30
0.0
 10
208.8059448128078
 20
1132.896215820055
 30
0.0
 10
208.7562680210786
 20
1132.896090861082
 30
0.0
 10
208.7061734785693
 20
1132.895941156813
 30
0.0
 10
208.6560789360592
 20
1132.895791452544
 30
0.0
 10
208.6055666427683
 20
1132.895617002978
 30
0.0
 10
208.5546339336251
 20
1132.895416614099
 30
0.0
 10
208.5037012244802
 20
1132.895216225218
 30
0.0
 10
208.4523482015939
 20
1132.894989899607
 30
0.0
 10
208.400559703914
 20
1132.89473633541
 30
0.0
  0
SPLINE
  5
AB
330
7D
100
AcDbEntity
  8
1
 62
     7
370
    35
100
AcDbSpline
210
0.0
220
0.0
230
1.0
 70
     8
 71
     3
 72
    74
 73
    70
 74
     0
 42
0.0000000001
 43
0.0000000001
 40
0.0
 40
0.0
 40
0.0
 40
0.0
 40
1.0
 40
1.0
 40
1.0
 40
2.0
 40
2.0
 40
2.0
 40
3.0
 40
3.0
 40
3.0
 40
4.0
 40
4.0
 40
4.0
 40
5.0
 40
5.0
 40
5.0
 40
6.0
 40
6.0
 40
6.0
 40
7.0
 40
7.0
 40
7.0
 40
8.0
 40
8.0
 40
8.0
 40
9.0
 40
9.0
 40
9.0
 40
10.0
 40
10.0
 40
10.0
 40
11.0
 40
11.0
 40
11.0
 40
12.0
 40
12.0
 40
12.0
 40
13.0
 40
13.0
 40
13.0
 40
14.0
 40
14.0
 40
14.0
 40
15.0
 40
15.0
 40
15.0
 40
16.0
 40
16.0
 40
16.0
 40
17.0
 40
17.0
 40
17.0
 40
18.0
 40
18.0
 40
18.0
 40
19.0
 40
19.0
 40
19.0
 40
20.0
 40
20.0
 40
20.0
 40
21.0
 40
21.0
 40
21.0
 40
22.0
 40
22.0
 40
22.0
 40
23.0
 40
23.0
 40
23.0
 40
23.0
 10
48.19869389253381
 20
971.8076531460438
 30
0.0
 10
48.19869389578162
 20
971.8076525577281
 30
0.0
 10
48.19867976538444
 20
971.8102130961352
 30
0.0
 10
48.19865216800462
 20
971.8152785629881
 30
0.0
 10
48.19862453737369
 20
971.8203501331082
 30
0.0
 10
48.19858340728661
 20
971.8279326715746
 30
0.0
 10
48.19852969080239
 20
971.8380553304259
 30
0.0
 10
48.19850283256073
 20
971.8431166598511
 30
0.0
 10
48.19847276820201
 20
971.8488268710553
 30
0.0
 10
48.19844002049467
 20
971.8551238637884
 30
0.0
 10
48.19840727278824
 20
971.8614208565204
 30
0.0
 10
48.19837180254854
 20
971.8683118648451
 30
0.0
 10
48.19833388977077
 20
971.8757865199831
 30
0.0
 10
48.19825806421341
 20
971.8907358302567
 30
0.0
 10
48.19817245363447
 20
971.9080156043137
 30
0.0
 10
48.19807944247713
 20
971.9275950187975
 30
0.0
 10
48.19798643131981
 20
971.9471744332823
 30
0.0
 10
48.19788601958499
 20
971.9690534881937
 30
0.0
 10
48.1977808708134
 20
971.9932679035983
 30
0.0
 10
48.19772829642715
 20
972.005375111301
 30
0.0
 10
48.19767454399425
 20
972.0180671970664
 30
0.0
 10
48.19761998591184
 20
972.0313552039051
 30
0.0
 10
48.19759270687064
 20
972.0379992073249
 30
0.0
 10
48.19756518952272
 20
972.0448017165882
 30
0.0
 10
48.19753762050186
 20
972.0517299102803
 30
0.0
 10
48.197510051481
 20
972.0586581039734
 30
0.0
 10
48.19748244804486
 20
972.0657073216326
 30
0.0
 10
48.19745486288048
 20
972.0728762189455
 30
0.0
 10
48.19734452222201
 20
972.1015518081959
 30
0.0
 10
48.19723446816988
 20
972.1321378177353
 30
0.0
 10
48.1971280952248
 20
972.1645851533676
 30
0.0
 10
48.19702172228062
 20
972.1970324889989
 30
0.0
 10
48.1969190304444
 20
972.2313411507238
 30
0.0
 10
48.19682356763405
 20
972.2675164531802
 30
0.0
 10
48.1967281048228
 20
972.3036917556354
 30
0.0
 10
48.19663987103831
 20
972.3417336988232
 30
0.0
 10
48.1965627493173
 20
972.3817022261055
 30
0.0
 10
48.19654346888637
 20
972.3916943579261
 30
0.0
 10
48.19652486953874
 20
972.4018176508334
 30
0.0
 10
48.1965071242721
 20
972.4120084086662
 30
0.0
 10
48.19648937900456
 20
972.422199166499
 30
0.0
 10
48.19647246500335
 20
972.432468260904
 30
0.0
 10
48.19645642835166
 20
972.4428148013103
 30
0.0
 10
48.19642435505011
 20
972.4635078821211
 30
0.0
 10
48.19639579114846
 20
972.4845107469336
 30
0.0
 10
48.19637110405347
 20
972.5058185238921
 30
0.0
 10
48.19632172986439
 20
972.5484340778093
 30
0.0
 10
48.19628785587429
 20
972.5922671305161
 30
0.0
 10
48.19627245709853
 20
972.6373057857227
 30
0.0
 10
48.19625705832277
 20
972.6823444409292
 30
0.0
 10
48.19626013476136
 20
972.7285886986365
 30
0.0
 10
48.19628482309235
 20
972.7760615503202
 30
0.0
 10
48.19629716725831
 20
972.799797976163
 30
0.0
 10
48.19631491920336
 20
972.8238421040432
 30
0.0
 10
48.19633850161699
 20
972.8482003180124
 30
0.0
 10
48.19635029282472
 20
972.8603794249975
 30
0.0
 10
48.19636353655005
 20
972.8726268464106
 30
0.0
 10
48.19637819811851
 20
972.8848854304597
 30
0.0
 10
48.19639285968697
 20
972.8971440145079
 30
0.0
 10
48.19640895377324
 20
972.9094296410604
 30
0.0
 10
48.19642649849448
 20
972.9217420343093
 30
0.0
 10
48.19649667738031
 20
972.9709916073051
 30
0.0
 10
48.1965900660598
 20
973.020668462008
 30
0.0
 10
48.19670781909735
 20
973.0707630839006
 30
0.0
 10
48.19682557213491
 20
973.1208577057941
 30
0.0
 10
48.19696768953235
 20
973.1713700948757
 30
0.0
 10
48.19713535783103
 20
973.2223029171054
 30
0.0
 10
48.1973030261297
 20
973.2732357393352
 30
0.0
 10
48.19749624282121
 20
973.3245888925994
 30
0.0
 10
48.19771629396928
 20
973.3763775389389
 30
0.0
  0
SPLINE
  5
AC
330
7D
100
AcDbEntity
  8
1
 62
     7
370
    35
100
AcDbSpline
210
0.0
220
0.0
230
1.0
 70
     8
 71
     3
 72
    74
 73
    70
 74
     0
 42
0.0000000001
 43
0.0000000001
 40
0.0
 40
0.0
 40
0.0
 40
0.0
 40
1.0
 40
1.0
 40
1.0
 40
2.0
 40
2.0
 40
2.0
 40
3.0
 40
3.0
 40
3.0
 40
4.0
 40
4.0
 40
4.0
 40
5.0
 40
5.0
 40
5.0
 40
6.0
 40
6.0
 40
6.0
 40
7.0
 40
7.0
 40
7.0
 40
8.0
 40
8.0
 40
8.0
 40
9.0
 40
9.0
 40
9.0
 40
10.0
 40
10.0
 40
10.0
 40
11.0
 40
11.0
 40
11.0
 40
12.0
 40
12.0
 40
12.0
 40
13.0
 40
13.0
 40
13.0
 40
14.0
 40
14.0
 40
14.0
 40
15.0
 40
15.0
 40
15.0
 40
16.0
 40
16.0
 40
16.0
 40
17.0
 40
17.0
 40
17.0
 40
18.0
 40
18.0
 40
18.0
 40
19.0
 40
19.0
 40
19.0
 40
20.0
 40
20.0
 40
20.0
 40
21.0
 40
21.0
 40
21.0
 40
22.0
 40
22.0
 40
22.0
 40
23.0
 40
23.0
 40
23.0
 40
23.0
 10
208.4044000444555
 20
1133.679118419455
 30
0.0
 10
208.4561885690527
 20
1133.679369512918
 30
0.0
 10
208.5076929464158
 20
1133.679594240401
 30
0.0
 10
208.558918287813
 20
1133.679793434733
 30
0.0
 10
208.6101436292101
 20
1133.679992629066
 30
0.0
 10
208.6610899346424
 20
1133.680166290246
 30
0.0
 10
208.7117540860081
 20
1133.680315203753
 30
0.0
 10
208.737086161691
 20
1133.680389660506
 30
0.0
 10
208.7623884974573
 20
1133.680458009832
 30
0.0
 10
208.7873997001525
 20
1133.680519771034
 30
0.0
 10
208.8124109028468
 20
1133.680581532235
 30
0.0
 10
208.8371779390463
 20
1133.680636863046
 30
0.0
 10
208.8617050683251
 20
1133.680686108163
 30
0.0
 10
208.9107593268818
 20
1133.680784598397
 30
0.0
 10
208.9588556524468
 20
1133.680858756726
 30
0.0
 10
209.0060066989709
 20
1133.680911159897
 30
0.0
 10
209.0531577454931
 20
1133.680963563067
 30
0.0
 10
209.0993635129744
 20
1133.680994211078
 30
0.0
 10
209.144609306245
 20
1133.681005544455
 30
0.0
 10
209.1672322028799
 20
1133.681011211144
 30
0.0
 10
209.1896146793415
 20
1133.681012048909
 30
0.0
 10
209.2117521950049
 20
1133.681008361213
 30
0.0
 10
209.2228209528366
 20
1133.681006517366
 30
0.0
 10
209.2338431696471
 20
1133.681003536012
 30
0.0
 10
209.2447639652073
 20
1133.680999477432
 30
0.0
 10
209.2556847607684
 20
1133.680995418852
 30
0.0
 10
209.2664978183293
 20
1133.680990289267
 30
0.0
 10
209.2772043346804
 20
1133.680984152881
 30
0.0
 10
209.3200304000839
 20
1133.680959607336
 30
0.0
 10
209.361155771031
 20
1133.680918985374
 30
0.0
 10
209.4006241576762
 20
1133.680866102068
 30
0.0
 10
209.4400925443206
 20
1133.680813218763
 30
0.0
 10
209.4779039466639
 20
1133.680748074112
 30
0.0
 10
209.5140536414046
 20
1133.68067417058
 30
0.0
 10
209.5502033361454
 20
1133.680600267046
 30
0.0
 10
209.5846913232835
 20
1133.68051760463
 30
0.0
 10
209.6174642489877
 20
1133.68042955299
 30
0.0
 10
209.6256574804138
 20
1133.68040754008
 30
0.0
 10
209.6337509518908
 20
1133.680385167296
 30
0.0
 10
209.6416937976083
 20
1133.680362631652
 30
0.0
 10
209.6496366433266
 20
1133.680340096009
 30
0.0
 10
209.6574381308546
 20
1133.68031737342
 30
0.0
 10
209.6650998672749
 20
1133.680294521543
 30
0.0
 10
209.6804233401162
 20
1133.680248817789
 30
0.0
 10
209.6951878085247
 20
1133.680202596885
 30
0.0
 10
209.7094020637733
 20
1133.680156289557
 30
0.0
 10
209.7378305742714
 20
1133.680063674898
 30
0.0
 10
209.7640621118826
 20
1133.679970735452
 30
0.0
 10
209.7881181386892
 20
1133.679880600785
 30
0.0
 10
209.8121741654977
 20
1133.679790466117
 30
0.0
 10
209.8340546815016
 20
1133.679703136228
 30
0.0
 10
209.8537181855227
 20
1133.67962144884
 30
0.0
 10
209.8635499375332
 20
1133.679580605145
 30
0.0
 10
209.8728264375068
 20
1133.679541169686
 30
0.0
 10
209.8815361626675
 20
1133.679503482153
 30
0.0
 10
209.8858910252466
 20
1133.679484638387
 30
0.0
 10
209.8900999293828
 20
1133.679466249214
 30
0.0
 10
209.894144246814
 20
1133.679448432449
 30
0.0
 10
209.8981885642461
 20
1133.679430615685
 30
0.0
 10
209.9020740568003
 20
1133.679413346473
 30
0.0
 10
209.9058023432108
 20
1133.679396651952
 30
0.0
 10
209.9207154888518
 20
1133.679329873868
 30
0.0
 10
209.9331191238116
 20
1133.679272322718
 30
0.0
 10
209.9430690574454
 20
1133.679225464143
 30
0.0
 10
209.9530189910792
 20
1133.679178605568
 30
0.0
 10
209.960515223388
 20
1133.67914243957
 30
0.0
 10
209.9655420229646
 20
1133.679118065161
 30
0.0
 10
209.9705688225404
 20
1133.679093690753
 30
0.0
 10
209.9731248284188
 20
1133.679081118414
 30
0.0
 10
209.9731287505337
 20
1133.679081099121
 30
0.0
  0
ENDBLK
  5
80
330
7D
100
AcDbEntity
  8
0
100
AcDbBlockEnd
  0
BLOCK
  5
AF
330
AD
100
AcDbEntity
  8
0
100
AcDbBlockBegin
  2
Block_2
 70
     0
 10
0.0
 20
0.0
 30
0.0
  3
Block_2
  1

  0
LINE
  5
B1
330
AD
100
AcDbEntity
  8
1
 62
     7
370
    35
100
AcDbLine
 10
209.1349325193069
 20
715.1971749865015
 30
0.0
 11
208.9104088156901
 21
715.5981105076826
 31
0.0
  0
LINE
  5
B2
330
AD
100
AcDbEntity
  8
1
 62
     7
370
    35
100
AcDbLine
 10
208.9104088156901
 20
713.0489598027016
 30
0.0
 11
209.1349325193069
 21
713.4498949317048
 31
0.0
  0
LINE
  5
B3
330
AD
100
AcDbEntity
  8
1
 62
     7
370
    35
100
AcDbLine
 10
208.7927557062303
 20
713.0489598027016
 30
0.0
 11
208.9104088156901
 21
713.0489598027016
 31
0.0
  0
LINE
  5
B4
330
AD
100
AcDbEntity
  8
1
 62
     7
370
    35
100
AcDbLine
 10
208.9104088156901
 20
715.5981105076826
 30
0.0
 11
208.7927557062303
 21
715.5981105076826
 31
0.0
  0
LINE
  5
B5
330
AD
100
AcDbEntity
  8
1
 62
     7
370
    35
100
AcDbLine
 10
209.1349325193069
 20
572.40551780439
 30
0.0
 11
208.9104088156901
 21
572.806453325571
 31
0.0
  0
LINE
  5
B6
330
AD
100
AcDbEntity
  8
1
 62
     7
370
    35
100
AcDbLine
 10
208.9104088156901
 20
570.25730262059
 30
0.0
 11
209.1349325193069
 21
570.6582377495933
 31
0.0
  0
LINE
  5
B7
330
AD
100
AcDbEntity
  8
1
 62
     7
370
    35
100
AcDbLine
 10
208.7927557062303
 20
570.25730262059
 30
0.0
 11
208.9104088156901
 21
570.25730262059
 31
0.0
  0
LINE
  5
B8
330
AD
100
AcDbEntity
  8
1
 62
     7
370
    35
100
AcDbLine
 10
208.9104088156901
 20
572.806453325571
 30
0.0
 11
208.7927557062303
 21
572.806453325571
 31
0.0
  0
LINE
  5
B9
330
AD
100
AcDbEntity
  8
1
 62
     7
370
    35
100
AcDbLine
 10
208.8996263003855
 20
903.1284084983608
 30
0.0
 11
208.7927529609906
 21
903.3192536072165
 31
0.0
  0
LINE
  5
BA
330
AD
100
AcDbEntity
  8
1
 62
     7
370
    35
100
AcDbLine
 10
208.7927529609906
 20
901.1902833347075
 30
0.0
 11
208.8996263003855
 21
901.3811284435632
 31
0.0
  0
LINE
  5
BB
330
AD
100
AcDbEntity
  8
1
 62
     7
370
    35
100
AcDbLine
 10
208.8996263003855
 20
909.0110639713939
 30
0.0
 11
208.7927529609906
 21
909.2019090802505
 31
0.0
  0
LINE
  5
BC
330
AD
100
AcDbEntity
  8
1
 62
     7
370
    35
100
AcDbLine
 10
208.7927529609906
 20
907.0729388077415
 30
0.0
 11
208.8996263003855
 21
907.2637839165972
 31
0.0
  0
LINE
  5
BD
330
AD
100
AcDbEntity
  8
1
 62
     7
370
    35
100
AcDbLine
 10
209.1349325193069
 20
647.5858547497646
 30
0.0
 11
208.9104088156901
 21
647.9867902709457
 31
0.0
  0
LINE
  5
BE
330
AD
100
AcDbEntity
  8
1
 62
     7
370
    35
100
AcDbLine
 10
208.9104088156901
 20
645.4376395659637
 30
0.0
 11
209.1349325193069
 21
645.8385746949679
 31
0.0
  0
LINE
  5
BF
330
AD
100
AcDbEntity
  8
1
 62
     7
370
    35
100
AcDbLine
 10
208.7927557062303
 20
645.4376395659637
 30
0.0
 11
208.9104088156901
 21
645.4376395659637
 31
0.0
  0
LINE
  5
C0
330
AD
100
AcDbEntity
  8
1
 62
     7
370
    35
100
AcDbLine
 10
208.9104088156901
 20
647.9867902709457
 30
0.0
 11
208.7927557062303
 21
647.9867902709457
 31
0.0
  0
LINE
  5
C1
330
AD
100
AcDbEntity
  8
1
 62
     7
370
    35
100
AcDbLine
 10
208.7927557062303
 20
577.8263193292268
 30
0.0
 11
208.9104088156901
 21
577.8263193292268
 31
0.0
  0
LINE
  5
C2
330
AD
100
AcDbEntity
  8
1
 62
     7
370
    35
100
AcDbLine
 10
208.9104088156901
 20
580.3754700342079
 30
0.0
 11
208.7927557062303
 21
580.3754700342079
 31
0.0
  0
LINE
  5
C3
330
AD
100
AcDbEntity
  8
1
 62
     7
370
    35
100
AcDbLine
 10
209.1349325193069
 20
579.9745345130276
 30
0.0
 11
208.9104088156901
 21
580.3754700342079
 31
0.0
  0
LINE
  5
C4
330
AD
100
AcDbEntity
  8
1
 62
     7
370
    35
100
AcDbLine
 10
208.9104088156901
 20
577.8263193292268
 30
0.0
 11
209.1349325193069
 21
578.227254458231
 31
0.0
  0
LINE
  5
C5
330
AD
100
AcDbEntity
  8
1
 62
     7
370
    35
100
AcDbLine
 10
209.1349325193069
 20
850.4198154599754
 30
0.0
 11
208.9104088156901
 21
850.8207509811564
 31
0.0
  0
LINE
  5
C6
330
AD
100
AcDbEntity
  8
1
 62
     7
370
    35
100
AcDbLine
 10
208.9104088156901
 20
848.2716002761753
 30
0.0
 11
209.1349325193069
 21
848.6725354051786
 31
0.0
  0
LINE
  5
C7
330
AD
100
AcDbEntity
  8
1
 62
     7
370
    35
100
AcDbLine
 10
208.7927557062303
 20
848.2716002761753
 30
0.0
 11
208.9104088156901
 21
848.2716002761753
 31
0.0
  0
LINE
  5
C8
330
AD
100
AcDbEntity
  8
1
 62
     7
370
    35
100
AcDbLine
 10
208.9104088156901
 20
850.8207509811564
 30
0.0
 11
208.7927557062303
 21
850.8207509811564
 31
0.0
  0
LINE
  5
C9
330
AD
100
AcDbEntity
  8
1
 62
     7
370
    35
100
AcDbLine
 10
209.1349325193069
 20
782.8084952232384
 30
0.0
 11
208.9104088156901
 21
783.2094307444195
 31
0.0
  0
LINE
  5
CA
330
AD
100
AcDbEntity
  8
1
 62
     7
370
    35
100
AcDbLine
 10
208.9104088156901
 20
780.6602800394385
 30
0.0
 11
209.1349325193069
 21
781.0612151684426
 31
0.0
  0
LINE
  5
CB
330
AD
100
AcDbEntity
  8
1
 62
     7
370
    35
100
AcDbLine
 10
208.7927557062303
 20
780.6602800394385
 30
0.0
 11
208.9104088156901
 21
780.6602800394385
 31
0.0
  0
LINE
  5
CC
330
AD
100
AcDbEntity
  8
1
 62
     7
370
    35
100
AcDbLine
 10
208.9104088156901
 20
783.2094307444195
 30
0.0
 11
208.7927557062303
 21
783.2094307444195
 31
0.0
  0
LINE
  5
CD
330
AD
100
AcDbEntity
  8
1
 62
     7
370
    35
100
AcDbLine
 10
48.19626286111088
 20
920.899522034958
 30
0.0
 11
48.19626286111088
 21
913.2357255500474
 31
0.0
  0
LINE
  5
CE
330
AD
100
AcDbEntity
  8
1
 62
     7
370
    35
100
AcDbLine
 10
205.379209566926
 20
566.5120119694247
 30
0.0
 11
203.0293589154235
 21
566.5120119694247
 31
0.0
  0
LINE
  5
CF
330
AD
100
AcDbEntity
  8
1
 62
     7
370
    35
100
AcDbLine
 10
206.1167643604695
 20
567.3355884417742
 30
0.0
 11
206.0744037505856
 21
567.0953490279726
 31
0.0
  0
LINE
  5
D0
330
AD
100
AcDbEntity
  8
1
 62
     7
370
    35
100
AcDbLine
 10
202.3341647317638
 20
567.0953490279726
 30
0.0
 11
202.29180412188
 21
567.3355884417742
 31
0.0
  0
LINE
  5
D1
330
AD
100
AcDbEntity
  8
1
 62
     7
370
    35
100
AcDbLine
 10
202.7203838098367
 20
567.0953490279726
 30
0.0
 11
205.6881846725137
 21
567.0953490279726
 31
0.0
  0
LINE
  5
D2
330
AD
100
AcDbEntity
  8
1
 62
     7
370
    35
100
AcDbLine
 10
205.6881846725137
 20
567.0953490279726
 30
0.0
 11
205.7305452823976
 21
567.3355884417742
 31
0.0
  0
LINE
  5
D3
330
AD
100
AcDbEntity
  8
1
 62
     7
370
    35
100
AcDbLine
 10
202.6780231999519
 20
567.3355884417742
 30
0.0
 11
202.7203838098367
 21
567.0953490279726
 31
0.0
  0
LINE
  5
D4
330
AD
100
AcDbEntity
  8
1
 62
     7
370
    35
100
AcDbLine
 10
209.1849327377659
 20
715.0055561123617
 30
0.0
 11
209.1849327377659
 21
713.6415138058445
 31
0.0
  0
LINE
  5
D5
330
AD
100
AcDbEntity
  8
1
 62
     7
370
    35
100
AcDbLine
 10
209.1349325193069
 20
715.1971749865015
 30
0.0
 11
209.1349325193069
 21
713.4498949317048
 31
0.0
  0
LINE
  5
D6
330
AD
100
AcDbEntity
  8
1
 62
     7
370
    35
100
AcDbLine
 10
208.9104088156901
 20
713.0489598027016
 30
0.0
 11
208.9104088156901
 21
715.5981105076826
 31
0.0
  0
LINE
  5
D7
330
AD
100
AcDbEntity
  8
1
 62
     7
370
    35
100
AcDbLine
 10
48.19626286111088
 20
913.2357255500474
 30
0.0
 11
209.9731266061517
 21
913.2357255500474
 31
0.0
  0
LINE
  5
D8
330
AD
100
AcDbEntity
  8
1
 62
     7
370
    35
100
AcDbLine
 10
209.9731266061517
 20
919.5105580546169
 30
0.0
 11
209.9731266061517
 21
913.2357255500474
 31
0.0
  0
LINE
  5
D9
330
AD
100
AcDbEntity
  8
1
 62
     7
370
    35
100
AcDbLine
 10
209.1849327377659
 20
572.2138989302502
 30
0.0
 11
209.1849327377659
 21
570.8498566237331
 31
0.0
  0
LINE
  5
DA
330
AD
100
AcDbEntity
  8
1
 62
     7
370
    35
100
AcDbLine
 10
209.1349325193069
 20
572.40551780439
 30
0.0
 11
209.1349325193069
 21
570.6582377495933
 31
0.0
  0
LINE
  5
DB
330
AD
100
AcDbEntity
  8
1
 62
     7
370
    35
100
AcDbLine
 10
208.9104088156901
 20
570.25730262059
 30
0.0
 11
208.9104088156901
 21
572.806453325571
 31
0.0
  0
LINE
  5
DC
330
AD
100
AcDbEntity
  8
1
 62
     7
370
    35
100
AcDbLine
 10
208.9496265188445
 20
902.9367896242211
 30
0.0
 11
208.9496265188445
 21
901.572747317703
 31
0.0
  0
LINE
  5
DD
330
AD
100
AcDbEntity
  8
1
 62
     7
370
    35
100
AcDbLine
 10
208.8996263003855
 20
903.1284084983608
 30
0.0
 11
208.8996263003855
 21
901.3811284435632
 31
0.0
  0
LINE
  5
DE
330
AD
100
AcDbEntity
  8
1
 62
     7
370
    35
100
AcDbLine
 10
208.9496265188445
 20
908.8194450972551
 30
0.0
 11
208.9496265188445
 21
907.4554027907369
 31
0.0
  0
LINE
  5
DF
330
AD
100
AcDbEntity
  8
1
 62
     7
370
    35
100
AcDbLine
 10
208.8996263003855
 20
909.0110639713939
 30
0.0
 11
208.8996263003855
 21
907.2637839165972
 31
0.0
  0
LINE
  5
E0
330
AD
100
AcDbEntity
  8
1
 62
     7
370
    35
100
AcDbLine
 10
209.1849327377659
 20
647.3942358756248
 30
0.0
 11
209.1849327377659
 21
646.0301935691068
 31
0.0
  0
LINE
  5
E1
330
AD
100
AcDbEntity
  8
1
 62
     7
370
    35
100
AcDbLine
 10
209.1349325193069
 20
647.5858547497646
 30
0.0
 11
209.1349325193069
 21
645.8385746949679
 31
0.0
  0
LINE
  5
E2
330
AD
100
AcDbEntity
  8
1
 62
     7
370
    35
100
AcDbLine
 10
208.9104088156901
 20
645.4376395659637
 30
0.0
 11
208.9104088156901
 21
647.9867902709457
 31
0.0
  0
LINE
  5
E3
330
AD
100
AcDbEntity
  8
1
 62
     7
370
    35
100
AcDbLine
 10
62.94051171319643
 20
566.5120119694247
 30
0.0
 11
60.59066106169485
 21
566.5120119694247
 31
0.0
  0
LINE
  5
E4
330
AD
100
AcDbEntity
  8
1
 62
     7
370
    35
100
AcDbLine
 10
63.67806650674083
 20
567.3355884417742
 30
0.0
 11
63.63570589685696
 21
567.0953490279726
 31
0.0
  0
LINE
  5
E5
330
AD
100
AcDbEntity
  8
1
 62
     7
370
    35
100
AcDbLine
 10
59.89546687803522
 20
567.0953490279726
 30
0.0
 11
59.85310626815044
 21
567.3355884417742
 31
0.0
  0
LINE
  5
E6
330
AD
100
AcDbEntity
  8
1
 62
     7
370
    35
100
AcDbLine
 10
60.28168595610714
 20
567.0953490279726
 30
0.0
 11
63.24948681878414
 21
567.0953490279726
 31
0.0
  0
LINE
  5
E7
330
AD
100
AcDbEntity
  8
1
 62
     7
370
    35
100
AcDbLine
 10
63.24948681878414
 20
567.0953490279726
 30
0.0
 11
63.291847428668
 21
567.3355884417742
 31
0.0
  0
LINE
  5
E8
330
AD
100
AcDbEntity
  8
1
 62
     7
370
    35
100
AcDbLine
 10
60.23932534622327
 20
567.3355884417742
 30
0.0
 11
60.28168595610714
 21
567.0953490279726
 31
0.0
  0
LINE
  5
E9
330
AD
100
AcDbEntity
  8
1
 62
     7
370
    35
100
AcDbLine
 10
105.6180214243459
 20
566.5120119694247
 30
0.0
 11
103.2681711650211
 21
566.5120119694247
 31
0.0
  0
LINE
  5
EA
330
AD
100
AcDbEntity
  8
1
 62
     7
370
    35
100
AcDbLine
 10
102.5729769813615
 20
567.0953490279726
 30
0.0
 11
102.5306163714767
 21
567.3355884417742
 31
0.0
  0
LINE
  5
EB
330
AD
100
AcDbEntity
  8
1
 62
     7
370
    35
100
AcDbLine
 10
102.9168354495496
 20
567.3355884417742
 30
0.0
 11
102.9591960594334
 21
567.0953490279726
 31
0.0
  0
LINE
  5
EC
330
AD
100
AcDbEntity
  8
1
 62
     7
370
    35
100
AcDbLine
 10
102.9591960594334
 20
567.0953490279726
 30
0.0
 11
105.9269969221104
 21
567.0953490279726
 31
0.0
  0
LINE
  5
ED
330
AD
100
AcDbEntity
  8
1
 62
     7
370
    35
100
AcDbLine
 10
106.3555766100671
 20
567.3355884417742
 30
0.0
 11
106.3132156080064
 21
567.0953490279726
 31
0.0
  0
LINE
  5
EE
330
AD
100
AcDbEntity
  8
1
 62
     7
370
    35
100
AcDbLine
 10
105.9269969221104
 20
567.0953490279726
 30
0.0
 11
105.9693575319943
 21
567.3355884417742
 31
0.0
  0
LINE
  5
EF
330
AD
100
AcDbEntity
  8
1
 62
     7
370
    35
100
AcDbLine
 10
208.7927557062303
 20
567.3355837356494
 30
0.0
 11
208.165273632304
 21
567.3355837356494
 31
0.0
  0
LINE
  5
F0
330
AD
100
AcDbEntity
  8
1
 62
     7
370
    35
100
AcDbLine
 10
208.7927557062303
 20
913.2357255500474
 30
0.0
 11
208.7927557062303
 21
567.3355837356494
 31
0.0
  0
LINE
  5
F1
330
AD
100
AcDbEntity
  8
1
 62
     7
370
    35
100
AcDbLine
 10
208.165273632304
 20
567.3355837356494
 30
0.0
 11
51.05884223404974
 21
567.3355837356494
 31
0.0
  0
LINE
  5
F2
330
AD
100
AcDbEntity
  8
1
 62
     7
370
    35
100
AcDbLine
 10
51.05884223404974
 20
913.2357255500474
 30
0.0
 11
51.05884223404974
 21
567.3355837356494
 31
0.0
  0
LINE
  5
F3
330
AD
100
AcDbEntity
  8
1
 62
     7
370
    35
100
AcDbLine
 10
208.165273632304
 20
913.2357255500474
 30
0.0
 11
208.165273632304
 21
567.3355837356494
 31
0.0
  0
LINE
  5
F4
330
AD
100
AcDbEntity
  8
1
 62
     7
370
    35
100
AcDbLine
 10
202.6339703461763
 20
566.5120119694247
 30
0.0
 11
200.2841196946747
 21
566.5120119694247
 31
0.0
  0
LINE
  5
F5
330
AD
100
AcDbEntity
  8
1
 62
     7
370
    35
100
AcDbLine
 10
199.5889255110141
 20
567.0953490279726
 30
0.0
 11
199.5465649011303
 21
567.3355884417742
 31
0.0
  0
LINE
  5
F6
330
AD
100
AcDbEntity
  8
1
 62
     7
370
    35
100
AcDbLine
 10
199.9751445890879
 20
567.0953490279726
 30
0.0
 11
202.3341290436538
 21
567.0953490279726
 31
0.0
  0
LINE
  5
F7
330
AD
100
AcDbEntity
  8
1
 62
     7
370
    35
100
AcDbLine
 10
199.9327839792031
 20
567.3355884417742
 30
0.0
 11
199.9751445890879
 21
567.0953490279726
 31
0.0
  0
LINE
  5
F8
330
AD
100
AcDbEntity
  8
1
 62
     7
370
    35
100
AcDbLine
 10
209.1849327377659
 20
579.7829156388879
 30
0.0
 11
209.1849327377659
 21
578.4188733323698
 31
0.0
  0
LINE
  5
F9
330
AD
100
AcDbEntity
  8
1
 62
     7
370
    35
100
AcDbLine
 10
208.9104088156901
 20
577.8263193292268
 30
0.0
 11
208.9104088156901
 21
580.3754700342079
 31
0.0
  0
LINE
  5
FA
330
AD
100
AcDbEntity
  8
1
 62
     7
370
    35
100
AcDbLine
 10
209.1349325193069
 20
579.9745345130276
 30
0.0
 11
209.1349325193069
 21
578.227254458231
 31
0.0
  0
LINE
  5
FB
330
AD
100
AcDbEntity
  8
1
 62
     7
370
    35
100
AcDbLine
 10
209.1849327377659
 20
850.2281965858365
 30
0.0
 11
209.1849327377659
 21
848.8641542793184
 31
0.0
  0
LINE
  5
FC
330
AD
100
AcDbEntity
  8
1
 62
     7
370
    35
100
AcDbLine
 10
209.1349325193069
 20
850.4198154599754
 30
0.0
 11
209.1349325193069
 21
848.6725354051786
 31
0.0
  0
LINE
  5
FD
330
AD
100
AcDbEntity
  8
1
 62
     7
370
    35
100
AcDbLine
 10
208.9104088156901
 20
848.2716002761753
 30
0.0
 11
208.9104088156901
 21
850.8207509811564
 31
0.0
  0
LINE
  5
FE
330
AD
100
AcDbEntity
  8
1
 62
     7
370
    35
100
AcDbLine
 10
209.1849327377659
 20
782.6168763490995
 30
0.0
 11
209.1849327377659
 21
781.2528340425815
 31
0.0
  0
LINE
  5
FF
330
AD
100
AcDbEntity
  8
1
 62
     7
370
    35
100
AcDbLine
 10
209.1349325193069
 20
782.8084952232384
 30
0.0
 11
209.1349325193069
 21
781.0612151684426
 31
0.0
  0
LINE
  5
100
330
AD
100
AcDbEntity
  8
1
 62
     7
370
    35
100
AcDbLine
 10
208.9104088156901
 20
780.6602800394385
 30
0.0
 11
208.9104088156901
 21
783.2094307444195
 31
0.0
  0
LINE
  5
101
330
AD
100
AcDbEntity
  8
1
 62
     7
370
    35
100
AcDbLine
 10
48.19771626918918
 20
921.0792661807591
 30
0.0
 11
208.4044000476897
 21
921.0792661807591
 31
0.0
  0
SPLINE
  5
102
330
AD
100
AcDbEntity
  8
1
 62
     7
370
    35
100
AcDbSpline
210
0.0
220
0.0
230
1.0
 70
     8
 71
     3
 72
     8
 73
     4
 74
     0
 42
0.0000000001
 43
0.0000000001
 40
0.0
 40
0.0
 40
0.0
 40
0.0
 40
1.0
 40
1.0
 40
1.0
 40
1.0
 10
209.1349325266874
 20
713.4498947890278
 30
0.0
 10
209.1677171352858
 20
713.5084387337601
 30
0.0
 10
209.1849327377659
 20
713.5744151916587
 30
0.0
 10
209.1849327377659
 20
713.6415138058445
 30
0.0
  0
SPLINE
  5
103
330
AD
100
AcDbEntity
  8
1
 62
     7
370
    35
100
AcDbSpline
210
0.0
220
0.0
230
1.0
 70
     8
 71
     3
 72
     8
 73
     4
 74
     0
 42
0.0000000001
 43
0.0000000001
 40
0.0
 40
0.0
 40
0.0
 40
0.0
 40
1.0
 40
1.0
 40
1.0
 40
1.0
 10
209.1849327377659
 20
715.0055561123617
 30
0.0
 10
209.1849327377659
 20
715.0726547265485
 30
0.0
 10
209.1677171352858
 20
715.1386311844462
 30
0.0
 10
209.1349325266874
 20
715.1971751291784
 30
0.0
  0
SPLINE
  5
104
330
AD
100
AcDbEntity
  8
1
 62
     7
370
    35
100
AcDbSpline
210
0.0
220
0.0
230
1.0
 70
     8
 71
     3
 72
     8
 73
     4
 74
     0
 42
0.0000000001
 43
0.0000000001
 40
0.0
 40
0.0
 40
0.0
 40
0.0
 40
1.0
 40
1.0
 40
1.0
 40
1.0
 10
209.1349325266874
 20
570.6582376069173
 30
0.0
 10
209.1677171352858
 20
570.7167815516486
 30
0.0
 10
209.1849327377659
 20
570.7827580095472
 30
0.0
 10
209.1849327377659
 20
570.8498566237331
 30
0.0
  0
SPLINE
  5
105
330
AD
100
AcDbEntity
  8
1
 62
     7
370
    35
100
AcDbSpline
210
0.0
220
0.0
230
1.0
 70
     8
 71
     3
 72
     8
 73
     4
 74
     0
 42
0.0000000001
 43
0.0000000001
 40
0.0
 40
0.0
 40
0.0
 40
0.0
 40
1.0
 40
1.0
 40
1.0
 40
1.0
 10
209.1849327377659
 20
572.2138989302502
 30
0.0
 10
209.1849327377659
 20
572.280997544437
 30
0.0
 10
209.1677171352858
 20
572.3469740023347
 30
0.0
 10
209.1349325266874
 20
572.405517947067
 30
0.0
  0
SPLINE
  5
106
330
AD
100
AcDbEntity
  8
1
 62
     7
370
    35
100
AcDbSpline
210
0.0
220
0.0
230
1.0
 70
     8
 71
     3
 72
     8
 73
     4
 74
     0
 42
0.0000000001
 43
0.0000000001
 40
0.0
 40
0.0
 40
0.0
 40
0.0
 40
1.0
 40
1.0
 40
1.0
 40
1.0
 10
208.8996263077661
 20
901.3811283008871
 30
0.0
 10
208.9324109163645
 20
901.4396722456185
 30
0.0
 10
208.9496265188445
 20
901.5056487035172
 30
0.0
 10
208.9496265188445
 20
901.572747317703
 30
0.0
  0
SPLINE
  5
107
330
AD
100
AcDbEntity
  8
1
 62
     7
370
    35
100
AcDbSpline
210
0.0
220
0.0
230
1.0
 70
     8
 71
     3
 72
     8
 73
     4
 74
     0
 42
0.0000000001
 43
0.0000000001
 40
0.0
 40
0.0
 40
0.0
 40
0.0
 40
1.0
 40
1.0
 40
1.0
 40
1.0
 10
208.9496265188445
 20
902.9367896242211
 30
0.0
 10
208.9496265188445
 20
903.0038882384069
 30
0.0
 10
208.9324109163645
 20
903.0698646963056
 30
0.0
 10
208.8996263077661
 20
903.1284086410369
 30
0.0
  0
SPLINE
  5
108
330
AD
100
AcDbEntity
  8
1
 62
     7
370
    35
100
AcDbSpline
210
0.0
220
0.0
230
1.0
 70
     8
 71
     3
 72
     8
 73
     4
 74
     0
 42
0.0000000001
 43
0.0000000001
 40
0.0
 40
0.0
 40
0.0
 40
0.0
 40
1.0
 40
1.0
 40
1.0
 40
1.0
 10
208.8996263077661
 20
907.2637837739211
 30
0.0
 10
208.9324109163645
 20
907.3223277186526
 30
0.0
 10
208.9496265188445
 20
907.3883041765512
 30
0.0
 10
208.9496265188445
 20
907.4554027907369
 30
0.0
  0
SPLINE
  5
109
330
AD
100
AcDbEntity
  8
1
 62
     7
370
    35
100
AcDbSpline
210
0.0
220
0.0
230
1.0
 70
     8
 71
     3
 72
     8
 73
     4
 74
     0
 42
0.0000000001
 43
0.0000000001
 40
0.0
 40
0.0
 40
0.0
 40
0.0
 40
1.0
 40
1.0
 40
1.0
 40
1.0
 10
208.9496265188445
 20
908.8194450972551
 30
0.0
 10
208.9496265188445
 20
908.8865437114408
 30
0.0
 10
208.9324109163645
 20
908.9525201693396
 30
0.0
 10
208.8996263077661
 20
909.0110641140709
 30
0.0
  0
SPLINE
  5
10A
330
AD
100
AcDbEntity
  8
1
 62
     7
370
    35
100
AcDbSpline
210
0.0
220
0.0
230
1.0
 70
     8
 71
     3
 72
     8
 73
     4
 74
     0
 42
0.0000000001
 43
0.0000000001
 40
0.0
 40
0.0
 40
0.0
 40
0.0
 40
1.0
 40
1.0
 40
1.0
 40
1.0
 10
209.1349325266874
 20
645.8385745522909
 30
0.0
 10
209.1677171352858
 20
645.8971184970232
 30
0.0
 10
209.1849327377659
 20
645.9630949549218
 30
0.0
 10
209.1849327377659
 20
646.0301935691068
 30
0.0
  0
SPLINE
  5
10B
330
AD
100
AcDbEntity
  8
1
 62
     7
370
    35
100
AcDbSpline
210
0.0
220
0.0
230
1.0
 70
     8
 71
     3
 72
     8
 73
     4
 74
     0
 42
0.0000000001
 43
0.0000000001
 40
0.0
 40
0.0
 40
0.0
 40
0.0
 40
1.0
 40
1.0
 40
1.0
 40
1.0
 10
209.1849327377659
 20
647.3942358756248
 30
0.0
 10
209.1849327377659
 20
647.4613344898107
 30
0.0
 10
209.1677171352858
 20
647.5273109477093
 30
0.0
 10
209.1349325266874
 20
647.5858548924415
 30
0.0
  0
SPLINE
  5
10C
330
AD
100
AcDbEntity
  8
1
 62
     7
370
    35
100
AcDbSpline
210
0.0
220
0.0
230
1.0
 70
     8
 71
     3
 72
     8
 73
     4
 74
     0
 42
0.0000000001
 43
0.0000000001
 40
0.0
 40
0.0
 40
0.0
 40
0.0
 40
1.0
 40
1.0
 40
1.0
 40
1.0
 10
209.1349325266874
 20
578.227254315554
 30
0.0
 10
209.1677171352858
 20
578.2857982602854
 30
0.0
 10
209.1849327377659
 20
578.3517747181849
 30
0.0
 10
209.1849327377659
 20
578.4188733323698
 30
0.0
  0
SPLINE
  5
10D
330
AD
100
AcDbEntity
  8
1
 62
     7
370
    35
100
AcDbSpline
210
0.0
220
0.0
230
1.0
 70
     8
 71
     3
 72
     8
 73
     4
 74
     0
 42
0.0000000001
 43
0.0000000001
 40
0.0
 40
0.0
 40
0.0
 40
0.0
 40
1.0
 40
1.0
 40
1.0
 40
1.0
 10
209.1849327377659
 20
579.7829156388879
 30
0.0
 10
209.1849327377659
 20
579.8500142530738
 30
0.0
 10
209.1677171352858
 20
579.9159907109724
 30
0.0
 10
209.1349325266874
 20
579.9745346557037
 30
0.0
  0
SPLINE
  5
10E
330
AD
100
AcDbEntity
  8
1
 62
     7
370
    35
100
AcDbSpline
210
0.0
220
0.0
230
1.0
 70
     8
 71
     3
 72
     8
 73
     4
 74
     0
 42
0.0000000001
 43
0.0000000001
 40
0.0
 40
0.0
 40
0.0
 40
0.0
 40
1.0
 40
1.0
 40
1.0
 40
1.0
 10
209.1349325266874
 20
848.6725352625025
 30
0.0
 10
209.1677171352858
 20
848.7310792072339
 30
0.0
 10
209.1849327377659
 20
848.7970556651326
 30
0.0
 10
209.1849327377659
 20
848.8641542793184
 30
0.0
  0
SPLINE
  5
10F
330
AD
100
AcDbEntity
  8
1
 62
     7
370
    35
100
AcDbSpline
210
0.0
220
0.0
230
1.0
 70
     8
 71
     3
 72
     8
 73
     4
 74
     0
 42
0.0000000001
 43
0.0000000001
 40
0.0
 40
0.0
 40
0.0
 40
0.0
 40
1.0
 40
1.0
 40
1.0
 40
1.0
 10
209.1849327377659
 20
850.2281965858365
 30
0.0
 10
209.1849327377659
 20
850.2952952000223
 30
0.0
 10
209.1677171352858
 20
850.3612716579208
 30
0.0
 10
209.1349325266874
 20
850.4198156026523
 30
0.0
  0
SPLINE
  5
110
330
AD
100
AcDbEntity
  8
1
 62
     7
370
    35
100
AcDbSpline
210
0.0
220
0.0
230
1.0
 70
     8
 71
     3
 72
     8
 73
     4
 74
     0
 42
0.0000000001
 43
0.0000000001
 40
0.0
 40
0.0
 40
0.0
 40
0.0
 40
1.0
 40
1.0
 40
1.0
 40
1.0
 10
209.1349325266874
 20
781.0612150257656
 30
0.0
 10
209.1677171352858
 20
781.1197589704971
 30
0.0
 10
209.1849327377659
 20
781.1857354283956
 30
0.0
 10
209.1849327377659
 20
781.2528340425815
 30
0.0
  0
SPLINE
  5
111
330
AD
100
AcDbEntity
  8
1
 62
     7
370
    35
100
AcDbSpline
210
0.0
220
0.0
230
1.0
 70
     8
 71
     3
 72
     8
 73
     4
 74
     0
 42
0.0000000001
 43
0.0000000001
 40
0.0
 40
0.0
 40
0.0
 40
0.0
 40
1.0
 40
1.0
 40
1.0
 40
1.0
 10
209.1849327377659
 20
782.6168763490995
 30
0.0
 10
209.1849327377659
 20
782.6839749632854
 30
0.0
 10
209.1677171352858
 20
782.749951421184
 30
0.0
 10
209.1349325266874
 20
782.8084953659153
 30
0.0
  0
SPLINE
  5
112
330
AD
100
AcDbEntity
  8
1
 62
     7
370
    35
100
AcDbSpline
210
0.0
220
0.0
230
1.0
 70
     8
 71
     3
 72
     8
 73
     4
 74
     0
 42
0.0000000001
 43
0.0000000001
 40
0.0
 40
0.0
 40
0.0
 40
0.0
 40
1.0
 40
1.0
 40
1.0
 40
1.0
 10
205.379209566926
 20
566.5120119694257
 30
0.0
 10
205.7217874054259
 20
566.5120119694257
 30
0.0
 10
206.0149157157384
 20
566.7579758264955
 30
0.0
 10
206.0744037331024
 20
567.0953491378614
 30
0.0
  0
SPLINE
  5
113
330
AD
100
AcDbEntity
  8
1
 62
     7
370
    35
100
AcDbSpline
210
0.0
220
0.0
230
1.0
 70
     8
 71
     3
 72
     8
 73
     4
 74
     0
 42
0.0000000001
 43
0.0000000001
 40
0.0
 40
0.0
 40
0.0
 40
0.0
 40
1.0
 40
1.0
 40
1.0
 40
1.0
 10
202.3341647492471
 20
567.0953491378614
 30
0.0
 10
202.3936527666119
 20
566.7579758264955
 30
0.0
 10
202.6867810769236
 20
566.5120119694257
 30
0.0
 10
203.0293589154235
 20
566.5120119694257
 30
0.0
  0
SPLINE
  5
114
330
AD
100
AcDbEntity
  8
1
 62
     7
370
    35
100
AcDbSpline
210
0.0
220
0.0
230
1.0
 70
     8
 71
     3
 72
     8
 73
     4
 74
     0
 42
0.0000000001
 43
0.0000000001
 40
0.0
 40
0.0
 40
0.0
 40
0.0
 40
1.0
 40
1.0
 40
1.0
 40
1.0
 10
62.94051171319643
 20
566.5120119694247
 30
0.0
 10
63.28308955169723
 20
566.5120119694247
 30
0.0
 10
63.57621786200979
 20
566.7579758264955
 30
0.0
 10
63.63570587937465
 20
567.0953491378614
 30
0.0
  0
SPLINE
  5
115
330
AD
100
AcDbEntity
  8
1
 62
     7
370
    35
100
AcDbSpline
210
0.0
220
0.0
230
1.0
 70
     8
 71
     3
 72
     8
 73
     4
 74
     0
 42
0.0000000001
 43
0.0000000001
 40
0.0
 40
0.0
 40
0.0
 40
0.0
 40
1.0
 40
1.0
 40
1.0
 40
1.0
 10
59.89546689551662
 20
567.0953491378614
 30
0.0
 10
59.95495491288147
 20
566.7579758264955
 30
0.0
 10
60.24808322319405
 20
566.5120119694247
 30
0.0
 10
60.59066106169485
 20
566.5120119694247
 30
0.0
  0
SPLINE
  5
116
330
AD
100
AcDbEntity
  8
1
 62
     7
370
    35
100
AcDbSpline
210
0.0
220
0.0
230
1.0
 70
     8
 71
     3
 72
     8
 73
     4
 74
     0
 42
0.0000000001
 43
0.0000000001
 40
0.0
 40
0.0
 40
0.0
 40
0.0
 40
1.0
 40
1.0
 40
1.0
 40
1.0
 10
102.5729769988447
 20
567.0953491378614
 30
0.0
 10
102.6324650162087
 20
566.7579758264955
 30
0.0
 10
102.9255933265212
 20
566.5120119694257
 30
0.0
 10
103.2681711650211
 20
566.5120119694257
 30
0.0
  0
SPLINE
  5
117
330
AD
100
AcDbEntity
  8
1
 62
     7
370
    35
100
AcDbSpline
210
0.0
220
0.0
230
1.0
 70
     8
 71
     3
 72
     8
 73
     4
 74
     0
 42
0.0000000001
 43
0.0000000001
 40
0.0
 40
0.0
 40
0.0
 40
0.0
 40
1.0
 40
1.0
 40
1.0
 40
1.0
 10
105.6180214243459
 20
566.5120119694247
 30
0.0
 10
105.9605992628467
 20
566.5120119694247
 30
0.0
 10
106.2537275731592
 20
566.7579758264955
 30
0.0
 10
106.3132155905232
 20
567.0953491378614
 30
0.0
  0
SPLINE
  5
118
330
AD
100
AcDbEntity
  8
1
 62
     7
370
    35
100
AcDbSpline
210
0.0
220
0.0
230
1.0
 70
     8
 71
     3
 72
     8
 73
     4
 74
     0
 42
0.0000000001
 43
0.0000000001
 40
0.0
 40
0.0
 40
0.0
 40
0.0
 40
1.0
 40
1.0
 40
1.0
 40
1.0
 10
202.6339703461763
 20
566.5120119694247
 30
0.0
 10
202.7008757721651
 20
566.5120119694247
 30
0.0
 10
202.7674414529738
 20
566.521523453879
 30
0.0
 10
202.8316695026242
 20
566.5402609474313
 30
0.0
  0
SPLINE
  5
119
330
AD
100
AcDbEntity
  8
1
 62
     7
370
    35
100
AcDbSpline
210
0.0
220
0.0
230
1.0
 70
     8
 71
     3
 72
     8
 73
     4
 74
     0
 42
0.0000000001
 43
0.0000000001
 40
0.0
 40
0.0
 40
0.0
 40
0.0
 40
1.0
 40
1.0
 40
1.0
 40
1.0
 10
199.5889255284973
 20
567.0953491378614
 30
0.0
 10
199.6484135458613
 20
566.7579758264955
 30
0.0
 10
199.9415418561739
 20
566.5120119694247
 30
0.0
 10
200.2841196946747
 20
566.5120119694247
 30
0.0
  0
SPLINE
  5
11A
330
AD
100
AcDbEntity
  8
1
 62
     7
370
    35
100
AcDbSpline
210
0.0
220
0.0
230
1.0
 70
     8
 71
     3
 72
     8
 73
     4
 74
     0
 42
0.0000000001
 43
0.0000000001
 40
0.0
 40
0.0
 40
0.0
 40
0.0
 40
1.0
 40
1.0
 40
1.0
 40
1.0
 10
205.379209566926
 20
566.5120119694265
 30
0.0
 10
205.5314662317796
 20
566.5120119694265
 30
0.0
 10
205.6617453505287
 20
566.7579758264974
 30
0.0
 10
205.6881844429172
 20
567.0953491378623
 30
0.0
  0
SPLINE
  5
11B
330
AD
100
AcDbEntity
  8
1
 62
     7
370
    35
100
AcDbSpline
210
0.0
220
0.0
230
1.0
 70
     8
 71
     3
 72
     8
 73
     4
 74
     0
 42
0.0000000001
 43
0.0000000001
 40
0.0
 40
0.0
 40
0.0
 40
0.0
 40
1.0
 40
1.0
 40
1.0
 40
1.0
 10
202.7203840394313
 20
567.0953491378614
 30
0.0
 10
202.7468231318207
 20
566.7579758264955
 30
0.0
 10
202.8771022505698
 20
566.5120119694247
 30
0.0
 10
203.0293589154235
 20
566.5120119694247
 30
0.0
  0
SPLINE
  5
11C
330
AD
100
AcDbEntity
  8
1
 62
     7
370
    35
100
AcDbSpline
210
0.0
220
0.0
230
1.0
 70
     8
 71
     3
 72
     8
 73
     4
 74
     0
 42
0.0000000001
 43
0.0000000001
 40
0.0
 40
0.0
 40
0.0
 40
0.0
 40
1.0
 40
1.0
 40
1.0
 40
1.0
 10
205.688184663647
 20
567.095348908012
 30
0.0
 10
205.897047861401
 20
567.0596311984409
 30
0.0
 10
206.0681056528974
 20
567.0596312207126
 30
0.0
 10
206.0744036537226
 20
567.0953489582962
 30
0.0
  0
SPLINE
  5
11D
330
AD
100
AcDbEntity
  8
1
 62
     7
370
    35
100
AcDbSpline
210
0.0
220
0.0
230
1.0
 70
     8
 71
     3
 72
     8
 73
     4
 74
     0
 42
0.0000000001
 43
0.0000000001
 40
0.0
 40
0.0
 40
0.0
 40
0.0
 40
1.0
 40
1.0
 40
1.0
 40
1.0
 10
202.3341648286268
 20
567.0953489582962
 30
0.0
 10
202.340462829452
 20
567.0596312207126
 30
0.0
 10
202.5115206209484
 20
567.0596311984409
 30
0.0
 10
202.7203838187034
 20
567.095348908012
 30
0.0
  0
SPLINE
  5
11E
330
AD
100
AcDbEntity
  8
1
 62
     7
370
    35
100
AcDbSpline
210
0.0
220
0.0
230
1.0
 70
     8
 71
     3
 72
     8
 73
     4
 74
     0
 42
0.0000000001
 43
0.0000000001
 40
0.0
 40
0.0
 40
0.0
 40
0.0
 40
1.0
 40
1.0
 40
1.0
 40
1.0
 10
62.94051171319643
 20
566.5120119694265
 30
0.0
 10
63.092768378051
 20
566.5120119694265
 30
0.0
 10
63.22304749679915
 20
566.7579758264974
 30
0.0
 10
63.24948658918856
 20
567.0953491378623
 30
0.0
  0
SPLINE
  5
11F
330
AD
100
AcDbEntity
  8
1
 62
     7
370
    35
100
AcDbSpline
210
0.0
220
0.0
230
1.0
 70
     8
 71
     3
 72
     8
 73
     4
 74
     0
 42
0.0000000001
 43
0.0000000001
 40
0.0
 40
0.0
 40
0.0
 40
0.0
 40
1.0
 40
1.0
 40
1.0
 40
1.0
 10
60.2816861857018
 20
567.0953491378614
 30
0.0
 10
60.30812527809212
 20
566.7579758264955
 30
0.0
 10
60.43840439684027
 20
566.5120119694247
 30
0.0
 10
60.59066106169485
 20
566.5120119694247
 30
0.0
  0
SPLINE
  5
120
330
AD
100
AcDbEntity
  8
1
 62
     7
370
    35
100
AcDbSpline
210
0.0
220
0.0
230
1.0
 70
     8
 71
     3
 72
     8
 73
     4
 74
     0
 42
0.0000000001
 43
0.0000000001
 40
0.0
 40
0.0
 40
0.0
 40
0.0
 40
1.0
 40
1.0
 40
1.0
 40
1.0
 10
63.24948680991747
 20
567.095348908012
 30
0.0
 10
63.45835000767147
 20
567.0596311984409
 30
0.0
 10
63.62940779916789
 20
567.0596312207126
 30
0.0
 10
63.63570579999396
 20
567.0953489582962
 30
0.0
  0
SPLINE
  5
121
330
AD
100
AcDbEntity
  8
1
 62
     7
370
    35
100
AcDbSpline
210
0.0
220
0.0
230
1.0
 70
     8
 71
     3
 72
     8
 73
     4
 74
     0
 42
0.0000000001
 43
0.0000000001
 40
0.0
 40
0.0
 40
0.0
 40
0.0
 40
1.0
 40
1.0
 40
1.0
 40
1.0
 10
59.89546697489823
 20
567.0953489582962
 30
0.0
 10
59.90176497572338
 20
567.0596312207126
 30
0.0
 10
60.07282276721889
 20
567.0596311984409
 30
0.0
 10
60.2816859649738
 20
567.095348908012
 30
0.0
  0
SPLINE
  5
122
330
AD
100
AcDbEntity
  8
1
 62
     7
370
    35
100
AcDbSpline
210
0.0
220
0.0
230
1.0
 70
     8
 71
     3
 72
     8
 73
     4
 74
     0
 42
0.0000000001
 43
0.0000000001
 40
0.0
 40
0.0
 40
0.0
 40
0.0
 40
1.0
 40
1.0
 40
1.0
 40
1.0
 10
102.9591962890281
 20
567.0953491378614
 30
0.0
 10
102.9856353814184
 20
566.7579758264955
 30
0.0
 10
103.1159145001666
 20
566.5120119694247
 30
0.0
 10
103.2681711650211
 20
566.5120119694247
 30
0.0
  0
SPLINE
  5
123
330
AD
100
AcDbEntity
  8
1
 62
     7
370
    35
100
AcDbSpline
210
0.0
220
0.0
230
1.0
 70
     8
 71
     3
 72
     8
 73
     4
 74
     0
 42
0.0000000001
 43
0.0000000001
 40
0.0
 40
0.0
 40
0.0
 40
0.0
 40
1.0
 40
1.0
 40
1.0
 40
1.0
 10
105.6180214243459
 20
566.5120119694247
 30
0.0
 10
105.7702780892014
 20
566.5120119694247
 30
0.0
 10
105.9005572079495
 20
566.7579758264955
 30
0.0
 10
105.9269963003389
 20
567.0953491378614
 30
0.0
  0
SPLINE
  5
124
330
AD
100
AcDbEntity
  8
1
 62
     7
370
    35
100
AcDbSpline
210
0.0
220
0.0
230
1.0
 70
     8
 71
     3
 72
     8
 73
     4
 74
     0
 42
0.0000000001
 43
0.0000000001
 40
0.0
 40
0.0
 40
0.0
 40
0.0
 40
1.0
 40
1.0
 40
1.0
 40
1.0
 10
102.5729770782245
 20
567.0953489582962
 30
0.0
 10
102.5792750790506
 20
567.0596312207126
 30
0.0
 10
102.7503328705461
 20
567.0596311984409
 30
0.0
 10
102.9591960683001
 20
567.095348908012
 30
0.0
  0
SPLINE
  5
125
330
AD
100
AcDbEntity
  8
1
 62
     7
370
    35
100
AcDbSpline
210
0.0
220
0.0
230
1.0
 70
     8
 71
     3
 72
     8
 73
     4
 74
     0
 42
0.0000000001
 43
0.0000000001
 40
0.0
 40
0.0
 40
0.0
 40
0.0
 40
1.0
 40
1.0
 40
1.0
 40
1.0
 10
105.9269969132438
 20
567.095348908012
 30
0.0
 10
106.1358601109987
 20
567.0596311984409
 30
0.0
 10
106.3069179024942
 20
567.0596312207126
 30
0.0
 10
106.3132159033203
 20
567.0953489582962
 30
0.0
  0
SPLINE
  5
126
330
AD
100
AcDbEntity
  8
1
 62
     7
370
    35
100
AcDbSpline
210
0.0
220
0.0
230
1.0
 70
     8
 71
     3
 72
     8
 73
     4
 74
     0
 42
0.0000000001
 43
0.0000000001
 40
0.0
 40
0.0
 40
0.0
 40
0.0
 40
1.0
 40
1.0
 40
1.0
 40
1.0
 10
202.6339703461763
 20
566.5120119694265
 30
0.0
 10
202.6757543640033
 20
566.5120119694265
 30
0.0
 10
202.7171174663827
 20
566.5307913177776
 30
0.0
 10
202.7556320188942
 20
566.5672478391152
 30
0.0
  0
SPLINE
  5
127
330
AD
100
AcDbEntity
  8
1
 62
     7
370
    35
100
AcDbSpline
210
0.0
220
0.0
230
1.0
 70
     8
 71
     3
 72
     8
 73
     4
 74
     0
 42
0.0000000001
 43
0.0000000001
 40
0.0
 40
0.0
 40
0.0
 40
0.0
 40
1.0
 40
1.0
 40
1.0
 40
1.0
 10
199.9751448186816
 20
567.0953491378595
 30
0.0
 10
200.0015839110711
 20
566.7579758264946
 30
0.0
 10
200.1318630298192
 20
566.5120119694238
 30
0.0
 10
200.2841196946747
 20
566.5120119694238
 30
0.0
  0
SPLINE
  5
128
330
AD
100
AcDbEntity
  8
1
 62
     7
370
    35
100
AcDbSpline
210
0.0
220
0.0
230
1.0
 70
     8
 71
     3
 72
     8
 73
     4
 74
     0
 42
0.0000000001
 43
0.0000000001
 40
0.0
 40
0.0
 40
0.0
 40
0.0
 40
1.0
 40
1.0
 40
1.0
 40
1.0
 10
199.5889256078772
 20
567.0953489582962
 30
0.0
 10
199.5952236087032
 20
567.0596312207126
 30
0.0
 10
199.7662814001996
 20
567.0596311984409
 30
0.0
 10
199.9751445979536
 20
567.095348908012
 30
0.0
  0
SPLINE
  5
129
330
AD
100
AcDbEntity
  8
1
 62
     7
370
    35
100
AcDbSpline
210
0.0
220
0.0
230
1.0
 70
     8
 71
     3
 72
    26
 73
    22
 74
     0
 42
0.0000000001
 43
0.0000000001
 40
0.0
 40
0.0
 40
0.0
 40
0.0
 40
1.0
 40
1.0
 40
1.0
 40
2.0
 40
2.0
 40
2.0
 40
3.0
 40
3.0
 40
3.0
 40
4.0
 40
4.0
 40
4.0
 40
5.0
 40
5.0
 40
5.0
 40
6.0
 40
6.0
 40
6.0
 40
7.0
 40
7.0
 40
7.0
 40
7.0
 10
48.19771629396928
 20
921.0792659847857
 30
0.0
 10
48.19749624282121
 20
921.0792659847857
 30
0.0
 10
48.1973030261297
 20
921.0767082311585
 30
0.0
 10
48.19713535783103
 20
921.0716817795882
 30
0.0
 10
48.19696768953235
 20
921.066655328018
 30
0.0
 10
48.19682557213491
 20
921.0591595788301
 30
0.0
 10
48.19670781909735
 20
921.0492102056514
 30
0.0
 10
48.1965900660598
 20
921.0392608324736
 30
0.0
 10
48.19649667738031
 20
921.0268578353051
 30
0.0
 10
48.19642649849448
 20
921.0119453600881
 30
0.0
 10
48.19640895377324
 20
921.008217241285
 30
0.0
 10
48.19639285968697
 20
921.0043319184288
 30
0.0
 10
48.19637819811851
 20
921.0002877721844
 30
0.0
 10
48.19636353655005
 20
920.9962436259393
 30
0.0
 10
48.19635029282472
 20
920.992034894084
 30
0.0
 10
48.19633850161699
 20
920.9876802066101
 30
0.0
 10
48.19631491920336
 20
920.9789708316648
 30
0.0
 10
48.19629716725831
 20
920.9696946853673
 30
0.0
 10
48.19628482309235
 20
920.9598632875758
 30
0.0
 10
48.19626846090159
 20
920.9468317697384
 30
0.0
 10
48.19626159146446
 20
920.9328264576187
 30
0.0
 10
48.19626330168103
 20
920.9178594280912
 30
0.0
  0
SPLINE
  5
12A
330
AD
100
AcDbEntity
  8
1
 62
     7
370
    35
100
AcDbSpline
210
0.0
220
0.0
230
1.0
 70
     8
 71
     3
 72
    74
 73
    70
 74
     0
 42
0.0000000001
 43
0.0000000001
 40
0.0
 40
0.0
 40
0.0
 40
0.0
 40
1.0
 40
1.0
 40
1.0
 40
2.0
 40
2.0
 40
2.0
 40
3.0
 40
3.0
 40
3.0
 40
4.0
 40
4.0
 40
4.0
 40
5.0
 40
5.0
 40
5.0
 40
6.0
 40
6.0
 40
6.0
 40
7.0
 40
7.0
 40
7.0
 40
8.0
 40
8.0
 40
8.0
 40
9.0
 40
9.0
 40
9.0
 40
10.0
 40
10.0
 40
10.0
 40
11.0
 40
11.0
 40
11.0
 40
12.0
 40
12.0
 40
12.0
 40
13.0
 40
13.0
 40
13.0
 40
14.0
 40
14.0
 40
14.0
 40
15.0
 40
15.0
 40
15.0
 40
16.0
 40
16.0
 40
16.0
 40
17.0
 40
17.0
 40
17.0
 40
18.0
 40
18.0
 40
18.0
 40
19.0
 40
19.0
 40
19.0
 40
20.0
 40
20.0
 40
20.0
 40
21.0
 40
21.0
 40
21.0
 40
22.0
 40
22.0
 40
22.0
 40
23.0
 40
23.0
 40
23.0
 40
23.0
 10
209.9731267894767
 20
919.5105578586444
 30
0.0
 10
209.9731267894767
 20
919.5623470001327
 30
0.0
 10
209.9705688225404
 20
919.6137005075861
 30
0.0
 10
209.9655420229646
 20
919.6646335612777
 30
0.0
 10
209.9605152233871
 20
919.7155666149692
 30
0.0
 10
209.9530189910792
 20
919.7660791127045
 30
0.0
 10
209.9430690574454
 20
919.8161737344198
 30
0.0
 10
209.9331191238116
 20
919.8662683561352
 30
0.0
 10
209.9207154888518
 20
919.9159451018322
 30
0.0
 10
209.9058023432108
 20
919.9651944682782
 30
0.0
 10
209.9020740568003
 20
919.9775068098897
 30
0.0
 10
209.8981885642461
 20
919.9897923786966
 30
0.0
 10
209.894144246814
 20
920.0020508990501
 30
0.0
 10
209.8900999293828
 20
920.0143094194036
 30
0.0
 10
209.8858910252466
 20
920.0265567694177
 30
0.0
 10
209.8815361626675
 20
920.0387358062508
 30
0.0
 10
209.8728264375068
 20
920.0630938799177
 30
0.0
 10
209.8635499375332
 20
920.0871378518732
 30
0.0
 10
209.8537181855227
 20
920.1108741085372
 30
0.0
 10
209.8340546815016
 20
920.1583466218663
 30
0.0
 10
209.8121741654977
 20
920.2045904886317
 30
0.0
 10
209.7881181386892
 20
920.2496287137673
 30
0.0
 10
209.7640621118826
 20
920.294666938903
 30
0.0
 10
209.7378305742714
 20
920.3384995224059
 30
0.0
 10
209.7094020637733
 20
920.3811145764712
 30
0.0
 10
209.6951878085247
 20
920.4024221035043
 30
0.0
 10
209.6804233401162
 20
920.4234247106615
 30
0.0
 10
209.6650998672749
 20
920.4441175267993
 30
0.0
 10
209.6574381308546
 20
920.4544639348688
 30
0.0
 10
209.6496366433266
 20
920.4647328951823
 30
0.0
 10
209.6416937976083
 20
920.4749235172331
 30
0.0
 10
209.6337509518908
 20
920.4851141392836
 30
0.0
 10
209.6256574804138
 20
920.495237296841
 30
0.0
 10
209.6174642489877
 20
920.5052292955006
 30
0.0
 10
209.5846913232835
 20
920.5451972901411
 30
0.0
 10
209.5502033361454
 20
920.5832386887722
 30
0.0
 10
209.5140536414046
 20
920.6194134319675
 30
0.0
 10
209.4779039466639
 20
920.6555881751638
 30
0.0
 10
209.4400925443206
 20
920.6898962629248
 30
0.0
 10
209.4006241576762
 20
920.7223430072009
 30
0.0
 10
209.361155771031
 20
920.7547897514769
 30
0.0
 10
209.3200304000839
 20
920.785375152268
 30
0.0
 10
209.2772043346804
 20
920.8140501145935
 30
0.0
 10
209.2664978183293
 20
920.8212188551751
 30
0.0
 10
209.2556847607684
 20
920.8282679149824
 30
0.0
 10
209.2447639652073
 20
920.8351959497221
 30
0.0
 10
209.2338431696471
 20
920.842123984462
 30
0.0
 10
209.2228209528366
 20
920.84892635935
 30
0.0
 10
209.2117521950049
 20
920.8555702210359
 30
0.0
 10
209.1896146793415
 20
920.868857944407
 30
0.0
 10
209.1672322028799
 20
920.8815497364184
 30
0.0
 10
209.144609306245
 20
920.8936566422053
 30
0.0
 10
209.0993635129744
 20
920.9178704537789
 30
0.0
 10
209.0531577454931
 20
920.9397488718268
 30
0.0
 10
209.0060066989709
 20
920.9593276383102
 30
0.0
 10
208.9588556524468
 20
920.9789064047926
 30
0.0
 10
208.9107593268818
 20
920.9961855197098
 30
0.0
 10
208.8617050683251
 20
921.0111341921956
 30
0.0
 10
208.8371779390463
 20
921.0186085284377
 30
0.0
 10
208.8124109028468
 20
921.0254992233913
 30
0.0
 10
208.7873997001525
 20
921.031795913751
 30
0.0
 10
208.7623884974573
 20
921.0380926041107
 30
0.0
 10
208.737086161691
 20
921.0438025296635
 30
0.0
 10
208.7117540860081
 20
921.0488635968822
 30
0.0
 10
208.6610899346424
 20
921.0589857313198
 30
0.0
 10
208.6101436292101
 20
921.0665678130926
 30
0.0
 10
208.558918287813
 20
921.0716378764599
 30
0.0
 10
208.5076929464158
 20
921.0767079398264
 30
0.0
 10
208.4561885690527
 20
921.0792659847866
 30
0.0
 10
208.4044000444555
 20
921.0792659847866
 30
0.0
  0
ENDBLK
  5
B0
330
AD
100
AcDbEntity
  8
0
100
AcDbBlockEnd
  0
BLOCK
  5
12D
330
12B
100
AcDbEntity
  8
0
100
AcDbBlockBegin
  2
Block_3
 70
     0
 10
0.0
 20
0.0
 30
0.0
  3
Block_3
  1

  0
LINE
  5
12F
330
12B
100
AcDbEntity
  8
1
 62
     7
370
    18
100
AcDbLine
 10
211.4392416907067
 20
566.5120119694247
 30
0.0
 11
229.9741552144678
 21
566.5120119694247
 31
0.0
  0
LINE
  5
130
330
12B
100
AcDbEntity
  8
1
 62
     7
370
    18
100
AcDbLine
 10
213.7559867227929
 20
921.0792661807591
 30
0.0
 11
229.9741552144678
 21
921.0792661807591
 31
0.0
  0
ENDBLK
  5
12E
330
12B
100
AcDbEntity
  8
0
100
AcDbBlockEnd
  0
BLOCK
  5
133
330
131
100
AcDbEntity
  8
0
100
AcDbBlockBegin
  2
Block_4
 70
     0
 10
0.0
 20
0.0
 30
0.0
  3
Block_4
  1

  0
LINE
  5
135
330
131
100
AcDbEntity
  8
1
 62
     7
370
    18
100
AcDbLine
 10
48.19869396652939
 20
950.6956212637224
 30
0.0
 11
48.19869396652939
 21
967.9131310650218
 31
0.0
  0
LINE
  5
136
330
131
100
AcDbEntity
  8
1
 62
     7
370
    18
100
AcDbLine
 10
209.9692868008369
 20
950.6956212637224
 30
0.0
 11
209.9692868008369
 21
968.6909103140106
 31
0.0
  0
ENDBLK
  5
134
330
131
100
AcDbEntity
  8
0
100
AcDbBlockEnd
  0
BLOCK
  5
139
330
137
100
AcDbEntity
  8
0
100
AcDbBlockBegin
  2
Block_5
 70
     0
 10
0.0
 20
0.0
 30
0.0
  3
Block_5
  1

  0
LINE
  5
13B
330
137
100
AcDbEntity
  8
1
 62
     7
370
    18
100
AcDbLine
 10
241.9999999999991
 20
1133.679081037124
 30
0.0
 11
213.7353000597414
 21
1133.679081037124
 31
0.0
  0
LINE
  5
13C
330
137
100
AcDbEntity
  8
1
 62
     7
370
    18
100
AcDbLine
 10
241.9999999999991
 20
971.9079948441113
 30
0.0
 11
213.0660501178172
 21
971.9079948441113
 31
0.0
  0
ENDBLK
  5
13A
330
137
100
AcDbEntity
  8
0
100
AcDbBlockEnd
  0
BLOCK
  5
146
330
144
100
AcDbEntity
  8
0
100
AcDbBlockBegin
  2
Block_6
 70
     0
 10
0.0
 20
0.0
 30
0.0
  3
Block_6
  1

  0
SPLINE
  5
148
330
144
100
AcDbEntity
  8
1
 62
   251
370
    18
100
AcDbSpline
210
0.0
220
0.0
230
1.0
 70
     9
 71
     3
 72
    29
 73
    25
 74
     0
 42
0.0000000001
 43
0.0000000001
 40
0.0
 40
0.0
 40
0.0
 40
0.0
 40
1.0
 40
1.0
 40
1.0
 40
2.0
 40
2.0
 40
2.0
 40
3.0
 40
3.0
 40
3.0
 40
4.0
 40
4.0
 40
4.0
 40
5.0
 40
5.0
 40
5.0
 40
6.0
 40
6.0
 40
6.0
 40
7.0
 40
7.0
 40
7.0
 40
8.0
 40
8.0
 40
8.0
 40
8.0
 10
437.6542762723657
 20
546.3860867524836
 30
0.0
 10
437.6542762723657
 20
543.7392781856678
 30
0.0
 10
435.4900631612017
 20
541.5750677503265
 30
0.0
 10
432.8413868696407
 20
541.5750677503265
 30
0.0
 10
432.8413868696407
 20
541.5750677503265
 30
0.0
 10
404.5551398450261
 20
541.5750677503265
 30
0.0
 10
404.5551398450261
 20
541.5750677503265
 30
0.0
 10
401.9120720793398
 20
541.5750677503265
 30
0.0
 10
399.7459894595486
 20
543.7392781856678
 30
0.0
 10
399.7459894595486
 20
546.3860867524836
 30
0.0
 10
399.7459894595486
 20
546.3860867524836
 30
0.0
 10
399.7459894595486
 20
574.676071456438
 30
0.0
 10
399.7459894595486
 20
574.676071456438
 30
0.0
 10
399.7459894595486
 20
577.3191427898873
 30
0.0
 10
401.9120720793398
 20
579.4852218419101
 30
0.0
 10
404.5551398450261
 20
579.4852218419101
 30
0.0
 10
404.5551398450261
 20
579.4852218419101
 30
0.0
 10
432.8413868696407
 20
579.4852218419101
 30
0.0
 10
432.8413868696407
 20
579.4852218419101
 30
0.0
 10
435.4900631612017
 20
579.4852218419101
 30
0.0
 10
437.6542762723657
 20
577.3191427898873
 30
0.0
 10
437.6542762723657
 20
574.676071456438
 30
0.0
 10
437.6542762723657
 20
574.676071456438
 30
0.0
 10
437.6542762723657
 20
546.3860867524836
 30
0.0
 10
437.6542762723657
 20
546.3860867524836
 30
0.0
  0
LWPOLYLINE
  5
149
330
144
100
AcDbEntity
  8
1
100
AcDbPolyline
 90
        4
 70
     1
 43
0.0
 10
398.9736469254349
 20
540.8030976016379
 10
438.5822482638868
 20
540.8030976016379
 10
438.5822482638868
 20
580.2564440979586
 10
398.9736469254349
 20
580.2564440979586
  0
ENDBLK
  5
147
330
144
100
AcDbEntity
  8
0
100
AcDbBlockEnd
  0
BLOCK
  5
14C
330
14A
100
AcDbEntity
  8
0
100
AcDbBlockBegin
  2
Block_7
 70
     0
 10
0.0
 20
0.0
 30
0.0
  3
Block_7
  1

  0
LINE
  5
14E
330
14A
100
AcDbEntity
  8
1
 62
   253
370
    30
100
AcDbLine
 10
406.9760664030054
 20
553.9675378002293
 30
0.0
 11
430.4023158355703
 21
553.9675378002293
 31
0.0
  0
LINE
  5
14F
330
14A
100
AcDbEntity
  8
1
 62
   253
370
    25
100
AcDbLine
 10
406.6970391767244
 20
557.1146113089071
 30
0.0
 11
406.6970391767244
 21
550.8243318327322
 31
0.0
  0
LINE
  5
150
330
14A
100
AcDbEntity
  8
1
 62
   253
370
    25
100
AcDbLine
 10
430.6879731324461
 20
557.1146113089071
 30
0.0
 11
430.6879731324461
 21
550.8243318327322
 31
0.0
  0
ENDBLK
  5
14D
330
14A
100
AcDbEntity
  8
0
100
AcDbBlockEnd
  0
ENDSEC
  0
SECTION
  2
ENTITIES
  0
INSERT
  5
7A
330
70
100
AcDbEntity
  8
1
100
AcDbBlockReference
  2
Block_0
 10
0.0
 20
0.0
 30
0.0
  0
INSERT
  5
7E
330
70
100
AcDbEntity
  8
1
100
AcDbBlockReference
  2
Block_1
 10
0.0
 20
0.0
 30
0.0
  0
INSERT
  5
AE
330
70
100
AcDbEntity
  8
1
100
AcDbBlockReference
  2
Block_2
 10
0.0
 20
0.0
 30
0.0
  0
INSERT
  5
12C
330
70
100
AcDbEntity
  8
1
100
AcDbBlockReference
  2
Block_3
 10
0.0
 20
0.0
 30
0.0
  0
INSERT
  5
132
330
70
100
AcDbEntity
  8
1
100
AcDbBlockReference
  2
Block_4
 10
0.0
 20
0.0
 30
0.0
  0
INSERT
  5
138
330
70
100
AcDbEntity
  8
1
100
AcDbBlockReference
  2
Block_5
 10
0.0
 20
0.0
 30
0.0
  0
MTEXT
  5
13D
330
70
100
AcDbEntity
  8
1
100
AcDbMText
 10
226.7275390624991
 20
732.3883972167959
 30
0.0
 40
0.2
 41
0.0
 46
0.0
 71
     7
 72
     1
  1
\C7;\FTramontina SmCd Titulos|b0|i0|c1;\H9.204000;\W1.000000;904
 11
0.0000000000000001
 21
1.0
 31
0.0
 73
     1
 44
1.0
  0
MTEXT
  5
13E
330
70
100
AcDbEntity
  8
1
100
AcDbMText
 10
119.1049510240555
 20
955.504165649414
 30
0.0
 40
0.2
 41
0.0
 46
0.0
 71
     7
 72
     1
  1
\C7;\FTramontina SmCd Titulos|b0|i0|c1;\H9.204000;\W1.000000;412
 73
     1
 44
1.0
  0
MTEXT
  5
13F
330
70
100
AcDbEntity
  8
1
100
AcDbMText
 10
237.4029586315146
 20
1042.466094970702
 30
0.0
 40
0.2
 41
0.0
 46
0.0
 71
     7
 72
     1
  1
\C7;\FTramontina SmCd Titulos|b0|i0|c1;\H9.204000;\W1.000000;412
 11
0.0000000000000001
 21
1.0
 31
0.0
 73
     1
 44
1.0
  0
LINE
  5
140
330
70
100
AcDbEntity
  8
1
 62
     7
370
    18
100
AcDbLine
 10
229.1898011513968
 20
566.4089105167541
 30
0.0
 11
229.1898011513968
 21
920.9761647280883
 31
0.0
  0
LINE
  5
141
330
70
100
AcDbEntity
  8
1
 62
     7
370
    18
100
AcDbLine
 10
210.1539046058388
 20
952.5909767070471
 30
0.0
 11
48.38331177153122
 21
952.5909767070471
 31
0.0
  0
LINE
  5
142
330
70
100
AcDbEntity
  8
1
 62
     7
370
    18
100
AcDbLine
 10
240.1707580343928
 20
971.7441564218606
 30
0.0
 11
240.1707580343928
 21
1133.515242614874
 31
0.0
  0
MTEXT
  5
143
330
70
100
AcDbEntity
  8
1
100
AcDbMText
 10
407.1315460205077
 20
561.6684036254882
 30
0.0
 40
0.2
 41
0.0
 46
0.0
 71
     7
 72
     1
  1
\C253;\FFrutiger Bold|b1|i0|c1;\H10.213521;\W1.000000;mm
 73
     1
 44
1.0
  0
INSERT
  5
145
330
70
100
AcDbEntity
  8
1
100
AcDbBlockReference
  2
Block_6
 10
0.0
 20
0.0
 30
0.0
  0
INSERT
  5
14B
330
70
100
AcDbEntity
  8
1
100
AcDbBlockReference
  2
Block_7
 10
0.0
 20
0.0
 30
0.0
  0
ENDSEC
  0
SECTION
  2
OBJECTS
  0
DICTIONARY
  5
C
330
0
100
AcDbDictionary
281
     1
  3
ACAD_COLOR
350
63
  3
ACAD_DETAILVIEWSTYLE
350
6A
  3
ACAD_GROUP
350
D
  3
ACAD_LAYOUT
350
62
  3
ACAD_MATERIAL
350
10
  3
ACAD_MLEADERSTYLE
350
66
  3
ACAD_MLINESTYLE
350
5F
  3
ACAD_PLOTSETTINGS
350
61
  3
ACAD_PLOTSTYLENAME
350
E
  3
ACAD_SCALELIST
350
42
  3
ACAD_SECTIONVIEWSTYLE
350
68
  3
ACAD_TABLESTYLE
350
64
  3
ACAD_VISUALSTYLE
350
29
  3
ACDB_RECOMPOSE_DATA
350
159
  3
AcDbVariableDictionary
350
151
  0
DICTIONARY
  5
63
102
{ACAD_REACTORS
330
C
102
}
330
C
100
AcDbDictionary
281
     1
  0
DICTIONARY
  5
6A
102
{ACAD_REACTORS
330
C
102
}
330
C
100
AcDbDictionary
281
     1
  3
Imperial24
350
6B
  0
DICTIONARY
  5
D
102
{ACAD_REACTORS
330
C
102
}
330
C
100
AcDbDictionary
281
     1
  0
DICTIONARY
  5
62
102
{ACAD_REACTORS
330
C
102
}
330
C
100
AcDbDictionary
281
     1
  3
Layout1
350
6F
  3
Layout2
350
77
  3
Model
350
73
  0
DICTIONARY
  5
10
102
{ACAD_REACTORS
330
C
102
}
330
C
100
AcDbDictionary
281
     1
  3
ByBlock
350
19
  3
ByLayer
350
11
  3
Global
350
21
  0
DICTIONARY
  5
66
102
{ACAD_REACTORS
330
C
102
}
330
C
100
AcDbDictionary
281
     1
  3
Standard
350
67
  0
DICTIONARY
  5
5F
102
{ACAD_REACTORS
330
C
102
}
330
C
100
AcDbDictionary
281
     1
  3
Standard
350
60
  0
DICTIONARY
  5
61
102
{ACAD_REACTORS
330
C
102
}
330
C
100
AcDbDictionary
281
     1
  0
ACDBDICTIONARYWDFLT
  5
E
102
{ACAD_REACTORS
330
C
102
}
330
C
100
AcDbDictionary
281
     1
  3
Normal
350
F
100
AcDbDictionaryWithDefault
340
F
  0
DICTIONARY
  5
42
102
{ACAD_REACTORS
330
C
102
}
330
C
100
AcDbDictionary
281
     1
  3
A0
350
43
  3
A1
350
44
  3
A2
350
45
  3
A3
350
46
  3
A4
350
47
  3
A5
350
48
  3
A6
350
49
  3
A7
350
4A
  3
A8
350
4B
  3
A9
350
4C
  3
B0
350
4D
  3
B1
350
4E
  3
B2
350
4F
  3
B3
350
50
  3
B4
350
51
  3
B5
350
52
  3
B6
350
53
  0
DICTIONARY
  5
68
102
{ACAD_REACTORS
330
C
102
}
330
C
100
AcDbDictionary
281
     1
  3
Imperial24
350
69
  0
DICTIONARY
  5
64
102
{ACAD_REACTORS
330
C
102
}
330
C
100
AcDbDictionary
281
     1
  3
Standard
350
65
  0
DICTIONARY
  5
29
102
{ACAD_REACTORS
330
C
102
}
330
C
100
AcDbDictionary
281
     1
  3
2dWireframe
350
2F
  3
Basic
350
2E
  3
Brighten
350
35
  3
ColorChange
350
39
  3
Conceptual
350
32
  3
Dim
350
34
  3
EdgeColorOff
350
41
  3
Facepattern
350
38
  3
Flat
350
2A
  3
FlatWithEdges
350
2B
  3
Gouraud
350
2C
  3
GouraudWithEdges
350
2D
  3
Hidden
350
31
  3
JitterOff
350
3F
  3
Linepattern
350
37
  3
OverhangOff
350
40
  3
Realistic
350
33
  3
Shaded
350
3E
  3
Shaded with edges
350
3D
  3
Shades of Gray
350
3A
  3
Sketchy
350
3B
  3
Thicken
350
36
  3
Wireframe
350
30
  3
X-Ray
350
3C
  0
XRECORD
  5
159
102
{ACAD_REACTORS
330
C
102
}
330
C
100
AcDbXrecord
280
     1
 90
        1
330
65
  0
DICTIONARY
  5
151
102
{ACAD_REACTORS
330
C
102
}
330
C
100
AcDbDictionary
281
     1
  3
CANNOSCALE
350
156
  3
CMLEADERSTYLE
350
153
  3
CTABLESTYLE
350
152
  3
CVIEWDETAILSTYLE
350
154
  3
CVIEWSECTIONSTYLE
350
155
  0
ACDBDETAILVIEWSTYLE
  5
6B
102
{ACAD_REACTORS
330
6A
102
}
330
6A
100
AcDbModelDocViewStyle
 70
     0
  3
Imperial24
290
     1
300
Imperial24
 90
        0
100
AcDbDetailViewStyle
 70
     0
 71
     0
 90
        3
 71
     1
340
55
 62
   256
 40
0.24
340
0
 62
   256
 40
0.24
300

 40
0.36
280
     3
 71
     2
340
5D
 90
       25
 62
   256
 71
     3
340
55
 62
   256
 40
0.24
 90
        1
 40
0.75
 90
        1
300
%<\AcVar ViewType \f "%tc1">% %<\AcVar ViewDetailId>%\PSCALE %<\AcVar ViewScale \f "%sn">%
 71
     4
340
5D
 90
       25
 62
   256
340
5D
 90
       25
 62
   256
280
     0
  0
LAYOUT
  5
6F
102
{ACAD_REACTORS
330
62
102
}
330
62
100
AcDbPlotSettings
  1

  2

  4

  6

 40
0.0
 41
0.0
 42
0.0
 43
0.0
 44
0.0
 45
0.0
 46
0.0
 47
0.0
 48
0.0
 49
0.0
140
0.0
141
0.0
142
1.0
143
1.0
 70
   688
 72
     0
 73
     0
 74
     5
  7

 75
    16
147
1.0
 76
     0
 77
     2
 78
   300
148
0.0
149
0.0
100
AcDbLayout
  1
Layout1
 70
     1
 71
     1
 10
0.0
 20
0.0
 11
12.0
 21
9.0
 12
0.0
 22
0.0
 32
0.0
 14
0.0
 24
0.0
 34
0.0
 15
0.0
 25
0.0
 35
0.0
146
0.0
 13
0.0
 23
0.0
 33
0.0
 16
1.0
 26
0.0
 36
0.0
 17
0.0
 27
1.0
 37
0.0
 76
     0
330
6C
  0
LAYOUT
  5
77
102
{ACAD_REACTORS
330
62
102
}
330
62
100
AcDbPlotSettings
  1

  2

  4

  6

 40
0.0
 41
0.0
 42
0.0
 43
0.0
 44
0.0
 45
0.0
 46
0.0
 47
0.0
 48
0.0
 49
0.0
140
0.0
141
0.0
142
1.0
143
1.0
 70
   688
 72
     0
 73
     0
 74
     5
  7

 75
    16
147
1.0
 76
     0
 77
     2
 78
   300
148
0.0
149
0.0
100
AcDbLayout
  1
Layout2
 70
     1
 71
     2
 10
0.0
 20
0.0
 11
12.0
 21
9.0
 12
0.0
 22
0.0
 32
0.0
 14
0.0
 24
0.0
 34
0.0
 15
0.0
 25
0.0
 35
0.0
146
0.0
 13
0.0
 23
0.0
 33
0.0
 16
1.0
 26
0.0
 36
0.0
 17
0.0
 27
1.0
 37
0.0
 76
     0
330
74
  0
LAYOUT
  5
73
102
{ACAD_REACTORS
330
62
102
}
330
62
100
AcDbPlotSettings
  1

  2

  4

  6

 40
0.0
 41
0.0
 42
0.0
 43
0.0
 44
0.0
 45
0.0
 46
0.0
 47
0.0
 48
0.0
 49
0.0
140
0.0
141
0.0
142
1.0
143
1.0
 70
  1712
 72
     0
 73
     0
 74
     0
  7

 75
     0
147
1.0
 76
     0
 77
     2
 78
   300
148
0.0
149
0.0
100
AcDbLayout
  1
Model
 70
     1
 71
     0
 10
0.0
 20
0.0
 11
12.0
 21
9.0
 12
0.0
 22
0.0
 32
0.0
 14
0.0
 24
0.0
 34
0.0
 15
0.0
 25
0.0
 35
0.0
146
0.0
 13
0.0
 23
0.0
 33
0.0
 16
1.0
 26
0.0
 36
0.0
 17
0.0
 27
1.0
 37
0.0
 76
     0
330
70
  0
MATERIAL
  5
19
102
{ACAD_XDICTIONARY
360
1A
102
}
102
{ACAD_REACTORS
330
10
102
}
330
10
100
AcDbMaterial
  1
ByBlock
 72
     0
 43
0.0208333333333333
 43
0.0
 43
0.0
 43
0.0
 43
0.0
 43
0.0208333333333333
 43
0.0
 43
0.0
 43
0.0
 43
0.0
 43
1.0
 43
0.0
 43
0.0
 43
0.0
 43
0.0
 43
1.0
 77
     0
 47
0.0208333333333333
 47
0.0
 47
0.0
 47
0.0
 47
0.0
 47
0.0208333333333333
 47
0.0
 47
0.0
 47
0.0
 47
0.0
 47
1.0
 47
0.0
 47
0.0
 47
0.0
 47
0.0
 47
1.0
171
     0
 49
0.0208333333333333
 49
0.0
 49
0.0
 49
0.0
 49
0.0
 49
0.0208333333333333
 49
0.0
 49
0.0
 49
0.0
 49
0.0
 49
1.0
 49
0.0
 49
0.0
 49
0.0
 49
0.0
 49
1.0
175
     0
142
0.0208333333333333
142
0.0
142
0.0
142
0.0
142
0.0
142
0.0208333333333333
142
0.0
142
0.0
142
0.0
142
0.0
142
1.0
142
0.0
142
0.0
142
0.0
142
0.0
142
1.0
179
     0
144
0.0208333333333333
144
0.0
144
0.0
144
0.0
144
0.0
144
0.0208333333333333
144
0.0
144
0.0
144
0.0
144
0.0
144
1.0
144
0.0
144
0.0
144
0.0
144
0.0
144
1.0
147
0.0208333333333333
147
0.0
147
0.0
147
0.0
147
0.0
147
0.0208333333333333
147
0.0
147
0.0
147
0.0
147
0.0
147
1.0
147
0.0
147
0.0
147
0.0
147
0.0
147
1.0
  0
MATERIAL
  5
11
102
{ACAD_XDICTIONARY
360
12
102
}
102
{ACAD_REACTORS
330
10
102
}
330
10
100
AcDbMaterial
  1
ByLayer
 72
     0
 43
0.0208333333333333
 43
0.0
 43
0.0
 43
0.0
 43
0.0
 43
0.0208333333333333
 43
0.0
 43
0.0
 43
0.0
 43
0.0
 43
1.0
 43
0.0
 43
0.0
 43
0.0
 43
0.0
 43
1.0
 77
     0
 47
0.0208333333333333
 47
0.0
 47
0.0
 47
0.0
 47
0.0
 47
0.0208333333333333
 47
0.0
 47
0.0
 47
0.0
 47
0.0
 47
1.0
 47
0.0
 47
0.0
 47
0.0
 47
0.0
 47
1.0
171
     0
 49
0.0208333333333333
 49
0.0
 49
0.0
 49
0.0
 49
0.0
 49
0.0208333333333333
 49
0.0
 49
0.0
 49
0.0
 49
0.0
 49
1.0
 49
0.0
 49
0.0
 49
0.0
 49
0.0
 49
1.0
175
     0
142
0.0208333333333333
142
0.0
142
0.0
142
0.0
142
0.0
142
0.0208333333333333
142
0.0
142
0.0
142
0.0
142
0.0
142
1.0
142
0.0
142
0.0
142
0.0
142
0.0
142
1.0
179
     0
144
0.0208333333333333
144
0.0
144
0.0
144
0.0
144
0.0
144
0.0208333333333333
144
0.0
144
0.0
144
0.0
144
0.0
144
1.0
144
0.0
144
0.0
144
0.0
144
0.0
144
1.0
147
0.0208333333333333
147
0.0
147
0.0
147
0.0
147
0.0
147
0.0208333333333333
147
0.0
147
0.0
147
0.0
147
0.0
147
1.0
147
0.0
147
0.0
147
0.0
147
0.0
147
1.0
  0
MATERIAL
  5
21
102
{ACAD_XDICTIONARY
360
22
102
}
102
{ACAD_REACTORS
330
10
102
}
330
10
100
AcDbMaterial
  1
Global
 72
     0
 43
0.0208333333333333
 43
0.0
 43
0.0
 43
0.0
 43
0.0
 43
0.0208333333333333
 43
0.0
 43
0.0
 43
0.0
 43
0.0
 43
1.0
 43
0.0
 43
0.0
 43
0.0
 43
0.0
 43
1.0
 77
     0
 47
0.0208333333333333
 47
0.0
 47
0.0
 47
0.0
 47
0.0
 47
0.0208333333333333
 47
0.0
 47
0.0
 47
0.0
 47
0.0
 47
1.0
 47
0.0
 47
0.0
 47
0.0
 47
0.0
 47
1.0
171
     0
 49
0.0208333333333333
 49
0.0
 49
0.0
 49
0.0
 49
0.0
 49
0.0208333333333333
 49
0.0
 49
0.0
 49
0.0
 49
0.0
 49
1.0
 49
0.0
 49
0.0
 49
0.0
 49
0.0
 49
1.0
175
     0
142
0.0208333333333333
142
0.0
142
0.0
142
0.0
142
0.0
142
0.0208333333333333
142
0.0
142
0.0
142
0.0
142
0.0
142
1.0
142
0.0
142
0.0
142
0.0
142
0.0
142
1.0
179
     0
144
0.0208333333333333
144
0.0
144
0.0
144
0.0
144
0.0
144
0.0208333333333333
144
0.0
144
0.0
144
0.0
144
0.0
144
1.0
144
0.0
144
0.0
144
0.0
144
0.0
144
1.0
147
0.0208333333333333
147
0.0
147
0.0
147
0.0
147
0.0
147
0.0208333333333333
147
0.0
147
0.0
147
0.0
147
0.0
147
1.0
147
0.0
147
0.0
147
0.0
147
0.0
147
1.0
  0
MLEADERSTYLE
  5
67
102
{ACAD_REACTORS
330
66
102
}
330
66
100
AcDbMLeaderStyle
179
     2
170
     2
171
     1
172
     0
 90
        2
 40
0.0
 41
0.0
173
     1
 91
-1056964608
340
5B
 92
       -2
290
     1
 42
0.09
291
     1
 43
0.36
  3
Standard
 44
0.18
300

342
55
174
     1
178
     6
175
     1
176
     0
 93
-1056964608
 45
0.18
292
     0
297
     0
 46
0.18
 94
-1056964608
 47
1.0
 49
1.0
140
1.0
293
     1
141
0.0
294
     1
177
     0
142
1.0
295
     1
296
     0
143
0.125
271
     0
272
     9
273
     9
298
     1
  0
MLINESTYLE
  5
60
102
{ACAD_REACTORS
330
5F
102
}
330
5F
100
AcDbMlineStyle
  2
STANDARD
 70
     0
  3

 62
   256
 51
90.0
 52
90.0
 71
     2
 49
0.5
 62
   256
  6
BYLAYER
 49
-0.5
 62
   256
  6
BYLAYER
  0
ACDBPLACEHOLDER
  5
F
102
{ACAD_REACTORS
330
E
102
}
330
E
  0
SCALE
  5
43
102
{ACAD_REACTORS
330
42
102
}
330
42
100
AcDbScale
 70
     0
300
1:1
140
1.0
141
1.0
290
     1
  0
SCALE
  5
44
102
{ACAD_REACTORS
330
42
102
}
330
42
100
AcDbScale
 70
     0
300
1/128" = 1'-0"
140
0.0078125
141
12.0
290
     0
  0
SCALE
  5
45
102
{ACAD_REACTORS
330
42
102
}
330
42
100
AcDbScale
 70
     0
300
1/64" = 1'-0"
140
0.015625
141
12.0
290
     0
  0
SCALE
  5
46
102
{ACAD_REACTORS
330
42
102
}
330
42
100
AcDbScale
 70
     0
300
1/32" = 1'-0"
140
0.03125
141
12.0
290
     0
  0
SCALE
  5
47
102
{ACAD_REACTORS
330
42
102
}
330
42
100
AcDbScale
 70
     0
300
1/16" = 1'-0"
140
0.0625
141
12.0
290
     0
  0
SCALE
  5
48
102
{ACAD_REACTORS
330
42
102
}
330
42
100
AcDbScale
 70
     0
300
3/32" = 1'-0"
140
0.09375
141
12.0
290
     0
  0
SCALE
  5
49
102
{ACAD_REACTORS
330
42
102
}
330
42
100
AcDbScale
 70
     0
300
1/8" = 1'-0"
140
0.125
141
12.0
290
     0
  0
SCALE
  5
4A
102
{ACAD_REACTORS
330
42
102
}
330
42
100
AcDbScale
 70
     0
300
3/16" = 1'-0"
140
0.1875
141
12.0
290
     0
  0
SCALE
  5
4B
102
{ACAD_REACTORS
330
42
102
}
330
42
100
AcDbScale
 70
     0
300
1/4" = 1'-0"
140
0.25
141
12.0
290
     0
  0
SCALE
  5
4C
102
{ACAD_REACTORS
330
42
102
}
330
42
100
AcDbScale
 70
     0
300
3/8" = 1'-0"
140
0.375
141
12.0
290
     0
  0
SCALE
  5
4D
102
{ACAD_REACTORS
330
42
102
}
330
42
100
AcDbScale
 70
     0
300
1/2" = 1'-0"
140
0.5
141
12.0
290
     0
  0
SCALE
  5
4E
102
{ACAD_REACTORS
330
42
102
}
330
42
100
AcDbScale
 70
     0
300
3/4" = 1'-0"
140
0.75
141
12.0
290
     0
  0
SCALE
  5
4F
102
{ACAD_REACTORS
330
42
102
}
330
42
100
AcDbScale
 70
     0
300
1" = 1'-0"
140
1.0
141
12.0
290
     0
  0
SCALE
  5
50
102
{ACAD_REACTORS
330
42
102
}
330
42
100
AcDbScale
 70
     0
300
1-1/2" = 1'-0"
140
1.5
141
12.0
290
     0
  0
SCALE
  5
51
102
{ACAD_REACTORS
330
42
102
}
330
42
100
AcDbScale
 70
     0
300
3" = 1'-0"
140
3.0
141
12.0
290
     0
  0
SCALE
  5
52
102
{ACAD_REACTORS
330
42
102
}
330
42
100
AcDbScale
 70
     0
300
6" = 1'-0"
140
6.0
141
12.0
290
     0
  0
SCALE
  5
53
102
{ACAD_REACTORS
330
42
102
}
330
42
100
AcDbScale
 70
     0
300
1'-0" = 1'-0"
140
12.0
141
12.0
290
     0
  0
ACDBSECTIONVIEWSTYLE
  5
69
102
{ACAD_REACTORS
330
68
102
}
330
68
100
AcDbModelDocViewStyle
 70
     0
  3
Imperial24
290
     1
300
Imperial24
 90
        0
100
AcDbSectionViewStyle
 70
     0
 71
     0
 90
       78
 71
     1
340
55
 62
   256
 40
0.24
340
0
340
0
 62
   256
 40
0.24
300
I, O, Q, S, X, Z
 40
0.48
 90
        3
 40
0.18
 90
        1
 71
     2
340
5D
 90
       25
 62
   256
340
5D
 90
       50
 62
   256
 40
0.24
 40
0.0
 40
0.24
 71
     3
340
55
 62
   256
 40
0.24
 90
        1
 40
0.75
 90
        1
300
%<\AcVar ViewType \f "%tc1">% %<\AcVar ViewSectionStartId>%-%<\AcVar ViewSectionEndId>%\PSCALE %<\AcVar ViewScale \f "%sn">%
 71
     4
 62
   256
 62
   257
300
ANSI31
 40
1.0
 90
        0
290
     0
290
     0
 90
        6
 40
0.0
 40
1.570796326794896
 40
0.2617993877991494
 40
1.308996938995747
 40
-0.2617993877991494
 40
1.832595714594046
  0
TABLESTYLE
  5
65
102
{ACAD_XDICTIONARY
360
157
102
}
102
{ACAD_REACTORS
330
64
102
}
330
64
100
AcDbTableStyle
280
     0
  3
Standard
 70
     0
 71
     0
 40
0.06
 41
0.06
280
     0
281
     0
  7
Standard
140
0.18
170
     2
 62
     0
 63
     7
283
     0
 90
      512
 91
        0
  1

274
    -2
284
     1
 64
     0
275
    -2
285
     1
 65
     0
276
    -2
286
     1
 66
     0
277
    -2
287
     1
 67
     0
278
    -2
288
     1
 68
     0
279
    -2
289
     1
 69
     0
  7
Standard
140
0.25
170
     5
 62
     0
 63
     7
283
     0
 90
      512
 91
        0
  1

274
    -2
284
     1
 64
     0
275
    -2
285
     1
 65
     0
276
    -2
286
     1
 66
     0
277
    -2
287
     1
 67
     0
278
    -2
288
     1
 68
     0
279
    -2
289
     1
 69
     0
  7
Standard
140
0.18
170
     5
 62
     0
 63
     7
283
     0
 90
      512
 91
        0
  1

274
    -2
284
     1
 64
     0
275
    -2
285
     1
 65
     0
276
    -2
286
     1
 66
     0
277
    -2
287
     1
 67
     0
278
    -2
288
     1
 68
     0
279
    -2
289
     1
 69
     0
  0
VISUALSTYLE
  5
2F
102
{ACAD_REACTORS
330
29
102
}
330
29
100
AcDbVisualStyle
  2
2dWireframe
 70
     4
177
     3
291
     0
 70
    58
 90
        0
176
     1
 90
        2
176
     1
 90
        0
176
     1
 90
        0
176
     1
 40
0.6
176
     1
 40
30.0
176
     1
 62
     7
420
 16777215
176
     1
 90
        1
176
     1
 90
        4
176
     1
 62
     7
176
     1
 62
   257
176
     1
 90
        1
176
     1
 90
        1
176
     1
 40
1.0
176
     1
 90
        0
176
     1
 62
   257
176
     1
 40
1.0
176
     1
 90
        1
176
     1
 90
        6
176
     1
 90
        2
176
     1
 62
     7
176
     1
 90
        5
176
     1
 90
        0
176
     1
 90
        0
176
     1
290
     0
176
     1
 90
        1
176
     1
 40
0.0
176
     1
 90
        0
176
     1
290
     1
176
     1
290
     1
176
     1
290
     0
176
     1
290
     0
176
     1
290
     0
176
     1
290
     0
176
     1
290
     0
176
     1
290
     0
176
     1
290
     0
176
     1
 90
       50
176
     1
 40
0.0
176
     1
 40
1.0
176
     1
 90
        0
176
     1
 62
    18
420
        0
176
     1
 90
       50
176
     1
 90
        3
176
     1
 62
     5
420
      255
176
     1
290
     0
176
     1
 90
       50
176
     1
 90
       50
176
     1
 90
       50
176
     1
290
     0
176
     1
 90
       50
176
     1
 62
   256
176
     0
 40
1.0
176
     0
 90
        2
176
     1
  1
strokes_ogs.tif
176
     1
290
     0
176
     1
 40
1.0
176
     1
 40
1.0
176
     1
  0
VISUALSTYLE
  5
2E
102
{ACAD_REACTORS
330
29
102
}
330
29
100
AcDbVisualStyle
  2
Basic
 70
     7
177
     3
291
     1
 70
    58
 90
        1
176
     1
 90
        0
176
     1
 90
        1
176
     1
 90
        0
176
     1
 40
0.6
176
     1
 40
30.0
176
     1
 62
     7
420
 16777215
176
     1
 90
        0
176
     1
 90
        4
176
     1
 62
     7
176
     1
 62
   257
176
     1
 90
        1
176
     1
 90
        1
176
     1
 40
1.0
176
     1
 90
        8
176
     1
 62
     7
176
     1
 40
1.0
176
     1
 90
        1
176
     1
 90
        6
176
     1
 90
        2
176
     1
 62
     7
176
     1
 90
        5
176
     1
 90
        0
176
     1
 90
        0
176
     1
290
     0
176
     1
 90
        1
176
     1
 40
0.0
176
     1
 90
        0
176
     1
290
     0
176
     1
290
     1
176
     1
290
     1
176
     1
290
     0
176
     1
290
     0
176
     1
290
     0
176
     1
290
     0
176
     1
290
     0
176
     1
290
     0
176
     1
 90
       50
176
     1
 40
0.0
176
     1
 40
1.0
176
     1
 90
        0
176
     1
 62
    18
420
        0
176
     1
 90
       50
176
     1
 90
        3
176
     1
 62
     5
420
      255
176
     1
290
     0
176
     1
 90
       50
176
     1
 90
       50
176
     1
 90
       50
176
     1
290
     0
176
     1
 90
       50
176
     1
 62
   256
176
     0
 40
1.0
176
     0
 90
        2
176
     1
  1
strokes_ogs.tif
176
     1
290
     0
176
     1
 40
1.0
176
     1
 40
1.0
176
     1
  0
VISUALSTYLE
  5
35
102
{ACAD_REACTORS
330
29
102
}
330
29
100
AcDbVisualStyle
  2
Brighten
 70
    12
177
     3
291
     1
 70
    58
 90
        2
176
     1
 90
        2
176
     1
 90
        0
176
     1
 90
        0
176
     1
 40
0.6
176
     1
 40
30.0
176
     1
 62
     7
420
 16777215
176
     1
 90
        1
176
     1
 90
        4
176
     1
 62
     7
176
     1
 62
   257
176
     1
 90
        1
176
     1
 90
        1
176
     1
 40
1.0
176
     1
 90
        8
176
     1
 62
     7
176
     1
 40
1.0
176
     1
 90
        1
176
     1
 90
        6
176
     1
 90
        2
176
     1
 62
     7
176
     1
 90
        5
176
     1
 90
        0
176
     1
 90
        0
176
     1
290
     0
176
     1
 90
        1
176
     1
 40
50.0
176
     1
 90
        0
176
     1
290
     0
176
     1
290
     1
176
     1
290
     1
176
     1
290
     0
176
     1
290
     0
176
     1
290
     0
176
     1
290
     0
176
     1
290
     0
176
     1
290
     0
176
     1
 90
       50
176
     1
 40
0.0
176
     1
 40
1.0
176
     1
 90
        0
176
     1
 62
    18
420
        0
176
     1
 90
       50
176
     1
 90
        3
176
     1
 62
     5
420
      255
176
     1
290
     0
176
     1
 90
       50
176
     1
 90
       50
176
     1
 90
       50
176
     1
290
     0
176
     1
 90
       50
176
     1
 62
   256
176
     0
 40
1.0
176
     0
 90
        2
176
     1
  1
strokes_ogs.tif
176
     1
290
     0
176
     1
 40
1.0
176
     1
 40
1.0
176
     1
  0
VISUALSTYLE
  5
39
102
{ACAD_REACTORS
330
29
102
}
330
29
100
AcDbVisualStyle
  2
ColorChange
 70
    16
177
     3
291
     1
 70
    58
 90
        2
176
     1
 90
        2
176
     1
 90
        3
176
     1
 90
        0
176
     1
 40
0.6
176
     1
 40
30.0
176
     1
 62
     8
420
  8421504
176
     1
 90
        1
176
     1
 90
        4
176
     1
 62
     7
176
     1
 62
   257
176
     1
 90
        1
176
     1
 90
        1
176
     1
 40
1.0
176
     1
 90
        8
176
     1
 62
     8
420
  8421504
176
     1
 40
1.0
176
     1
 90
        1
176
     1
 90
        6
176
     1
 90
        2
176
     1
 62
     7
176
     1
 90
        5
176
     1
 90
        0
176
     1
 90
        0
176
     1
290
     0
176
     1
 90
        1
176
     1
 40
0.0
176
     1
 90
        0
176
     1
290
     0
176
     1
290
     1
176
     1
290
     1
176
     1
290
     0
176
     1
290
     0
176
     1
290
     0
176
     1
290
     0
176
     1
290
     0
176
     1
290
     0
176
     1
 90
       50
176
     1
 40
0.0
176
     1
 40
1.0
176
     1
 90
        0
176
     1
 62
    18
420
        0
176
     1
 90
       50
176
     1
 90
        3
176
     1
 62
     5
420
      255
176
     1
290
     0
176
     1
 90
       50
176
     1
 90
       50
176
     1
 90
       50
176
     1
290
     0
176
     1
 90
       50
176
     1
 62
   256
176
     0
 40
1.0
176
     0
 90
        2
176
     1
  1
strokes_ogs.tif
176
     1
290
     0
176
     1
 40
1.0
176
     1
 40
1.0
176
     1
  0
VISUALSTYLE
  5
32
102
{ACAD_REACTORS
330
29
102
}
330
29
100
AcDbVisualStyle
  2
Conceptual
 70
     9
177
     3
291
     0
 70
    58
 90
        3
176
     1
 90
        2
176
     1
 90
        0
176
     1
 90
        0
176
     1
 40
0.6
176
     1
 40
30.0
176
     1
 62
     7
420
 16777215
176
     1
 90
        2
176
     1
 90
        2
176
     1
 62
     7
176
     1
 62
   257
176
     1
 90
        1
176
     1
 90
        1
176
     1
 40
179.0
176
     1
 90
        8
176
     1
 62
     7
176
     1
 40
1.0
176
     1
 90
        1
176
     1
 90
        6
176
     1
 90
        2
176
     1
 62
     7
176
     1
 90
        3
176
     1
 90
        0
176
     1
 90
        0
176
     1
290
     0
176
     1
 90
        1
176
     1
 40
0.0
176
     1
 90
        0
176
     1
290
     0
176
     1
290
     1
176
     1
290
     1
176
     1
290
     0
176
     1
290
     0
176
     1
290
     0
176
     1
290
     0
176
     1
290
     0
176
     1
290
     0
176
     1
 90
       50
176
     1
 40
0.0
176
     1
 40
1.0
176
     1
 90
        0
176
     1
 62
    18
420
        0
176
     1
 90
       50
176
     1
 90
        3
176
     1
 62
     5
420
      255
176
     1
290
     0
176
     1
 90
       50
176
     1
 90
       50
176
     1
 90
       50
176
     1
290
     0
176
     1
 90
       50
176
     1
 62
   256
176
     0
 40
1.0
176
     0
 90
        2
176
     1
  1
strokes_ogs.tif
176
     1
290
     0
176
     1
 40
1.0
176
     1
 40
1.0
176
     1
  0
VISUALSTYLE
  5
34
102
{ACAD_REACTORS
330
29
102
}
330
29
100
AcDbVisualStyle
  2
Dim
 70
    11
177
     3
291
     1
 70
    58
 90
        2
176
     1
 90
        2
176
     1
 90
        0
176
     1
 90
        0
176
     1
 40
0.6
176
     1
 40
30.0
176
     1
 62
     7
420
 16777215
176
     1
 90
        1
176
     1
 90
        4
176
     1
 62
     7
176
     1
 62
   257
176
     1
 90
        1
176
     1
 90
        1
176
     1
 40
1.0
176
     1
 90
        8
176
     1
 62
     7
176
     1
 40
1.0
176
     1
 90
        1
176
     1
 90
        6
176
     1
 90
        2
176
     1
 62
     7
176
     1
 90
        5
176
     1
 90
        0
176
     1
 90
        0
176
     1
290
     0
176
     1
 90
        1
176
     1
 40
-50.0
176
     1
 90
        0
176
     1
290
     0
176
     1
290
     1
176
     1
290
     1
176
     1
290
     0
176
     1
290
     0
176
     1
290
     0
176
     1
290
     0
176
     1
290
     0
176
     1
290
     0
176
     1
 90
       50
176
     1
 40
0.0
176
     1
 40
1.0
176
     1
 90
        0
176
     1
 62
    18
420
        0
176
     1
 90
       50
176
     1
 90
        3
176
     1
 62
     5
420
      255
176
     1
290
     0
176
     1
 90
       50
176
     1
 90
       50
176
     1
 90
       50
176
     1
290
     0
176
     1
 90
       50
176
     1
 62
   256
176
     0
 40
1.0
176
     0
 90
        2
176
     1
  1
strokes_ogs.tif
176
     1
290
     0
176
     1
 40
1.0
176
     1
 40
1.0
176
     1
  0
VISUALSTYLE
  5
41
102
{ACAD_REACTORS
330
29
102
}
330
29
100
AcDbVisualStyle
  2
EdgeColorOff
 70
    22
177
     3
291
     1
 70
    58
 90
        2
176
     0
 90
        2
176
     0
 90
        0
176
     0
 90
        0
176
     0
 40
0.6
176
     0
 40
30.0
176
     0
 62
     7
420
 16777215
176
     0
 90
        1
176
     0
 90
        4
176
     0
 62
     7
176
     0
 62
   257
176
     0
 90
        1
176
     0
 90
        1
176
     0
 40
1.0
176
     0
 90
        8
176
     2
 62
     7
176
     0
 40
1.0
176
     0
 90
        1
176
     0
 90
        6
176
     0
 90
        2
176
     0
 62
     7
176
     0
 90
        5
176
     0
 90
        0
176
     0
 90
        0
176
     0
290
     0
176
     0
 90
        1
176
     0
 40
0.0
176
     0
 90
        0
176
     0
290
     0
176
     0
290
     1
176
     0
290
     1
176
     0
290
     0
176
     0
290
     0
176
     0
290
     0
176
     0
290
     0
176
     0
290
     0
176
     0
290
     0
176
     0
 90
       50
176
     0
 40
0.0
176
     0
 40
1.0
176
     0
 90
        0
176
     0
 62
    18
420
        0
176
     0
 90
       50
176
     0
 90
        3
176
     0
 62
     5
420
      255
176
     0
290
     0
176
     0
 90
       50
176
     0
 90
       50
176
     0
 90
       50
176
     0
290
     0
176
     0
 90
       50
176
     0
 62
   256
176
     0
 40
1.0
176
     0
 90
        2
176
     0
  1
strokes_ogs.tif
176
     0
290
     0
176
     0
 40
1.0
176
     0
 40
1.0
176
     0
  0
VISUALSTYLE
  5
38
102
{ACAD_REACTORS
330
29
102
}
330
29
100
AcDbVisualStyle
  2
Facepattern
 70
    15
177
     3
291
     1
 70
    58
 90
        2
176
     1
 90
        2
176
     1
 90
        0
176
     1
 90
        0
176
     1
 40
0.6
176
     1
 40
30.0
176
     1
 62
     7
420
 16777215
176
     1
 90
        1
176
     1
 90
        4
176
     1
 62
     7
176
     1
 62
   257
176
     1
 90
        1
176
     1
 90
        1
176
     1
 40
1.0
176
     1
 90
        8
176
     1
 62
     7
176
     1
 40
1.0
176
     1
 90
        1
176
     1
 90
        6
176
     1
 90
        2
176
     1
 62
     7
176
     1
 90
        5
176
     1
 90
        0
176
     1
 90
        0
176
     1
290
     0
176
     1
 90
        1
176
     1
 40
0.0
176
     1
 90
        0
176
     1
290
     0
176
     1
290
     1
176
     1
290
     1
176
     1
290
     0
176
     1
290
     0
176
     1
290
     0
176
     1
290
     0
176
     1
290
     0
176
     1
290
     0
176
     1
 90
       50
176
     1
 40
0.0
176
     1
 40
1.0
176
     1
 90
        0
176
     1
 62
    18
420
        0
176
     1
 90
       50
176
     1
 90
        3
176
     1
 62
     5
420
      255
176
     1
290
     0
176
     1
 90
       50
176
     1
 90
       50
176
     1
 90
       50
176
     1
290
     0
176
     1
 90
       50
176
     1
 62
   256
176
     0
 40
1.0
176
     0
 90
        2
176
     1
  1
strokes_ogs.tif
176
     1
290
     0
176
     1
 40
1.0
176
     1
 40
1.0
176
     1
  0
VISUALSTYLE
  5
2A
102
{ACAD_REACTORS
330
29
102
}
330
29
100
AcDbVisualStyle
  2
Flat
 70
     0
177
     3
291
     1
 70
    58
 90
        2
176
     1
 90
        1
176
     1
 90
        1
176
     1
 90
        2
176
     1
 40
0.6
176
     1
 40
30.0
176
     1
 62
     7
420
 16777215
176
     1
 90
        0
176
     1
 90
        0
176
     1
 62
     7
176
     1
 62
   257
176
     1
 90
        1
176
     1
 90
        1
176
     1
 40
1.0
176
     1
 90
        8
176
     1
 62
     7
176
     1
 40
1.0
176
     1
 90
        1
176
     1
 90
        6
176
     1
 90
        2
176
     1
 62
     7
176
     1
 90
        5
176
     1
 90
        0
176
     1
 90
        0
176
     1
290
     0
176
     1
 90
       13
176
     1
 40
0.0
176
     1
 90
        0
176
     1
290
     0
176
     1
290
     1
176
     1
290
     1
176
     1
290
     0
176
     1
290
     0
176
     1
290
     0
176
     1
290
     0
176
     1
290
     0
176
     1
290
     0
176
     1
 90
       50
176
     1
 40
0.0
176
     1
 40
1.0
176
     1
 90
        0
176
     1
 62
    18
420
        0
176
     1
 90
       50
176
     1
 90
        3
176
     1
 62
     5
420
      255
176
     1
290
     0
176
     1
 90
       50
176
     1
 90
       50
176
     1
 90
       50
176
     1
290
     0
176
     1
 90
       50
176
     1
 62
   256
176
     0
 40
1.0
176
     0
 90
        2
176
     1
  1
strokes_ogs.tif
176
     1
290
     0
176
     1
 40
1.0
176
     1
 40
1.0
176
     1
  0
VISUALSTYLE
  5
2B
102
{ACAD_REACTORS
330
29
102
}
330
29
100
AcDbVisualStyle
  2
FlatWithEdges
 70
     1
177
     3
291
     1
 70
    58
 90
        2
176
     1
 90
        1
176
     1
 90
        1
176
     1
 90
        2
176
     1
 40
0.6
176
     1
 40
30.0
176
     1
 62
     7
420
 16777215
176
     1
 90
        1
176
     1
 90
        0
176
     1
 62
     7
176
     1
 62
   257
176
     1
 90
        1
176
     1
 90
        1
176
     1
 40
1.0
176
     1
 90
        0
176
     1
 62
   257
176
     1
 40
1.0
176
     1
 90
        1
176
     1
 90
        6
176
     1
 90
        2
176
     1
 62
     7
176
     1
 90
        5
176
     1
 90
        0
176
     1
 90
        0
176
     1
290
     0
176
     1
 90
       13
176
     1
 40
0.0
176
     1
 90
        0
176
     1
290
     0
176
     1
290
     1
176
     1
290
     1
176
     1
290
     0
176
     1
290
     0
176
     1
290
     0
176
     1
290
     0
176
     1
290
     0
176
     1
290
     0
176
     1
 90
       50
176
     1
 40
0.0
176
     1
 40
1.0
176
     1
 90
        0
176
     1
 62
    18
420
        0
176
     1
 90
       50
176
     1
 90
        3
176
     1
 62
     5
420
      255
176
     1
290
     0
176
     1
 90
       50
176
     1
 90
       50
176
     1
 90
       50
176
     1
290
     0
176
     1
 90
       50
176
     1
 62
   256
176
     0
 40
1.0
176
     0
 90
        2
176
     1
  1
strokes_ogs.tif
176
     1
290
     0
176
     1
 40
1.0
176
     1
 40
1.0
176
     1
  0
VISUALSTYLE
  5
2C
102
{ACAD_REACTORS
330
29
102
}
330
29
100
AcDbVisualStyle
  2
Gouraud
 70
     2
177
     3
291
     1
 70
    58
 90
        2
176
     1
 90
        2
176
     1
 90
        1
176
     1
 90
        2
176
     1
 40
0.6
176
     1
 40
30.0
176
     1
 62
     7
420
 16777215
176
     1
 90
        0
176
     1
 90
        0
176
     1
 62
     7
176
     1
 62
   257
176
     1
 90
        1
176
     1
 90
        1
176
     1
 40
1.0
176
     1
 90
        0
176
     1
 62
     7
176
     1
 40
1.0
176
     1
 90
        1
176
     1
 90
        6
176
     1
 90
        2
176
     1
 62
     7
176
     1
 90
        5
176
     1
 90
        0
176
     1
 90
        0
176
     1
290
     0
176
     1
 90
       13
176
     1
 40
0.0
176
     1
 90
        0
176
     1
290
     0
176
     1
290
     1
176
     1
290
     1
176
     1
290
     0
176
     1
290
     0
176
     1
290
     0
176
     1
290
     0
176
     1
290
     0
176
     1
290
     0
176
     1
 90
       50
176
     1
 40
0.0
176
     1
 40
1.0
176
     1
 90
        0
176
     1
 62
    18
420
        0
176
     1
 90
       50
176
     1
 90
        3
176
     1
 62
     5
420
      255
176
     1
290
     0
176
     1
 90
       50
176
     1
 90
       50
176
     1
 90
       50
176
     1
290
     0
176
     1
 90
       50
176
     1
 62
   256
176
     0
 40
1.0
176
     0
 90
        2
176
     1
  1
strokes_ogs.tif
176
     1
290
     0
176
     1
 40
1.0
176
     1
 40
1.0
176
     1
  0
VISUALSTYLE
  5
2D
102
{ACAD_REACTORS
330
29
102
}
330
29
100
AcDbVisualStyle
  2
GouraudWithEdges
 70
     3
177
     3
291
     1
 70
    58
 90
        2
176
     1
 90
        2
176
     1
 90
        1
176
     1
 90
        2
176
     1
 40
0.6
176
     1
 40
30.0
176
     1
 62
     7
420
 16777215
176
     1
 90
        1
176
     1
 90
        0
176
     1
 62
     7
176
     1
 62
   257
176
     1
 90
        1
176
     1
 90
        1
176
     1
 40
1.0
176
     1
 90
        0
176
     1
 62
   257
176
     1
 40
1.0
176
     1
 90
        1
176
     1
 90
        6
176
     1
 90
        2
176
     1
 62
     7
176
     1
 90
        5
176
     1
 90
        0
176
     1
 90
        0
176
     1
290
     0
176
     1
 90
       13
176
     1
 40
0.0
176
     1
 90
        0
176
     1
290
     0
176
     1
290
     1
176
     1
290
     1
176
     1
290
     0
176
     1
290
     0
176
     1
290
     0
176
     1
290
     0
176
     1
290
     0
176
     1
290
     0
176
     1
 90
       50
176
     1
 40
0.0
176
     1
 40
1.0
176
     1
 90
        0
176
     1
 62
    18
420
        0
176
     1
 90
       50
176
     1
 90
        3
176
     1
 62
     5
420
      255
176
     1
290
     0
176
     1
 90
       50
176
     1
 90
       50
176
     1
 90
       50
176
     1
290
     0
176
     1
 90
       50
176
     1
 62
   256
176
     0
 40
1.0
176
     0
 90
        2
176
     1
  1
strokes_ogs.tif
176
     1
290
     0
176
     1
 40
1.0
176
     1
 40
1.0
176
     1
  0
VISUALSTYLE
  5
31
102
{ACAD_REACTORS
330
29
102
}
330
29
100
AcDbVisualStyle
  2
Hidden
 70
     6
177
     3
291
     0
 70
    58
 90
        1
176
     1
 90
        2
176
     1
 90
        2
176
     1
 90
        0
176
     1
 40
0.6
176
     1
 40
30.0
176
     1
 62
     7
420
 16777215
176
     1
 90
        2
176
     1
 90
        2
176
     1
 62
     7
176
     1
 62
   257
176
     1
 90
        2
176
     1
 90
        1
176
     1
 40
40.0
176
     1
 90
        0
176
     1
 62
   257
176
     1
 40
1.0
176
     1
 90
        1
176
     1
 90
        6
176
     1
 90
        2
176
     1
 62
     7
176
     1
 90
        3
176
     1
 90
        0
176
     1
 90
        0
176
     1
290
     0
176
     1
 90
        1
176
     1
 40
0.0
176
     1
 90
        0
176
     1
290
     0
176
     1
290
     1
176
     1
290
     1
176
     1
290
     0
176
     1
290
     0
176
     1
290
     0
176
     1
290
     0
176
     1
290
     0
176
     1
290
     0
176
     1
 90
       50
176
     1
 40
0.0
176
     1
 40
1.0
176
     1
 90
        0
176
     1
 62
    18
420
        0
176
     1
 90
       50
176
     1
 90
        3
176
     1
 62
     5
420
      255
176
     1
290
     0
176
     1
 90
       50
176
     1
 90
       50
176
     1
 90
       50
176
     1
290
     0
176
     1
 90
       50
176
     1
 62
   256
176
     0
 40
1.0
176
     0
 90
        2
176
     1
  1
strokes_ogs.tif
176
     1
290
     0
176
     1
 40
1.0
176
     1
 40
1.0
176
     1
  0
VISUALSTYLE
  5
3F
102
{ACAD_REACTORS
330
29
102
}
330
29
100
AcDbVisualStyle
  2
JitterOff
 70
    20
177
     3
291
     1
 70
    58
 90
        2
176
     0
 90
        2
176
     0
 90
        0
176
     0
 90
        0
176
     0
 40
0.6
176
     0
 40
30.0
176
     0
 62
     7
420
 16777215
176
     0
 90
        1
176
     0
 90
        4
176
     0
 62
     7
176
     0
 62
   257
176
     0
 90
        1
176
     0
 90
        1
176
     0
 40
1.0
176
     0
 90
       10
176
     2
 62
     7
176
     0
 40
1.0
176
     0
 90
        1
176
     0
 90
        6
176
     0
 90
        2
176
     0
 62
     7
176
     0
 90
        5
176
     0
 90
        0
176
     0
 90
        0
176
     0
290
     0
176
     0
 90
        1
176
     0
 40
0.0
176
     0
 90
        0
176
     0
290
     0
176
     0
290
     1
176
     0
290
     1
176
     0
290
     0
176
     0
290
     0
176
     0
290
     0
176
     0
290
     0
176
     0
290
     0
176
     0
290
     0
176
     0
 90
       50
176
     0
 40
0.0
176
     0
 40
1.0
176
     0
 90
        0
176
     0
 62
    18
420
        0
176
     0
 90
       50
176
     0
 90
        3
176
     0
 62
     5
420
      255
176
     0
290
     0
176
     0
 90
       50
176
     0
 90
       50
176
     0
 90
       50
176
     0
290
     0
176
     0
 90
       50
176
     0
 62
   256
176
     0
 40
1.0
176
     0
 90
        2
176
     0
  1
strokes_ogs.tif
176
     0
290
     0
176
     0
 40
1.0
176
     0
 40
1.0
176
     0
  0
VISUALSTYLE
  5
37
102
{ACAD_REACTORS
330
29
102
}
330
29
100
AcDbVisualStyle
  2
Linepattern
 70
    14
177
     3
291
     1
 70
    58
 90
        2
176
     1
 90
        2
176
     1
 90
        0
176
     1
 90
        0
176
     1
 40
0.6
176
     1
 40
30.0
176
     1
 62
     7
420
 16777215
176
     1
 90
        1
176
     1
 90
        4
176
     1
 62
     7
176
     1
 62
   257
176
     1
 90
        7
176
     1
 90
        7
176
     1
 40
1.0
176
     1
 90
        8
176
     1
 62
     7
176
     1
 40
1.0
176
     1
 90
        1
176
     1
 90
        6
176
     1
 90
        2
176
     1
 62
     7
176
     1
 90
        5
176
     1
 90
        0
176
     1
 90
        0
176
     1
290
     0
176
     1
 90
        1
176
     1
 40
0.0
176
     1
 90
        0
176
     1
290
     0
176
     1
290
     1
176
     1
290
     1
176
     1
290
     0
176
     1
290
     0
176
     1
290
     0
176
     1
290
     0
176
     1
290
     0
176
     1
290
     0
176
     1
 90
       50
176
     1
 40
0.0
176
     1
 40
1.0
176
     1
 90
        0
176
     1
 62
    18
420
        0
176
     1
 90
       50
176
     1
 90
        3
176
     1
 62
     5
420
      255
176
     1
290
     0
176
     1
 90
       50
176
     1
 90
       50
176
     1
 90
       50
176
     1
290
     0
176
     1
 90
       50
176
     1
 62
   256
176
     0
 40
1.0
176
     0
 90
        2
176
     1
  1
strokes_ogs.tif
176
     1
290
     0
176
     1
 40
1.0
176
     1
 40
1.0
176
     1
  0
VISUALSTYLE
  5
40
102
{ACAD_REACTORS
330
29
102
}
330
29
100
AcDbVisualStyle
  2
OverhangOff
 70
    21
177
     3
291
     1
 70
    58
 90
        2
176
     0
 90
        2
176
     0
 90
        0
176
     0
 90
        0
176
     0
 40
0.6
176
     0
 40
30.0
176
     0
 62
     7
420
 16777215
176
     0
 90
        1
176
     0
 90
        4
176
     0
 62
     7
176
     0
 62
   257
176
     0
 90
        1
176
     0
 90
        1
176
     0
 40
1.0
176
     0
 90
        9
176
     2
 62
     7
176
     0
 40
1.0
176
     0
 90
        1
176
     0
 90
        6
176
     0
 90
        2
176
     0
 62
     7
176
     0
 90
        5
176
     0
 90
        0
176
     0
 90
        0
176
     0
290
     0
176
     0
 90
        1
176
     0
 40
0.0
176
     0
 90
        0
176
     0
290
     0
176
     0
290
     1
176
     0
290
     1
176
     0
290
     0
176
     0
290
     0
176
     0
290
     0
176
     0
290
     0
176
     0
290
     0
176
     0
290
     0
176
     0
 90
       50
176
     0
 40
0.0
176
     0
 40
1.0
176
     0
 90
        0
176
     0
 62
    18
420
        0
176
     0
 90
       50
176
     0
 90
        3
176
     0
 62
     5
420
      255
176
     0
290
     0
176
     0
 90
       50
176
     0
 90
       50
176
     0
 90
       50
176
     0
290
     0
176
     0
 90
       50
176
     0
 62
   256
176
     0
 40
1.0
176
     0
 90
        2
176
     0
  1
strokes_ogs.tif
176
     0
290
     0
176
     0
 40
1.0
176
     0
 40
1.0
176
     0
  0
VISUALSTYLE
  5
33
102
{ACAD_REACTORS
330
29
102
}
330
29
100
AcDbVisualStyle
  2
Realistic
 70
     8
177
     3
291
     0
 70
    58
 90
        2
176
     1
 90
        3
176
     1
 90
        0
176
     1
 90
        2
176
     1
 40
0.6
176
     1
 40
30.0
176
     1
 62
     7
420
 16777215
176
     1
 90
        0
176
     1
 90
        0
176
     1
 62
     7
176
     1
 62
   257
176
     1
 90
        1
176
     1
 90
        1
176
     1
 40
1.0
176
     1
 90
        8
176
     1
 62
   257
176
     1
 40
1.0
176
     1
 90
        1
176
     1
 90
        6
176
     1
 90
        2
176
     1
 62
     7
176
     1
 90
        3
176
     1
 90
        0
176
     1
 90
        0
176
     1
290
     0
176
     1
 90
       13
176
     1
 40
0.0
176
     1
 90
        0
176
     1
290
     0
176
     1
290
     1
176
     1
290
     1
176
     1
290
     0
176
     1
290
     0
176
     1
290
     0
176
     1
290
     0
176
     1
290
     0
176
     1
290
     0
176
     1
 90
       50
176
     1
 40
0.0
176
     1
 40
1.0
176
     1
 90
        0
176
     1
 62
    18
420
        0
176
     1
 90
       50
176
     1
 90
        3
176
     1
 62
     5
420
      255
176
     1
290
     0
176
     1
 90
       50
176
     1
 90
       50
176
     1
 90
       50
176
     1
290
     0
176
     1
 90
       50
176
     1
 62
   256
176
     0
 40
1.0
176
     0
 90
        2
176
     1
  1
strokes_ogs.tif
176
     1
290
     0
176
     1
 40
1.0
176
     1
 40
1.0
176
     1
  0
VISUALSTYLE
  5
3E
102
{ACAD_REACTORS
330
29
102
}
330
29
100
AcDbVisualStyle
  2
Shaded
 70
    27
177
     3
291
     0
 70
    58
 90
        2
176
     1
 90
        2
176
     1
 90
        1
176
     1
 90
        2
176
     1
 40
0.6
176
     1
 40
30.0
176
     1
 62
     7
420
 16777215
176
     1
 90
        0
176
     1
 90
        4
176
     1
 62
     7
176
     1
 62
   257
176
     1
 90
        1
176
     1
 90
        1
176
     1
 40
1.0
176
     1
 90
        8
176
     1
 62
   257
176
     1
 40
1.0
176
     1
 90
        1
176
     1
 90
        6
176
     1
 90
        2
176
     1
 62
     8
420
  7895160
176
     1
 90
        3
176
     1
 90
        0
176
     1
 90
        0
176
     1
290
     0
176
     1
 90
        5
176
     1
 40
0.0
176
     1
 90
        0
176
     1
290
     0
176
     1
290
     1
176
     1
290
     1
176
     1
290
     0
176
     1
290
     0
176
     1
290
     0
176
     1
290
     0
176
     1
290
     0
176
     1
290
     0
176
     1
 90
       50
176
     1
 40
0.0
176
     1
 40
1.0
176
     1
 90
        0
176
     1
 62
    18
420
        0
176
     1
 90
       50
176
     1
 90
        3
176
     1
 62
     5
420
      255
176
     1
290
     0
176
     1
 90
       50
176
     1
 90
       50
176
     1
 90
       50
176
     1
290
     0
176
     1
 90
       50
176
     1
 62
   256
176
     0
 40
1.0
176
     0
 90
        2
176
     1
  1
strokes_ogs.tif
176
     1
290
     0
176
     1
 40
1.0
176
     1
 40
1.0
176
     1
  0
VISUALSTYLE
  5
3D
102
{ACAD_REACTORS
330
29
102
}
330
29
100
AcDbVisualStyle
  2
Shaded with edges
 70
    26
177
     3
291
     0
 70
    58
 90
        2
176
     1
 90
        2
176
     1
 90
        1
176
     1
 90
        2
176
     1
 40
0.6
176
     1
 40
30.0
176
     1
 62
     7
420
 16777215
176
     1
 90
        1
176
     1
 90
        2
176
     1
 62
     7
176
     1
 62
   257
176
     1
 90
        2
176
     1
 90
        1
176
     1
 40
1.0
176
     1
 90
        8
176
     1
 62
   257
176
     1
 40
1.0
176
     1
 90
        1
176
     1
 90
        6
176
     1
 90
        2
176
     1
 62
     7
176
     1
 90
        3
176
     1
 90
        0
176
     1
 90
        0
176
     1
290
     0
176
     1
 90
        5
176
     1
 40
0.0
176
     1
 90
        0
176
     1
290
     0
176
     1
290
     1
176
     1
290
     1
176
     1
290
     0
176
     1
290
     0
176
     1
290
     0
176
     1
290
     0
176
     1
290
     0
176
     1
290
     0
176
     1
 90
       50
176
     1
 40
0.0
176
     1
 40
1.0
176
     1
 90
        0
176
     1
 62
    18
420
        0
176
     1
 90
       50
176
     1
 90
        3
176
     1
 62
     5
420
      255
176
     1
290
     0
176
     1
 90
       50
176
     1
 90
       50
176
     1
 90
       50
176
     1
290
     0
176
     1
 90
       50
176
     1
 62
   256
176
     0
 40
1.0
176
     0
 90
        2
176
     1
  1
strokes_ogs.tif
176
     1
290
     0
176
     1
 40
1.0
176
     1
 40
1.0
176
     1
  0
VISUALSTYLE
  5
3A
102
{ACAD_REACTORS
330
29
102
}
330
29
100
AcDbVisualStyle
  2
Shades of Gray
 70
    23
177
     3
291
     0
 70
    58
 90
        2
176
     1
 90
        2
176
     1
 90
        3
176
     1
 90
        0
176
     1
 40
0.6
176
     1
 40
30.0
176
     1
 62
     7
420
 16777215
176
     1
 90
        2
176
     1
 90
        2
176
     1
 62
     7
176
     1
 62
     7
176
     1
 90
        1
176
     1
 90
        1
176
     1
 40
40.0
176
     1
 90
        8
176
     1
 62
     7
176
     1
 40
1.0
176
     1
 90
        1
176
     1
 90
        6
176
     1
 90
        2
176
     1
 62
     7
176
     1
 90
        3
176
     1
 90
        0
176
     1
 90
        0
176
     1
290
     0
176
     1
 90
        1
176
     1
 40
0.0
176
     1
 90
        0
176
     1
290
     0
176
     1
290
     1
176
     1
290
     1
176
     1
290
     0
176
     1
290
     0
176
     1
290
     0
176
     1
290
     0
176
     1
290
     0
176
     1
290
     0
176
     1
 90
       50
176
     1
 40
0.0
176
     1
 40
1.0
176
     1
 90
        0
176
     1
 62
    18
420
        0
176
     1
 90
       50
176
     1
 90
        3
176
     1
 62
     5
420
      255
176
     1
290
     0
176
     1
 90
       50
176
     1
 90
       50
176
     1
 90
       50
176
     1
290
     0
176
     1
 90
       50
176
     1
 62
   256
176
     0
 40
1.0
176
     0
 90
        2
176
     1
  1
strokes_ogs.tif
176
     1
290
     0
176
     1
 40
1.0
176
     1
 40
1.0
176
     1
  0
VISUALSTYLE
  5
3B
102
{ACAD_REACTORS
330
29
102
}
330
29
100
AcDbVisualStyle
  2
Sketchy
 70
    24
177
     3
291
     0
 70
    58
 90
        1
176
     1
 90
        2
176
     1
 90
        2
176
     1
 90
        0
176
     1
 40
0.6
176
     1
 40
30.0
176
     1
 62
     7
420
 16777215
176
     1
 90
        2
176
     1
 90
        2
176
     1
 62
     7
176
     1
 62
     7
176
     1
 90
        1
176
     1
 90
        1
176
     1
 40
40.0
176
     1
 90
       11
176
     1
 62
     7
176
     1
 40
1.0
176
     1
 90
        1
176
     1
 90
        6
176
     1
 90
        2
176
     1
 62
     7
176
     1
 90
        6
176
     1
 90
        0
176
     1
 90
        0
176
     1
290
     0
176
     1
 90
        1
176
     1
 40
0.0
176
     1
 90
        0
176
     1
290
     0
176
     1
290
     1
176
     1
290
     1
176
     1
290
     0
176
     1
290
     0
176
     1
290
     0
176
     1
290
     0
176
     1
290
     0
176
     1
290
     0
176
     1
 90
       50
176
     1
 40
0.0
176
     1
 40
1.0
176
     1
 90
        0
176
     1
 62
    18
420
        0
176
     1
 90
       50
176
     1
 90
        3
176
     1
 62
     5
420
      255
176
     1
290
     0
176
     1
 90
       50
176
     1
 90
       50
176
     1
 90
       50
176
     1
290
     0
176
     1
 90
       50
176
     1
 62
   256
176
     0
 40
1.0
176
     0
 90
        2
176
     1
  1
strokes_ogs.tif
176
     1
290
     0
176
     1
 40
1.0
176
     1
 40
1.0
176
     1
  0
VISUALSTYLE
  5
36
102
{ACAD_REACTORS
330
29
102
}
330
29
100
AcDbVisualStyle
  2
Thicken
 70
    13
177
     3
291
     1
 70
    58
 90
        2
176
     1
 90
        2
176
     1
 90
        0
176
     1
 90
        0
176
     1
 40
0.6
176
     1
 40
30.0
176
     1
 62
     7
420
 16777215
176
     1
 90
        1
176
     1
 90
        4
176
     1
 62
     7
176
     1
 62
   257
176
     1
 90
        1
176
     1
 90
        1
176
     1
 40
1.0
176
     1
 90
       12
176
     1
 62
     7
176
     1
 40
1.0
176
     1
 90
        1
176
     1
 90
        6
176
     1
 90
        2
176
     1
 62
     7
176
     1
 90
        5
176
     1
 90
        0
176
     1
 90
        0
176
     1
290
     0
176
     1
 90
        1
176
     1
 40
0.0
176
     1
 90
        0
176
     1
290
     0
176
     1
290
     1
176
     1
290
     1
176
     1
290
     0
176
     1
290
     0
176
     1
290
     0
176
     1
290
     0
176
     1
290
     0
176
     1
290
     0
176
     1
 90
       50
176
     1
 40
0.0
176
     1
 40
1.0
176
     1
 90
        0
176
     1
 62
    18
420
        0
176
     1
 90
       50
176
     1
 90
        3
176
     1
 62
     5
420
      255
176
     1
290
     0
176
     1
 90
       50
176
     1
 90
       50
176
     1
 90
       50
176
     1
290
     0
176
     1
 90
       50
176
     1
 62
   256
176
     0
 40
1.0
176
     0
 90
        2
176
     1
  1
strokes_ogs.tif
176
     1
290
     0
176
     1
 40
1.0
176
     1
 40
1.0
176
     1
  0
VISUALSTYLE
  5
30
102
{ACAD_REACTORS
330
29
102
}
330
29
100
AcDbVisualStyle
  2
Wireframe
 70
     5
177
     3
291
     0
 70
    58
 90
        0
176
     1
 90
        2
176
     1
 90
        0
176
     1
 90
        0
176
     1
 40
0.6
176
     1
 40
30.0
176
     1
 62
     7
420
 16777215
176
     1
 90
        1
176
     1
 90
        4
176
     1
 62
     7
176
     1
 62
   257
176
     1
 90
        1
176
     1
 90
        1
176
     1
 40
1.0
176
     1
 90
        0
176
     1
 62
   257
176
     1
 40
1.0
176
     1
 90
        1
176
     1
 90
        6
176
     1
 90
        2
176
     1
 62
     7
176
     1
 90
        3
176
     1
 90
        0
176
     1
 90
        0
176
     1
290
     0
176
     1
 90
        1
176
     1
 40
0.0
176
     1
 90
        0
176
     1
290
     0
176
     1
290
     1
176
     1
290
     1
176
     1
290
     0
176
     1
290
     0
176
     1
290
     0
176
     1
290
     0
176
     1
290
     0
176
     1
290
     0
176
     1
 90
       50
176
     1
 40
0.0
176
     1
 40
1.0
176
     1
 90
        0
176
     1
 62
    18
420
        0
176
     1
 90
       50
176
     1
 90
        3
176
     1
 62
     5
420
      255
176
     1
290
     0
176
     1
 90
       50
176
     1
 90
       50
176
     1
 90
       50
176
     1
290
     0
176
     1
 90
       50
176
     1
 62
   256
176
     0
 40
1.0
176
     0
 90
        2
176
     1
  1
strokes_ogs.tif
176
     1
290
     0
176
     1
 40
1.0
176
     1
 40
1.0
176
     1
  0
VISUALSTYLE
  5
3C
102
{ACAD_REACTORS
330
29
102
}
330
29
100
AcDbVisualStyle
  2
X-Ray
 70
    25
177
     3
291
     0
 70
    58
 90
        2
176
     1
 90
        2
176
     1
 90
        1
176
     1
 90
        1
176
     1
 40
0.5
176
     1
 40
30.0
176
     1
 62
     7
420
 16777215
176
     1
 90
        1
176
     1
 90
        0
176
     1
 62
     7
176
     1
 62
   257
176
     1
 90
        1
176
     1
 90
        1
176
     1
 40
1.0
176
     1
 90
        8
176
     1
 62
     7
176
     1
 40
1.0
176
     1
 90
        1
176
     1
 90
        6
176
     1
 90
        2
176
     1
 62
     7
176
     1
 90
        3
176
     1
 90
        0
176
     1
 90
        0
176
     1
290
     0
176
     1
 90
       13
176
     1
 40
0.0
176
     1
 90
        0
176
     1
290
     0
176
     1
290
     1
176
     1
290
     1
176
     1
290
     0
176
     1
290
     0
176
     1
290
     0
176
     1
290
     0
176
     1
290
     0
176
     1
290
     0
176
     1
 90
       50
176
     1
 40
0.0
176
     1
 40
1.0
176
     1
 90
        0
176
     1
 62
    18
420
        0
176
     1
 90
       50
176
     1
 90
        3
176
     1
 62
     5
420
      255
176
     1
290
     0
176
     1
 90
       50
176
     1
 90
       50
176
     1
 90
       50
176
     1
290
     0
176
     1
 90
       50
176
     1
 62
   256
176
     0
 40
1.0
176
     0
 90
        2
176
     1
  1
strokes_ogs.tif
176
     1
290
     0
176
     1
 40
1.0
176
     1
 40
1.0
176
     1
  0
DICTIONARYVAR
  5
156
102
{ACAD_REACTORS
330
151
102
}
330
151
100
DictionaryVariables
280
     0
  1
1:1
  0
DICTIONARYVAR
  5
153
102
{ACAD_REACTORS
330
151
102
}
330
151
100
DictionaryVariables
280
     0
  1
STANDARD
  0
DICTIONARYVAR
  5
152
102
{ACAD_REACTORS
330
151
102
}
330
151
100
DictionaryVariables
280
     0
  1
STANDARD
  0
DICTIONARYVAR
  5
154
102
{ACAD_REACTORS
330
151
102
}
330
151
100
DictionaryVariables
280
     0
  1
Imperial24
  0
DICTIONARYVAR
  5
155
102
{ACAD_REACTORS
330
151
102
}
330
151
100
DictionaryVariables
280
     0
  1
Imperial24
  0
DICTIONARY
  5
1A
330
19
100
AcDbDictionary
280
     1
281
     1
  3
BUMPTILE
360
1C
  3
DIFFUSETILE
360
1B
  3
OPACITYTILE
360
1F
  3
REFLECTIONTILE
360
1E
  3
REFRACTIONTILE
360
20
  3
SPECULARTILE
360
1D
  0
DICTIONARY
  5
12
330
11
100
AcDbDictionary
280
     1
281
     1
  3
BUMPTILE
360
14
  3
DIFFUSETILE
360
13
  3
OPACITYTILE
360
17
  3
REFLECTIONTILE
360
16
  3
REFRACTIONTILE
360
18
  3
SPECULARTILE
360
15
  0
DICTIONARY
  5
22
330
21
100
AcDbDictionary
280
     1
281
     1
  3
BUMPTILE
360
24
  3
DIFFUSETILE
360
23
  3
OPACITYTILE
360
27
  3
REFLECTIONTILE
360
26
  3
REFRACTIONTILE
360
28
  3
SPECULARTILE
360
25
  0
DICTIONARY
  5
157
330
65
100
AcDbDictionary
280
     1
281
     1
  3
ACAD_ROUNDTRIP_2008_TABLESTYLE_CELLSTYLEMAP
360
158
  0
XRECORD
  5
1C
102
{ACAD_REACTORS
330
1A
102
}
330
1A
100
AcDbXrecord
280
     1
270
     1
271
     1
  0
XRECORD
  5
1B
102
{ACAD_REACTORS
330
1A
102
}
330
1A
100
AcDbXrecord
280
     1
270
     1
271
     1
  0
XRECORD
  5
1F
102
{ACAD_REACTORS
330
1A
102
}
330
1A
100
AcDbXrecord
280
     1
270
     1
271
     1
  0
XRECORD
  5
1E
102
{ACAD_REACTORS
330
1A
102
}
330
1A
100
AcDbXrecord
280
     1
270
     1
271
     1
  0
XRECORD
  5
20
102
{ACAD_REACTORS
330
1A
102
}
330
1A
100
AcDbXrecord
280
     1
270
     1
271
     1
  0
XRECORD
  5
1D
102
{ACAD_REACTORS
330
1A
102
}
330
1A
100
AcDbXrecord
280
     1
270
     1
271
     1
  0
XRECORD
  5
14
102
{ACAD_REACTORS
330
12
102
}
330
12
100
AcDbXrecord
280
     1
270
     1
271
     1
  0
XRECORD
  5
13
102
{ACAD_REACTORS
330
12
102
}
330
12
100
AcDbXrecord
280
     1
270
     1
271
     1
  0
XRECORD
  5
17
102
{ACAD_REACTORS
330
12
102
}
330
12
100
AcDbXrecord
280
     1
270
     1
271
     1
  0
XRECORD
  5
16
102
{ACAD_REACTORS
330
12
102
}
330
12
100
AcDbXrecord
280
     1
270
     1
271
     1
  0
XRECORD
  5
18
102
{ACAD_REACTORS
330
12
102
}
330
12
100
AcDbXrecord
280
     1
270
     1
271
     1
  0
XRECORD
  5
15
102
{ACAD_REACTORS
330
12
102
}
330
12
100
AcDbXrecord
280
     1
270
     1
271
     1
  0
XRECORD
  5
24
102
{ACAD_REACTORS
330
22
102
}
330
22
100
AcDbXrecord
280
     1
270
     1
271
     1
  0
XRECORD
  5
23
102
{ACAD_REACTORS
330
22
102
}
330
22
100
AcDbXrecord
280
     1
270
     1
271
     1
  0
XRECORD
  5
27
102
{ACAD_REACTORS
330
22
102
}
330
22
100
AcDbXrecord
280
     1
270
     1
271
     1
  0
XRECORD
  5
26
102
{ACAD_REACTORS
330
22
102
}
330
22
100
AcDbXrecord
280
     1
270
     1
271
     1
  0
XRECORD
  5
28
102
{ACAD_REACTORS
330
22
102
}
330
22
100
AcDbXrecord
280
     1
270
     1
271
     1
  0
XRECORD
  5
25
102
{ACAD_REACTORS
330
22
102
}
330
22
100
AcDbXrecord
280
     1
270
     1
271
     1
  0
CELLSTYLEMAP
  5
158
102
{ACAD_REACTORS
330
157
102
}
330
157
100
AcDbCellStyleMap
 90
        3
300
CELLSTYLE
  1
TABLEFORMAT_BEGIN
 90
        5
170
     1
 91
        0
 92
    32768
 62
   257
 93
        1
300
CONTENTFORMAT
  1
CONTENTFORMAT_BEGIN
 90
        0
 91
        0
 92
      512
 93
        0
300

 40
0.0
140
1.0
 94
        5
 62
     0
340
55
144
0.25
309
CONTENTFORMAT_END
171
     0
 94
        0
309
TABLEFORMAT_END
  1
CELLSTYLE_BEGIN
 90
        1
 91
        1
300
_TITLE
309
CELLSTYLE_END
300
CELLSTYLE
  1
TABLEFORMAT_BEGIN
 90
        5
170
     1
 91
        0
 92
        0
 62
   257
 93
        1
300
CONTENTFORMAT
  1
CONTENTFORMAT_BEGIN
 90
        0
 91
        0
 92
      512
 93
        0
300

 40
0.0
140
1.0
 94
        5
 62
     0
340
55
144
0.18
309
CONTENTFORMAT_END
171
     0
 94
        0
309
TABLEFORMAT_END
  1
CELLSTYLE_BEGIN
 90
        2
 91
        1
300
_HEADER
309
CELLSTYLE_END
300
CELLSTYLE
  1
TABLEFORMAT_BEGIN
 90
        5
170
     1
 91
        0
 92
        0
 62
   257
 93
        1
300
CONTENTFORMAT
  1
CONTENTFORMAT_BEGIN
 90
        0
 91
        0
 92
      512
 93
        0
300

 40
0.0
140
1.0
 94
        2
 62
     0
340
55
144
0.18
309
CONTENTFORMAT_END
171
     0
 94
        0
309
TABLEFORMAT_END
  1
CELLSTYLE_BEGIN
 90
        3
 91
        2
300
_DATA
309
CELLSTYLE_END
  0
ENDSEC
  0
EOF
