  0
SECTION
  2
HEADER
  9
$ACADVER
  1
AC1032
  9
$ACADMAINTVER
 90
      251
  9
$DWGCODEPAGE
  3
ANSI_1252
  9
$REQUIREDVERSIONS
160
                 0
  9
$INSBASE
 10
0.0
 20
0.0
 30
0.0
  9
$EXTMIN
 10
1.000000000000000E+20
 20
1.000000000000000E+20
 30
1.000000000000000E+20
  9
$EXTMAX
 10
-1.000000000000000E+20
 20
-1.000000000000000E+20
 30
-1.000000000000000E+20
  9
$LIMMIN
 10
0.0
 20
0.0
  9
$LIMMAX
 10
12.0
 20
9.0
  9
$ORTHOMODE
 70
     0
  9
$REGENMODE
 70
     1
  9
$FILLMODE
 70
     1
  9
$QTEXTMODE
 70
     0
  9
$MIRRTEXT
 70
     0
  9
$LTSCALE
 40
1.0
  9
$ATTMODE
 70
     1
  9
$TEXTSIZE
 40
0.2
  9
$TRACEWID
 40
0.05
  9
$TEXTSTYLE
  7
Standard
  9
$CLAYER
  8
0
  9
$CELTYPE
  6
ByLayer
  9
$CECOLOR
 62
   256
  9
$CELTSCALE
 40
1.0
  9
$DISPSILH
 70
     0
  9
$DIMSCALE
 40
1.0
  9
$DIMASZ
 40
0.18
  9
$DIMEXO
 40
0.0625
  9
$DIMDLI
 40
0.38
  9
$DIMRND
 40
0.0
  9
$DIMDLE
 40
0.0
  9
$DIMEXE
 40
0.18
  9
$DIMTP
 40
0.0
  9
$DIMTM
 40
0.0
  9
$DIMTXT
 40
0.18
  9
$DIMCEN
 40
0.09
  9
$DIMTSZ
 40
0.0
  9
$DIMTOL
 70
     0
  9
$DIMLIM
 70
     0
  9
$DIMTIH
 70
     1
  9
$DIMTOH
 70
     1
  9
$DIMSE1
 70
     0
  9
$DIMSE2
 70
     0
  9
$DIMTAD
 70
     0
  9
$DIMZIN
 70
     0
  9
$DIMBLK
  1

  9
$DIMASO
 70
     1
  9
$DIMSHO
 70
     1
  9
$DIMPOST
  1

  9
$DIMAPOST
  1

  9
$DIMALT
 70
     0
  9
$DIMALTD
 70
     2
  9
$DIMALTF
 40
25.4
  9
$DIMLFAC
 40
1.0
  9
$DIMTOFL
 70
     0
  9
$DIMTVP
 40
0.0
  9
$DIMTIX
 70
     0
  9
$DIMSOXD
 70
     0
  9
$DIMSAH
 70
     0
  9
$DIMBLK1
  1

  9
$DIMBLK2
  1

  9
$DIMSTYLE
  2
Standard
  9
$DIMCLRD
 70
     0
  9
$DIMCLRE
 70
     0
  9
$DIMCLRT
 70
     0
  9
$DIMTFAC
 40
1.0
  9
$DIMGAP
 40
0.09
  9
$DIMJUST
 70
     0
  9
$DIMSD1
 70
     0
  9
$DIMSD2
 70
     0
  9
$DIMTOLJ
 70
     1
  9
$DIMTZIN
 70
     0
  9
$DIMALTZ
 70
     0
  9
$DIMALTTZ
 70
     0
  9
$DIMUPT
 70
     0
  9
$DIMDEC
 70
     4
  9
$DIMTDEC
 70
     4
  9
$DIMALTU
 70
     2
  9
$DIMALTTD
 70
     2
  9
$DIMTXSTY
  7
Standard
  9
$DIMAUNIT
 70
     0
  9
$DIMADEC
 70
     0
  9
$DIMALTRND
 40
0.0
  9
$DIMAZIN
 70
     0
  9
$DIMDSEP
 70
    46
  9
$DIMATFIT
 70
     3
  9
$DIMFRAC
 70
     0
  9
$DIMLDRBLK
  1

  9
$DIMLUNIT
 70
     2
  9
$DIMLWD
 70
    -2
  9
$DIMLWE
 70
    -2
  9
$DIMTMOVE
 70
     0
  9
$DIMFXL
 40
1.0
  9
$DIMFXLON
 70
     0
  9
$DIMJOGANG
 40
0.7853981633974483
  9
$DIMTFILL
 70
     0
  9
$DIMTFILLCLR
 70
     0
  9
$DIMARCSYM
 70
     0
  9
$DIMLTYPE
  6

  9
$DIMLTEX1
  6

  9
$DIMLTEX2
  6

  9
$DIMTXTDIRECTION
 70
     0
  9
$LUNITS
 70
     2
  9
$LUPREC
 70
     4
  9
$SKETCHINC
 40
0.1
  9
$FILLETRAD
 40
0.0
  9
$AUNITS
 70
     0
  9
$AUPREC
 70
     0
  9
$MENU
  1
.
  9
$ELEVATION
 40
0.0
  9
$PELEVATION
 40
0.0
  9
$THICKNESS
 40
0.0
  9
$LIMCHECK
 70
     0
  9
$CHAMFERA
 40
0.0
  9
$CHAMFERB
 40
0.0
  9
$CHAMFERC
 40
0.0
  9
$CHAMFERD
 40
0.0
  9
$SKPOLY
 70
     0
  9
$TDCREATE
 40
2460098.331585648
  9
$TDUCREATE
 40
2460098.456585648
  9
$TDUPDATE
 40
2460098.331585648
  9
$TDUUPDATE
 40
2460098.456585648
  9
$TDINDWG
 40
0.0000000000
  9
$TDUSRTIMER
 40
0.0000000000
  9
$USRTIMER
 70
     1
  9
$ANGBASE
 50
0.0
  9
$ANGDIR
 70
     0
  9
$PDMODE
 70
     0
  9
$PDSIZE
 40
0.0
  9
$PLINEWID
 40
0.0
  9
$SPLFRAME
 70
     0
  9
$SPLINETYPE
 70
     6
  9
$SPLINESEGS
 70
     8
  9
$HANDSEED
  5
34C
  9
$SURFTAB1
 70
     6
  9
$SURFTAB2
 70
     6
  9
$SURFTYPE
 70
     6
  9
$SURFU
 70
     6
  9
$SURFV
 70
     6
  9
$UCSBASE
  2

  9
$UCSNAME
  2

  9
$UCSORG
 10
0.0
 20
0.0
 30
0.0
  9
$UCSXDIR
 10
1.0
 20
0.0
 30
0.0
  9
$UCSYDIR
 10
0.0
 20
1.0
 30
0.0
  9
$UCSORTHOREF
  2

  9
$UCSORTHOVIEW
 70
     0
  9
$UCSORGTOP
 10
0.0
 20
0.0
 30
0.0
  9
$UCSORGBOTTOM
 10
0.0
 20
0.0
 30
0.0
  9
$UCSORGLEFT
 10
0.0
 20
0.0
 30
0.0
  9
$UCSORGRIGHT
 10
0.0
 20
0.0
 30
0.0
  9
$UCSORGFRONT
 10
0.0
 20
0.0
 30
0.0
  9
$UCSORGBACK
 10
0.0
 20
0.0
 30
0.0
  9
$PUCSBASE
  2

  9
$PUCSNAME
  2

  9
$PUCSORG
 10
0.0
 20
0.0
 30
0.0
  9
$PUCSXDIR
 10
1.0
 20
0.0
 30
0.0
  9
$PUCSYDIR
 10
0.0
 20
1.0
 30
0.0
  9
$PUCSORTHOREF
  2

  9
$PUCSORTHOVIEW
 70
     0
  9
$PUCSORGTOP
 10
0.0
 20
0.0
 30
0.0
  9
$PUCSORGBOTTOM
 10
0.0
 20
0.0
 30
0.0
  9
$PUCSORGLEFT
 10
0.0
 20
0.0
 30
0.0
  9
$PUCSORGRIGHT
 10
0.0
 20
0.0
 30
0.0
  9
$PUCSORGFRONT
 10
0.0
 20
0.0
 30
0.0
  9
$PUCSORGBACK
 10
0.0
 20
0.0
 30
0.0
  9
$USERI1
 70
     0
  9
$USERI2
 70
     0
  9
$USERI3
 70
     0
  9
$USERI4
 70
     0
  9
$USERI5
 70
     0
  9
$USERR1
 40
0.0
  9
$USERR2
 40
0.0
  9
$USERR3
 40
0.0
  9
$USERR4
 40
0.0
  9
$USERR5
 40
0.0
  9
$WORLDVIEW
 70
     1
  9
$SHADEDGE
 70
     3
  9
$SHADEDIF
 70
    70
  9
$TILEMODE
 70
     1
  9
$MAXACTVP
 70
    64
  9
$PINSBASE
 10
0.0
 20
0.0
 30
0.0
  9
$PLIMCHECK
 70
     0
  9
$PEXTMIN
 10
1.000000000000000E+20
 20
1.000000000000000E+20
 30
1.000000000000000E+20
  9
$PEXTMAX
 10
-1.000000000000000E+20
 20
-1.000000000000000E+20
 30
-1.000000000000000E+20
  9
$PLIMMIN
 10
0.0
 20
0.0
  9
$PLIMMAX
 10
12.0
 20
9.0
  9
$UNITMODE
 70
     0
  9
$VISRETAIN
 70
     1
  9
$PLINEGEN
 70
     0
  9
$PSLTSCALE
 70
     1
  9
$TREEDEPTH
 70
  3020
  9
$CMLSTYLE
  2
Standard
  9
$CMLJUST
 70
     0
  9
$CMLSCALE
 40
1.0
  9
$PROXYGRAPHICS
 70
     1
  9
$MEASUREMENT
 70
     0
  9
$CELWEIGHT
370
    -1
  9
$ENDCAPS
280
     0
  9
$JOINSTYLE
280
     0
  9
$LWDISPLAY
290
     1
  9
$INSUNITS
 70
     0
  9
$HYPERLINKBASE
  1

  9
$STYLESHEET
  1

  9
$XEDIT
290
     1
  9
$CEPSNTYPE
380
     0
  9
$PSTYLEMODE
290
     1
  9
$FINGERPRINTGUID
  2
{4E1FF496-41DC-2A4F-9A3E-A4FEBE86F643}
  9
$VERSIONGUID
  2
{3262FD09-9F4E-9F45-A826-DF34F7DD2840}
  9
$EXTNAMES
290
     1
  9
$PSVPSCALE
 40
0.0
  9
$OLESTARTUP
290
     0
  9
$SORTENTS
280
   127
  9
$INDEXCTL
280
     0
  9
$HIDETEXT
280
     1
  9
$XCLIPFRAME
280
     2
  9
$HALOGAP
280
     0
  9
$OBSCOLOR
 70
   257
  9
$OBSLTYPE
280
     0
  9
$INTERSECTIONDISPLAY
280
     0
  9
$INTERSECTIONCOLOR
 70
   257
  9
$DIMASSOC
280
     2
  9
$PROJECTNAME
  1

  9
$CAMERADISPLAY
290
     0
  9
$LENSLENGTH
 40
50.0
  9
$CAMERAHEIGHT
 40
0.0
  9
$STEPSPERSEC
 40
2.0
  9
$STEPSIZE
 40
6.0
  9
$3DDWFPREC
 40
2.0
  9
$PSOLWIDTH
 40
0.25
  9
$PSOLHEIGHT
 40
4.0
  9
$LOFTANG1
 40
1.570796326794896
  9
$LOFTANG2
 40
1.570796326794896
  9
$LOFTMAG1
 40
0.0
  9
$LOFTMAG2
 40
0.0
  9
$LOFTPARAM
 70
     7
  9
$LOFTNORMALS
280
     1
  9
$LATITUDE
 40
37.795
  9
$LONGITUDE
 40
-122.394
  9
$NORTHDIRECTION
 40
0.0
  9
$TIMEZONE
 70
 -8000
  9
$LIGHTGLYPHDISPLAY
280
     1
  9
$TILEMODELIGHTSYNCH
280
     1
  9
$CMATERIAL
347
11
  9
$SOLIDHIST
280
     0
  9
$SHOWHIST
280
     1
  9
$DWFFRAME
280
     2
  9
$DGNFRAME
280
     0
  9
$REALWORLDSCALE
290
     1
  9
$INTERFERECOLOR
 62
     1
  9
$INTERFEREOBJVS
345
33
  9
$INTERFEREVPVS
346
30
  9
$CSHADOW
280
     0
  9
$SHADOWPLANELOCATION
 40
0.0
  0
ENDSEC
  0
SECTION
  2
CLASSES
  0
CLASS
  1
ACDBDICTIONARYWDFLT
  2
AcDbDictionaryWithDefault
  3
ObjectDBX Classes
 90
        0
 91
        1
280
     0
281
     0
  0
CLASS
  1
MATERIAL
  2
AcDbMaterial
  3
ObjectDBX Classes
 90
     1153
 91
        3
280
     0
281
     0
  0
CLASS
  1
VISUALSTYLE
  2
AcDbVisualStyle
  3
ObjectDBX Classes
 90
     4095
 91
       24
280
     0
281
     0
  0
CLASS
  1
SCALE
  2
AcDbScale
  3
ObjectDBX Classes
 90
     1153
 91
       17
280
     0
281
     0
  0
CLASS
  1
TABLESTYLE
  2
AcDbTableStyle
  3
ObjectDBX Classes
 90
     4095
 91
        1
280
     0
281
     0
  0
CLASS
  1
MLEADERSTYLE
  2
AcDbMLeaderStyle
  3
ACDB_MLEADERSTYLE_CLASS
 90
     4095
 91
        1
280
     0
281
     0
  0
CLASS
  1
ACDBSECTIONVIEWSTYLE
  2
AcDbSectionViewStyle
  3
ObjectDBX Classes
 90
     1025
 91
        1
280
     0
281
     0
  0
CLASS
  1
ACDBDETAILVIEWSTYLE
  2
AcDbDetailViewStyle
  3
ObjectDBX Classes
 90
     1025
 91
        1
280
     0
281
     0
  0
CLASS
  1
DICTIONARYVAR
  2
AcDbDictionaryVar
  3
ObjectDBX Classes
 90
        0
 91
        5
280
     0
281
     0
  0
CLASS
  1
CELLSTYLEMAP
  2
AcDbCellStyleMap
  3
ObjectDBX Classes
 90
     1152
 91
        1
280
     0
281
     0
  0
ENDSEC
  0
SECTION
  2
TABLES
  0
TABLE
  2
VPORT
  5
8
330
0
100
AcDbSymbolTable
 70
     1
  0
VPORT
  5
57
330
8
100
AcDbSymbolTableRecord
100
AcDbViewportTableRecord
  2
*Active
 70
     0
 10
0.0
 20
0.0
 11
1.0
 21
1.0
 12
0.0
 22
0.0
 13
0.0
 23
0.0
 14
1.0
 24
1.0
 15
0.0
 25
0.0
 16
0.0
 26
0.0
 36
1.0
 17
1119.269193020474
 27
1049.522510846704
 37
0.0
 40
484.3113874430422
 41
3.109594121491026
 42
50.0
 43
0.0
 44
0.0
 50
0.0
 51
0.0
 71
     0
 72
   100
 73
     1
 74
     1
 75
     0
 76
     0
 77
     0
 78
     0
281
     0
 65
     1
110
0.0
120
0.0
130
0.0
111
1.0
121
0.0
131
0.0
112
0.0
122
1.0
132
0.0
 79
     0
146
0.0
 60
     3
 61
     5
292
     1
282
     1
141
0.0
142
0.0
 63
   250
421
  3355443
  0
ENDTAB
  0
TABLE
  2
LTYPE
  5
5
330
0
100
AcDbSymbolTable
 70
     1
  0
LTYPE
  5
5B
330
5
100
AcDbSymbolTableRecord
100
AcDbLinetypeTableRecord
  2
ByBlock
 70
     0
  3

 72
    65
 73
     0
 40
0.0
  0
LTYPE
  5
5C
330
5
100
AcDbSymbolTableRecord
100
AcDbLinetypeTableRecord
  2
ByLayer
 70
     0
  3

 72
    65
 73
     0
 40
0.0
  0
LTYPE
  5
5D
330
5
100
AcDbSymbolTableRecord
100
AcDbLinetypeTableRecord
  2
Continuous
 70
     0
  3
Solid line
 72
    65
 73
     0
 40
0.0
  0
ENDTAB
  0
TABLE
  2
LAYER
  5
2
330
0
100
AcDbSymbolTable
 70
     2
  0
LAYER
  5
54
330
2
100
AcDbSymbolTableRecord
100
AcDbLayerTableRecord
  2
0
 70
     0
 62
     7
  6
Continuous
370
    -3
390
F
347
21
348
0
  0
LAYER
  5
78
330
2
100
AcDbSymbolTableRecord
100
AcDbLayerTableRecord
  2
Camada 1
 70
     0
 62
     7
  6
Continuous
370
     0
390
F
347
21
348
0
  0
ENDTAB
  0
TABLE
  2
STYLE
  5
3
330
0
100
AcDbSymbolTable
 70
     2
  0
STYLE
  5
55
330
3
100
AcDbSymbolTableRecord
100
AcDbTextStyleTableRecord
  2
Standard
 70
     0
 40
0.0
 41
1.0
 50
0.0
 71
     0
 42
0.2
  3
txt
  4

  0
STYLE
  5
5A
330
3
100
AcDbSymbolTableRecord
100
AcDbTextStyleTableRecord
  2
Annotative
 70
     0
 40
0.0
 41
1.0
 50
0.0
 71
     0
 42
0.2
  3
txt
  4

1001
AcadAnnotative
1000
AnnotativeData
1002
{
1070
     1
1070
     1
1002
}
  0
ENDTAB
  0
TABLE
  2
VIEW
  5
6
330
0
100
AcDbSymbolTable
 70
     0
  0
ENDTAB
  0
TABLE
  2
UCS
  5
7
330
0
100
AcDbSymbolTable
 70
     0
  0
ENDTAB
  0
TABLE
  2
APPID
  5
9
330
0
100
AcDbSymbolTable
 70
     2
  0
APPID
  5
56
330
9
100
AcDbSymbolTableRecord
100
AcDbRegAppTableRecord
  2
ACAD
 70
     0
  0
APPID
  5
5E
330
9
100
AcDbSymbolTableRecord
100
AcDbRegAppTableRecord
  2
AcadAnnotative
 70
     0
  0
ENDTAB
  0
TABLE
  2
DIMSTYLE
  5
A
330
0
100
AcDbSymbolTable
 70
     2
100
AcDbDimStyleTable
 71
     0
  0
DIMSTYLE
105
58
330
A
100
AcDbSymbolTableRecord
100
AcDbDimStyleTableRecord
  2
Standard
 70
     0
340
55
  0
DIMSTYLE
105
59
330
A
100
AcDbSymbolTableRecord
100
AcDbDimStyleTableRecord
  2
Annotative
 70
     0
340
55
1001
AcadAnnotative
1000
AnnotativeData
1002
{
1070
     1
1070
     1
1002
}
  0
ENDTAB
  0
TABLE
  2
BLOCK_RECORD
  5
1
330
0
100
AcDbSymbolTable
 70
     2
  0
BLOCK_RECORD
  5
70
330
1
100
AcDbSymbolTableRecord
100
AcDbBlockTableRecord
  2
*Model_Space
340
73
 70
     0
280
     1
281
     0
  0
BLOCK_RECORD
  5
6C
330
1
100
AcDbSymbolTableRecord
100
AcDbBlockTableRecord
  2
*Paper_Space
340
6F
 70
     0
280
     1
281
     0
  0
BLOCK_RECORD
  5
74
330
1
100
AcDbSymbolTableRecord
100
AcDbBlockTableRecord
  2
*Paper_Space0
340
77
 70
     0
280
     1
281
     0
  0
BLOCK_RECORD
  5
33A
330
1
100
AcDbSymbolTableRecord
100
AcDbBlockTableRecord
  2
Block_0
340
0
102
{BLKREFS
331
33B
102
}
 70
     0
280
     1
281
     0
  0
ENDTAB
  0
ENDSEC
  0
SECTION
  2
BLOCKS
  0
BLOCK
  5
71
330
70
100
AcDbEntity
  8
0
100
AcDbBlockBegin
  2
*Model_Space
 70
     0
 10
0.0
 20
0.0
 30
0.0
  3
*Model_Space
  1

  0
ENDBLK
  5
72
330
70
100
AcDbEntity
  8
0
100
AcDbBlockEnd
  0
BLOCK
  5
6D
330
6C
100
AcDbEntity
 67
     1
  8
0
100
AcDbBlockBegin
  2
*Paper_Space
 70
     0
 10
0.0
 20
0.0
 30
0.0
  3
*Paper_Space
  1

  0
ENDBLK
  5
6E
330
6C
100
AcDbEntity
 67
     1
  8
0
100
AcDbBlockEnd
  0
BLOCK
  5
75
330
74
100
AcDbEntity
 67
     1
  8
0
100
AcDbBlockBegin
  2
*Paper_Space0
 70
     0
 10
0.0
 20
0.0
 30
0.0
  3
*Paper_Space0
  1

  0
ENDBLK
  5
76
330
74
100
AcDbEntity
 67
     1
  8
0
100
AcDbBlockEnd
  0
BLOCK
  5
33C
330
33A
100
AcDbEntity
  8
0
100
AcDbBlockBegin
  2
Block_0
 70
     0
 10
0.0
 20
0.0
 30
0.0
  3
Block_0
  1

  0
SPLINE
  5
33E
330
33A
100
AcDbEntity
  8
Camada 1
 62
   149
420
  3818319
370
    35
100
AcDbSpline
210
0.0
220
0.0
230
1.0
 70
     9
 71
     3
 72
    29
 73
    25
 74
     0
 42
0.0000000001
 43
0.0000000001
 40
0.0
 40
0.0
 40
0.0
 40
0.0
 40
1.0
 40
1.0
 40
1.0
 40
2.0
 40
2.0
 40
2.0
 40
3.0
 40
3.0
 40
3.0
 40
4.0
 40
4.0
 40
4.0
 40
5.0
 40
5.0
 40
5.0
 40
6.0
 40
6.0
 40
6.0
 40
7.0
 40
7.0
 40
7.0
 40
8.0
 40
8.0
 40
8.0
 40
8.0
 10
1823.166360280538
 20
844.3268750932183
 30
0.0
 10
1823.166360280538
 20
841.2675155044826
 30
0.0
 10
1820.664817019446
 20
838.7659753362822
 30
0.0
 10
1817.60329858867
 20
838.7659753362822
 30
0.0
 10
1817.60329858867
 20
838.7659753362822
 30
0.0
 10
1784.908149362882
 20
838.7659753362822
 30
0.0
 10
1784.908149362882
 20
838.7659753362822
 30
0.0
 10
1781.853113643998
 20
838.7659753362822
 30
0.0
 10
1779.349409478949
 20
841.2675155044826
 30
0.0
 10
1779.349409478949
 20
844.3268750932183
 30
0.0
 10
1779.349409478949
 20
844.3268750932183
 30
0.0
 10
1779.349409478949
 20
877.0263445804939
 30
0.0
 10
1779.349409478949
 20
877.0263445804939
 30
0.0
 10
1779.349409478949
 20
880.0813844232289
 30
0.0
 10
1781.853113643998
 20
882.5850844644229
 30
0.0
 10
1784.908149362882
 20
882.5850844644229
 30
0.0
 10
1784.908149362882
 20
882.5850844644229
 30
0.0
 10
1817.60329858867
 20
882.5850844644229
 30
0.0
 10
1817.60329858867
 20
882.5850844644229
 30
0.0
 10
1820.664817019446
 20
882.5850844644229
 30
0.0
 10
1823.166360280538
 20
880.0813844232289
 30
0.0
 10
1823.166360280538
 20
877.0263445804939
 30
0.0
 10
1823.166360280538
 20
877.0263445804939
 30
0.0
 10
1823.166360280538
 20
844.3268750932183
 30
0.0
 10
1823.166360280538
 20
844.3268750932183
 30
0.0
  0
LWPOLYLINE
  5
33F
330
33A
100
AcDbEntity
  8
Camada 1
100
AcDbPolyline
 90
        4
 70
     1
 43
0.0
 10
1778.45668396522
 20
837.8736802507155
 10
1824.23897280187
 20
837.8736802507155
 10
1824.23897280187
 20
883.4765150853154
 10
1778.45668396522
 20
883.4765150853154
  0
ENDBLK
  5
33D
330
33A
100
AcDbEntity
  8
0
100
AcDbBlockEnd
  0
ENDSEC
  0
SECTION
  2
ENTITIES
  0
LINE
  5
79
330
70
100
AcDbEntity
  8
Camada 1
 62
    18
420
        0
370
    35
100
AcDbLine
 10
488.0533710571107
 20
971.8439897108655
 30
0.0
 11
488.0533710571107
 21
1051.57998739987
 31
0.0
  0
LINE
  5
7A
330
70
100
AcDbEntity
  8
Camada 1
 62
    18
420
        0
370
    35
100
AcDbLine
 10
489.225962971358
 20
970.6714230445978
 30
0.0
 11
489.225962971358
 21
1052.75255406614
 31
0.0
  0
LINE
  5
7B
330
70
100
AcDbEntity
  8
Camada 1
 62
    18
420
        0
370
    35
100
AcDbLine
 10
489.8122463044928
 20
974.7445785935051
 30
0.0
 11
489.8122463044928
 21
999.9860946608787
 31
0.0
  0
LINE
  5
7C
330
70
100
AcDbEntity
  8
Camada 1
 62
    18
420
        0
370
    35
100
AcDbLine
 10
489.8122463044928
 20
1025.58623302978
 30
0.0
 11
489.8122463044928
 21
1048.67939851723
 31
0.0
  0
LINE
  5
7D
330
70
100
AcDbEntity
  8
Camada 1
 62
    18
420
        0
370
    35
100
AcDbLine
 10
516.1954760071221
 20
984.1561669384937
 30
0.0
 11
516.1954760071221
 21
1039.26781017225
 31
0.0
  0
LINE
  5
7E
330
70
100
AcDbEntity
  8
Camada 1
 62
    18
420
        0
370
    35
100
AcDbLine
 10
519.713251749863
 20
1039.26781017225
 30
0.0
 11
519.713251749863
 21
984.1561669384937
 31
0.0
  0
LINE
  5
7F
330
70
100
AcDbEntity
  8
Camada 1
 62
    18
420
        0
370
    35
100
AcDbLine
 10
531.4391203963741
 20
984.1561669384937
 30
0.0
 11
531.4391203963741
 21
1039.26781017225
 31
0.0
  0
LINE
  5
80
330
70
100
AcDbEntity
  8
Camada 1
 62
    18
420
        0
370
    35
100
AcDbLine
 10
534.9568708911355
 20
1039.26781017225
 30
0.0
 11
534.9568708911355
 21
984.1561669384937
 31
0.0
  0
LINE
  5
81
330
70
100
AcDbEntity
  8
Camada 1
 62
    18
420
        0
370
    35
100
AcDbLine
 10
546.682764785628
 20
984.1561669384937
 30
0.0
 11
546.682764785628
 21
1039.26781017225
 31
0.0
  0
LINE
  5
82
330
70
100
AcDbEntity
  8
Camada 1
 62
    18
420
        0
370
    35
100
AcDbLine
 10
550.2005152803885
 20
1039.26781017225
 30
0.0
 11
550.2005152803885
 21
984.1561669384937
 31
0.0
  0
LINE
  5
83
330
70
100
AcDbEntity
  8
Camada 1
 62
    18
420
        0
370
    35
100
AcDbLine
 10
561.9263839268978
 20
984.1561669384937
 30
0.0
 11
561.9263839268978
 21
1039.26781017225
 31
0.0
  0
LINE
  5
84
330
70
100
AcDbEntity
  8
Camada 1
 62
    18
420
        0
370
    35
100
AcDbLine
 10
565.4441596696406
 20
1039.26781017225
 30
0.0
 11
565.4441596696406
 21
984.1561669384937
 31
0.0
  0
LINE
  5
85
330
70
100
AcDbEntity
  8
Camada 1
 62
    18
420
        0
370
    35
100
AcDbLine
 10
577.1700283161517
 20
984.1561669384937
 30
0.0
 11
577.1700283161517
 21
1039.26781017225
 31
0.0
  0
LINE
  5
86
330
70
100
AcDbEntity
  8
Camada 1
 62
    18
420
        0
370
    35
100
AcDbLine
 10
580.6878040588917
 20
1039.26781017225
 30
0.0
 11
580.6878040588917
 21
984.1561669384937
 31
0.0
  0
LINE
  5
87
330
70
100
AcDbEntity
  8
Camada 1
 62
    18
420
        0
370
    35
100
AcDbLine
 10
592.4136727054028
 20
984.1561669384937
 30
0.0
 11
592.4136727054028
 21
1039.26781017225
 31
0.0
  0
LINE
  5
88
330
70
100
AcDbEntity
  8
Camada 1
 62
    18
420
        0
370
    35
100
AcDbLine
 10
595.9314484481455
 20
1039.26781017225
 30
0.0
 11
595.9314484481455
 21
984.1561669384937
 31
0.0
  0
LINE
  5
89
330
70
100
AcDbEntity
  8
Camada 1
 62
    18
420
        0
370
    35
100
AcDbLine
 10
607.6573170946558
 20
984.1561669384937
 30
0.0
 11
607.6573170946558
 21
1039.26781017225
 31
0.0
  0
LINE
  5
8A
330
70
100
AcDbEntity
  8
Camada 1
 62
    18
420
        0
370
    35
100
AcDbLine
 10
611.1750675894163
 20
1039.26781017225
 30
0.0
 11
611.1750675894163
 21
984.1561669384937
 31
0.0
  0
LINE
  5
8B
330
70
100
AcDbEntity
  8
Camada 1
 62
    18
420
        0
370
    35
100
AcDbLine
 10
622.9009614839078
 20
984.1561669384937
 30
0.0
 11
622.9009614839078
 21
1039.26781017225
 31
0.0
  0
LINE
  5
8C
330
70
100
AcDbEntity
  8
Camada 1
 62
    18
420
        0
370
    35
100
AcDbLine
 10
626.4187119786693
 20
1039.26781017225
 30
0.0
 11
626.4187119786693
 21
984.1561669384937
 31
0.0
  0
LINE
  5
8D
330
70
100
AcDbEntity
  8
Camada 1
 62
    18
420
        0
370
    35
100
AcDbLine
 10
638.144605873158
 20
984.1561669384937
 30
0.0
 11
638.144605873158
 21
1039.26781017225
 31
0.0
  0
LINE
  5
8E
330
70
100
AcDbEntity
  8
Camada 1
 62
    18
420
        0
370
    35
100
AcDbLine
 10
641.6623563679213
 20
1039.26781017225
 30
0.0
 11
641.6623563679213
 21
984.1561669384937
 31
0.0
  0
LINE
  5
8F
330
70
100
AcDbEntity
  8
Camada 1
 62
    18
420
        0
370
    35
100
AcDbLine
 10
653.3882250144333
 20
984.1561669384937
 30
0.0
 11
653.3882250144333
 21
1039.26781017225
 31
0.0
  0
LINE
  5
90
330
70
100
AcDbEntity
  8
Camada 1
 62
    18
420
        0
370
    35
100
AcDbLine
 10
656.9060007571733
 20
1039.26781017225
 30
0.0
 11
656.9060007571733
 21
984.1561669384937
 31
0.0
  0
LINE
  5
91
330
70
100
AcDbEntity
  8
Camada 1
 62
    18
420
        0
370
    35
100
AcDbLine
 10
668.6318694036835
 20
984.1561669384937
 30
0.0
 11
668.6318694036835
 21
1039.26781017225
 31
0.0
  0
LINE
  5
92
330
70
100
AcDbEntity
  8
Camada 1
 62
    18
420
        0
370
    35
100
AcDbLine
 10
672.1496451464245
 20
1039.26781017225
 30
0.0
 11
672.1496451464245
 21
984.1561669384937
 31
0.0
  0
LINE
  5
93
330
70
100
AcDbEntity
  8
Camada 1
 62
    18
420
        0
370
    35
100
AcDbLine
 10
683.8755137929383
 20
984.1561669384937
 30
0.0
 11
683.8755137929383
 21
1039.26781017225
 31
0.0
  0
LINE
  5
94
330
70
100
AcDbEntity
  8
Camada 1
 62
    18
420
        0
370
    35
100
AcDbLine
 10
687.3932895356784
 20
1039.26781017225
 30
0.0
 11
687.3932895356784
 21
984.1561669384937
 31
0.0
  0
LINE
  5
95
330
70
100
AcDbEntity
  8
Camada 1
 62
    18
420
        0
370
    35
100
AcDbLine
 10
699.1191581821895
 20
984.1561669384937
 30
0.0
 11
699.1191581821895
 21
1039.26781017225
 31
0.0
  0
LINE
  5
96
330
70
100
AcDbEntity
  8
Camada 1
 62
    18
420
        0
370
    35
100
AcDbLine
 10
702.6369339249304
 20
1039.26781017225
 30
0.0
 11
702.6369339249304
 21
984.1561669384937
 31
0.0
  0
LINE
  5
97
330
70
100
AcDbEntity
  8
Camada 1
 62
    18
420
        0
370
    35
100
AcDbLine
 10
714.3628025714406
 20
984.1561669384937
 30
0.0
 11
714.3628025714406
 21
1039.26781017225
 31
0.0
  0
LINE
  5
98
330
70
100
AcDbEntity
  8
Camada 1
 62
    18
420
        0
370
    35
100
AcDbLine
 10
717.880553066202
 20
1039.26781017225
 30
0.0
 11
717.880553066202
 21
984.1561669384937
 31
0.0
  0
LINE
  5
99
330
70
100
AcDbEntity
  8
Camada 1
 62
    18
420
        0
370
    35
100
AcDbLine
 10
729.6064469606935
 20
984.1561669384937
 30
0.0
 11
729.6064469606935
 21
1039.26781017225
 31
0.0
  0
LINE
  5
9A
330
70
100
AcDbEntity
  8
Camada 1
 62
    18
420
        0
370
    35
100
AcDbLine
 10
733.124197455455
 20
1039.26781017225
 30
0.0
 11
733.124197455455
 21
984.1561669384937
 31
0.0
  0
LINE
  5
9B
330
70
100
AcDbEntity
  8
Camada 1
 62
    18
420
        0
370
    35
100
AcDbLine
 10
744.8500661019661
 20
984.1561669384937
 30
0.0
 11
744.8500661019661
 21
1039.26781017225
 31
0.0
  0
LINE
  5
9C
330
70
100
AcDbEntity
  8
Camada 1
 62
    18
420
        0
370
    35
100
AcDbLine
 10
748.3678670926856
 20
1039.26781017225
 30
0.0
 11
748.3678670926856
 21
984.1561669384937
 31
0.0
  0
LINE
  5
9D
330
70
100
AcDbEntity
  8
Camada 1
 62
    18
420
        0
370
    35
100
AcDbLine
 10
760.0937357391967
 20
984.1561669384937
 30
0.0
 11
760.0937357391967
 21
1039.26781017225
 31
0.0
  0
LINE
  5
9E
330
70
100
AcDbEntity
  8
Camada 1
 62
    18
420
        0
370
    35
100
AcDbLine
 10
763.611486233959
 20
1039.26781017225
 30
0.0
 11
763.611486233959
 21
984.1561669384937
 31
0.0
  0
LINE
  5
9F
330
70
100
AcDbEntity
  8
Camada 1
 62
    18
420
        0
370
    35
100
AcDbLine
 10
775.3373548804702
 20
984.1561669384937
 30
0.0
 11
775.3373548804702
 21
1039.26781017225
 31
0.0
  0
LINE
  5
A0
330
70
100
AcDbEntity
  8
Camada 1
 62
    18
420
        0
370
    35
100
AcDbLine
 10
778.8551053752308
 20
1039.26781017225
 30
0.0
 11
778.8551053752308
 21
984.1561669384937
 31
0.0
  0
LINE
  5
A1
330
70
100
AcDbEntity
  8
Camada 1
 62
    18
420
        0
370
    35
100
AcDbLine
 10
790.5810245177017
 20
984.1561669384937
 30
0.0
 11
790.5810245177017
 21
1039.26781017225
 31
0.0
  0
LINE
  5
A2
330
70
100
AcDbEntity
  8
Camada 1
 62
    18
420
        0
370
    35
100
AcDbLine
 10
794.0987750124622
 20
1039.26781017225
 30
0.0
 11
794.0987750124622
 21
984.1561669384937
 31
0.0
  0
LINE
  5
A3
330
70
100
AcDbEntity
  8
Camada 1
 62
    18
420
        0
370
    35
100
AcDbLine
 10
805.8246436589742
 20
984.1561669384937
 30
0.0
 11
805.8246436589742
 21
1039.26781017225
 31
0.0
  0
LINE
  5
A4
330
70
100
AcDbEntity
  8
Camada 1
 62
    18
420
        0
370
    35
100
AcDbLine
 10
809.3423941537349
 20
1039.26781017225
 30
0.0
 11
809.3423941537349
 21
984.1561669384937
 31
0.0
  0
LINE
  5
A5
330
70
100
AcDbEntity
  8
Camada 1
 62
    18
420
        0
370
    35
100
AcDbLine
 10
821.068262800245
 20
984.1561669384937
 30
0.0
 11
821.068262800245
 21
1039.26781017225
 31
0.0
  0
LINE
  5
A6
330
70
100
AcDbEntity
  8
Camada 1
 62
    18
420
        0
370
    35
100
AcDbLine
 10
824.5860637909682
 20
1039.26781017225
 30
0.0
 11
824.5860637909682
 21
984.1561669384937
 31
0.0
  0
LINE
  5
A7
330
70
100
AcDbEntity
  8
Camada 1
 62
    18
420
        0
370
    35
100
AcDbLine
 10
490.9857471460027
 20
1049.19566920307
 30
0.0
 11
489.8345655184157
 21
1048.73645895101
 31
0.0
  0
LINE
  5
A8
330
70
100
AcDbEntity
  8
Camada 1
 62
    18
420
        0
370
    35
100
AcDbLine
 10
489.8345655184157
 20
974.6875181597205
 30
0.0
 11
490.9857471460027
 21
974.228307907666
 31
0.0
  0
LINE
  5
A9
330
70
100
AcDbEntity
  8
Camada 1
 62
    18
420
        0
370
    35
100
AcDbLine
 10
836.3119324374784
 20
984.1561669384937
 30
0.0
 11
836.3119324374784
 21
1039.26781017225
 31
0.0
  0
LINE
  5
AA
330
70
100
AcDbEntity
  8
Camada 1
 62
    18
420
        0
370
    35
100
AcDbLine
 10
839.8296829322399
 20
1039.26781017225
 30
0.0
 11
839.8296829322399
 21
984.1561669384937
 31
0.0
  0
LINE
  5
AB
330
70
100
AcDbEntity
  8
Camada 1
 62
    18
420
        0
370
    35
100
AcDbLine
 10
851.5555515787509
 20
984.1561669384937
 30
0.0
 11
851.5555515787509
 21
1039.26781017225
 31
0.0
  0
LINE
  5
AC
330
70
100
AcDbEntity
  8
Camada 1
 62
    18
420
        0
370
    35
100
AcDbLine
 10
855.0733525694713
 20
1039.26781017225
 30
0.0
 11
855.0733525694713
 21
984.1561669384937
 31
0.0
  0
LINE
  5
AD
330
70
100
AcDbEntity
  8
Camada 1
 62
    18
420
        0
370
    35
100
AcDbLine
 10
866.7992212159834
 20
984.1561669384937
 30
0.0
 11
866.7992212159834
 21
1039.26781017225
 31
0.0
  0
LINE
  5
AE
330
70
100
AcDbEntity
  8
Camada 1
 62
    18
420
        0
370
    35
100
AcDbLine
 10
870.3169717107439
 20
1039.26781017225
 30
0.0
 11
870.3169717107439
 21
984.1561669384937
 31
0.0
  0
LINE
  5
AF
330
70
100
AcDbEntity
  8
Camada 1
 62
    18
420
        0
370
    35
100
AcDbLine
 10
882.0428403572559
 20
984.1561669384937
 30
0.0
 11
882.0428403572559
 21
1039.26781017225
 31
0.0
  0
LINE
  5
B0
330
70
100
AcDbEntity
  8
Camada 1
 62
    18
420
        0
370
    35
100
AcDbLine
 10
885.5605908520173
 20
1039.26781017225
 30
0.0
 11
885.5605908520173
 21
984.1561669384937
 31
0.0
  0
LINE
  5
B1
330
70
100
AcDbEntity
  8
Camada 1
 62
    18
420
        0
370
    35
100
AcDbLine
 10
897.2865099944865
 20
984.1561669384937
 30
0.0
 11
897.2865099944865
 21
1039.26781017225
 31
0.0
  0
LINE
  5
B2
330
70
100
AcDbEntity
  8
Camada 1
 62
    18
420
        0
370
    35
100
AcDbLine
 10
900.8042604892471
 20
1039.26781017225
 30
0.0
 11
900.8042604892471
 21
984.1561669384937
 31
0.0
  0
LINE
  5
B3
330
70
100
AcDbEntity
  8
Camada 1
 62
    18
420
        0
370
    35
100
AcDbLine
 10
912.530129135761
 20
984.1561669384937
 30
0.0
 11
912.530129135761
 21
1039.26781017225
 31
0.0
  0
LINE
  5
B4
330
70
100
AcDbEntity
  8
Camada 1
 62
    18
420
        0
370
    35
100
AcDbLine
 10
916.0478796305214
 20
1039.26781017225
 30
0.0
 11
916.0478796305214
 21
984.1561669384937
 31
0.0
  0
LINE
  5
B5
330
70
100
AcDbEntity
  8
Camada 1
 62
    18
420
        0
370
    35
100
AcDbLine
 10
927.7737482770318
 20
984.1561669384937
 30
0.0
 11
927.7737482770318
 21
1039.26781017225
 31
0.0
  0
LINE
  5
B6
330
70
100
AcDbEntity
  8
Camada 1
 62
    18
420
        0
370
    35
100
AcDbLine
 10
931.2915492677531
 20
1039.26781017225
 30
0.0
 11
931.2915492677531
 21
984.1561669384937
 31
0.0
  0
LINE
  5
B7
330
70
100
AcDbEntity
  8
Camada 1
 62
    18
420
        0
370
    35
100
AcDbLine
 10
943.0174179142632
 20
984.1561669384937
 30
0.0
 11
943.0174179142632
 21
1039.26781017225
 31
0.0
  0
LINE
  5
B8
330
70
100
AcDbEntity
  8
Camada 1
 62
    18
420
        0
370
    35
100
AcDbLine
 10
946.5351684090274
 20
1039.26781017225
 30
0.0
 11
946.5351684090274
 21
984.1561669384937
 31
0.0
  0
LINE
  5
B9
330
70
100
AcDbEntity
  8
Camada 1
 62
    18
420
        0
370
    35
100
AcDbLine
 10
958.2610370555375
 20
984.1561669384937
 30
0.0
 11
958.2610370555375
 21
1039.26781017225
 31
0.0
  0
LINE
  5
BA
330
70
100
AcDbEntity
  8
Camada 1
 62
    18
420
        0
370
    35
100
AcDbLine
 10
961.7787875502981
 20
1039.26781017225
 30
0.0
 11
961.7787875502981
 21
984.1561669384937
 31
0.0
  0
LINE
  5
BB
330
70
100
AcDbEntity
  8
Camada 1
 62
    18
420
        0
370
    35
100
AcDbLine
 10
973.5047066927691
 20
984.1561669384937
 30
0.0
 11
973.5047066927691
 21
1039.26781017225
 31
0.0
  0
LINE
  5
BC
330
70
100
AcDbEntity
  8
Camada 1
 62
    18
420
        0
370
    35
100
AcDbLine
 10
977.0224571875296
 20
1039.26781017225
 30
0.0
 11
977.0224571875296
 21
984.1561669384937
 31
0.0
  0
LINE
  5
BD
330
70
100
AcDbEntity
  8
Camada 1
 62
    18
420
        0
370
    35
100
AcDbLine
 10
988.7483258340417
 20
984.1561669384937
 30
0.0
 11
988.7483258340417
 21
1039.26781017225
 31
0.0
  0
LINE
  5
BE
330
70
100
AcDbEntity
  8
Camada 1
 62
    18
420
        0
370
    35
100
AcDbLine
 10
992.2660763288041
 20
1039.26781017225
 30
0.0
 11
992.2660763288041
 21
984.1561669384937
 31
0.0
  0
LINE
  5
BF
330
70
100
AcDbEntity
  8
Camada 1
 62
    18
420
        0
370
    35
100
AcDbLine
 10
1003.991995471269
 20
984.1561669384937
 30
0.0
 11
1003.991995471269
 21
1039.26781017225
 31
0.0
  0
LINE
  5
C0
330
70
100
AcDbEntity
  8
Camada 1
 62
    18
420
        0
370
    35
100
AcDbLine
 10
1007.509745966039
 20
1039.26781017225
 30
0.0
 11
1007.509745966039
 21
984.1561669384937
 31
0.0
  0
LINE
  5
C1
330
70
100
AcDbEntity
  8
Camada 1
 62
    18
420
        0
370
    35
100
AcDbLine
 10
1019.235614612549
 20
984.1561669384937
 30
0.0
 11
1019.235614612549
 21
1039.26781017225
 31
0.0
  0
LINE
  5
C2
330
70
100
AcDbEntity
  8
Camada 1
 62
    18
420
        0
370
    35
100
AcDbLine
 10
1022.75336510731
 20
1039.26781017225
 30
0.0
 11
1022.75336510731
 21
984.1561669384937
 31
0.0
  0
LINE
  5
C3
330
70
100
AcDbEntity
  8
Camada 1
 62
    18
420
        0
370
    35
100
AcDbLine
 10
1034.47923375382
 20
984.1561669384937
 30
0.0
 11
1034.47923375382
 21
1039.26781017225
 31
0.0
  0
LINE
  5
C4
330
70
100
AcDbEntity
  8
Camada 1
 62
    18
420
        0
370
    35
100
AcDbLine
 10
1037.997034744539
 20
1039.26781017225
 30
0.0
 11
1037.997034744539
 21
984.1561669384937
 31
0.0
  0
LINE
  5
C5
330
70
100
AcDbEntity
  8
Camada 1
 62
    18
420
        0
370
    35
100
AcDbLine
 10
1431.47578791434
 20
973.6486647931524
 30
0.0
 11
1445.630209217819
 21
974.1426162650677
 31
0.0
  0
LINE
  5
C6
330
70
100
AcDbEntity
  8
Camada 1
 62
    18
420
        0
370
    35
100
AcDbLine
 10
1220.05819544221
 20
973.6486647931524
 30
0.0
 11
1234.21261674569
 21
974.1426162650677
 31
0.0
  0
LINE
  5
C7
330
70
100
AcDbEntity
  8
Camada 1
 62
    18
420
        0
370
    35
100
AcDbLine
 10
1641.669055362119
 20
973.6424537901839
 30
0.0
 11
1655.82903122111
 21
974.0953015513923
 31
0.0
  0
LINE
  5
C8
330
70
100
AcDbEntity
  8
Camada 1
 62
    18
420
        0
370
    35
100
AcDbLine
 10
1659.468476977299
 20
970.6714230445978
 30
0.0
 11
489.225962971358
 21
970.6714230445978
 31
0.0
  0
LINE
  5
C9
330
70
100
AcDbEntity
  8
Camada 1
 62
    18
420
        0
370
    35
100
AcDbLine
 10
488.0533710571107
 20
971.8439897108655
 30
0.0
 11
1660.641094139529
 21
971.8439897108655
 31
0.0
  0
LINE
  5
CA
330
70
100
AcDbEntity
  8
Camada 1
 62
    18
420
        0
370
    35
100
AcDbLine
 10
510.9863128663382
 20
973.5887260896998
 30
0.0
 11
581.6598007756137
 21
973.5887260896998
 31
0.0
  0
LINE
  5
CB
330
70
100
AcDbEntity
  8
Camada 1
 62
    18
420
        0
370
    35
100
AcDbLine
 10
721.3643955244279
 20
973.5887260896998
 30
0.0
 11
793.0773427517833
 21
973.5887260896998
 31
0.0
  0
LINE
  5
CC
330
70
100
AcDbEntity
  8
Camada 1
 62
    18
420
        0
370
    35
100
AcDbLine
 10
932.7819879965572
 20
973.5887260896998
 30
0.0
 11
1004.494935223909
 21
973.5887260896998
 31
0.0
  0
LINE
  5
CD
330
70
100
AcDbEntity
  8
Camada 1
 62
    18
420
        0
370
    35
100
AcDbLine
 10
1144.199529972729
 20
973.5887260896998
 30
0.0
 11
1215.912477200079
 21
973.5887260896998
 31
0.0
  0
LINE
  5
CE
330
70
100
AcDbEntity
  8
Camada 1
 62
    18
420
        0
370
    35
100
AcDbLine
 10
1355.61712244485
 20
973.5887260896998
 30
0.0
 11
1427.330069672211
 21
973.5887260896998
 31
0.0
  0
LINE
  5
CF
330
70
100
AcDbEntity
  8
Camada 1
 62
    18
420
        0
370
    35
100
AcDbLine
 10
1567.034714916979
 20
973.5887260896998
 30
0.0
 11
1637.7081523303
 21
973.5887260896998
 31
0.0
  0
LINE
  5
D0
330
70
100
AcDbEntity
  8
Camada 1
 62
    18
420
        0
370
    35
100
AcDbLine
 10
604.1056333153782
 20
974.2025549685241
 30
0.0
 11
698.9185629846633
 21
974.2025549685241
 31
0.0
  0
LINE
  5
D1
330
70
100
AcDbEntity
  8
Camada 1
 62
    18
420
        0
370
    35
100
AcDbLine
 10
815.5232005395273
 20
974.2025549685241
 30
0.0
 11
910.3361302088124
 21
974.2025549685241
 31
0.0
  0
LINE
  5
D2
330
70
100
AcDbEntity
  8
Camada 1
 62
    18
420
        0
370
    35
100
AcDbLine
 10
1026.9407425157
 20
974.2025549685241
 30
0.0
 11
1121.75372268094
 21
974.2025549685241
 31
0.0
  0
LINE
  5
D3
330
70
100
AcDbEntity
  8
Camada 1
 62
    18
420
        0
370
    35
100
AcDbLine
 10
1238.35833498783
 20
974.2025549685241
 30
0.0
 11
1333.17126465711
 21
974.2025549685241
 31
0.0
  0
LINE
  5
D4
330
70
100
AcDbEntity
  8
Camada 1
 62
    18
420
        0
370
    35
100
AcDbLine
 10
1449.77592745995
 20
974.2025549685241
 30
0.0
 11
1544.58885712924
 21
974.2025549685241
 31
0.0
  0
LINE
  5
D5
330
70
100
AcDbEntity
  8
Camada 1
 62
    18
420
        0
370
    35
100
AcDbLine
 10
492.8654339755321
 20
974.0953015513923
 30
0.0
 11
507.0253845865318
 21
973.6424537901839
 31
0.0
  0
LINE
  5
D6
330
70
100
AcDbEntity
  8
Camada 1
 62
    18
420
        0
370
    35
100
AcDbLine
 10
703.064281226796
 20
974.1426162650677
 30
0.0
 11
717.2186772822952
 21
973.6486647931524
 31
0.0
  0
LINE
  5
D7
330
70
100
AcDbEntity
  8
Camada 1
 62
    18
420
        0
370
    35
100
AcDbLine
 10
914.4818484509452
 20
974.1426162650677
 30
0.0
 11
928.6362697544246
 21
973.6486647931524
 31
0.0
  0
LINE
  5
D8
330
70
100
AcDbEntity
  8
Camada 1
 62
    18
420
        0
370
    35
100
AcDbLine
 10
1008.64065346604
 20
973.6486647931524
 30
0.0
 11
1022.79502427356
 21
974.1426162650677
 31
0.0
  0
LINE
  5
D9
330
70
100
AcDbEntity
  8
Camada 1
 62
    18
420
        0
370
    35
100
AcDbLine
 10
797.2230609939161
 20
973.6486647931524
 30
0.0
 11
811.3774822973955
 21
974.1426162650677
 31
0.0
  0
LINE
  5
DA
330
70
100
AcDbEntity
  8
Camada 1
 62
    18
420
        0
370
    35
100
AcDbLine
 10
585.8055190177456
 20
973.6486647931524
 30
0.0
 11
599.9598898252661
 21
974.1426162650677
 31
0.0
  0
LINE
  5
DB
330
70
100
AcDbEntity
  8
Camada 1
 62
    18
420
        0
370
    35
100
AcDbLine
 10
1125.899440923069
 20
974.1426162650677
 30
0.0
 11
1140.053811730589
 21
973.6486647931524
 31
0.0
  0
LINE
  5
DC
330
70
100
AcDbEntity
  8
Camada 1
 62
    18
420
        0
370
    35
100
AcDbLine
 10
1337.316982899239
 20
974.1426162650677
 30
0.0
 11
1351.471404202719
 21
973.6486647931524
 31
0.0
  0
LINE
  5
DD
330
70
100
AcDbEntity
  8
Camada 1
 62
    18
420
        0
370
    35
100
AcDbLine
 10
1548.734575371371
 20
974.1426162650677
 30
0.0
 11
1562.88899667485
 21
973.6486647931524
 31
0.0
  0
LINE
  5
DE
330
70
100
AcDbEntity
  8
Camada 1
 62
    18
420
        0
370
    35
100
AcDbLine
 10
1110.697430452099
 20
984.1561669384937
 30
0.0
 11
1110.697430452099
 21
1039.26781017225
 31
0.0
  0
LINE
  5
DF
330
70
100
AcDbEntity
  8
Camada 1
 62
    18
420
        0
370
    35
100
AcDbLine
 10
1114.21523144282
 20
1039.26781017225
 30
0.0
 11
1114.21523144282
 21
984.1561669384937
 31
0.0
  0
LINE
  5
E0
330
70
100
AcDbEntity
  8
Camada 1
 62
    18
420
        0
370
    35
100
AcDbLine
 10
1562.88899667485
 20
1049.77531231759
 30
0.0
 11
1548.734575371371
 21
1049.28136084567
 31
0.0
  0
LINE
  5
E1
330
70
100
AcDbEntity
  8
Camada 1
 62
    18
420
        0
370
    35
100
AcDbLine
 10
1351.471404202719
 20
1049.77531231759
 30
0.0
 11
1337.316982899239
 21
1049.28136084567
 31
0.0
  0
LINE
  5
E2
330
70
100
AcDbEntity
  8
Camada 1
 62
    18
420
        0
370
    35
100
AcDbLine
 10
1140.053811730589
 20
1049.77531231759
 30
0.0
 11
1125.899440923069
 21
1049.28136084567
 31
0.0
  0
LINE
  5
E3
330
70
100
AcDbEntity
  8
Camada 1
 62
    18
420
        0
370
    35
100
AcDbLine
 10
928.6362697544246
 20
1049.77531231759
 30
0.0
 11
914.4818484509452
 21
1049.28136084567
 31
0.0
  0
LINE
  5
E4
330
70
100
AcDbEntity
  8
Camada 1
 62
    18
420
        0
370
    35
100
AcDbLine
 10
1544.58885712924
 20
1049.22142214221
 30
0.0
 11
1449.77592745995
 21
1049.22142214221
 31
0.0
  0
LINE
  5
E5
330
70
100
AcDbEntity
  8
Camada 1
 62
    18
420
        0
370
    35
100
AcDbLine
 10
1333.17126465711
 20
1049.22142214221
 30
0.0
 11
1238.35833498783
 21
1049.22142214221
 31
0.0
  0
LINE
  5
E6
330
70
100
AcDbEntity
  8
Camada 1
 62
    18
420
        0
370
    35
100
AcDbLine
 10
1121.75372268094
 20
1049.22142214221
 30
0.0
 11
1026.9407425157
 21
1049.22142214221
 31
0.0
  0
LINE
  5
E7
330
70
100
AcDbEntity
  8
Camada 1
 62
    18
420
        0
370
    35
100
AcDbLine
 10
910.3361302088124
 20
1049.22142214221
 30
0.0
 11
815.5232005395273
 21
1049.22142214221
 31
0.0
  0
LINE
  5
E8
330
70
100
AcDbEntity
  8
Camada 1
 62
    18
420
        0
370
    35
100
AcDbLine
 10
698.9185629846633
 20
1049.22142214221
 30
0.0
 11
604.1056333153782
 21
1049.22142214221
 31
0.0
  0
LINE
  5
E9
330
70
100
AcDbEntity
  8
Camada 1
 62
    18
420
        0
370
    35
100
AcDbLine
 10
1637.7081523303
 20
1049.83525102104
 30
0.0
 11
1567.034714916979
 21
1049.83525102104
 31
0.0
  0
LINE
  5
EA
330
70
100
AcDbEntity
  8
Camada 1
 62
    18
420
        0
370
    35
100
AcDbLine
 10
1427.330069672211
 20
1049.83525102104
 30
0.0
 11
1355.61712244485
 21
1049.83525102104
 31
0.0
  0
LINE
  5
EB
330
70
100
AcDbEntity
  8
Camada 1
 62
    18
420
        0
370
    35
100
AcDbLine
 10
1215.912477200079
 20
1049.83525102104
 30
0.0
 11
1144.199529972729
 21
1049.83525102104
 31
0.0
  0
LINE
  5
EC
330
70
100
AcDbEntity
  8
Camada 1
 62
    18
420
        0
370
    35
100
AcDbLine
 10
1004.494935223909
 20
1049.83525102104
 30
0.0
 11
932.7819879965572
 21
1049.83525102104
 31
0.0
  0
LINE
  5
ED
330
70
100
AcDbEntity
  8
Camada 1
 62
    18
420
        0
370
    35
100
AcDbLine
 10
793.0773427517833
 20
1049.83525102104
 30
0.0
 11
721.3643955244279
 21
1049.83525102104
 31
0.0
  0
LINE
  5
EE
330
70
100
AcDbEntity
  8
Camada 1
 62
    18
420
        0
370
    35
100
AcDbLine
 10
581.6598007756137
 20
1049.83525102104
 30
0.0
 11
510.9863128663382
 21
1049.83525102104
 31
0.0
  0
LINE
  5
EF
330
70
100
AcDbEntity
  8
Camada 1
 62
    18
420
        0
370
    35
100
AcDbLine
 10
488.0533710571107
 20
1051.57998739987
 30
0.0
 11
1660.641094139529
 21
1051.57998739987
 31
0.0
  0
LINE
  5
F0
330
70
100
AcDbEntity
  8
Camada 1
 62
    18
420
        0
370
    35
100
AcDbLine
 10
489.225962971358
 20
1052.75255406614
 30
0.0
 11
1659.468476977299
 21
1052.75255406614
 31
0.0
  0
LINE
  5
F1
330
70
100
AcDbEntity
  8
Camada 1
 62
    18
420
        0
370
    35
100
AcDbLine
 10
599.9598898252661
 20
1049.28136084567
 30
0.0
 11
585.8055190177456
 21
1049.77531231759
 31
0.0
  0
LINE
  5
F2
330
70
100
AcDbEntity
  8
Camada 1
 62
    18
420
        0
370
    35
100
AcDbLine
 10
811.3774822973955
 20
1049.28136084567
 30
0.0
 11
797.2230609939161
 21
1049.77531231759
 31
0.0
  0
LINE
  5
F3
330
70
100
AcDbEntity
  8
Camada 1
 62
    18
420
        0
370
    35
100
AcDbLine
 10
1022.79502427356
 20
1049.28136084567
 30
0.0
 11
1008.64065346604
 21
1049.77531231759
 31
0.0
  0
LINE
  5
F4
330
70
100
AcDbEntity
  8
Camada 1
 62
    18
420
        0
370
    35
100
AcDbLine
 10
1234.21261674569
 20
1049.28136084567
 30
0.0
 11
1220.05819544221
 21
1049.77531231759
 31
0.0
  0
LINE
  5
F5
330
70
100
AcDbEntity
  8
Camada 1
 62
    18
420
        0
370
    35
100
AcDbLine
 10
1125.94110008933
 20
984.1561669384937
 30
0.0
 11
1125.94110008933
 21
1039.26781017225
 31
0.0
  0
LINE
  5
F6
330
70
100
AcDbEntity
  8
Camada 1
 62
    18
420
        0
370
    35
100
AcDbLine
 10
1129.458850584089
 20
1039.26781017225
 30
0.0
 11
1129.458850584089
 21
984.1561669384937
 31
0.0
  0
LINE
  5
F7
330
70
100
AcDbEntity
  8
Camada 1
 62
    18
420
        0
370
    35
100
AcDbLine
 10
1141.184719230599
 20
984.1561669384937
 30
0.0
 11
1141.184719230599
 21
1039.26781017225
 31
0.0
  0
LINE
  5
F8
330
70
100
AcDbEntity
  8
Camada 1
 62
    18
420
        0
370
    35
100
AcDbLine
 10
1144.702520221319
 20
1039.26781017225
 30
0.0
 11
1144.702520221319
 21
984.1561669384937
 31
0.0
  0
LINE
  5
F9
330
70
100
AcDbEntity
  8
Camada 1
 62
    18
420
        0
370
    35
100
AcDbLine
 10
1156.428388867829
 20
984.1561669384937
 30
0.0
 11
1156.428388867829
 21
1039.26781017225
 31
0.0
  0
LINE
  5
FA
330
70
100
AcDbEntity
  8
Camada 1
 62
    18
420
        0
370
    35
100
AcDbLine
 10
1159.9461393626
 20
1039.26781017225
 30
0.0
 11
1159.9461393626
 21
984.1561669384937
 31
0.0
  0
LINE
  5
FB
330
70
100
AcDbEntity
  8
Camada 1
 62
    18
420
        0
370
    35
100
AcDbLine
 10
717.2186772822952
 20
1049.77531231759
 30
0.0
 11
703.064281226796
 21
1049.28136084567
 31
0.0
  0
LINE
  5
FC
330
70
100
AcDbEntity
  8
Camada 1
 62
    18
420
        0
370
    35
100
AcDbLine
 10
507.0253845865318
 20
1049.78152332055
 30
0.0
 11
492.8654339755321
 21
1049.32867555934
 31
0.0
  0
LINE
  5
FD
330
70
100
AcDbEntity
  8
Camada 1
 62
    18
420
        0
370
    35
100
AcDbLine
 10
1655.82903122111
 20
1049.32867555934
 30
0.0
 11
1641.669055362119
 21
1049.78152332055
 31
0.0
  0
LINE
  5
FE
330
70
100
AcDbEntity
  8
Camada 1
 62
    18
420
        0
370
    35
100
AcDbLine
 10
1445.630209217819
 20
1049.28136084567
 30
0.0
 11
1431.47578791434
 21
1049.77531231759
 31
0.0
  0
LINE
  5
FF
330
70
100
AcDbEntity
  8
Camada 1
 62
    18
420
        0
370
    35
100
AcDbLine
 10
1171.67205850507
 20
984.1561669384937
 30
0.0
 11
1171.67205850507
 21
1039.26781017225
 31
0.0
  0
LINE
  5
100
330
70
100
AcDbEntity
  8
Camada 1
 62
    18
420
        0
370
    35
100
AcDbLine
 10
1175.18980899983
 20
1039.26781017225
 30
0.0
 11
1175.18980899983
 21
984.1561669384937
 31
0.0
  0
LINE
  5
101
330
70
100
AcDbEntity
  8
Camada 1
 62
    18
420
        0
370
    35
100
AcDbLine
 10
1186.91567764634
 20
984.1561669384937
 30
0.0
 11
1186.91567764634
 21
1039.26781017225
 31
0.0
  0
LINE
  5
102
330
70
100
AcDbEntity
  8
Camada 1
 62
    18
420
        0
370
    35
100
AcDbLine
 10
1190.433428141099
 20
1039.26781017225
 30
0.0
 11
1190.433428141099
 21
984.1561669384937
 31
0.0
  0
LINE
  5
103
330
70
100
AcDbEntity
  8
Camada 1
 62
    18
420
        0
370
    35
100
AcDbLine
 10
1202.159296787609
 20
984.1561669384937
 30
0.0
 11
1202.159296787609
 21
1039.26781017225
 31
0.0
  0
LINE
  5
104
330
70
100
AcDbEntity
  8
Camada 1
 62
    18
420
        0
370
    35
100
AcDbLine
 10
1205.67704728237
 20
1039.26781017225
 30
0.0
 11
1205.67704728237
 21
984.1561669384937
 31
0.0
  0
LINE
  5
105
330
70
100
AcDbEntity
  8
Camada 1
 62
    18
420
        0
370
    35
100
AcDbLine
 10
1217.402915928889
 20
984.1561669384937
 30
0.0
 11
1217.402915928889
 21
1039.26781017225
 31
0.0
  0
LINE
  5
106
330
70
100
AcDbEntity
  8
Camada 1
 62
    18
420
        0
370
    35
100
AcDbLine
 10
1220.92066642365
 20
1039.26781017225
 30
0.0
 11
1220.92066642365
 21
984.1561669384937
 31
0.0
  0
LINE
  5
107
330
70
100
AcDbEntity
  8
Camada 1
 62
    18
420
        0
370
    35
100
AcDbLine
 10
1232.646535070151
 20
984.1561669384937
 30
0.0
 11
1232.646535070151
 21
1039.26781017225
 31
0.0
  0
LINE
  5
108
330
70
100
AcDbEntity
  8
Camada 1
 62
    18
420
        0
370
    35
100
AcDbLine
 10
1236.16438655684
 20
1039.26781017225
 30
0.0
 11
1236.16438655684
 21
984.1561669384937
 31
0.0
  0
LINE
  5
109
330
70
100
AcDbEntity
  8
Camada 1
 62
    18
420
        0
370
    35
100
AcDbLine
 10
1247.89025520335
 20
984.1561669384937
 30
0.0
 11
1247.89025520335
 21
1039.26781017225
 31
0.0
  0
LINE
  5
10A
330
70
100
AcDbEntity
  8
Camada 1
 62
    18
420
        0
370
    35
100
AcDbLine
 10
1251.408005698109
 20
1039.26781017225
 30
0.0
 11
1251.408005698109
 21
984.1561669384937
 31
0.0
  0
LINE
  5
10B
330
70
100
AcDbEntity
  8
Camada 1
 62
    18
420
        0
370
    35
100
AcDbLine
 10
1263.133874344619
 20
984.1561669384937
 30
0.0
 11
1263.133874344619
 21
1039.26781017225
 31
0.0
  0
LINE
  5
10C
330
70
100
AcDbEntity
  8
Camada 1
 62
    18
420
        0
370
    35
100
AcDbLine
 10
1266.65162483938
 20
1039.26781017225
 30
0.0
 11
1266.65162483938
 21
984.1561669384937
 31
0.0
  0
LINE
  5
10D
330
70
100
AcDbEntity
  8
Camada 1
 62
    18
420
        0
370
    35
100
AcDbLine
 10
1278.37749348589
 20
984.1561669384937
 30
0.0
 11
1278.37749348589
 21
1039.26781017225
 31
0.0
  0
LINE
  5
10E
330
70
100
AcDbEntity
  8
Camada 1
 62
    18
420
        0
370
    35
100
AcDbLine
 10
1281.895243980651
 20
1039.26781017225
 30
0.0
 11
1281.895243980651
 21
984.1561669384937
 31
0.0
  0
LINE
  5
10F
330
70
100
AcDbEntity
  8
Camada 1
 62
    18
420
        0
370
    35
100
AcDbLine
 10
1293.621112627159
 20
984.1561669384937
 30
0.0
 11
1293.621112627159
 21
1039.26781017225
 31
0.0
  0
LINE
  5
110
330
70
100
AcDbEntity
  8
Camada 1
 62
    18
420
        0
370
    35
100
AcDbLine
 10
1297.13886312193
 20
1039.26781017225
 30
0.0
 11
1297.13886312193
 21
984.1561669384937
 31
0.0
  0
LINE
  5
111
330
70
100
AcDbEntity
  8
Camada 1
 62
    18
420
        0
370
    35
100
AcDbLine
 10
1308.86483276036
 20
984.1561669384937
 30
0.0
 11
1308.86483276036
 21
1039.26781017225
 31
0.0
  0
LINE
  5
112
330
70
100
AcDbEntity
  8
Camada 1
 62
    18
420
        0
370
    35
100
AcDbLine
 10
1312.382583255119
 20
1039.26781017225
 30
0.0
 11
1312.382583255119
 21
984.1561669384937
 31
0.0
  0
LINE
  5
113
330
70
100
AcDbEntity
  8
Camada 1
 62
    18
420
        0
370
    35
100
AcDbLine
 10
1324.108451901629
 20
984.1561669384937
 30
0.0
 11
1324.108451901629
 21
1039.26781017225
 31
0.0
  0
LINE
  5
114
330
70
100
AcDbEntity
  8
Camada 1
 62
    18
420
        0
370
    35
100
AcDbLine
 10
1327.62620239639
 20
1039.26781017225
 30
0.0
 11
1327.62620239639
 21
984.1561669384937
 31
0.0
  0
LINE
  5
115
330
70
100
AcDbEntity
  8
Camada 1
 62
    18
420
        0
370
    35
100
AcDbLine
 10
1657.708692802649
 20
974.228307907666
 30
0.0
 11
1658.85989967822
 21
974.6875181597205
 31
0.0
  0
LINE
  5
116
330
70
100
AcDbEntity
  8
Camada 1
 62
    18
420
        0
370
    35
100
AcDbLine
 10
1658.85989967822
 20
1048.73645895101
 30
0.0
 11
1657.708692802649
 21
1049.19566920307
 31
0.0
  0
LINE
  5
117
330
70
100
AcDbEntity
  8
Camada 1
 62
    18
420
        0
370
    35
100
AcDbLine
 10
1339.3520710429
 20
984.1561669384937
 30
0.0
 11
1339.3520710429
 21
1039.26781017225
 31
0.0
  0
LINE
  5
118
330
70
100
AcDbEntity
  8
Camada 1
 62
    18
420
        0
370
    35
100
AcDbLine
 10
1342.869821537661
 20
1039.26781017225
 30
0.0
 11
1342.869821537661
 21
984.1561669384937
 31
0.0
  0
LINE
  5
119
330
70
100
AcDbEntity
  8
Camada 1
 62
    18
420
        0
370
    35
100
AcDbLine
 10
1354.595690184171
 20
984.1561669384937
 30
0.0
 11
1354.595690184171
 21
1039.26781017225
 31
0.0
  0
LINE
  5
11A
330
70
100
AcDbEntity
  8
Camada 1
 62
    18
420
        0
370
    35
100
AcDbLine
 10
1358.113440678941
 20
1039.26781017225
 30
0.0
 11
1358.113440678941
 21
984.1561669384937
 31
0.0
  0
LINE
  5
11B
330
70
100
AcDbEntity
  8
Camada 1
 62
    18
420
        0
370
    35
100
AcDbLine
 10
1369.839309325449
 20
984.1561669384937
 30
0.0
 11
1369.839309325449
 21
1039.26781017225
 31
0.0
  0
LINE
  5
11C
330
70
100
AcDbEntity
  8
Camada 1
 62
    18
420
        0
370
    35
100
AcDbLine
 10
1373.357059820209
 20
1039.26781017225
 30
0.0
 11
1373.357059820209
 21
984.1561669384937
 31
0.0
  0
LINE
  5
11D
330
70
100
AcDbEntity
  8
Camada 1
 62
    18
420
        0
370
    35
100
AcDbLine
 10
1385.083029458639
 20
984.1561669384937
 30
0.0
 11
1385.083029458639
 21
1039.26781017225
 31
0.0
  0
LINE
  5
11E
330
70
100
AcDbEntity
  8
Camada 1
 62
    18
420
        0
370
    35
100
AcDbLine
 10
1388.6007799534
 20
1039.26781017225
 30
0.0
 11
1388.6007799534
 21
984.1561669384937
 31
0.0
  0
LINE
  5
11F
330
70
100
AcDbEntity
  8
Camada 1
 62
    18
420
        0
370
    35
100
AcDbLine
 10
1400.32664859991
 20
984.1561669384937
 30
0.0
 11
1400.32664859991
 21
1039.26781017225
 31
0.0
  0
LINE
  5
120
330
70
100
AcDbEntity
  8
Camada 1
 62
    18
420
        0
370
    35
100
AcDbLine
 10
1403.84439909467
 20
1039.26781017225
 30
0.0
 11
1403.84439909467
 21
984.1561669384937
 31
0.0
  0
LINE
  5
121
330
70
100
AcDbEntity
  8
Camada 1
 62
    18
420
        0
370
    35
100
AcDbLine
 10
1415.570267741179
 20
984.1561669384937
 30
0.0
 11
1415.570267741179
 21
1039.26781017225
 31
0.0
  0
LINE
  5
122
330
70
100
AcDbEntity
  8
Camada 1
 62
    18
420
        0
370
    35
100
AcDbLine
 10
1419.08801823594
 20
1039.26781017225
 30
0.0
 11
1419.08801823594
 21
984.1561669384937
 31
0.0
  0
LINE
  5
123
330
70
100
AcDbEntity
  8
Camada 1
 62
    18
420
        0
370
    35
100
AcDbLine
 10
1430.813886882461
 20
984.1561669384937
 30
0.0
 11
1430.813886882461
 21
1039.26781017225
 31
0.0
  0
LINE
  5
124
330
70
100
AcDbEntity
  8
Camada 1
 62
    18
420
        0
370
    35
100
AcDbLine
 10
1434.331637377219
 20
1039.26781017225
 30
0.0
 11
1434.331637377219
 21
984.1561669384937
 31
0.0
  0
LINE
  5
125
330
70
100
AcDbEntity
  8
Camada 1
 62
    18
420
        0
370
    35
100
AcDbLine
 10
1446.05750602373
 20
984.1561669384937
 30
0.0
 11
1446.05750602373
 21
1039.26781017225
 31
0.0
  0
LINE
  5
126
330
70
100
AcDbEntity
  8
Camada 1
 62
    18
420
        0
370
    35
100
AcDbLine
 10
1449.57535751041
 20
1039.26781017225
 30
0.0
 11
1449.57535751041
 21
984.1561669384937
 31
0.0
  0
LINE
  5
127
330
70
100
AcDbEntity
  8
Camada 1
 62
    18
420
        0
370
    35
100
AcDbLine
 10
1461.30122615692
 20
984.1561669384937
 30
0.0
 11
1461.30122615692
 21
1039.26781017225
 31
0.0
  0
LINE
  5
128
330
70
100
AcDbEntity
  8
Camada 1
 62
    18
420
        0
370
    35
100
AcDbLine
 10
1464.818976651681
 20
1039.26781017225
 30
0.0
 11
1464.818976651681
 21
984.1561669384937
 31
0.0
  0
LINE
  5
129
330
70
100
AcDbEntity
  8
Camada 1
 62
    18
420
        0
370
    35
100
AcDbLine
 10
1476.544845298191
 20
984.1561669384937
 30
0.0
 11
1476.544845298191
 21
1039.26781017225
 31
0.0
  0
LINE
  5
12A
330
70
100
AcDbEntity
  8
Camada 1
 62
    18
420
        0
370
    35
100
AcDbLine
 10
1480.06259579296
 20
1039.26781017225
 30
0.0
 11
1480.06259579296
 21
984.1561669384937
 31
0.0
  0
LINE
  5
12B
330
70
100
AcDbEntity
  8
Camada 1
 62
    18
420
        0
370
    35
100
AcDbLine
 10
1491.78846443947
 20
984.1561669384937
 30
0.0
 11
1491.78846443947
 21
1039.26781017225
 31
0.0
  0
LINE
  5
12C
330
70
100
AcDbEntity
  8
Camada 1
 62
    18
420
        0
370
    35
100
AcDbLine
 10
1495.306214934229
 20
1039.26781017225
 30
0.0
 11
1495.306214934229
 21
984.1561669384937
 31
0.0
  0
LINE
  5
12D
330
70
100
AcDbEntity
  8
Camada 1
 62
    18
420
        0
370
    35
100
AcDbLine
 10
1507.03208358074
 20
984.1561669384937
 30
0.0
 11
1507.03208358074
 21
1039.26781017225
 31
0.0
  0
LINE
  5
12E
330
70
100
AcDbEntity
  8
Camada 1
 62
    18
420
        0
370
    35
100
AcDbLine
 10
1510.5498340755
 20
1039.26781017225
 30
0.0
 11
1510.5498340755
 21
984.1561669384937
 31
0.0
  0
LINE
  5
12F
330
70
100
AcDbEntity
  8
Camada 1
 62
    18
420
        0
370
    35
100
AcDbLine
 10
1522.27570272201
 20
984.1561669384937
 30
0.0
 11
1522.27570272201
 21
1039.26781017225
 31
0.0
  0
LINE
  5
130
330
70
100
AcDbEntity
  8
Camada 1
 62
    18
420
        0
370
    35
100
AcDbLine
 10
1525.79355420869
 20
1039.26781017225
 30
0.0
 11
1525.79355420869
 21
984.1561669384937
 31
0.0
  0
LINE
  5
131
330
70
100
AcDbEntity
  8
Camada 1
 62
    18
420
        0
370
    35
100
AcDbLine
 10
1537.519422855199
 20
984.1561669384937
 30
0.0
 11
1537.519422855199
 21
1039.26781017225
 31
0.0
  0
LINE
  5
132
330
70
100
AcDbEntity
  8
Camada 1
 62
    18
420
        0
370
    35
100
AcDbLine
 10
1541.037173349959
 20
1039.26781017225
 30
0.0
 11
1541.037173349959
 21
984.1561669384937
 31
0.0
  0
LINE
  5
133
330
70
100
AcDbEntity
  8
Camada 1
 62
    18
420
        0
370
    35
100
AcDbLine
 10
1552.76304199647
 20
984.1561669384937
 30
0.0
 11
1552.76304199647
 21
1039.26781017225
 31
0.0
  0
LINE
  5
134
330
70
100
AcDbEntity
  8
Camada 1
 62
    18
420
        0
370
    35
100
AcDbLine
 10
1556.28079249123
 20
1039.26781017225
 30
0.0
 11
1556.28079249123
 21
984.1561669384937
 31
0.0
  0
LINE
  5
135
330
70
100
AcDbEntity
  8
Camada 1
 62
    18
420
        0
370
    35
100
AcDbLine
 10
1568.00666113774
 20
984.1561669384937
 30
0.0
 11
1568.00666113774
 21
1039.26781017225
 31
0.0
  0
LINE
  5
136
330
70
100
AcDbEntity
  8
Camada 1
 62
    18
420
        0
370
    35
100
AcDbLine
 10
1571.524411632499
 20
1039.26781017225
 30
0.0
 11
1571.524411632499
 21
984.1561669384937
 31
0.0
  0
LINE
  5
137
330
70
100
AcDbEntity
  8
Camada 1
 62
    18
420
        0
370
    35
100
AcDbLine
 10
1583.25028027902
 20
984.1561669384937
 30
0.0
 11
1583.25028027902
 21
1039.26781017225
 31
0.0
  0
LINE
  5
138
330
70
100
AcDbEntity
  8
Camada 1
 62
    18
420
        0
370
    35
100
AcDbLine
 10
1586.768030773779
 20
1039.26781017225
 30
0.0
 11
1586.768030773779
 21
984.1561669384937
 31
0.0
  0
LINE
  5
139
330
70
100
AcDbEntity
  8
Camada 1
 62
    18
420
        0
370
    35
100
AcDbLine
 10
1598.494000412211
 20
984.1561669384937
 30
0.0
 11
1598.494000412211
 21
1039.26781017225
 31
0.0
  0
LINE
  5
13A
330
70
100
AcDbEntity
  8
Camada 1
 62
    18
420
        0
370
    35
100
AcDbLine
 10
1602.011750906969
 20
1039.26781017225
 30
0.0
 11
1602.011750906969
 21
984.1561669384937
 31
0.0
  0
LINE
  5
13B
330
70
100
AcDbEntity
  8
Camada 1
 62
    18
420
        0
370
    35
100
AcDbLine
 10
1613.73761955348
 20
984.1561669384937
 30
0.0
 11
1613.73761955348
 21
1039.26781017225
 31
0.0
  0
LINE
  5
13C
330
70
100
AcDbEntity
  8
Camada 1
 62
    18
420
        0
370
    35
100
AcDbLine
 10
1617.25537004824
 20
1039.26781017225
 30
0.0
 11
1617.25537004824
 21
984.1561669384937
 31
0.0
  0
LINE
  5
13D
330
70
100
AcDbEntity
  8
Camada 1
 62
    18
420
        0
370
    35
100
AcDbLine
 10
1628.98123869475
 20
984.1561669384937
 30
0.0
 11
1628.98123869475
 21
1039.26781017225
 31
0.0
  0
LINE
  5
13E
330
70
100
AcDbEntity
  8
Camada 1
 62
    18
420
        0
370
    35
100
AcDbLine
 10
1632.49898918952
 20
1039.26781017225
 30
0.0
 11
1632.49898918952
 21
984.1561669384937
 31
0.0
  0
LINE
  5
13F
330
70
100
AcDbEntity
  8
Camada 1
 62
    18
420
        0
370
    35
100
AcDbLine
 10
1658.882218892149
 20
1048.67939851723
 30
0.0
 11
1658.882218892149
 21
1025.58623302978
 31
0.0
  0
LINE
  5
140
330
70
100
AcDbEntity
  8
Camada 1
 62
    18
420
        0
370
    35
100
AcDbLine
 10
1658.882218892149
 20
974.7445785935051
 30
0.0
 11
1658.882218892149
 21
997.8377440809563
 31
0.0
  0
LINE
  5
141
330
70
100
AcDbEntity
  8
Camada 1
 62
    18
420
        0
370
    35
100
AcDbLine
 10
1659.468476977299
 20
970.6714230445978
 30
0.0
 11
1659.468476977299
 21
1052.75255406614
 31
0.0
  0
LINE
  5
142
330
70
100
AcDbEntity
  8
Camada 1
 62
    18
420
        0
370
    35
100
AcDbLine
 10
1660.641094139529
 20
1051.57998739987
 30
0.0
 11
1660.641094139529
 21
971.8439897108655
 31
0.0
  0
LINE
  5
143
330
70
100
AcDbEntity
  8
Camada 1
 62
    18
420
        0
370
    35
100
AcDbLine
 10
488.0533710571107
 20
1168.797974121949
 30
0.0
 11
488.0533710571107
 21
1201.864949963
 31
0.0
  0
LINE
  5
144
330
70
100
AcDbEntity
  8
Camada 1
 62
    18
420
        0
370
    35
100
AcDbLine
 10
489.225962971358
 20
1168.797974121949
 30
0.0
 11
489.225962971358
 21
1201.864949963
 31
0.0
  0
LINE
  5
145
330
70
100
AcDbEntity
  8
Camada 1
 62
    18
420
        0
370
    35
100
AcDbLine
 10
1658.53046404105
 20
1166.687293527509
 30
0.0
 11
490.1640264035649
 21
1166.687293527509
 31
0.0
  0
LINE
  5
146
330
70
100
AcDbEntity
  8
Camada 1
 62
    18
420
        0
370
    35
100
AcDbLine
 10
489.225962971358
 20
1168.797974121949
 30
0.0
 11
488.0533710571107
 21
1168.797974121949
 31
0.0
  0
LINE
  5
147
330
70
100
AcDbEntity
  8
Camada 1
 62
    18
420
        0
370
    35
100
AcDbLine
 10
1659.468476977299
 20
1168.797974121949
 30
0.0
 11
1660.641094139529
 21
1168.797974121949
 31
0.0
  0
LINE
  5
148
330
70
100
AcDbEntity
  8
Camada 1
 62
    18
420
        0
370
    35
100
AcDbLine
 10
1659.468476977299
 20
1201.864949963
 30
0.0
 11
489.225962971358
 21
1201.864949963
 31
0.0
  0
LINE
  5
149
330
70
100
AcDbEntity
  8
Camada 1
 62
    18
420
        0
370
    35
100
AcDbLine
 10
489.225962971358
 20
1201.864949963
 30
0.0
 11
488.0533710571107
 21
1201.864949963
 31
0.0
  0
LINE
  5
14A
330
70
100
AcDbEntity
  8
Camada 1
 62
    18
420
        0
370
    35
100
AcDbLine
 10
1659.468476977299
 20
1201.864949963
 30
0.0
 11
1660.641094139529
 21
1201.864949963
 31
0.0
  0
LINE
  5
14B
330
70
100
AcDbEntity
  8
Camada 1
 62
    18
420
        0
370
    35
100
AcDbLine
 10
1659.468476977299
 20
1168.797974121949
 30
0.0
 11
1659.468476977299
 21
1201.864949963
 31
0.0
  0
LINE
  5
14C
330
70
100
AcDbEntity
  8
Camada 1
 62
    18
420
        0
370
    35
100
AcDbLine
 10
1660.641094139529
 20
1168.797974121949
 30
0.0
 11
1660.641094139529
 21
1201.864949963
 31
0.0
  0
SPLINE
  5
14D
330
70
100
AcDbEntity
  8
Camada 1
 62
    18
420
        0
370
    35
100
AcDbSpline
210
0.0
220
0.0
230
1.0
 70
     8
 71
     3
 72
     8
 73
     4
 74
     0
 42
0.0000000001
 43
0.0000000001
 40
0.0
 40
0.0
 40
0.0
 40
0.0
 40
1.0
 40
1.0
 40
1.0
 40
1.0
 10
516.1954760071221
 20
984.1561669384937
 30
0.0
 10
516.1954760071221
 20
983.1847761732788
 30
0.0
 10
516.9829604892911
 20
982.3972916911079
 30
0.0
 10
517.9543512545023
 20
982.3972916911079
 30
0.0
  0
SPLINE
  5
14E
330
70
100
AcDbEntity
  8
Camada 1
 62
    18
420
        0
370
    35
100
AcDbSpline
210
0.0
220
0.0
230
1.0
 70
     8
 71
     3
 72
     8
 73
     4
 74
     0
 42
0.0000000001
 43
0.0000000001
 40
0.0
 40
0.0
 40
0.0
 40
0.0
 40
1.0
 40
1.0
 40
1.0
 40
1.0
 10
517.9543512545023
 20
982.3972916911079
 30
0.0
 10
518.925767267694
 20
982.3972916911079
 30
0.0
 10
519.713251749863
 20
983.1847761732788
 30
0.0
 10
519.713251749863
 20
984.1561669384937
 30
0.0
  0
SPLINE
  5
14F
330
70
100
AcDbEntity
  8
Camada 1
 62
    18
420
        0
370
    35
100
AcDbSpline
210
0.0
220
0.0
230
1.0
 70
     8
 71
     3
 72
     8
 73
     4
 74
     0
 42
0.0000000001
 43
0.0000000001
 40
0.0
 40
0.0
 40
0.0
 40
0.0
 40
1.0
 40
1.0
 40
1.0
 40
1.0
 10
531.4391203963741
 20
984.1561669384937
 30
0.0
 10
531.4391203963741
 20
983.1847761732788
 30
0.0
 10
532.2265796305637
 20
982.3972916911079
 30
0.0
 10
533.1979956437534
 20
982.3972916911079
 30
0.0
  0
SPLINE
  5
150
330
70
100
AcDbEntity
  8
Camada 1
 62
    18
420
        0
370
    35
100
AcDbSpline
210
0.0
220
0.0
230
1.0
 70
     8
 71
     3
 72
     8
 73
     4
 74
     0
 42
0.0000000001
 43
0.0000000001
 40
0.0
 40
0.0
 40
0.0
 40
0.0
 40
1.0
 40
1.0
 40
1.0
 40
1.0
 10
533.1979956437534
 20
982.3972916911079
 30
0.0
 10
534.1693864089665
 20
982.3972916911079
 30
0.0
 10
534.9568708911355
 20
983.1847761732788
 30
0.0
 10
534.9568708911355
 20
984.1561669384937
 30
0.0
  0
SPLINE
  5
151
330
70
100
AcDbEntity
  8
Camada 1
 62
    18
420
        0
370
    35
100
AcDbSpline
210
0.0
220
0.0
230
1.0
 70
     8
 71
     3
 72
     8
 73
     4
 74
     0
 42
0.0000000001
 43
0.0000000001
 40
0.0
 40
0.0
 40
0.0
 40
0.0
 40
1.0
 40
1.0
 40
1.0
 40
1.0
 10
546.682764785628
 20
984.1561669384937
 30
0.0
 10
546.682764785628
 20
983.1847761732788
 30
0.0
 10
547.4702240198157
 20
982.3972916911079
 30
0.0
 10
548.4416400330074
 20
982.3972916911079
 30
0.0
  0
SPLINE
  5
152
330
70
100
AcDbEntity
  8
Camada 1
 62
    18
420
        0
370
    35
100
AcDbSpline
210
0.0
220
0.0
230
1.0
 70
     8
 71
     3
 72
     8
 73
     4
 74
     0
 42
0.0000000001
 43
0.0000000001
 40
0.0
 40
0.0
 40
0.0
 40
0.0
 40
1.0
 40
1.0
 40
1.0
 40
1.0
 10
548.4416400330074
 20
982.3972916911079
 30
0.0
 10
549.4130307982195
 20
982.3972916911079
 30
0.0
 10
550.2005152803885
 20
983.1847761732788
 30
0.0
 10
550.2005152803885
 20
984.1561669384937
 30
0.0
  0
SPLINE
  5
153
330
70
100
AcDbEntity
  8
Camada 1
 62
    18
420
        0
370
    35
100
AcDbSpline
210
0.0
220
0.0
230
1.0
 70
     8
 71
     3
 72
     8
 73
     4
 74
     0
 42
0.0000000001
 43
0.0000000001
 40
0.0
 40
0.0
 40
0.0
 40
0.0
 40
1.0
 40
1.0
 40
1.0
 40
1.0
 10
561.9263839268978
 20
984.1561669384937
 30
0.0
 10
561.9263839268978
 20
983.1847761732788
 30
0.0
 10
562.7138684090677
 20
982.3972916911079
 30
0.0
 10
563.6852844222594
 20
982.3972916911079
 30
0.0
  0
SPLINE
  5
154
330
70
100
AcDbEntity
  8
Camada 1
 62
    18
420
        0
370
    35
100
AcDbSpline
210
0.0
220
0.0
230
1.0
 70
     8
 71
     3
 72
     8
 73
     4
 74
     0
 42
0.0000000001
 43
0.0000000001
 40
0.0
 40
0.0
 40
0.0
 40
0.0
 40
1.0
 40
1.0
 40
1.0
 40
1.0
 10
563.6852844222594
 20
982.3972916911079
 30
0.0
 10
564.6566751874725
 20
982.3972916911079
 30
0.0
 10
565.4441596696406
 20
983.1847761732788
 30
0.0
 10
565.4441596696406
 20
984.1561669384937
 30
0.0
  0
SPLINE
  5
155
330
70
100
AcDbEntity
  8
Camada 1
 62
    18
420
        0
370
    35
100
AcDbSpline
210
0.0
220
0.0
230
1.0
 70
     8
 71
     3
 72
     8
 73
     4
 74
     0
 42
0.0000000001
 43
0.0000000001
 40
0.0
 40
0.0
 40
0.0
 40
0.0
 40
1.0
 40
1.0
 40
1.0
 40
1.0
 10
577.1700283161517
 20
984.1561669384937
 30
0.0
 10
577.1700283161517
 20
983.1847761732788
 30
0.0
 10
577.9575127983189
 20
982.3972916911079
 30
0.0
 10
578.9289035635301
 20
982.3972916911079
 30
0.0
  0
SPLINE
  5
156
330
70
100
AcDbEntity
  8
Camada 1
 62
    18
420
        0
370
    35
100
AcDbSpline
210
0.0
220
0.0
230
1.0
 70
     8
 71
     3
 72
     8
 73
     4
 74
     0
 42
0.0000000001
 43
0.0000000001
 40
0.0
 40
0.0
 40
0.0
 40
0.0
 40
1.0
 40
1.0
 40
1.0
 40
1.0
 10
578.9289035635301
 20
982.3972916911079
 30
0.0
 10
579.9003195767236
 20
982.3972916911079
 30
0.0
 10
580.6878040588917
 20
983.1847761732788
 30
0.0
 10
580.6878040588917
 20
984.1561669384937
 30
0.0
  0
SPLINE
  5
157
330
70
100
AcDbEntity
  8
Camada 1
 62
    18
420
        0
370
    35
100
AcDbSpline
210
0.0
220
0.0
230
1.0
 70
     8
 71
     3
 72
     8
 73
     4
 74
     0
 42
0.0000000001
 43
0.0000000001
 40
0.0
 40
0.0
 40
0.0
 40
0.0
 40
1.0
 40
1.0
 40
1.0
 40
1.0
 10
592.4136727054028
 20
984.1561669384937
 30
0.0
 10
592.4136727054028
 20
983.1847761732788
 30
0.0
 10
593.2011571875709
 20
982.3972916911079
 30
0.0
 10
594.1725479527849
 20
982.3972916911079
 30
0.0
  0
SPLINE
  5
158
330
70
100
AcDbEntity
  8
Camada 1
 62
    18
420
        0
370
    35
100
AcDbSpline
210
0.0
220
0.0
230
1.0
 70
     8
 71
     3
 72
     8
 73
     4
 74
     0
 42
0.0000000001
 43
0.0000000001
 40
0.0
 40
0.0
 40
0.0
 40
0.0
 40
1.0
 40
1.0
 40
1.0
 40
1.0
 10
594.1725479527849
 20
982.3972916911079
 30
0.0
 10
595.1439639659747
 20
982.3972916911079
 30
0.0
 10
595.9314484481455
 20
983.1847761732788
 30
0.0
 10
595.9314484481455
 20
984.1561669384937
 30
0.0
  0
SPLINE
  5
159
330
70
100
AcDbEntity
  8
Camada 1
 62
    18
420
        0
370
    35
100
AcDbSpline
210
0.0
220
0.0
230
1.0
 70
     8
 71
     3
 72
     8
 73
     4
 74
     0
 42
0.0000000001
 43
0.0000000001
 40
0.0
 40
0.0
 40
0.0
 40
0.0
 40
1.0
 40
1.0
 40
1.0
 40
1.0
 10
607.6573170946558
 20
984.1561669384937
 30
0.0
 10
607.6573170946558
 20
983.1847761732788
 30
0.0
 10
608.4448015768248
 20
982.3972916911079
 30
0.0
 10
609.4161923420361
 20
982.3972916911079
 30
0.0
  0
SPLINE
  5
15A
330
70
100
AcDbEntity
  8
Camada 1
 62
    18
420
        0
370
    35
100
AcDbSpline
210
0.0
220
0.0
230
1.0
 70
     8
 71
     3
 72
     8
 73
     4
 74
     0
 42
0.0000000001
 43
0.0000000001
 40
0.0
 40
0.0
 40
0.0
 40
0.0
 40
1.0
 40
1.0
 40
1.0
 40
1.0
 10
609.4161923420361
 20
982.3972916911079
 30
0.0
 10
610.3876083552277
 20
982.3972916911079
 30
0.0
 10
611.1750675894163
 20
983.1847761732788
 30
0.0
 10
611.1750675894163
 20
984.1561669384937
 30
0.0
  0
SPLINE
  5
15B
330
70
100
AcDbEntity
  8
Camada 1
 62
    18
420
        0
370
    35
100
AcDbSpline
210
0.0
220
0.0
230
1.0
 70
     8
 71
     3
 72
     8
 73
     4
 74
     0
 42
0.0000000001
 43
0.0000000001
 40
0.0
 40
0.0
 40
0.0
 40
0.0
 40
1.0
 40
1.0
 40
1.0
 40
1.0
 10
622.9009614839078
 20
984.1561669384937
 30
0.0
 10
622.9009614839078
 20
983.1847761732788
 30
0.0
 10
623.6884459660759
 20
982.3972916911079
 30
0.0
 10
624.659836731289
 20
982.3972916911079
 30
0.0
  0
SPLINE
  5
15C
330
70
100
AcDbEntity
  8
Camada 1
 62
    18
420
        0
370
    35
100
AcDbSpline
210
0.0
220
0.0
230
1.0
 70
     8
 71
     3
 72
     8
 73
     4
 74
     0
 42
0.0000000001
 43
0.0000000001
 40
0.0
 40
0.0
 40
0.0
 40
0.0
 40
1.0
 40
1.0
 40
1.0
 40
1.0
 10
624.659836731289
 20
982.3972916911079
 30
0.0
 10
625.6312527444797
 20
982.3972916911079
 30
0.0
 10
626.4187119786693
 20
983.1847761732788
 30
0.0
 10
626.4187119786693
 20
984.1561669384937
 30
0.0
  0
SPLINE
  5
15D
330
70
100
AcDbEntity
  8
Camada 1
 62
    18
420
        0
370
    35
100
AcDbSpline
210
0.0
220
0.0
230
1.0
 70
     8
 71
     3
 72
     8
 73
     4
 74
     0
 42
0.0000000001
 43
0.0000000001
 40
0.0
 40
0.0
 40
0.0
 40
0.0
 40
1.0
 40
1.0
 40
1.0
 40
1.0
 10
638.144605873158
 20
984.1561669384937
 30
0.0
 10
638.144605873158
 20
983.1847761732788
 30
0.0
 10
638.9320651073504
 20
982.3972916911079
 30
0.0
 10
639.9034811205392
 20
982.3972916911079
 30
0.0
  0
SPLINE
  5
15E
330
70
100
AcDbEntity
  8
Camada 1
 62
    18
420
        0
370
    35
100
AcDbSpline
210
0.0
220
0.0
230
1.0
 70
     8
 71
     3
 72
     8
 73
     4
 74
     0
 42
0.0000000001
 43
0.0000000001
 40
0.0
 40
0.0
 40
0.0
 40
0.0
 40
1.0
 40
1.0
 40
1.0
 40
1.0
 10
639.9034811205392
 20
982.3972916911079
 30
0.0
 10
640.8748718857523
 20
982.3972916911079
 30
0.0
 10
641.6623563679213
 20
983.1847761732788
 30
0.0
 10
641.6623563679213
 20
984.1561669384937
 30
0.0
  0
SPLINE
  5
15F
330
70
100
AcDbEntity
  8
Camada 1
 62
    18
420
        0
370
    35
100
AcDbSpline
210
0.0
220
0.0
230
1.0
 70
     8
 71
     3
 72
     8
 73
     4
 74
     0
 42
0.0000000001
 43
0.0000000001
 40
0.0
 40
0.0
 40
0.0
 40
0.0
 40
1.0
 40
1.0
 40
1.0
 40
1.0
 10
653.3882250144333
 20
984.1561669384937
 30
0.0
 10
653.3882250144333
 20
983.1847761732788
 30
0.0
 10
654.1757094966023
 20
982.3972916911079
 30
0.0
 10
655.1471255097931
 20
982.3972916911079
 30
0.0
  0
SPLINE
  5
160
330
70
100
AcDbEntity
  8
Camada 1
 62
    18
420
        0
370
    35
100
AcDbSpline
210
0.0
220
0.0
230
1.0
 70
     8
 71
     3
 72
     8
 73
     4
 74
     0
 42
0.0000000001
 43
0.0000000001
 40
0.0
 40
0.0
 40
0.0
 40
0.0
 40
1.0
 40
1.0
 40
1.0
 40
1.0
 10
655.1471255097931
 20
982.3972916911079
 30
0.0
 10
656.1185162750052
 20
982.3972916911079
 30
0.0
 10
656.9060007571733
 20
983.1847761732788
 30
0.0
 10
656.9060007571733
 20
984.1561669384937
 30
0.0
  0
SPLINE
  5
161
330
70
100
AcDbEntity
  8
Camada 1
 62
    18
420
        0
370
    35
100
AcDbSpline
210
0.0
220
0.0
230
1.0
 70
     8
 71
     3
 72
     8
 73
     4
 74
     0
 42
0.0000000001
 43
0.0000000001
 40
0.0
 40
0.0
 40
0.0
 40
0.0
 40
1.0
 40
1.0
 40
1.0
 40
1.0
 10
668.6318694036835
 20
984.1561669384937
 30
0.0
 10
668.6318694036835
 20
983.1847761732788
 30
0.0
 10
669.4193538858544
 20
982.3972916911079
 30
0.0
 10
670.3907698990442
 20
982.3972916911079
 30
0.0
  0
SPLINE
  5
162
330
70
100
AcDbEntity
  8
Camada 1
 62
    18
420
        0
370
    35
100
AcDbSpline
210
0.0
220
0.0
230
1.0
 70
     8
 71
     3
 72
     8
 73
     4
 74
     0
 42
0.0000000001
 43
0.0000000001
 40
0.0
 40
0.0
 40
0.0
 40
0.0
 40
1.0
 40
1.0
 40
1.0
 40
1.0
 10
670.3907698990442
 20
982.3972916911079
 30
0.0
 10
671.3621606642573
 20
982.3972916911079
 30
0.0
 10
672.1496451464245
 20
983.1847761732788
 30
0.0
 10
672.1496451464245
 20
984.1561669384937
 30
0.0
  0
SPLINE
  5
163
330
70
100
AcDbEntity
  8
Camada 1
 62
    18
420
        0
370
    35
100
AcDbSpline
210
0.0
220
0.0
230
1.0
 70
     8
 71
     3
 72
     8
 73
     4
 74
     0
 42
0.0000000001
 43
0.0000000001
 40
0.0
 40
0.0
 40
0.0
 40
0.0
 40
1.0
 40
1.0
 40
1.0
 40
1.0
 10
683.8755137929383
 20
984.1561669384937
 30
0.0
 10
683.8755137929383
 20
983.1847761732788
 30
0.0
 10
684.6629982751055
 20
982.3972916911079
 30
0.0
 10
685.6343890403167
 20
982.3972916911079
 30
0.0
  0
SPLINE
  5
164
330
70
100
AcDbEntity
  8
Camada 1
 62
    18
420
        0
370
    35
100
AcDbSpline
210
0.0
220
0.0
230
1.0
 70
     8
 71
     3
 72
     8
 73
     4
 74
     0
 42
0.0000000001
 43
0.0000000001
 40
0.0
 40
0.0
 40
0.0
 40
0.0
 40
1.0
 40
1.0
 40
1.0
 40
1.0
 10
685.6343890403167
 20
982.3972916911079
 30
0.0
 10
686.6058050535094
 20
982.3972916911079
 30
0.0
 10
687.3932895356784
 20
983.1847761732788
 30
0.0
 10
687.3932895356784
 20
984.1561669384937
 30
0.0
  0
SPLINE
  5
165
330
70
100
AcDbEntity
  8
Camada 1
 62
    18
420
        0
370
    35
100
AcDbSpline
210
0.0
220
0.0
230
1.0
 70
     8
 71
     3
 72
     8
 73
     4
 74
     0
 42
0.0000000001
 43
0.0000000001
 40
0.0
 40
0.0
 40
0.0
 40
0.0
 40
1.0
 40
1.0
 40
1.0
 40
1.0
 10
699.1191581821895
 20
984.1561669384937
 30
0.0
 10
699.1191581821895
 20
983.1847761732788
 30
0.0
 10
699.9066426643566
 20
982.3972916911079
 30
0.0
 10
700.8780334295697
 20
982.3972916911079
 30
0.0
  0
SPLINE
  5
166
330
70
100
AcDbEntity
  8
Camada 1
 62
    18
420
        0
370
    35
100
AcDbSpline
210
0.0
220
0.0
230
1.0
 70
     8
 71
     3
 72
     8
 73
     4
 74
     0
 42
0.0000000001
 43
0.0000000001
 40
0.0
 40
0.0
 40
0.0
 40
0.0
 40
1.0
 40
1.0
 40
1.0
 40
1.0
 10
700.8780334295697
 20
982.3972916911079
 30
0.0
 10
701.8494494427596
 20
982.3972916911079
 30
0.0
 10
702.6369339249304
 20
983.1847761732788
 30
0.0
 10
702.6369339249304
 20
984.1561669384937
 30
0.0
  0
SPLINE
  5
167
330
70
100
AcDbEntity
  8
Camada 1
 62
    18
420
        0
370
    35
100
AcDbSpline
210
0.0
220
0.0
230
1.0
 70
     8
 71
     3
 72
     8
 73
     4
 74
     0
 42
0.0000000001
 43
0.0000000001
 40
0.0
 40
0.0
 40
0.0
 40
0.0
 40
1.0
 40
1.0
 40
1.0
 40
1.0
 10
714.3628025714406
 20
984.1561669384937
 30
0.0
 10
714.3628025714406
 20
983.1847761732788
 30
0.0
 10
715.1502870536096
 20
982.3972916911079
 30
0.0
 10
716.1216778188218
 20
982.3972916911079
 30
0.0
  0
SPLINE
  5
168
330
70
100
AcDbEntity
  8
Camada 1
 62
    18
420
        0
370
    35
100
AcDbSpline
210
0.0
220
0.0
230
1.0
 70
     8
 71
     3
 72
     8
 73
     4
 74
     0
 42
0.0000000001
 43
0.0000000001
 40
0.0
 40
0.0
 40
0.0
 40
0.0
 40
1.0
 40
1.0
 40
1.0
 40
1.0
 10
716.1216778188218
 20
982.3972916911079
 30
0.0
 10
717.0930938320125
 20
982.3972916911079
 30
0.0
 10
717.880553066202
 20
983.1847761732788
 30
0.0
 10
717.880553066202
 20
984.1561669384937
 30
0.0
  0
SPLINE
  5
169
330
70
100
AcDbEntity
  8
Camada 1
 62
    18
420
        0
370
    35
100
AcDbSpline
210
0.0
220
0.0
230
1.0
 70
     8
 71
     3
 72
     8
 73
     4
 74
     0
 42
0.0000000001
 43
0.0000000001
 40
0.0
 40
0.0
 40
0.0
 40
0.0
 40
1.0
 40
1.0
 40
1.0
 40
1.0
 10
729.6064469606935
 20
984.1561669384937
 30
0.0
 10
729.6064469606935
 20
983.1847761732788
 30
0.0
 10
730.3939061948822
 20
982.3972916911079
 30
0.0
 10
731.3653222080738
 20
982.3972916911079
 30
0.0
  0
SPLINE
  5
16A
330
70
100
AcDbEntity
  8
Camada 1
 62
    18
420
        0
370
    35
100
AcDbSpline
210
0.0
220
0.0
230
1.0
 70
     8
 71
     3
 72
     8
 73
     4
 74
     0
 42
0.0000000001
 43
0.0000000001
 40
0.0
 40
0.0
 40
0.0
 40
0.0
 40
1.0
 40
1.0
 40
1.0
 40
1.0
 10
731.3653222080738
 20
982.3972916911079
 30
0.0
 10
732.336712973286
 20
982.3972916911079
 30
0.0
 10
733.124197455455
 20
983.1847761732788
 30
0.0
 10
733.124197455455
 20
984.1561669384937
 30
0.0
  0
SPLINE
  5
16B
330
70
100
AcDbEntity
  8
Camada 1
 62
    18
420
        0
370
    35
100
AcDbSpline
210
0.0
220
0.0
230
1.0
 70
     8
 71
     3
 72
     8
 73
     4
 74
     0
 42
0.0000000001
 43
0.0000000001
 40
0.0
 40
0.0
 40
0.0
 40
0.0
 40
1.0
 40
1.0
 40
1.0
 40
1.0
 10
744.8500661019661
 20
984.1561669384937
 30
0.0
 10
744.8500661019661
 20
983.1847761732788
 30
0.0
 10
745.6375505841342
 20
982.3972916911079
 30
0.0
 10
746.6089413493464
 20
982.3972916911079
 30
0.0
  0
SPLINE
  5
16C
330
70
100
AcDbEntity
  8
Camada 1
 62
    18
420
        0
370
    35
100
AcDbSpline
210
0.0
220
0.0
230
1.0
 70
     8
 71
     3
 72
     8
 73
     4
 74
     0
 42
0.0000000001
 43
0.0000000001
 40
0.0
 40
0.0
 40
0.0
 40
0.0
 40
1.0
 40
1.0
 40
1.0
 40
1.0
 10
746.6089413493464
 20
982.3972916911079
 30
0.0
 10
747.5803826105184
 20
982.3972916911079
 30
0.0
 10
748.3678670926856
 20
983.1847761732788
 30
0.0
 10
748.3678670926856
 20
984.1561669384937
 30
0.0
  0
SPLINE
  5
16D
330
70
100
AcDbEntity
  8
Camada 1
 62
    18
420
        0
370
    35
100
AcDbSpline
210
0.0
220
0.0
230
1.0
 70
     8
 71
     3
 72
     8
 73
     4
 74
     0
 42
0.0000000001
 43
0.0000000001
 40
0.0
 40
0.0
 40
0.0
 40
0.0
 40
1.0
 40
1.0
 40
1.0
 40
1.0
 10
760.0937357391967
 20
984.1561669384937
 30
0.0
 10
760.0937357391967
 20
983.1847761732788
 30
0.0
 10
760.8812202213657
 20
982.3972916911079
 30
0.0
 10
761.8526109865779
 20
982.3972916911079
 30
0.0
  0
SPLINE
  5
16E
330
70
100
AcDbEntity
  8
Camada 1
 62
    18
420
        0
370
    35
100
AcDbSpline
210
0.0
220
0.0
230
1.0
 70
     8
 71
     3
 72
     8
 73
     4
 74
     0
 42
0.0000000001
 43
0.0000000001
 40
0.0
 40
0.0
 40
0.0
 40
0.0
 40
1.0
 40
1.0
 40
1.0
 40
1.0
 10
761.8526109865779
 20
982.3972916911079
 30
0.0
 10
762.82400175179
 20
982.3972916911079
 30
0.0
 10
763.611486233959
 20
983.1847761732788
 30
0.0
 10
763.611486233959
 20
984.1561669384937
 30
0.0
  0
SPLINE
  5
16F
330
70
100
AcDbEntity
  8
Camada 1
 62
    18
420
        0
370
    35
100
AcDbSpline
210
0.0
220
0.0
230
1.0
 70
     8
 71
     3
 72
     8
 73
     4
 74
     0
 42
0.0000000001
 43
0.0000000001
 40
0.0
 40
0.0
 40
0.0
 40
0.0
 40
1.0
 40
1.0
 40
1.0
 40
1.0
 10
775.3373548804702
 20
984.1561669384937
 30
0.0
 10
775.3373548804702
 20
983.1847761732788
 30
0.0
 10
776.1248393626392
 20
982.3972916911079
 30
0.0
 10
777.0962301278505
 20
982.3972916911079
 30
0.0
  0
SPLINE
  5
170
330
70
100
AcDbEntity
  8
Camada 1
 62
    18
420
        0
370
    35
100
AcDbSpline
210
0.0
220
0.0
230
1.0
 70
     8
 71
     3
 72
     8
 73
     4
 74
     0
 42
0.0000000001
 43
0.0000000001
 40
0.0
 40
0.0
 40
0.0
 40
0.0
 40
1.0
 40
1.0
 40
1.0
 40
1.0
 10
777.0962301278505
 20
982.3972916911079
 30
0.0
 10
778.0676713890207
 20
982.3972916911079
 30
0.0
 10
778.8551053752308
 20
983.1847761732788
 30
0.0
 10
778.8551053752308
 20
984.1561669384937
 30
0.0
  0
SPLINE
  5
171
330
70
100
AcDbEntity
  8
Camada 1
 62
    18
420
        0
370
    35
100
AcDbSpline
210
0.0
220
0.0
230
1.0
 70
     8
 71
     3
 72
     8
 73
     4
 74
     0
 42
0.0000000001
 43
0.0000000001
 40
0.0
 40
0.0
 40
0.0
 40
0.0
 40
1.0
 40
1.0
 40
1.0
 40
1.0
 10
790.5810245177017
 20
984.1561669384937
 30
0.0
 10
790.5810245177017
 20
983.1847761732788
 30
0.0
 10
791.3684585039118
 20
982.3972916911079
 30
0.0
 10
792.3398997650829
 20
982.3972916911079
 30
0.0
  0
SPLINE
  5
172
330
70
100
AcDbEntity
  8
Camada 1
 62
    18
420
        0
370
    35
100
AcDbSpline
210
0.0
220
0.0
230
1.0
 70
     8
 71
     3
 72
     8
 73
     4
 74
     0
 42
0.0000000001
 43
0.0000000001
 40
0.0
 40
0.0
 40
0.0
 40
0.0
 40
1.0
 40
1.0
 40
1.0
 40
1.0
 10
792.3398997650829
 20
982.3972916911079
 30
0.0
 10
793.3112905302942
 20
982.3972916911079
 30
0.0
 10
794.0987750124622
 20
983.1847761732788
 30
0.0
 10
794.0987750124622
 20
984.1561669384937
 30
0.0
  0
SPLINE
  5
173
330
70
100
AcDbEntity
  8
Camada 1
 62
    18
420
        0
370
    35
100
AcDbSpline
210
0.0
220
0.0
230
1.0
 70
     8
 71
     3
 72
     8
 73
     4
 74
     0
 42
0.0000000001
 43
0.0000000001
 40
0.0
 40
0.0
 40
0.0
 40
0.0
 40
1.0
 40
1.0
 40
1.0
 40
1.0
 10
805.8246436589742
 20
984.1561669384937
 30
0.0
 10
805.8246436589742
 20
983.1847761732788
 30
0.0
 10
806.6121281411415
 20
982.3972916911079
 30
0.0
 10
807.5835189063546
 20
982.3972916911079
 30
0.0
  0
SPLINE
  5
174
330
70
100
AcDbEntity
  8
Camada 1
 62
    18
420
        0
370
    35
100
AcDbSpline
210
0.0
220
0.0
230
1.0
 70
     8
 71
     3
 72
     8
 73
     4
 74
     0
 42
0.0000000001
 43
0.0000000001
 40
0.0
 40
0.0
 40
0.0
 40
0.0
 40
1.0
 40
1.0
 40
1.0
 40
1.0
 10
807.5835189063546
 20
982.3972916911079
 30
0.0
 10
808.5549096715704
 20
982.3972916911079
 30
0.0
 10
809.3423941537349
 20
983.1847761732788
 30
0.0
 10
809.3423941537349
 20
984.1561669384937
 30
0.0
  0
SPLINE
  5
175
330
70
100
AcDbEntity
  8
Camada 1
 62
    18
420
        0
370
    35
100
AcDbSpline
210
0.0
220
0.0
230
1.0
 70
     8
 71
     3
 72
     8
 73
     4
 74
     0
 42
0.0000000001
 43
0.0000000001
 40
0.0
 40
0.0
 40
0.0
 40
0.0
 40
1.0
 40
1.0
 40
1.0
 40
1.0
 10
821.068262800245
 20
984.1561669384937
 30
0.0
 10
821.068262800245
 20
983.1847761732788
 30
0.0
 10
821.855747282415
 20
982.3972916911079
 30
0.0
 10
822.8271885435869
 20
982.3972916911079
 30
0.0
  0
SPLINE
  5
176
330
70
100
AcDbEntity
  8
Camada 1
 62
    18
420
        0
370
    35
100
AcDbSpline
210
0.0
220
0.0
230
1.0
 70
     8
 71
     3
 72
     8
 73
     4
 74
     0
 42
0.0000000001
 43
0.0000000001
 40
0.0
 40
0.0
 40
0.0
 40
0.0
 40
1.0
 40
1.0
 40
1.0
 40
1.0
 10
822.8271885435869
 20
982.3972916911079
 30
0.0
 10
823.7985793087982
 20
982.3972916911079
 30
0.0
 10
824.5860637909682
 20
983.1847761732788
 30
0.0
 10
824.5860637909682
 20
984.1561669384937
 30
0.0
  0
SPLINE
  5
177
330
70
100
AcDbEntity
  8
Camada 1
 62
    18
420
        0
370
    35
100
AcDbSpline
210
0.0
220
0.0
230
1.0
 70
     8
 71
     3
 72
     8
 73
     4
 74
     0
 42
0.0000000001
 43
0.0000000001
 40
0.0
 40
0.0
 40
0.0
 40
0.0
 40
1.0
 40
1.0
 40
1.0
 40
1.0
 10
836.3119324374784
 20
984.1561669384937
 30
0.0
 10
836.3119324374784
 20
983.1847761732788
 30
0.0
 10
837.0994169196475
 20
982.3972916911079
 30
0.0
 10
838.0708076848614
 20
982.3972916911079
 30
0.0
  0
SPLINE
  5
178
330
70
100
AcDbEntity
  8
Camada 1
 62
    18
420
        0
370
    35
100
AcDbSpline
210
0.0
220
0.0
230
1.0
 70
     8
 71
     3
 72
     8
 73
     4
 74
     0
 42
0.0000000001
 43
0.0000000001
 40
0.0
 40
0.0
 40
0.0
 40
0.0
 40
1.0
 40
1.0
 40
1.0
 40
1.0
 10
838.0708076848614
 20
982.3972916911079
 30
0.0
 10
839.0421984500717
 20
982.3972916911079
 30
0.0
 10
839.8296829322399
 20
983.1847761732788
 30
0.0
 10
839.8296829322399
 20
984.1561669384937
 30
0.0
  0
SPLINE
  5
179
330
70
100
AcDbEntity
  8
Camada 1
 62
    18
420
        0
370
    35
100
AcDbSpline
210
0.0
220
0.0
230
1.0
 70
     8
 71
     3
 72
     8
 73
     4
 74
     0
 42
0.0000000001
 43
0.0000000001
 40
0.0
 40
0.0
 40
0.0
 40
0.0
 40
1.0
 40
1.0
 40
1.0
 40
1.0
 10
851.5555515787509
 20
984.1561669384937
 30
0.0
 10
851.5555515787509
 20
983.1847761732788
 30
0.0
 10
852.3430360609191
 20
982.3972916911079
 30
0.0
 10
853.3144268261331
 20
982.3972916911079
 30
0.0
  0
SPLINE
  5
17A
330
70
100
AcDbEntity
  8
Camada 1
 62
    18
420
        0
370
    35
100
AcDbSpline
210
0.0
220
0.0
230
1.0
 70
     8
 71
     3
 72
     8
 73
     4
 74
     0
 42
0.0000000001
 43
0.0000000001
 40
0.0
 40
0.0
 40
0.0
 40
0.0
 40
1.0
 40
1.0
 40
1.0
 40
1.0
 10
853.3144268261331
 20
982.3972916911079
 30
0.0
 10
854.2858680873033
 20
982.3972916911079
 30
0.0
 10
855.0733525694713
 20
983.1847761732788
 30
0.0
 10
855.0733525694713
 20
984.1561669384937
 30
0.0
  0
SPLINE
  5
17B
330
70
100
AcDbEntity
  8
Camada 1
 62
    18
420
        0
370
    35
100
AcDbSpline
210
0.0
220
0.0
230
1.0
 70
     8
 71
     3
 72
     8
 73
     4
 74
     0
 42
0.0000000001
 43
0.0000000001
 40
0.0
 40
0.0
 40
0.0
 40
0.0
 40
1.0
 40
1.0
 40
1.0
 40
1.0
 10
866.7992212159834
 20
984.1561669384937
 30
0.0
 10
866.7992212159834
 20
983.1847761732788
 30
0.0
 10
867.5867056981514
 20
982.3972916911079
 30
0.0
 10
868.5580964633627
 20
982.3972916911079
 30
0.0
  0
SPLINE
  5
17C
330
70
100
AcDbEntity
  8
Camada 1
 62
    18
420
        0
370
    35
100
AcDbSpline
210
0.0
220
0.0
230
1.0
 70
     8
 71
     3
 72
     8
 73
     4
 74
     0
 42
0.0000000001
 43
0.0000000001
 40
0.0
 40
0.0
 40
0.0
 40
0.0
 40
1.0
 40
1.0
 40
1.0
 40
1.0
 10
868.5580964633627
 20
982.3972916911079
 30
0.0
 10
869.5294872285758
 20
982.3972916911079
 30
0.0
 10
870.3169717107439
 20
983.1847761732788
 30
0.0
 10
870.3169717107439
 20
984.1561669384937
 30
0.0
  0
SPLINE
  5
17D
330
70
100
AcDbEntity
  8
Camada 1
 62
    18
420
        0
370
    35
100
AcDbSpline
210
0.0
220
0.0
230
1.0
 70
     8
 71
     3
 72
     8
 73
     4
 74
     0
 42
0.0000000001
 43
0.0000000001
 40
0.0
 40
0.0
 40
0.0
 40
0.0
 40
1.0
 40
1.0
 40
1.0
 40
1.0
 10
882.0428403572559
 20
984.1561669384937
 30
0.0
 10
882.0428403572559
 20
983.1847761732788
 30
0.0
 10
882.830324839424
 20
982.3972916911079
 30
0.0
 10
883.8017156046362
 20
982.3972916911079
 30
0.0
  0
SPLINE
  5
17E
330
70
100
AcDbEntity
  8
Camada 1
 62
    18
420
        0
370
    35
100
AcDbSpline
210
0.0
220
0.0
230
1.0
 70
     8
 71
     3
 72
     8
 73
     4
 74
     0
 42
0.0000000001
 43
0.0000000001
 40
0.0
 40
0.0
 40
0.0
 40
0.0
 40
1.0
 40
1.0
 40
1.0
 40
1.0
 10
883.8017156046362
 20
982.3972916911079
 30
0.0
 10
884.7731063698484
 20
982.3972916911079
 30
0.0
 10
885.5605908520173
 20
983.1847761732788
 30
0.0
 10
885.5605908520173
 20
984.1561669384937
 30
0.0
  0
SPLINE
  5
17F
330
70
100
AcDbEntity
  8
Camada 1
 62
    18
420
        0
370
    35
100
AcDbSpline
210
0.0
220
0.0
230
1.0
 70
     8
 71
     3
 72
     8
 73
     4
 74
     0
 42
0.0000000001
 43
0.0000000001
 40
0.0
 40
0.0
 40
0.0
 40
0.0
 40
1.0
 40
1.0
 40
1.0
 40
1.0
 10
897.2865099944865
 20
984.1561669384937
 30
0.0
 10
897.2865099944865
 20
983.1847761732788
 30
0.0
 10
898.0739439806965
 20
982.3972916911079
 30
0.0
 10
899.0453852418687
 20
982.3972916911079
 30
0.0
  0
SPLINE
  5
180
330
70
100
AcDbEntity
  8
Camada 1
 62
    18
420
        0
370
    35
100
AcDbSpline
210
0.0
220
0.0
230
1.0
 70
     8
 71
     3
 72
     8
 73
     4
 74
     0
 42
0.0000000001
 43
0.0000000001
 40
0.0
 40
0.0
 40
0.0
 40
0.0
 40
1.0
 40
1.0
 40
1.0
 40
1.0
 10
899.0453852418687
 20
982.3972916911079
 30
0.0
 10
900.0167760070798
 20
982.3972916911079
 30
0.0
 10
900.8042604892471
 20
983.1847761732788
 30
0.0
 10
900.8042604892471
 20
984.1561669384937
 30
0.0
  0
SPLINE
  5
181
330
70
100
AcDbEntity
  8
Camada 1
 62
    18
420
        0
370
    35
100
AcDbSpline
210
0.0
220
0.0
230
1.0
 70
     8
 71
     3
 72
     8
 73
     4
 74
     0
 42
0.0000000001
 43
0.0000000001
 40
0.0
 40
0.0
 40
0.0
 40
0.0
 40
1.0
 40
1.0
 40
1.0
 40
1.0
 10
912.530129135761
 20
984.1561669384937
 30
0.0
 10
912.530129135761
 20
983.1847761732788
 30
0.0
 10
913.3176136179281
 20
982.3972916911079
 30
0.0
 10
914.2890043831394
 20
982.3972916911079
 30
0.0
  0
SPLINE
  5
182
330
70
100
AcDbEntity
  8
Camada 1
 62
    18
420
        0
370
    35
100
AcDbSpline
210
0.0
220
0.0
230
1.0
 70
     8
 71
     3
 72
     8
 73
     4
 74
     0
 42
0.0000000001
 43
0.0000000001
 40
0.0
 40
0.0
 40
0.0
 40
0.0
 40
1.0
 40
1.0
 40
1.0
 40
1.0
 10
914.2890043831394
 20
982.3972916911079
 30
0.0
 10
915.2603951483525
 20
982.3972916911079
 30
0.0
 10
916.0478796305214
 20
983.1847761732788
 30
0.0
 10
916.0478796305214
 20
984.1561669384937
 30
0.0
  0
SPLINE
  5
183
330
70
100
AcDbEntity
  8
Camada 1
 62
    18
420
        0
370
    35
100
AcDbSpline
210
0.0
220
0.0
230
1.0
 70
     8
 71
     3
 72
     8
 73
     4
 74
     0
 42
0.0000000001
 43
0.0000000001
 40
0.0
 40
0.0
 40
0.0
 40
0.0
 40
1.0
 40
1.0
 40
1.0
 40
1.0
 10
927.7737482770318
 20
984.1561669384937
 30
0.0
 10
927.7737482770318
 20
983.1847761732788
 30
0.0
 10
928.5612327592025
 20
982.3972916911079
 30
0.0
 10
929.5326740203709
 20
982.3972916911079
 30
0.0
  0
SPLINE
  5
184
330
70
100
AcDbEntity
  8
Camada 1
 62
    18
420
        0
370
    35
100
AcDbSpline
210
0.0
220
0.0
230
1.0
 70
     8
 71
     3
 72
     8
 73
     4
 74
     0
 42
0.0000000001
 43
0.0000000001
 40
0.0
 40
0.0
 40
0.0
 40
0.0
 40
1.0
 40
1.0
 40
1.0
 40
1.0
 10
929.5326740203709
 20
982.3972916911079
 30
0.0
 10
930.504064785584
 20
982.3972916911079
 30
0.0
 10
931.2915492677531
 20
983.1847761732788
 30
0.0
 10
931.2915492677531
 20
984.1561669384937
 30
0.0
  0
SPLINE
  5
185
330
70
100
AcDbEntity
  8
Camada 1
 62
    18
420
        0
370
    35
100
AcDbSpline
210
0.0
220
0.0
230
1.0
 70
     8
 71
     3
 72
     8
 73
     4
 74
     0
 42
0.0000000001
 43
0.0000000001
 40
0.0
 40
0.0
 40
0.0
 40
0.0
 40
1.0
 40
1.0
 40
1.0
 40
1.0
 10
943.0174179142632
 20
984.1561669384937
 30
0.0
 10
943.0174179142632
 20
983.1847761732788
 30
0.0
 10
943.8049023964341
 20
982.3972916911079
 30
0.0
 10
944.7762931616452
 20
982.3972916911079
 30
0.0
  0
SPLINE
  5
186
330
70
100
AcDbEntity
  8
Camada 1
 62
    18
420
        0
370
    35
100
AcDbSpline
210
0.0
220
0.0
230
1.0
 70
     8
 71
     3
 72
     8
 73
     4
 74
     0
 42
0.0000000001
 43
0.0000000001
 40
0.0
 40
0.0
 40
0.0
 40
0.0
 40
1.0
 40
1.0
 40
1.0
 40
1.0
 10
944.7762931616452
 20
982.3972916911079
 30
0.0
 10
945.7476839268565
 20
982.3972916911079
 30
0.0
 10
946.5351684090274
 20
983.1847761732788
 30
0.0
 10
946.5351684090274
 20
984.1561669384937
 30
0.0
  0
SPLINE
  5
187
330
70
100
AcDbEntity
  8
Camada 1
 62
    18
420
        0
370
    35
100
AcDbSpline
210
0.0
220
0.0
230
1.0
 70
     8
 71
     3
 72
     8
 73
     4
 74
     0
 42
0.0000000001
 43
0.0000000001
 40
0.0
 40
0.0
 40
0.0
 40
0.0
 40
1.0
 40
1.0
 40
1.0
 40
1.0
 10
958.2610370555375
 20
984.1561669384937
 30
0.0
 10
958.2610370555375
 20
983.1847761732788
 30
0.0
 10
959.0485215377048
 20
982.3972916911079
 30
0.0
 10
960.019912302916
 20
982.3972916911079
 30
0.0
  0
SPLINE
  5
188
330
70
100
AcDbEntity
  8
Camada 1
 62
    18
420
        0
370
    35
100
AcDbSpline
210
0.0
220
0.0
230
1.0
 70
     8
 71
     3
 72
     8
 73
     4
 74
     0
 42
0.0000000001
 43
0.0000000001
 40
0.0
 40
0.0
 40
0.0
 40
0.0
 40
1.0
 40
1.0
 40
1.0
 40
1.0
 10
960.019912302916
 20
982.3972916911079
 30
0.0
 10
960.9913535640862
 20
982.3972916911079
 30
0.0
 10
961.7787875502981
 20
983.1847761732788
 30
0.0
 10
961.7787875502981
 20
984.1561669384937
 30
0.0
  0
SPLINE
  5
189
330
70
100
AcDbEntity
  8
Camada 1
 62
    18
420
        0
370
    35
100
AcDbSpline
210
0.0
220
0.0
230
1.0
 70
     8
 71
     3
 72
     8
 73
     4
 74
     0
 42
0.0000000001
 43
0.0000000001
 40
0.0
 40
0.0
 40
0.0
 40
0.0
 40
1.0
 40
1.0
 40
1.0
 40
1.0
 10
973.5047066927691
 20
984.1561669384937
 30
0.0
 10
973.5047066927691
 20
983.1847761732788
 30
0.0
 10
974.292191174938
 20
982.3972916911079
 30
0.0
 10
975.2635819401476
 20
982.3972916911079
 30
0.0
  0
SPLINE
  5
18A
330
70
100
AcDbEntity
  8
Camada 1
 62
    18
420
        0
370
    35
100
AcDbSpline
210
0.0
220
0.0
230
1.0
 70
     8
 71
     3
 72
     8
 73
     4
 74
     0
 42
0.0000000001
 43
0.0000000001
 40
0.0
 40
0.0
 40
0.0
 40
0.0
 40
1.0
 40
1.0
 40
1.0
 40
1.0
 10
975.2635819401476
 20
982.3972916911079
 30
0.0
 10
976.2349727053607
 20
982.3972916911079
 30
0.0
 10
977.0224571875296
 20
983.1847761732788
 30
0.0
 10
977.0224571875296
 20
984.1561669384937
 30
0.0
  0
SPLINE
  5
18B
330
70
100
AcDbEntity
  8
Camada 1
 62
    18
420
        0
370
    35
100
AcDbSpline
210
0.0
220
0.0
230
1.0
 70
     8
 71
     3
 72
     8
 73
     4
 74
     0
 42
0.0000000001
 43
0.0000000001
 40
0.0
 40
0.0
 40
0.0
 40
0.0
 40
1.0
 40
1.0
 40
1.0
 40
1.0
 10
988.7483258340417
 20
984.1561669384937
 30
0.0
 10
988.7483258340417
 20
983.1847761732788
 30
0.0
 10
989.5358103162108
 20
982.3972916911079
 30
0.0
 10
990.5072010814219
 20
982.3972916911079
 30
0.0
  0
SPLINE
  5
18C
330
70
100
AcDbEntity
  8
Camada 1
 62
    18
420
        0
370
    35
100
AcDbSpline
210
0.0
220
0.0
230
1.0
 70
     8
 71
     3
 72
     8
 73
     4
 74
     0
 42
0.0000000001
 43
0.0000000001
 40
0.0
 40
0.0
 40
0.0
 40
0.0
 40
1.0
 40
1.0
 40
1.0
 40
1.0
 10
990.5072010814219
 20
982.3972916911079
 30
0.0
 10
991.4785918466332
 20
982.3972916911079
 30
0.0
 10
992.2660763288041
 20
983.1847761732788
 30
0.0
 10
992.2660763288041
 20
984.1561669384937
 30
0.0
  0
SPLINE
  5
18D
330
70
100
AcDbEntity
  8
Camada 1
 62
    18
420
        0
370
    35
100
AcDbSpline
210
0.0
220
0.0
230
1.0
 70
     8
 71
     3
 72
     8
 73
     4
 74
     0
 42
0.0000000001
 43
0.0000000001
 40
0.0
 40
0.0
 40
0.0
 40
0.0
 40
1.0
 40
1.0
 40
1.0
 40
1.0
 10
1003.991995471269
 20
984.1561669384937
 30
0.0
 10
1003.991995471269
 20
983.1847761732788
 30
0.0
 10
1004.779429457479
 20
982.3972916911079
 30
0.0
 10
1005.750870718649
 20
982.3972916911079
 30
0.0
  0
SPLINE
  5
18E
330
70
100
AcDbEntity
  8
Camada 1
 62
    18
420
        0
370
    35
100
AcDbSpline
210
0.0
220
0.0
230
1.0
 70
     8
 71
     3
 72
     8
 73
     4
 74
     0
 42
0.0000000001
 43
0.0000000001
 40
0.0
 40
0.0
 40
0.0
 40
0.0
 40
1.0
 40
1.0
 40
1.0
 40
1.0
 10
1005.750870718649
 20
982.3972916911079
 30
0.0
 10
1006.722261483859
 20
982.3972916911079
 30
0.0
 10
1007.509745966039
 20
983.1847761732788
 30
0.0
 10
1007.509745966039
 20
984.1561669384937
 30
0.0
  0
SPLINE
  5
18F
330
70
100
AcDbEntity
  8
Camada 1
 62
    18
420
        0
370
    35
100
AcDbSpline
210
0.0
220
0.0
230
1.0
 70
     8
 71
     3
 72
     8
 73
     4
 74
     0
 42
0.0000000001
 43
0.0000000001
 40
0.0
 40
0.0
 40
0.0
 40
0.0
 40
1.0
 40
1.0
 40
1.0
 40
1.0
 10
1019.235614612549
 20
984.1561669384937
 30
0.0
 10
1019.235614612549
 20
983.1847761732788
 30
0.0
 10
1020.023099094709
 20
982.3972916911079
 30
0.0
 10
1020.994489859929
 20
982.3972916911079
 30
0.0
  0
SPLINE
  5
190
330
70
100
AcDbEntity
  8
Camada 1
 62
    18
420
        0
370
    35
100
AcDbSpline
210
0.0
220
0.0
230
1.0
 70
     8
 71
     3
 72
     8
 73
     4
 74
     0
 42
0.0000000001
 43
0.0000000001
 40
0.0
 40
0.0
 40
0.0
 40
0.0
 40
1.0
 40
1.0
 40
1.0
 40
1.0
 10
1020.994489859929
 20
982.3972916911079
 30
0.0
 10
1021.965880625139
 20
982.3972916911079
 30
0.0
 10
1022.75336510731
 20
983.1847761732788
 30
0.0
 10
1022.75336510731
 20
984.1561669384937
 30
0.0
  0
SPLINE
  5
191
330
70
100
AcDbEntity
  8
Camada 1
 62
    18
420
        0
370
    35
100
AcDbSpline
210
0.0
220
0.0
230
1.0
 70
     8
 71
     3
 72
     8
 73
     4
 74
     0
 42
0.0000000001
 43
0.0000000001
 40
0.0
 40
0.0
 40
0.0
 40
0.0
 40
1.0
 40
1.0
 40
1.0
 40
1.0
 10
1034.47923375382
 20
984.1561669384937
 30
0.0
 10
1034.47923375382
 20
983.1847761732788
 30
0.0
 10
1035.266718235991
 20
982.3972916911079
 30
0.0
 10
1036.2381090012
 20
982.3972916911079
 30
0.0
  0
SPLINE
  5
192
330
70
100
AcDbEntity
  8
Camada 1
 62
    18
420
        0
370
    35
100
AcDbSpline
210
0.0
220
0.0
230
1.0
 70
     8
 71
     3
 72
     8
 73
     4
 74
     0
 42
0.0000000001
 43
0.0000000001
 40
0.0
 40
0.0
 40
0.0
 40
0.0
 40
1.0
 40
1.0
 40
1.0
 40
1.0
 10
1036.2381090012
 20
982.3972916911079
 30
0.0
 10
1037.20955026237
 20
982.3972916911079
 30
0.0
 10
1037.997034744539
 20
983.1847761732788
 30
0.0
 10
1037.997034744539
 20
984.1561669384937
 30
0.0
  0
SPLINE
  5
193
330
70
100
AcDbEntity
  8
Camada 1
 62
    18
420
        0
370
    35
100
AcDbSpline
210
0.0
220
0.0
230
1.0
 70
     8
 71
     3
 72
     8
 73
     4
 74
     0
 42
0.0000000001
 43
0.0000000001
 40
0.0
 40
0.0
 40
0.0
 40
0.0
 40
1.0
 40
1.0
 40
1.0
 40
1.0
 10
491.0149085623834
 20
1022.028742215209
 30
0.0
 10
496.0868994302718
 20
1015.38448391679
 30
0.0
 10
495.576991235278
 20
1006.03909577418
 30
0.0
 10
489.8122463044928
 20
999.9860946608787
 30
0.0
  0
SPLINE
  5
194
330
70
100
AcDbEntity
  8
Camada 1
 62
    18
420
        0
370
    35
100
AcDbSpline
210
0.0
220
0.0
230
1.0
 70
     8
 71
     3
 72
     8
 73
     4
 74
     0
 42
0.0000000001
 43
0.0000000001
 40
0.0
 40
0.0
 40
0.0
 40
0.0
 40
1.0
 40
1.0
 40
1.0
 40
1.0
 10
489.8122463044928
 20
1025.58623302978
 30
0.0
 10
489.8122463044928
 20
1024.30060591109
 30
0.0
 10
490.2348217382232
 20
1023.05062893952
 30
0.0
 10
491.0149085623834
 20
1022.028742215209
 30
0.0
  0
SPLINE
  5
195
330
70
100
AcDbEntity
  8
Camada 1
 62
    18
420
        0
370
    35
100
AcDbSpline
210
0.0
220
0.0
230
1.0
 70
     8
 71
     3
 72
     8
 73
     4
 74
     0
 42
0.0000000001
 43
0.0000000001
 40
0.0
 40
0.0
 40
0.0
 40
0.0
 40
1.0
 40
1.0
 40
1.0
 40
1.0
 10
519.713251749863
 20
1039.26781017225
 30
0.0
 10
519.713251749863
 20
1040.23920093746
 30
0.0
 10
518.925767267694
 20
1041.02668541962
 30
0.0
 10
517.9543512545023
 20
1041.02668541962
 30
0.0
  0
SPLINE
  5
196
330
70
100
AcDbEntity
  8
Camada 1
 62
    18
420
        0
370
    35
100
AcDbSpline
210
0.0
220
0.0
230
1.0
 70
     8
 71
     3
 72
     8
 73
     4
 74
     0
 42
0.0000000001
 43
0.0000000001
 40
0.0
 40
0.0
 40
0.0
 40
0.0
 40
1.0
 40
1.0
 40
1.0
 40
1.0
 10
517.9543512545023
 20
1041.02668541962
 30
0.0
 10
516.9829604892911
 20
1041.02668541962
 30
0.0
 10
516.1954760071221
 20
1040.23920093746
 30
0.0
 10
516.1954760071221
 20
1039.26781017225
 30
0.0
  0
SPLINE
  5
197
330
70
100
AcDbEntity
  8
Camada 1
 62
    18
420
        0
370
    35
100
AcDbSpline
210
0.0
220
0.0
230
1.0
 70
     8
 71
     3
 72
     8
 73
     4
 74
     0
 42
0.0000000001
 43
0.0000000001
 40
0.0
 40
0.0
 40
0.0
 40
0.0
 40
1.0
 40
1.0
 40
1.0
 40
1.0
 10
534.9568708911355
 20
1039.26781017225
 30
0.0
 10
534.9568708911355
 20
1040.23920093746
 30
0.0
 10
534.1693864089665
 20
1041.02668541962
 30
0.0
 10
533.1979956437534
 20
1041.02668541962
 30
0.0
  0
SPLINE
  5
198
330
70
100
AcDbEntity
  8
Camada 1
 62
    18
420
        0
370
    35
100
AcDbSpline
210
0.0
220
0.0
230
1.0
 70
     8
 71
     3
 72
     8
 73
     4
 74
     0
 42
0.0000000001
 43
0.0000000001
 40
0.0
 40
0.0
 40
0.0
 40
0.0
 40
1.0
 40
1.0
 40
1.0
 40
1.0
 10
533.1979956437534
 20
1041.02668541962
 30
0.0
 10
532.2265796305637
 20
1041.02668541962
 30
0.0
 10
531.4391203963741
 20
1040.23920093746
 30
0.0
 10
531.4391203963741
 20
1039.26781017225
 30
0.0
  0
SPLINE
  5
199
330
70
100
AcDbEntity
  8
Camada 1
 62
    18
420
        0
370
    35
100
AcDbSpline
210
0.0
220
0.0
230
1.0
 70
     8
 71
     3
 72
     8
 73
     4
 74
     0
 42
0.0000000001
 43
0.0000000001
 40
0.0
 40
0.0
 40
0.0
 40
0.0
 40
1.0
 40
1.0
 40
1.0
 40
1.0
 10
550.2005152803885
 20
1039.26781017225
 30
0.0
 10
550.2005152803885
 20
1040.23920093746
 30
0.0
 10
549.4130307982195
 20
1041.02668541962
 30
0.0
 10
548.4416400330074
 20
1041.02668541962
 30
0.0
  0
SPLINE
  5
19A
330
70
100
AcDbEntity
  8
Camada 1
 62
    18
420
        0
370
    35
100
AcDbSpline
210
0.0
220
0.0
230
1.0
 70
     8
 71
     3
 72
     8
 73
     4
 74
     0
 42
0.0000000001
 43
0.0000000001
 40
0.0
 40
0.0
 40
0.0
 40
0.0
 40
1.0
 40
1.0
 40
1.0
 40
1.0
 10
548.4416400330074
 20
1041.02668541962
 30
0.0
 10
547.4702240198157
 20
1041.02668541962
 30
0.0
 10
546.682764785628
 20
1040.23920093746
 30
0.0
 10
546.682764785628
 20
1039.26781017225
 30
0.0
  0
SPLINE
  5
19B
330
70
100
AcDbEntity
  8
Camada 1
 62
    18
420
        0
370
    35
100
AcDbSpline
210
0.0
220
0.0
230
1.0
 70
     8
 71
     3
 72
     8
 73
     4
 74
     0
 42
0.0000000001
 43
0.0000000001
 40
0.0
 40
0.0
 40
0.0
 40
0.0
 40
1.0
 40
1.0
 40
1.0
 40
1.0
 10
565.4441596696406
 20
1039.26781017225
 30
0.0
 10
565.4441596696406
 20
1040.23920093746
 30
0.0
 10
564.6566751874725
 20
1041.02668541962
 30
0.0
 10
563.6852844222594
 20
1041.02668541962
 30
0.0
  0
SPLINE
  5
19C
330
70
100
AcDbEntity
  8
Camada 1
 62
    18
420
        0
370
    35
100
AcDbSpline
210
0.0
220
0.0
230
1.0
 70
     8
 71
     3
 72
     8
 73
     4
 74
     0
 42
0.0000000001
 43
0.0000000001
 40
0.0
 40
0.0
 40
0.0
 40
0.0
 40
1.0
 40
1.0
 40
1.0
 40
1.0
 10
563.6852844222594
 20
1041.02668541962
 30
0.0
 10
562.7138684090677
 20
1041.02668541962
 30
0.0
 10
561.9263839268978
 20
1040.23920093746
 30
0.0
 10
561.9263839268978
 20
1039.26781017225
 30
0.0
  0
SPLINE
  5
19D
330
70
100
AcDbEntity
  8
Camada 1
 62
    18
420
        0
370
    35
100
AcDbSpline
210
0.0
220
0.0
230
1.0
 70
     8
 71
     3
 72
     8
 73
     4
 74
     0
 42
0.0000000001
 43
0.0000000001
 40
0.0
 40
0.0
 40
0.0
 40
0.0
 40
1.0
 40
1.0
 40
1.0
 40
1.0
 10
580.6878040588917
 20
1039.26781017225
 30
0.0
 10
580.6878040588917
 20
1040.23920093746
 30
0.0
 10
579.9003195767236
 20
1041.02668541962
 30
0.0
 10
578.9289035635301
 20
1041.02668541962
 30
0.0
  0
SPLINE
  5
19E
330
70
100
AcDbEntity
  8
Camada 1
 62
    18
420
        0
370
    35
100
AcDbSpline
210
0.0
220
0.0
230
1.0
 70
     8
 71
     3
 72
     8
 73
     4
 74
     0
 42
0.0000000001
 43
0.0000000001
 40
0.0
 40
0.0
 40
0.0
 40
0.0
 40
1.0
 40
1.0
 40
1.0
 40
1.0
 10
578.9289035635301
 20
1041.02668541962
 30
0.0
 10
577.9575127983189
 20
1041.02668541962
 30
0.0
 10
577.1700283161517
 20
1040.23920093746
 30
0.0
 10
577.1700283161517
 20
1039.26781017225
 30
0.0
  0
SPLINE
  5
19F
330
70
100
AcDbEntity
  8
Camada 1
 62
    18
420
        0
370
    35
100
AcDbSpline
210
0.0
220
0.0
230
1.0
 70
     8
 71
     3
 72
     8
 73
     4
 74
     0
 42
0.0000000001
 43
0.0000000001
 40
0.0
 40
0.0
 40
0.0
 40
0.0
 40
1.0
 40
1.0
 40
1.0
 40
1.0
 10
595.9314484481455
 20
1039.26781017225
 30
0.0
 10
595.9314484481455
 20
1040.23920093746
 30
0.0
 10
595.1439639659747
 20
1041.02668541962
 30
0.0
 10
594.1725479527849
 20
1041.02668541962
 30
0.0
  0
SPLINE
  5
1A0
330
70
100
AcDbEntity
  8
Camada 1
 62
    18
420
        0
370
    35
100
AcDbSpline
210
0.0
220
0.0
230
1.0
 70
     8
 71
     3
 72
     8
 73
     4
 74
     0
 42
0.0000000001
 43
0.0000000001
 40
0.0
 40
0.0
 40
0.0
 40
0.0
 40
1.0
 40
1.0
 40
1.0
 40
1.0
 10
594.1725479527849
 20
1041.02668541962
 30
0.0
 10
593.2011571875709
 20
1041.02668541962
 30
0.0
 10
592.4136727054028
 20
1040.23920093746
 30
0.0
 10
592.4136727054028
 20
1039.26781017225
 30
0.0
  0
SPLINE
  5
1A1
330
70
100
AcDbEntity
  8
Camada 1
 62
    18
420
        0
370
    35
100
AcDbSpline
210
0.0
220
0.0
230
1.0
 70
     8
 71
     3
 72
     8
 73
     4
 74
     0
 42
0.0000000001
 43
0.0000000001
 40
0.0
 40
0.0
 40
0.0
 40
0.0
 40
1.0
 40
1.0
 40
1.0
 40
1.0
 10
611.1750675894163
 20
1039.26781017225
 30
0.0
 10
611.1750675894163
 20
1040.23920093746
 30
0.0
 10
610.3876083552277
 20
1041.02668541962
 30
0.0
 10
609.4161923420361
 20
1041.02668541962
 30
0.0
  0
SPLINE
  5
1A2
330
70
100
AcDbEntity
  8
Camada 1
 62
    18
420
        0
370
    35
100
AcDbSpline
210
0.0
220
0.0
230
1.0
 70
     8
 71
     3
 72
     8
 73
     4
 74
     0
 42
0.0000000001
 43
0.0000000001
 40
0.0
 40
0.0
 40
0.0
 40
0.0
 40
1.0
 40
1.0
 40
1.0
 40
1.0
 10
609.4161923420361
 20
1041.02668541962
 30
0.0
 10
608.4448015768248
 20
1041.02668541962
 30
0.0
 10
607.6573170946558
 20
1040.23920093746
 30
0.0
 10
607.6573170946558
 20
1039.26781017225
 30
0.0
  0
SPLINE
  5
1A3
330
70
100
AcDbEntity
  8
Camada 1
 62
    18
420
        0
370
    35
100
AcDbSpline
210
0.0
220
0.0
230
1.0
 70
     8
 71
     3
 72
     8
 73
     4
 74
     0
 42
0.0000000001
 43
0.0000000001
 40
0.0
 40
0.0
 40
0.0
 40
0.0
 40
1.0
 40
1.0
 40
1.0
 40
1.0
 10
626.4187119786693
 20
1039.26781017225
 30
0.0
 10
626.4187119786693
 20
1040.23920093746
 30
0.0
 10
625.6312527444797
 20
1041.02668541962
 30
0.0
 10
624.659836731289
 20
1041.02668541962
 30
0.0
  0
SPLINE
  5
1A4
330
70
100
AcDbEntity
  8
Camada 1
 62
    18
420
        0
370
    35
100
AcDbSpline
210
0.0
220
0.0
230
1.0
 70
     8
 71
     3
 72
     8
 73
     4
 74
     0
 42
0.0000000001
 43
0.0000000001
 40
0.0
 40
0.0
 40
0.0
 40
0.0
 40
1.0
 40
1.0
 40
1.0
 40
1.0
 10
624.659836731289
 20
1041.02668541962
 30
0.0
 10
623.6884459660759
 20
1041.02668541962
 30
0.0
 10
622.9009614839078
 20
1040.23920093746
 30
0.0
 10
622.9009614839078
 20
1039.26781017225
 30
0.0
  0
SPLINE
  5
1A5
330
70
100
AcDbEntity
  8
Camada 1
 62
    18
420
        0
370
    35
100
AcDbSpline
210
0.0
220
0.0
230
1.0
 70
     8
 71
     3
 72
     8
 73
     4
 74
     0
 42
0.0000000001
 43
0.0000000001
 40
0.0
 40
0.0
 40
0.0
 40
0.0
 40
1.0
 40
1.0
 40
1.0
 40
1.0
 10
641.6623563679213
 20
1039.26781017225
 30
0.0
 10
641.6623563679213
 20
1040.23920093746
 30
0.0
 10
640.8748718857523
 20
1041.02668541962
 30
0.0
 10
639.9034811205392
 20
1041.02668541962
 30
0.0
  0
SPLINE
  5
1A6
330
70
100
AcDbEntity
  8
Camada 1
 62
    18
420
        0
370
    35
100
AcDbSpline
210
0.0
220
0.0
230
1.0
 70
     8
 71
     3
 72
     8
 73
     4
 74
     0
 42
0.0000000001
 43
0.0000000001
 40
0.0
 40
0.0
 40
0.0
 40
0.0
 40
1.0
 40
1.0
 40
1.0
 40
1.0
 10
639.9034811205392
 20
1041.02668541962
 30
0.0
 10
638.9320651073504
 20
1041.02668541962
 30
0.0
 10
638.144605873158
 20
1040.23920093746
 30
0.0
 10
638.144605873158
 20
1039.26781017225
 30
0.0
  0
SPLINE
  5
1A7
330
70
100
AcDbEntity
  8
Camada 1
 62
    18
420
        0
370
    35
100
AcDbSpline
210
0.0
220
0.0
230
1.0
 70
     8
 71
     3
 72
     8
 73
     4
 74
     0
 42
0.0000000001
 43
0.0000000001
 40
0.0
 40
0.0
 40
0.0
 40
0.0
 40
1.0
 40
1.0
 40
1.0
 40
1.0
 10
656.9060007571733
 20
1039.26781017225
 30
0.0
 10
656.9060007571733
 20
1040.23920093746
 30
0.0
 10
656.1185162750052
 20
1041.02668541962
 30
0.0
 10
655.1471255097931
 20
1041.02668541962
 30
0.0
  0
SPLINE
  5
1A8
330
70
100
AcDbEntity
  8
Camada 1
 62
    18
420
        0
370
    35
100
AcDbSpline
210
0.0
220
0.0
230
1.0
 70
     8
 71
     3
 72
     8
 73
     4
 74
     0
 42
0.0000000001
 43
0.0000000001
 40
0.0
 40
0.0
 40
0.0
 40
0.0
 40
1.0
 40
1.0
 40
1.0
 40
1.0
 10
655.1471255097931
 20
1041.02668541962
 30
0.0
 10
654.1757094966023
 20
1041.02668541962
 30
0.0
 10
653.3882250144333
 20
1040.23920093746
 30
0.0
 10
653.3882250144333
 20
1039.26781017225
 30
0.0
  0
SPLINE
  5
1A9
330
70
100
AcDbEntity
  8
Camada 1
 62
    18
420
        0
370
    35
100
AcDbSpline
210
0.0
220
0.0
230
1.0
 70
     8
 71
     3
 72
     8
 73
     4
 74
     0
 42
0.0000000001
 43
0.0000000001
 40
0.0
 40
0.0
 40
0.0
 40
0.0
 40
1.0
 40
1.0
 40
1.0
 40
1.0
 10
672.1496451464245
 20
1039.26781017225
 30
0.0
 10
672.1496451464245
 20
1040.23920093746
 30
0.0
 10
671.3621606642573
 20
1041.02668541962
 30
0.0
 10
670.3907698990442
 20
1041.02668541962
 30
0.0
  0
SPLINE
  5
1AA
330
70
100
AcDbEntity
  8
Camada 1
 62
    18
420
        0
370
    35
100
AcDbSpline
210
0.0
220
0.0
230
1.0
 70
     8
 71
     3
 72
     8
 73
     4
 74
     0
 42
0.0000000001
 43
0.0000000001
 40
0.0
 40
0.0
 40
0.0
 40
0.0
 40
1.0
 40
1.0
 40
1.0
 40
1.0
 10
670.3907698990442
 20
1041.02668541962
 30
0.0
 10
669.4193538858544
 20
1041.02668541962
 30
0.0
 10
668.6318694036835
 20
1040.23920093746
 30
0.0
 10
668.6318694036835
 20
1039.26781017225
 30
0.0
  0
SPLINE
  5
1AB
330
70
100
AcDbEntity
  8
Camada 1
 62
    18
420
        0
370
    35
100
AcDbSpline
210
0.0
220
0.0
230
1.0
 70
     8
 71
     3
 72
     8
 73
     4
 74
     0
 42
0.0000000001
 43
0.0000000001
 40
0.0
 40
0.0
 40
0.0
 40
0.0
 40
1.0
 40
1.0
 40
1.0
 40
1.0
 10
687.3932895356784
 20
1039.26781017225
 30
0.0
 10
687.3932895356784
 20
1040.23920093746
 30
0.0
 10
686.6058050535094
 20
1041.02668541962
 30
0.0
 10
685.6343890403167
 20
1041.02668541962
 30
0.0
  0
SPLINE
  5
1AC
330
70
100
AcDbEntity
  8
Camada 1
 62
    18
420
        0
370
    35
100
AcDbSpline
210
0.0
220
0.0
230
1.0
 70
     8
 71
     3
 72
     8
 73
     4
 74
     0
 42
0.0000000001
 43
0.0000000001
 40
0.0
 40
0.0
 40
0.0
 40
0.0
 40
1.0
 40
1.0
 40
1.0
 40
1.0
 10
685.6343890403167
 20
1041.02668541962
 30
0.0
 10
684.6629982751055
 20
1041.02668541962
 30
0.0
 10
683.8755137929383
 20
1040.23920093746
 30
0.0
 10
683.8755137929383
 20
1039.26781017225
 30
0.0
  0
SPLINE
  5
1AD
330
70
100
AcDbEntity
  8
Camada 1
 62
    18
420
        0
370
    35
100
AcDbSpline
210
0.0
220
0.0
230
1.0
 70
     8
 71
     3
 72
     8
 73
     4
 74
     0
 42
0.0000000001
 43
0.0000000001
 40
0.0
 40
0.0
 40
0.0
 40
0.0
 40
1.0
 40
1.0
 40
1.0
 40
1.0
 10
702.6369339249304
 20
1039.26781017225
 30
0.0
 10
702.6369339249304
 20
1040.23920093746
 30
0.0
 10
701.8494494427596
 20
1041.02668541962
 30
0.0
 10
700.8780334295697
 20
1041.02668541962
 30
0.0
  0
SPLINE
  5
1AE
330
70
100
AcDbEntity
  8
Camada 1
 62
    18
420
        0
370
    35
100
AcDbSpline
210
0.0
220
0.0
230
1.0
 70
     8
 71
     3
 72
     8
 73
     4
 74
     0
 42
0.0000000001
 43
0.0000000001
 40
0.0
 40
0.0
 40
0.0
 40
0.0
 40
1.0
 40
1.0
 40
1.0
 40
1.0
 10
700.8780334295697
 20
1041.02668541962
 30
0.0
 10
699.9066426643566
 20
1041.02668541962
 30
0.0
 10
699.1191581821895
 20
1040.23920093746
 30
0.0
 10
699.1191581821895
 20
1039.26781017225
 30
0.0
  0
SPLINE
  5
1AF
330
70
100
AcDbEntity
  8
Camada 1
 62
    18
420
        0
370
    35
100
AcDbSpline
210
0.0
220
0.0
230
1.0
 70
     8
 71
     3
 72
     8
 73
     4
 74
     0
 42
0.0000000001
 43
0.0000000001
 40
0.0
 40
0.0
 40
0.0
 40
0.0
 40
1.0
 40
1.0
 40
1.0
 40
1.0
 10
717.880553066202
 20
1039.26781017225
 30
0.0
 10
717.880553066202
 20
1040.23920093746
 30
0.0
 10
717.0930938320125
 20
1041.02668541962
 30
0.0
 10
716.1216778188218
 20
1041.02668541962
 30
0.0
  0
SPLINE
  5
1B0
330
70
100
AcDbEntity
  8
Camada 1
 62
    18
420
        0
370
    35
100
AcDbSpline
210
0.0
220
0.0
230
1.0
 70
     8
 71
     3
 72
     8
 73
     4
 74
     0
 42
0.0000000001
 43
0.0000000001
 40
0.0
 40
0.0
 40
0.0
 40
0.0
 40
1.0
 40
1.0
 40
1.0
 40
1.0
 10
716.1216778188218
 20
1041.02668541962
 30
0.0
 10
715.1502870536096
 20
1041.02668541962
 30
0.0
 10
714.3628025714406
 20
1040.23920093746
 30
0.0
 10
714.3628025714406
 20
1039.26781017225
 30
0.0
  0
SPLINE
  5
1B1
330
70
100
AcDbEntity
  8
Camada 1
 62
    18
420
        0
370
    35
100
AcDbSpline
210
0.0
220
0.0
230
1.0
 70
     8
 71
     3
 72
     8
 73
     4
 74
     0
 42
0.0000000001
 43
0.0000000001
 40
0.0
 40
0.0
 40
0.0
 40
0.0
 40
1.0
 40
1.0
 40
1.0
 40
1.0
 10
733.124197455455
 20
1039.26781017225
 30
0.0
 10
733.124197455455
 20
1040.23920093746
 30
0.0
 10
732.336712973286
 20
1041.02668541962
 30
0.0
 10
731.3653222080738
 20
1041.02668541962
 30
0.0
  0
SPLINE
  5
1B2
330
70
100
AcDbEntity
  8
Camada 1
 62
    18
420
        0
370
    35
100
AcDbSpline
210
0.0
220
0.0
230
1.0
 70
     8
 71
     3
 72
     8
 73
     4
 74
     0
 42
0.0000000001
 43
0.0000000001
 40
0.0
 40
0.0
 40
0.0
 40
0.0
 40
1.0
 40
1.0
 40
1.0
 40
1.0
 10
731.3653222080738
 20
1041.02668541962
 30
0.0
 10
730.3939061948822
 20
1041.02668541962
 30
0.0
 10
729.6064469606935
 20
1040.23920093746
 30
0.0
 10
729.6064469606935
 20
1039.26781017225
 30
0.0
  0
SPLINE
  5
1B3
330
70
100
AcDbEntity
  8
Camada 1
 62
    18
420
        0
370
    35
100
AcDbSpline
210
0.0
220
0.0
230
1.0
 70
     8
 71
     3
 72
     8
 73
     4
 74
     0
 42
0.0000000001
 43
0.0000000001
 40
0.0
 40
0.0
 40
0.0
 40
0.0
 40
1.0
 40
1.0
 40
1.0
 40
1.0
 10
748.3678670926856
 20
1039.26781017225
 30
0.0
 10
748.3678670926856
 20
1040.23920093746
 30
0.0
 10
747.5803826105184
 20
1041.02668541962
 30
0.0
 10
746.6089413493464
 20
1041.02668541962
 30
0.0
  0
SPLINE
  5
1B4
330
70
100
AcDbEntity
  8
Camada 1
 62
    18
420
        0
370
    35
100
AcDbSpline
210
0.0
220
0.0
230
1.0
 70
     8
 71
     3
 72
     8
 73
     4
 74
     0
 42
0.0000000001
 43
0.0000000001
 40
0.0
 40
0.0
 40
0.0
 40
0.0
 40
1.0
 40
1.0
 40
1.0
 40
1.0
 10
746.6089413493464
 20
1041.02668541962
 30
0.0
 10
745.6375505841342
 20
1041.02668541962
 30
0.0
 10
744.8500661019661
 20
1040.23920093746
 30
0.0
 10
744.8500661019661
 20
1039.26781017225
 30
0.0
  0
SPLINE
  5
1B5
330
70
100
AcDbEntity
  8
Camada 1
 62
    18
420
        0
370
    35
100
AcDbSpline
210
0.0
220
0.0
230
1.0
 70
     8
 71
     3
 72
     8
 73
     4
 74
     0
 42
0.0000000001
 43
0.0000000001
 40
0.0
 40
0.0
 40
0.0
 40
0.0
 40
1.0
 40
1.0
 40
1.0
 40
1.0
 10
763.611486233959
 20
1039.26781017225
 30
0.0
 10
763.611486233959
 20
1040.23920093746
 30
0.0
 10
762.82400175179
 20
1041.02668541962
 30
0.0
 10
761.8526109865779
 20
1041.02668541962
 30
0.0
  0
SPLINE
  5
1B6
330
70
100
AcDbEntity
  8
Camada 1
 62
    18
420
        0
370
    35
100
AcDbSpline
210
0.0
220
0.0
230
1.0
 70
     8
 71
     3
 72
     8
 73
     4
 74
     0
 42
0.0000000001
 43
0.0000000001
 40
0.0
 40
0.0
 40
0.0
 40
0.0
 40
1.0
 40
1.0
 40
1.0
 40
1.0
 10
761.8526109865779
 20
1041.02668541962
 30
0.0
 10
760.8812202213657
 20
1041.02668541962
 30
0.0
 10
760.0937357391967
 20
1040.23920093746
 30
0.0
 10
760.0937357391967
 20
1039.26781017225
 30
0.0
  0
SPLINE
  5
1B7
330
70
100
AcDbEntity
  8
Camada 1
 62
    18
420
        0
370
    35
100
AcDbSpline
210
0.0
220
0.0
230
1.0
 70
     8
 71
     3
 72
     8
 73
     4
 74
     0
 42
0.0000000001
 43
0.0000000001
 40
0.0
 40
0.0
 40
0.0
 40
0.0
 40
1.0
 40
1.0
 40
1.0
 40
1.0
 10
778.8551053752308
 20
1039.26781017225
 30
0.0
 10
778.8551053752308
 20
1040.23920093746
 30
0.0
 10
778.0676713890207
 20
1041.02668541962
 30
0.0
 10
777.0962301278505
 20
1041.02668541962
 30
0.0
  0
SPLINE
  5
1B8
330
70
100
AcDbEntity
  8
Camada 1
 62
    18
420
        0
370
    35
100
AcDbSpline
210
0.0
220
0.0
230
1.0
 70
     8
 71
     3
 72
     8
 73
     4
 74
     0
 42
0.0000000001
 43
0.0000000001
 40
0.0
 40
0.0
 40
0.0
 40
0.0
 40
1.0
 40
1.0
 40
1.0
 40
1.0
 10
777.0962301278505
 20
1041.02668541962
 30
0.0
 10
776.1248393626392
 20
1041.02668541962
 30
0.0
 10
775.3373548804702
 20
1040.23920093746
 30
0.0
 10
775.3373548804702
 20
1039.26781017225
 30
0.0
  0
SPLINE
  5
1B9
330
70
100
AcDbEntity
  8
Camada 1
 62
    18
420
        0
370
    35
100
AcDbSpline
210
0.0
220
0.0
230
1.0
 70
     8
 71
     3
 72
     8
 73
     4
 74
     0
 42
0.0000000001
 43
0.0000000001
 40
0.0
 40
0.0
 40
0.0
 40
0.0
 40
1.0
 40
1.0
 40
1.0
 40
1.0
 10
794.0987750124622
 20
1039.26781017225
 30
0.0
 10
794.0987750124622
 20
1040.23920093746
 30
0.0
 10
793.3112905302942
 20
1041.02668541962
 30
0.0
 10
792.3398997650829
 20
1041.02668541962
 30
0.0
  0
SPLINE
  5
1BA
330
70
100
AcDbEntity
  8
Camada 1
 62
    18
420
        0
370
    35
100
AcDbSpline
210
0.0
220
0.0
230
1.0
 70
     8
 71
     3
 72
     8
 73
     4
 74
     0
 42
0.0000000001
 43
0.0000000001
 40
0.0
 40
0.0
 40
0.0
 40
0.0
 40
1.0
 40
1.0
 40
1.0
 40
1.0
 10
792.3398997650829
 20
1041.02668541962
 30
0.0
 10
791.3684585039118
 20
1041.02668541962
 30
0.0
 10
790.5810245177017
 20
1040.23920093746
 30
0.0
 10
790.5810245177017
 20
1039.26781017225
 30
0.0
  0
SPLINE
  5
1BB
330
70
100
AcDbEntity
  8
Camada 1
 62
    18
420
        0
370
    35
100
AcDbSpline
210
0.0
220
0.0
230
1.0
 70
     8
 71
     3
 72
     8
 73
     4
 74
     0
 42
0.0000000001
 43
0.0000000001
 40
0.0
 40
0.0
 40
0.0
 40
0.0
 40
1.0
 40
1.0
 40
1.0
 40
1.0
 10
809.3423941537349
 20
1039.26781017225
 30
0.0
 10
809.3423941537349
 20
1040.23920093746
 30
0.0
 10
808.5549096715704
 20
1041.02668541962
 30
0.0
 10
807.5835189063546
 20
1041.02668541962
 30
0.0
  0
SPLINE
  5
1BC
330
70
100
AcDbEntity
  8
Camada 1
 62
    18
420
        0
370
    35
100
AcDbSpline
210
0.0
220
0.0
230
1.0
 70
     8
 71
     3
 72
     8
 73
     4
 74
     0
 42
0.0000000001
 43
0.0000000001
 40
0.0
 40
0.0
 40
0.0
 40
0.0
 40
1.0
 40
1.0
 40
1.0
 40
1.0
 10
807.5835189063546
 20
1041.02668541962
 30
0.0
 10
806.6121281411415
 20
1041.02668541962
 30
0.0
 10
805.8246436589742
 20
1040.23920093746
 30
0.0
 10
805.8246436589742
 20
1039.26781017225
 30
0.0
  0
SPLINE
  5
1BD
330
70
100
AcDbEntity
  8
Camada 1
 62
    18
420
        0
370
    35
100
AcDbSpline
210
0.0
220
0.0
230
1.0
 70
     8
 71
     3
 72
     8
 73
     4
 74
     0
 42
0.0000000001
 43
0.0000000001
 40
0.0
 40
0.0
 40
0.0
 40
0.0
 40
1.0
 40
1.0
 40
1.0
 40
1.0
 10
824.5860637909682
 20
1039.26781017225
 30
0.0
 10
824.5860637909682
 20
1040.23920093746
 30
0.0
 10
823.7985793087982
 20
1041.02668541962
 30
0.0
 10
822.8271885435869
 20
1041.02668541962
 30
0.0
  0
SPLINE
  5
1BE
330
70
100
AcDbEntity
  8
Camada 1
 62
    18
420
        0
370
    35
100
AcDbSpline
210
0.0
220
0.0
230
1.0
 70
     8
 71
     3
 72
     8
 73
     4
 74
     0
 42
0.0000000001
 43
0.0000000001
 40
0.0
 40
0.0
 40
0.0
 40
0.0
 40
1.0
 40
1.0
 40
1.0
 40
1.0
 10
822.8271885435869
 20
1041.02668541962
 30
0.0
 10
821.855747282415
 20
1041.02668541962
 30
0.0
 10
821.068262800245
 20
1040.23920093746
 30
0.0
 10
821.068262800245
 20
1039.26781017225
 30
0.0
  0
SPLINE
  5
1BF
330
70
100
AcDbEntity
  8
Camada 1
 62
    18
420
        0
370
    35
100
AcDbSpline
210
0.0
220
0.0
230
1.0
 70
     8
 71
     3
 72
     8
 73
     4
 74
     0
 42
0.0000000001
 43
0.0000000001
 40
0.0
 40
0.0
 40
0.0
 40
0.0
 40
1.0
 40
1.0
 40
1.0
 40
1.0
 10
839.8296829322399
 20
1039.26781017225
 30
0.0
 10
839.8296829322399
 20
1040.23920093746
 30
0.0
 10
839.0421984500717
 20
1041.02668541962
 30
0.0
 10
838.0708076848614
 20
1041.02668541962
 30
0.0
  0
SPLINE
  5
1C0
330
70
100
AcDbEntity
  8
Camada 1
 62
    18
420
        0
370
    35
100
AcDbSpline
210
0.0
220
0.0
230
1.0
 70
     8
 71
     3
 72
     8
 73
     4
 74
     0
 42
0.0000000001
 43
0.0000000001
 40
0.0
 40
0.0
 40
0.0
 40
0.0
 40
1.0
 40
1.0
 40
1.0
 40
1.0
 10
838.0708076848614
 20
1041.02668541962
 30
0.0
 10
837.0994169196475
 20
1041.02668541962
 30
0.0
 10
836.3119324374784
 20
1040.23920093746
 30
0.0
 10
836.3119324374784
 20
1039.26781017225
 30
0.0
  0
SPLINE
  5
1C1
330
70
100
AcDbEntity
  8
Camada 1
 62
    18
420
        0
370
    35
100
AcDbSpline
210
0.0
220
0.0
230
1.0
 70
     8
 71
     3
 72
     8
 73
     4
 74
     0
 42
0.0000000001
 43
0.0000000001
 40
0.0
 40
0.0
 40
0.0
 40
0.0
 40
1.0
 40
1.0
 40
1.0
 40
1.0
 10
855.0733525694713
 20
1039.26781017225
 30
0.0
 10
855.0733525694713
 20
1040.23920093746
 30
0.0
 10
854.2858680873033
 20
1041.02668541962
 30
0.0
 10
853.3144268261331
 20
1041.02668541962
 30
0.0
  0
SPLINE
  5
1C2
330
70
100
AcDbEntity
  8
Camada 1
 62
    18
420
        0
370
    35
100
AcDbSpline
210
0.0
220
0.0
230
1.0
 70
     8
 71
     3
 72
     8
 73
     4
 74
     0
 42
0.0000000001
 43
0.0000000001
 40
0.0
 40
0.0
 40
0.0
 40
0.0
 40
1.0
 40
1.0
 40
1.0
 40
1.0
 10
853.3144268261331
 20
1041.02668541962
 30
0.0
 10
852.3430360609191
 20
1041.02668541962
 30
0.0
 10
851.5555515787509
 20
1040.23920093746
 30
0.0
 10
851.5555515787509
 20
1039.26781017225
 30
0.0
  0
SPLINE
  5
1C3
330
70
100
AcDbEntity
  8
Camada 1
 62
    18
420
        0
370
    35
100
AcDbSpline
210
0.0
220
0.0
230
1.0
 70
     8
 71
     3
 72
     8
 73
     4
 74
     0
 42
0.0000000001
 43
0.0000000001
 40
0.0
 40
0.0
 40
0.0
 40
0.0
 40
1.0
 40
1.0
 40
1.0
 40
1.0
 10
870.3169717107439
 20
1039.26781017225
 30
0.0
 10
870.3169717107439
 20
1040.23920093746
 30
0.0
 10
869.5294872285758
 20
1041.02668541962
 30
0.0
 10
868.5580964633627
 20
1041.02668541962
 30
0.0
  0
SPLINE
  5
1C4
330
70
100
AcDbEntity
  8
Camada 1
 62
    18
420
        0
370
    35
100
AcDbSpline
210
0.0
220
0.0
230
1.0
 70
     8
 71
     3
 72
     8
 73
     4
 74
     0
 42
0.0000000001
 43
0.0000000001
 40
0.0
 40
0.0
 40
0.0
 40
0.0
 40
1.0
 40
1.0
 40
1.0
 40
1.0
 10
868.5580964633627
 20
1041.02668541962
 30
0.0
 10
867.5867056981514
 20
1041.02668541962
 30
0.0
 10
866.7992212159834
 20
1040.23920093746
 30
0.0
 10
866.7992212159834
 20
1039.26781017225
 30
0.0
  0
SPLINE
  5
1C5
330
70
100
AcDbEntity
  8
Camada 1
 62
    18
420
        0
370
    35
100
AcDbSpline
210
0.0
220
0.0
230
1.0
 70
     8
 71
     3
 72
     8
 73
     4
 74
     0
 42
0.0000000001
 43
0.0000000001
 40
0.0
 40
0.0
 40
0.0
 40
0.0
 40
1.0
 40
1.0
 40
1.0
 40
1.0
 10
885.5605908520173
 20
1039.26781017225
 30
0.0
 10
885.5605908520173
 20
1040.23920093746
 30
0.0
 10
884.7731063698484
 20
1041.02668541962
 30
0.0
 10
883.8017156046362
 20
1041.02668541962
 30
0.0
  0
SPLINE
  5
1C6
330
70
100
AcDbEntity
  8
Camada 1
 62
    18
420
        0
370
    35
100
AcDbSpline
210
0.0
220
0.0
230
1.0
 70
     8
 71
     3
 72
     8
 73
     4
 74
     0
 42
0.0000000001
 43
0.0000000001
 40
0.0
 40
0.0
 40
0.0
 40
0.0
 40
1.0
 40
1.0
 40
1.0
 40
1.0
 10
883.8017156046362
 20
1041.02668541962
 30
0.0
 10
882.830324839424
 20
1041.02668541962
 30
0.0
 10
882.0428403572559
 20
1040.23920093746
 30
0.0
 10
882.0428403572559
 20
1039.26781017225
 30
0.0
  0
SPLINE
  5
1C7
330
70
100
AcDbEntity
  8
Camada 1
 62
    18
420
        0
370
    35
100
AcDbSpline
210
0.0
220
0.0
230
1.0
 70
     8
 71
     3
 72
     8
 73
     4
 74
     0
 42
0.0000000001
 43
0.0000000001
 40
0.0
 40
0.0
 40
0.0
 40
0.0
 40
1.0
 40
1.0
 40
1.0
 40
1.0
 10
900.8042604892471
 20
1039.26781017225
 30
0.0
 10
900.8042604892471
 20
1040.23920093746
 30
0.0
 10
900.0167760070798
 20
1041.02668541962
 30
0.0
 10
899.0453852418687
 20
1041.02668541962
 30
0.0
  0
SPLINE
  5
1C8
330
70
100
AcDbEntity
  8
Camada 1
 62
    18
420
        0
370
    35
100
AcDbSpline
210
0.0
220
0.0
230
1.0
 70
     8
 71
     3
 72
     8
 73
     4
 74
     0
 42
0.0000000001
 43
0.0000000001
 40
0.0
 40
0.0
 40
0.0
 40
0.0
 40
1.0
 40
1.0
 40
1.0
 40
1.0
 10
899.0453852418687
 20
1041.02668541962
 30
0.0
 10
898.0739439806965
 20
1041.02668541962
 30
0.0
 10
897.2865099944865
 20
1040.23920093746
 30
0.0
 10
897.2865099944865
 20
1039.26781017225
 30
0.0
  0
SPLINE
  5
1C9
330
70
100
AcDbEntity
  8
Camada 1
 62
    18
420
        0
370
    35
100
AcDbSpline
210
0.0
220
0.0
230
1.0
 70
     8
 71
     3
 72
     8
 73
     4
 74
     0
 42
0.0000000001
 43
0.0000000001
 40
0.0
 40
0.0
 40
0.0
 40
0.0
 40
1.0
 40
1.0
 40
1.0
 40
1.0
 10
916.0478796305214
 20
1039.26781017225
 30
0.0
 10
916.0478796305214
 20
1040.23920093746
 30
0.0
 10
915.2603951483525
 20
1041.02668541962
 30
0.0
 10
914.2890043831394
 20
1041.02668541962
 30
0.0
  0
SPLINE
  5
1CA
330
70
100
AcDbEntity
  8
Camada 1
 62
    18
420
        0
370
    35
100
AcDbSpline
210
0.0
220
0.0
230
1.0
 70
     8
 71
     3
 72
     8
 73
     4
 74
     0
 42
0.0000000001
 43
0.0000000001
 40
0.0
 40
0.0
 40
0.0
 40
0.0
 40
1.0
 40
1.0
 40
1.0
 40
1.0
 10
914.2890043831394
 20
1041.02668541962
 30
0.0
 10
913.3176136179281
 20
1041.02668541962
 30
0.0
 10
912.530129135761
 20
1040.23920093746
 30
0.0
 10
912.530129135761
 20
1039.26781017225
 30
0.0
  0
SPLINE
  5
1CB
330
70
100
AcDbEntity
  8
Camada 1
 62
    18
420
        0
370
    35
100
AcDbSpline
210
0.0
220
0.0
230
1.0
 70
     8
 71
     3
 72
     8
 73
     4
 74
     0
 42
0.0000000001
 43
0.0000000001
 40
0.0
 40
0.0
 40
0.0
 40
0.0
 40
1.0
 40
1.0
 40
1.0
 40
1.0
 10
931.2915492677531
 20
1039.26781017225
 30
0.0
 10
931.2915492677531
 20
1040.23920093746
 30
0.0
 10
930.504064785584
 20
1041.02668541962
 30
0.0
 10
929.5326740203709
 20
1041.02668541962
 30
0.0
  0
SPLINE
  5
1CC
330
70
100
AcDbEntity
  8
Camada 1
 62
    18
420
        0
370
    35
100
AcDbSpline
210
0.0
220
0.0
230
1.0
 70
     8
 71
     3
 72
     8
 73
     4
 74
     0
 42
0.0000000001
 43
0.0000000001
 40
0.0
 40
0.0
 40
0.0
 40
0.0
 40
1.0
 40
1.0
 40
1.0
 40
1.0
 10
929.5326740203709
 20
1041.02668541962
 30
0.0
 10
928.5612327592025
 20
1041.02668541962
 30
0.0
 10
927.7737482770318
 20
1040.23920093746
 30
0.0
 10
927.7737482770318
 20
1039.26781017225
 30
0.0
  0
SPLINE
  5
1CD
330
70
100
AcDbEntity
  8
Camada 1
 62
    18
420
        0
370
    35
100
AcDbSpline
210
0.0
220
0.0
230
1.0
 70
     8
 71
     3
 72
     8
 73
     4
 74
     0
 42
0.0000000001
 43
0.0000000001
 40
0.0
 40
0.0
 40
0.0
 40
0.0
 40
1.0
 40
1.0
 40
1.0
 40
1.0
 10
946.5351684090274
 20
1039.26781017225
 30
0.0
 10
946.5351684090274
 20
1040.23920093746
 30
0.0
 10
945.7476839268565
 20
1041.02668541962
 30
0.0
 10
944.7762931616452
 20
1041.02668541962
 30
0.0
  0
SPLINE
  5
1CE
330
70
100
AcDbEntity
  8
Camada 1
 62
    18
420
        0
370
    35
100
AcDbSpline
210
0.0
220
0.0
230
1.0
 70
     8
 71
     3
 72
     8
 73
     4
 74
     0
 42
0.0000000001
 43
0.0000000001
 40
0.0
 40
0.0
 40
0.0
 40
0.0
 40
1.0
 40
1.0
 40
1.0
 40
1.0
 10
944.7762931616452
 20
1041.02668541962
 30
0.0
 10
943.8049023964341
 20
1041.02668541962
 30
0.0
 10
943.0174179142632
 20
1040.23920093746
 30
0.0
 10
943.0174179142632
 20
1039.26781017225
 30
0.0
  0
SPLINE
  5
1CF
330
70
100
AcDbEntity
  8
Camada 1
 62
    18
420
        0
370
    35
100
AcDbSpline
210
0.0
220
0.0
230
1.0
 70
     8
 71
     3
 72
     8
 73
     4
 74
     0
 42
0.0000000001
 43
0.0000000001
 40
0.0
 40
0.0
 40
0.0
 40
0.0
 40
1.0
 40
1.0
 40
1.0
 40
1.0
 10
961.7787875502981
 20
1039.26781017225
 30
0.0
 10
961.7787875502981
 20
1040.23920093746
 30
0.0
 10
960.9913535640862
 20
1041.02668541962
 30
0.0
 10
960.019912302916
 20
1041.02668541962
 30
0.0
  0
SPLINE
  5
1D0
330
70
100
AcDbEntity
  8
Camada 1
 62
    18
420
        0
370
    35
100
AcDbSpline
210
0.0
220
0.0
230
1.0
 70
     8
 71
     3
 72
     8
 73
     4
 74
     0
 42
0.0000000001
 43
0.0000000001
 40
0.0
 40
0.0
 40
0.0
 40
0.0
 40
1.0
 40
1.0
 40
1.0
 40
1.0
 10
960.019912302916
 20
1041.02668541962
 30
0.0
 10
959.0485215377048
 20
1041.02668541962
 30
0.0
 10
958.2610370555375
 20
1040.23920093746
 30
0.0
 10
958.2610370555375
 20
1039.26781017225
 30
0.0
  0
SPLINE
  5
1D1
330
70
100
AcDbEntity
  8
Camada 1
 62
    18
420
        0
370
    35
100
AcDbSpline
210
0.0
220
0.0
230
1.0
 70
     8
 71
     3
 72
     8
 73
     4
 74
     0
 42
0.0000000001
 43
0.0000000001
 40
0.0
 40
0.0
 40
0.0
 40
0.0
 40
1.0
 40
1.0
 40
1.0
 40
1.0
 10
977.0224571875296
 20
1039.26781017225
 30
0.0
 10
977.0224571875296
 20
1040.23920093746
 30
0.0
 10
976.2349727053607
 20
1041.02668541962
 30
0.0
 10
975.2635819401476
 20
1041.02668541962
 30
0.0
  0
SPLINE
  5
1D2
330
70
100
AcDbEntity
  8
Camada 1
 62
    18
420
        0
370
    35
100
AcDbSpline
210
0.0
220
0.0
230
1.0
 70
     8
 71
     3
 72
     8
 73
     4
 74
     0
 42
0.0000000001
 43
0.0000000001
 40
0.0
 40
0.0
 40
0.0
 40
0.0
 40
1.0
 40
1.0
 40
1.0
 40
1.0
 10
975.2635819401476
 20
1041.02668541962
 30
0.0
 10
974.292191174938
 20
1041.02668541962
 30
0.0
 10
973.5047066927691
 20
1040.23920093746
 30
0.0
 10
973.5047066927691
 20
1039.26781017225
 30
0.0
  0
SPLINE
  5
1D3
330
70
100
AcDbEntity
  8
Camada 1
 62
    18
420
        0
370
    35
100
AcDbSpline
210
0.0
220
0.0
230
1.0
 70
     8
 71
     3
 72
     8
 73
     4
 74
     0
 42
0.0000000001
 43
0.0000000001
 40
0.0
 40
0.0
 40
0.0
 40
0.0
 40
1.0
 40
1.0
 40
1.0
 40
1.0
 10
992.2660763288041
 20
1039.26781017225
 30
0.0
 10
992.2660763288041
 20
1040.23920093746
 30
0.0
 10
991.4785918466332
 20
1041.02668541962
 30
0.0
 10
990.5072010814219
 20
1041.02668541962
 30
0.0
  0
SPLINE
  5
1D4
330
70
100
AcDbEntity
  8
Camada 1
 62
    18
420
        0
370
    35
100
AcDbSpline
210
0.0
220
0.0
230
1.0
 70
     8
 71
     3
 72
     8
 73
     4
 74
     0
 42
0.0000000001
 43
0.0000000001
 40
0.0
 40
0.0
 40
0.0
 40
0.0
 40
1.0
 40
1.0
 40
1.0
 40
1.0
 10
990.5072010814219
 20
1041.02668541962
 30
0.0
 10
989.5358103162108
 20
1041.02668541962
 30
0.0
 10
988.7483258340417
 20
1040.23920093746
 30
0.0
 10
988.7483258340417
 20
1039.26781017225
 30
0.0
  0
SPLINE
  5
1D5
330
70
100
AcDbEntity
  8
Camada 1
 62
    18
420
        0
370
    35
100
AcDbSpline
210
0.0
220
0.0
230
1.0
 70
     8
 71
     3
 72
     8
 73
     4
 74
     0
 42
0.0000000001
 43
0.0000000001
 40
0.0
 40
0.0
 40
0.0
 40
0.0
 40
1.0
 40
1.0
 40
1.0
 40
1.0
 10
1007.509745966039
 20
1039.26781017225
 30
0.0
 10
1007.509745966039
 20
1040.23920093746
 30
0.0
 10
1006.722261483859
 20
1041.02668541962
 30
0.0
 10
1005.750870718649
 20
1041.02668541962
 30
0.0
  0
SPLINE
  5
1D6
330
70
100
AcDbEntity
  8
Camada 1
 62
    18
420
        0
370
    35
100
AcDbSpline
210
0.0
220
0.0
230
1.0
 70
     8
 71
     3
 72
     8
 73
     4
 74
     0
 42
0.0000000001
 43
0.0000000001
 40
0.0
 40
0.0
 40
0.0
 40
0.0
 40
1.0
 40
1.0
 40
1.0
 40
1.0
 10
1005.750870718649
 20
1041.02668541962
 30
0.0
 10
1004.779429457479
 20
1041.02668541962
 30
0.0
 10
1003.991995471269
 20
1040.23920093746
 30
0.0
 10
1003.991995471269
 20
1039.26781017225
 30
0.0
  0
SPLINE
  5
1D7
330
70
100
AcDbEntity
  8
Camada 1
 62
    18
420
        0
370
    35
100
AcDbSpline
210
0.0
220
0.0
230
1.0
 70
     8
 71
     3
 72
     8
 73
     4
 74
     0
 42
0.0000000001
 43
0.0000000001
 40
0.0
 40
0.0
 40
0.0
 40
0.0
 40
1.0
 40
1.0
 40
1.0
 40
1.0
 10
1022.75336510731
 20
1039.26781017225
 30
0.0
 10
1022.75336510731
 20
1040.23920093746
 30
0.0
 10
1021.965880625139
 20
1041.02668541962
 30
0.0
 10
1020.994489859929
 20
1041.02668541962
 30
0.0
  0
SPLINE
  5
1D8
330
70
100
AcDbEntity
  8
Camada 1
 62
    18
420
        0
370
    35
100
AcDbSpline
210
0.0
220
0.0
230
1.0
 70
     8
 71
     3
 72
     8
 73
     4
 74
     0
 42
0.0000000001
 43
0.0000000001
 40
0.0
 40
0.0
 40
0.0
 40
0.0
 40
1.0
 40
1.0
 40
1.0
 40
1.0
 10
1020.994489859929
 20
1041.02668541962
 30
0.0
 10
1020.023099094709
 20
1041.02668541962
 30
0.0
 10
1019.235614612549
 20
1040.23920093746
 30
0.0
 10
1019.235614612549
 20
1039.26781017225
 30
0.0
  0
SPLINE
  5
1D9
330
70
100
AcDbEntity
  8
Camada 1
 62
    18
420
        0
370
    35
100
AcDbSpline
210
0.0
220
0.0
230
1.0
 70
     8
 71
     3
 72
     8
 73
     4
 74
     0
 42
0.0000000001
 43
0.0000000001
 40
0.0
 40
0.0
 40
0.0
 40
0.0
 40
1.0
 40
1.0
 40
1.0
 40
1.0
 10
1037.997034744539
 20
1039.26781017225
 30
0.0
 10
1037.997034744539
 20
1040.23920093746
 30
0.0
 10
1037.20955026237
 20
1041.02668541962
 30
0.0
 10
1036.2381090012
 20
1041.02668541962
 30
0.0
  0
SPLINE
  5
1DA
330
70
100
AcDbEntity
  8
Camada 1
 62
    18
420
        0
370
    35
100
AcDbSpline
210
0.0
220
0.0
230
1.0
 70
     8
 71
     3
 72
     8
 73
     4
 74
     0
 42
0.0000000001
 43
0.0000000001
 40
0.0
 40
0.0
 40
0.0
 40
0.0
 40
1.0
 40
1.0
 40
1.0
 40
1.0
 10
1036.2381090012
 20
1041.02668541962
 30
0.0
 10
1035.266718235991
 20
1041.02668541962
 30
0.0
 10
1034.47923375382
 20
1040.23920093746
 30
0.0
 10
1034.47923375382
 20
1039.26781017225
 30
0.0
  0
SPLINE
  5
1DB
330
70
100
AcDbEntity
  8
Camada 1
 62
    18
420
        0
370
    35
100
AcDbSpline
210
0.0
220
0.0
230
1.0
 70
     8
 71
     3
 72
     8
 73
     4
 74
     0
 42
0.0000000001
 43
0.0000000001
 40
0.0
 40
0.0
 40
0.0
 40
0.0
 40
1.0
 40
1.0
 40
1.0
 40
1.0
 10
489.8123977923687
 20
1048.69212349892
 30
0.0
 10
489.8122968004518
 20
1048.68788183836
 30
0.0
 10
489.8122463044928
 20
1048.68364017779
 30
0.0
 10
489.8122463044928
 20
1048.67939851723
 30
0.0
  0
SPLINE
  5
1DC
330
70
100
AcDbEntity
  8
Camada 1
 62
    18
420
        0
370
    35
100
AcDbSpline
210
0.0
220
0.0
230
1.0
 70
     8
 71
     3
 72
     8
 73
     4
 74
     0
 42
0.0000000001
 43
0.0000000001
 40
0.0
 40
0.0
 40
0.0
 40
0.0
 40
1.0
 40
1.0
 40
1.0
 40
1.0
 10
1658.882218892149
 20
997.8377440809563
 30
0.0
 10
1658.882218892149
 20
999.1233711996464
 30
0.0
 10
1658.4596687064
 20
1000.37334817122
 30
0.0
 10
1657.67960713021
 20
1001.39523489553
 30
0.0
  0
SPLINE
  5
1DD
330
70
100
AcDbEntity
  8
Camada 1
 62
    18
420
        0
370
    35
100
AcDbSpline
210
0.0
220
0.0
230
1.0
 70
     8
 71
     3
 72
     8
 73
     4
 74
     0
 42
0.0000000001
 43
0.0000000001
 40
0.0
 40
0.0
 40
0.0
 40
0.0
 40
1.0
 40
1.0
 40
1.0
 40
1.0
 10
1110.697430452099
 20
984.1561669384937
 30
0.0
 10
1110.697430452099
 20
983.1847761732788
 30
0.0
 10
1111.48491493427
 20
982.3972916911079
 30
0.0
 10
1112.45635619544
 20
982.3972916911079
 30
0.0
  0
SPLINE
  5
1DE
330
70
100
AcDbEntity
  8
Camada 1
 62
    18
420
        0
370
    35
100
AcDbSpline
210
0.0
220
0.0
230
1.0
 70
     8
 71
     3
 72
     8
 73
     4
 74
     0
 42
0.0000000001
 43
0.0000000001
 40
0.0
 40
0.0
 40
0.0
 40
0.0
 40
1.0
 40
1.0
 40
1.0
 40
1.0
 10
1112.45635619544
 20
982.3972916911079
 30
0.0
 10
1113.427746960649
 20
982.3972916911079
 30
0.0
 10
1114.21523144282
 20
983.1847761732788
 30
0.0
 10
1114.21523144282
 20
984.1561669384937
 30
0.0
  0
SPLINE
  5
1DF
330
70
100
AcDbEntity
  8
Camada 1
 62
    18
420
        0
370
    35
100
AcDbSpline
210
0.0
220
0.0
230
1.0
 70
     8
 71
     3
 72
     8
 73
     4
 74
     0
 42
0.0000000001
 43
0.0000000001
 40
0.0
 40
0.0
 40
0.0
 40
0.0
 40
1.0
 40
1.0
 40
1.0
 40
1.0
 10
1125.94110008933
 20
984.1561669384937
 30
0.0
 10
1125.94110008933
 20
983.1847761732788
 30
0.0
 10
1126.728584571499
 20
982.3972916911079
 30
0.0
 10
1127.699975336709
 20
982.3972916911079
 30
0.0
  0
SPLINE
  5
1E0
330
70
100
AcDbEntity
  8
Camada 1
 62
    18
420
        0
370
    35
100
AcDbSpline
210
0.0
220
0.0
230
1.0
 70
     8
 71
     3
 72
     8
 73
     4
 74
     0
 42
0.0000000001
 43
0.0000000001
 40
0.0
 40
0.0
 40
0.0
 40
0.0
 40
1.0
 40
1.0
 40
1.0
 40
1.0
 10
1127.699975336709
 20
982.3972916911079
 30
0.0
 10
1128.67136610192
 20
982.3972916911079
 30
0.0
 10
1129.458850584089
 20
983.1847761732788
 30
0.0
 10
1129.458850584089
 20
984.1561669384937
 30
0.0
  0
SPLINE
  5
1E1
330
70
100
AcDbEntity
  8
Camada 1
 62
    18
420
        0
370
    35
100
AcDbSpline
210
0.0
220
0.0
230
1.0
 70
     8
 71
     3
 72
     8
 73
     4
 74
     0
 42
0.0000000001
 43
0.0000000001
 40
0.0
 40
0.0
 40
0.0
 40
0.0
 40
1.0
 40
1.0
 40
1.0
 40
1.0
 10
1141.184719230599
 20
984.1561669384937
 30
0.0
 10
1141.184719230599
 20
983.1847761732788
 30
0.0
 10
1141.97220371277
 20
982.3972916911079
 30
0.0
 10
1142.943594477979
 20
982.3972916911079
 30
0.0
  0
SPLINE
  5
1E2
330
70
100
AcDbEntity
  8
Camada 1
 62
    18
420
        0
370
    35
100
AcDbSpline
210
0.0
220
0.0
230
1.0
 70
     8
 71
     3
 72
     8
 73
     4
 74
     0
 42
0.0000000001
 43
0.0000000001
 40
0.0
 40
0.0
 40
0.0
 40
0.0
 40
1.0
 40
1.0
 40
1.0
 40
1.0
 10
1142.943594477979
 20
982.3972916911079
 30
0.0
 10
1143.915035739159
 20
982.3972916911079
 30
0.0
 10
1144.702520221319
 20
983.1847761732788
 30
0.0
 10
1144.702520221319
 20
984.1561669384937
 30
0.0
  0
SPLINE
  5
1E3
330
70
100
AcDbEntity
  8
Camada 1
 62
    18
420
        0
370
    35
100
AcDbSpline
210
0.0
220
0.0
230
1.0
 70
     8
 71
     3
 72
     8
 73
     4
 74
     0
 42
0.0000000001
 43
0.0000000001
 40
0.0
 40
0.0
 40
0.0
 40
0.0
 40
1.0
 40
1.0
 40
1.0
 40
1.0
 10
1156.428388867829
 20
984.1561669384937
 30
0.0
 10
1156.428388867829
 20
983.1847761732788
 30
0.0
 10
1157.215873350011
 20
982.3972916911079
 30
0.0
 10
1158.18726411522
 20
982.3972916911079
 30
0.0
  0
SPLINE
  5
1E4
330
70
100
AcDbEntity
  8
Camada 1
 62
    18
420
        0
370
    35
100
AcDbSpline
210
0.0
220
0.0
230
1.0
 70
     8
 71
     3
 72
     8
 73
     4
 74
     0
 42
0.0000000001
 43
0.0000000001
 40
0.0
 40
0.0
 40
0.0
 40
0.0
 40
1.0
 40
1.0
 40
1.0
 40
1.0
 10
1158.18726411522
 20
982.3972916911079
 30
0.0
 10
1159.15865488043
 20
982.3972916911079
 30
0.0
 10
1159.9461393626
 20
983.1847761732788
 30
0.0
 10
1159.9461393626
 20
984.1561669384937
 30
0.0
  0
SPLINE
  5
1E5
330
70
100
AcDbEntity
  8
Camada 1
 62
    18
420
        0
370
    35
100
AcDbSpline
210
0.0
220
0.0
230
1.0
 70
     8
 71
     3
 72
     8
 73
     4
 74
     0
 42
0.0000000001
 43
0.0000000001
 40
0.0
 40
0.0
 40
0.0
 40
0.0
 40
1.0
 40
1.0
 40
1.0
 40
1.0
 10
1171.67205850507
 20
984.1561669384937
 30
0.0
 10
1171.67205850507
 20
983.1847761732788
 30
0.0
 10
1172.459492491271
 20
982.3972916911079
 30
0.0
 10
1173.43093375245
 20
982.3972916911079
 30
0.0
  0
SPLINE
  5
1E6
330
70
100
AcDbEntity
  8
Camada 1
 62
    18
420
        0
370
    35
100
AcDbSpline
210
0.0
220
0.0
230
1.0
 70
     8
 71
     3
 72
     8
 73
     4
 74
     0
 42
0.0000000001
 43
0.0000000001
 40
0.0
 40
0.0
 40
0.0
 40
0.0
 40
1.0
 40
1.0
 40
1.0
 40
1.0
 10
1173.43093375245
 20
982.3972916911079
 30
0.0
 10
1174.4022740217
 20
982.3972916911079
 30
0.0
 10
1175.18980899983
 20
983.1847761732788
 30
0.0
 10
1175.18980899983
 20
984.1561669384937
 30
0.0
  0
SPLINE
  5
1E7
330
70
100
AcDbEntity
  8
Camada 1
 62
    18
420
        0
370
    35
100
AcDbSpline
210
0.0
220
0.0
230
1.0
 70
     8
 71
     3
 72
     8
 73
     4
 74
     0
 42
0.0000000001
 43
0.0000000001
 40
0.0
 40
0.0
 40
0.0
 40
0.0
 40
1.0
 40
1.0
 40
1.0
 40
1.0
 10
1186.91567764634
 20
984.1561669384937
 30
0.0
 10
1186.91567764634
 20
983.1847761732788
 30
0.0
 10
1187.70311163255
 20
982.3972916911079
 30
0.0
 10
1188.674552893721
 20
982.3972916911079
 30
0.0
  0
SPLINE
  5
1E8
330
70
100
AcDbEntity
  8
Camada 1
 62
    18
420
        0
370
    35
100
AcDbSpline
210
0.0
220
0.0
230
1.0
 70
     8
 71
     3
 72
     8
 73
     4
 74
     0
 42
0.0000000001
 43
0.0000000001
 40
0.0
 40
0.0
 40
0.0
 40
0.0
 40
1.0
 40
1.0
 40
1.0
 40
1.0
 10
1188.674552893721
 20
982.3972916911079
 30
0.0
 10
1189.645893162969
 20
982.3972916911079
 30
0.0
 10
1190.433428141099
 20
983.1847761732788
 30
0.0
 10
1190.433428141099
 20
984.1561669384937
 30
0.0
  0
SPLINE
  5
1E9
330
70
100
AcDbEntity
  8
Camada 1
 62
    18
420
        0
370
    35
100
AcDbSpline
210
0.0
220
0.0
230
1.0
 70
     8
 71
     3
 72
     8
 73
     4
 74
     0
 42
0.0000000001
 43
0.0000000001
 40
0.0
 40
0.0
 40
0.0
 40
0.0
 40
1.0
 40
1.0
 40
1.0
 40
1.0
 10
1202.159296787609
 20
984.1561669384937
 30
0.0
 10
1202.159296787609
 20
983.1847761732788
 30
0.0
 10
1202.946730773819
 20
982.3972916911079
 30
0.0
 10
1203.91817203499
 20
982.3972916911079
 30
0.0
  0
SPLINE
  5
1EA
330
70
100
AcDbEntity
  8
Camada 1
 62
    18
420
        0
370
    35
100
AcDbSpline
210
0.0
220
0.0
230
1.0
 70
     8
 71
     3
 72
     8
 73
     4
 74
     0
 42
0.0000000001
 43
0.0000000001
 40
0.0
 40
0.0
 40
0.0
 40
0.0
 40
1.0
 40
1.0
 40
1.0
 40
1.0
 10
1203.91817203499
 20
982.3972916911079
 30
0.0
 10
1204.88961329616
 20
982.3972916911079
 30
0.0
 10
1205.67704728237
 20
983.1847761732788
 30
0.0
 10
1205.67704728237
 20
984.1561669384937
 30
0.0
  0
SPLINE
  5
1EB
330
70
100
AcDbEntity
  8
Camada 1
 62
    18
420
        0
370
    35
100
AcDbSpline
210
0.0
220
0.0
230
1.0
 70
     8
 71
     3
 72
     8
 73
     4
 74
     0
 42
0.0000000001
 43
0.0000000001
 40
0.0
 40
0.0
 40
0.0
 40
0.0
 40
1.0
 40
1.0
 40
1.0
 40
1.0
 10
1217.402915928889
 20
984.1561669384937
 30
0.0
 10
1217.402915928889
 20
983.1847761732788
 30
0.0
 10
1218.19045090701
 20
982.3972916911079
 30
0.0
 10
1219.16179117626
 20
982.3972916911079
 30
0.0
  0
SPLINE
  5
1EC
330
70
100
AcDbEntity
  8
Camada 1
 62
    18
420
        0
370
    35
100
AcDbSpline
210
0.0
220
0.0
230
1.0
 70
     8
 71
     3
 72
     8
 73
     4
 74
     0
 42
0.0000000001
 43
0.0000000001
 40
0.0
 40
0.0
 40
0.0
 40
0.0
 40
1.0
 40
1.0
 40
1.0
 40
1.0
 10
1219.16179117626
 20
982.3972916911079
 30
0.0
 10
1220.13323243743
 20
982.3972916911079
 30
0.0
 10
1220.92066642365
 20
983.1847761732788
 30
0.0
 10
1220.92066642365
 20
984.1561669384937
 30
0.0
  0
SPLINE
  5
1ED
330
70
100
AcDbEntity
  8
Camada 1
 62
    18
420
        0
370
    35
100
AcDbSpline
210
0.0
220
0.0
230
1.0
 70
     8
 71
     3
 72
     8
 73
     4
 74
     0
 42
0.0000000001
 43
0.0000000001
 40
0.0
 40
0.0
 40
0.0
 40
0.0
 40
1.0
 40
1.0
 40
1.0
 40
1.0
 10
1232.646535070151
 20
984.1561669384937
 30
0.0
 10
1232.646535070151
 20
983.1847761732788
 30
0.0
 10
1233.434070048281
 20
982.3972916911079
 30
0.0
 10
1234.40551130946
 20
982.3972916911079
 30
0.0
  0
SPLINE
  5
1EE
330
70
100
AcDbEntity
  8
Camada 1
 62
    18
420
        0
370
    35
100
AcDbSpline
210
0.0
220
0.0
230
1.0
 70
     8
 71
     3
 72
     8
 73
     4
 74
     0
 42
0.0000000001
 43
0.0000000001
 40
0.0
 40
0.0
 40
0.0
 40
0.0
 40
1.0
 40
1.0
 40
1.0
 40
1.0
 10
1234.40551130946
 20
982.3972916911079
 30
0.0
 10
1235.37685157871
 20
982.3972916911079
 30
0.0
 10
1236.16438655684
 20
983.1847761732788
 30
0.0
 10
1236.16438655684
 20
984.1561669384937
 30
0.0
  0
SPLINE
  5
1EF
330
70
100
AcDbEntity
  8
Camada 1
 62
    18
420
        0
370
    35
100
AcDbSpline
210
0.0
220
0.0
230
1.0
 70
     8
 71
     3
 72
     8
 73
     4
 74
     0
 42
0.0000000001
 43
0.0000000001
 40
0.0
 40
0.0
 40
0.0
 40
0.0
 40
1.0
 40
1.0
 40
1.0
 40
1.0
 10
1247.89025520335
 20
984.1561669384937
 30
0.0
 10
1247.89025520335
 20
983.1847761732788
 30
0.0
 10
1248.677689189561
 20
982.3972916911079
 30
0.0
 10
1249.649130450729
 20
982.3972916911079
 30
0.0
  0
SPLINE
  5
1F0
330
70
100
AcDbEntity
  8
Camada 1
 62
    18
420
        0
370
    35
100
AcDbSpline
210
0.0
220
0.0
230
1.0
 70
     8
 71
     3
 72
     8
 73
     4
 74
     0
 42
0.0000000001
 43
0.0000000001
 40
0.0
 40
0.0
 40
0.0
 40
0.0
 40
1.0
 40
1.0
 40
1.0
 40
1.0
 10
1249.649130450729
 20
982.3972916911079
 30
0.0
 10
1250.620470719979
 20
982.3972916911079
 30
0.0
 10
1251.408005698109
 20
983.1847761732788
 30
0.0
 10
1251.408005698109
 20
984.1561669384937
 30
0.0
  0
SPLINE
  5
1F1
330
70
100
AcDbEntity
  8
Camada 1
 62
    18
420
        0
370
    35
100
AcDbSpline
210
0.0
220
0.0
230
1.0
 70
     8
 71
     3
 72
     8
 73
     4
 74
     0
 42
0.0000000001
 43
0.0000000001
 40
0.0
 40
0.0
 40
0.0
 40
0.0
 40
1.0
 40
1.0
 40
1.0
 40
1.0
 10
1263.133874344619
 20
984.1561669384937
 30
0.0
 10
1263.133874344619
 20
983.1847761732788
 30
0.0
 10
1263.921308330829
 20
982.3972916911079
 30
0.0
 10
1264.892749591999
 20
982.3972916911079
 30
0.0
  0
SPLINE
  5
1F2
330
70
100
AcDbEntity
  8
Camada 1
 62
    18
420
        0
370
    35
100
AcDbSpline
210
0.0
220
0.0
230
1.0
 70
     8
 71
     3
 72
     8
 73
     4
 74
     0
 42
0.0000000001
 43
0.0000000001
 40
0.0
 40
0.0
 40
0.0
 40
0.0
 40
1.0
 40
1.0
 40
1.0
 40
1.0
 10
1264.892749591999
 20
982.3972916911079
 30
0.0
 10
1265.86419085317
 20
982.3972916911079
 30
0.0
 10
1266.65162483938
 20
983.1847761732788
 30
0.0
 10
1266.65162483938
 20
984.1561669384937
 30
0.0
  0
SPLINE
  5
1F3
330
70
100
AcDbEntity
  8
Camada 1
 62
    18
420
        0
370
    35
100
AcDbSpline
210
0.0
220
0.0
230
1.0
 70
     8
 71
     3
 72
     8
 73
     4
 74
     0
 42
0.0000000001
 43
0.0000000001
 40
0.0
 40
0.0
 40
0.0
 40
0.0
 40
1.0
 40
1.0
 40
1.0
 40
1.0
 10
1278.37749348589
 20
984.1561669384937
 30
0.0
 10
1278.37749348589
 20
983.1847761732788
 30
0.0
 10
1279.16502846402
 20
982.3972916911079
 30
0.0
 10
1280.13636873327
 20
982.3972916911079
 30
0.0
  0
SPLINE
  5
1F4
330
70
100
AcDbEntity
  8
Camada 1
 62
    18
420
        0
370
    35
100
AcDbSpline
210
0.0
220
0.0
230
1.0
 70
     8
 71
     3
 72
     8
 73
     4
 74
     0
 42
0.0000000001
 43
0.0000000001
 40
0.0
 40
0.0
 40
0.0
 40
0.0
 40
1.0
 40
1.0
 40
1.0
 40
1.0
 10
1280.13636873327
 20
982.3972916911079
 30
0.0
 10
1281.107809994441
 20
982.3972916911079
 30
0.0
 10
1281.895243980651
 20
983.1847761732788
 30
0.0
 10
1281.895243980651
 20
984.1561669384937
 30
0.0
  0
SPLINE
  5
1F5
330
70
100
AcDbEntity
  8
Camada 1
 62
    18
420
        0
370
    35
100
AcDbSpline
210
0.0
220
0.0
230
1.0
 70
     8
 71
     3
 72
     8
 73
     4
 74
     0
 42
0.0000000001
 43
0.0000000001
 40
0.0
 40
0.0
 40
0.0
 40
0.0
 40
1.0
 40
1.0
 40
1.0
 40
1.0
 10
1293.621112627159
 20
984.1561669384937
 30
0.0
 10
1293.621112627159
 20
983.1847761732788
 30
0.0
 10
1294.408647605291
 20
982.3972916911079
 30
0.0
 10
1295.37998787455
 20
982.3972916911079
 30
0.0
  0
SPLINE
  5
1F6
330
70
100
AcDbEntity
  8
Camada 1
 62
    18
420
        0
370
    35
100
AcDbSpline
210
0.0
220
0.0
230
1.0
 70
     8
 71
     3
 72
     8
 73
     4
 74
     0
 42
0.0000000001
 43
0.0000000001
 40
0.0
 40
0.0
 40
0.0
 40
0.0
 40
1.0
 40
1.0
 40
1.0
 40
1.0
 10
1295.37998787455
 20
982.3972916911079
 30
0.0
 10
1296.35142913572
 20
982.3972916911079
 30
0.0
 10
1297.13886312193
 20
983.1847761732788
 30
0.0
 10
1297.13886312193
 20
984.1561669384937
 30
0.0
  0
SPLINE
  5
1F7
330
70
100
AcDbEntity
  8
Camada 1
 62
    18
420
        0
370
    35
100
AcDbSpline
210
0.0
220
0.0
230
1.0
 70
     8
 71
     3
 72
     8
 73
     4
 74
     0
 42
0.0000000001
 43
0.0000000001
 40
0.0
 40
0.0
 40
0.0
 40
0.0
 40
1.0
 40
1.0
 40
1.0
 40
1.0
 10
1308.86483276036
 20
984.1561669384937
 30
0.0
 10
1308.86483276036
 20
983.1847761732788
 30
0.0
 10
1309.65226674657
 20
982.3972916911079
 30
0.0
 10
1310.623708007741
 20
982.3972916911079
 30
0.0
  0
SPLINE
  5
1F8
330
70
100
AcDbEntity
  8
Camada 1
 62
    18
420
        0
370
    35
100
AcDbSpline
210
0.0
220
0.0
230
1.0
 70
     8
 71
     3
 72
     8
 73
     4
 74
     0
 42
0.0000000001
 43
0.0000000001
 40
0.0
 40
0.0
 40
0.0
 40
0.0
 40
1.0
 40
1.0
 40
1.0
 40
1.0
 10
1310.623708007741
 20
982.3972916911079
 30
0.0
 10
1311.595048276989
 20
982.3972916911079
 30
0.0
 10
1312.382583255119
 20
983.1847761732788
 30
0.0
 10
1312.382583255119
 20
984.1561669384937
 30
0.0
  0
SPLINE
  5
1F9
330
70
100
AcDbEntity
  8
Camada 1
 62
    18
420
        0
370
    35
100
AcDbSpline
210
0.0
220
0.0
230
1.0
 70
     8
 71
     3
 72
     8
 73
     4
 74
     0
 42
0.0000000001
 43
0.0000000001
 40
0.0
 40
0.0
 40
0.0
 40
0.0
 40
1.0
 40
1.0
 40
1.0
 40
1.0
 10
1324.108451901629
 20
984.1561669384937
 30
0.0
 10
1324.108451901629
 20
983.1847761732788
 30
0.0
 10
1324.895885887839
 20
982.3972916911079
 30
0.0
 10
1325.86732714901
 20
982.3972916911079
 30
0.0
  0
SPLINE
  5
1FA
330
70
100
AcDbEntity
  8
Camada 1
 62
    18
420
        0
370
    35
100
AcDbSpline
210
0.0
220
0.0
230
1.0
 70
     8
 71
     3
 72
     8
 73
     4
 74
     0
 42
0.0000000001
 43
0.0000000001
 40
0.0
 40
0.0
 40
0.0
 40
0.0
 40
1.0
 40
1.0
 40
1.0
 40
1.0
 10
1325.86732714901
 20
982.3972916911079
 30
0.0
 10
1326.83866741826
 20
982.3972916911079
 30
0.0
 10
1327.62620239639
 20
983.1847761732788
 30
0.0
 10
1327.62620239639
 20
984.1561669384937
 30
0.0
  0
SPLINE
  5
1FB
330
70
100
AcDbEntity
  8
Camada 1
 62
    18
420
        0
370
    35
100
AcDbSpline
210
0.0
220
0.0
230
1.0
 70
     8
 71
     3
 72
     8
 73
     4
 74
     0
 42
0.0000000001
 43
0.0000000001
 40
0.0
 40
0.0
 40
0.0
 40
0.0
 40
1.0
 40
1.0
 40
1.0
 40
1.0
 10
1339.3520710429
 20
984.1561669384937
 30
0.0
 10
1339.3520710429
 20
983.1847761732788
 30
0.0
 10
1340.13950502911
 20
982.3972916911079
 30
0.0
 10
1341.11094629028
 20
982.3972916911079
 30
0.0
  0
SPLINE
  5
1FC
330
70
100
AcDbEntity
  8
Camada 1
 62
    18
420
        0
370
    35
100
AcDbSpline
210
0.0
220
0.0
230
1.0
 70
     8
 71
     3
 72
     8
 73
     4
 74
     0
 42
0.0000000001
 43
0.0000000001
 40
0.0
 40
0.0
 40
0.0
 40
0.0
 40
1.0
 40
1.0
 40
1.0
 40
1.0
 10
1341.11094629028
 20
982.3972916911079
 30
0.0
 10
1342.082387551451
 20
982.3972916911079
 30
0.0
 10
1342.869821537661
 20
983.1847761732788
 30
0.0
 10
1342.869821537661
 20
984.1561669384937
 30
0.0
  0
SPLINE
  5
1FD
330
70
100
AcDbEntity
  8
Camada 1
 62
    18
420
        0
370
    35
100
AcDbSpline
210
0.0
220
0.0
230
1.0
 70
     8
 71
     3
 72
     8
 73
     4
 74
     0
 42
0.0000000001
 43
0.0000000001
 40
0.0
 40
0.0
 40
0.0
 40
0.0
 40
1.0
 40
1.0
 40
1.0
 40
1.0
 10
1354.595690184171
 20
984.1561669384937
 30
0.0
 10
1354.595690184171
 20
983.1847761732788
 30
0.0
 10
1355.383225162301
 20
982.3972916911079
 30
0.0
 10
1356.35456543156
 20
982.3972916911079
 30
0.0
  0
SPLINE
  5
1FE
330
70
100
AcDbEntity
  8
Camada 1
 62
    18
420
        0
370
    35
100
AcDbSpline
210
0.0
220
0.0
230
1.0
 70
     8
 71
     3
 72
     8
 73
     4
 74
     0
 42
0.0000000001
 43
0.0000000001
 40
0.0
 40
0.0
 40
0.0
 40
0.0
 40
1.0
 40
1.0
 40
1.0
 40
1.0
 10
1356.35456543156
 20
982.3972916911079
 30
0.0
 10
1357.32600669273
 20
982.3972916911079
 30
0.0
 10
1358.113440678941
 20
983.1847761732788
 30
0.0
 10
1358.113440678941
 20
984.1561669384937
 30
0.0
  0
SPLINE
  5
1FF
330
70
100
AcDbEntity
  8
Camada 1
 62
    18
420
        0
370
    35
100
AcDbSpline
210
0.0
220
0.0
230
1.0
 70
     8
 71
     3
 72
     8
 73
     4
 74
     0
 42
0.0000000001
 43
0.0000000001
 40
0.0
 40
0.0
 40
0.0
 40
0.0
 40
1.0
 40
1.0
 40
1.0
 40
1.0
 10
1369.839309325449
 20
984.1561669384937
 30
0.0
 10
1369.839309325449
 20
983.1847761732788
 30
0.0
 10
1370.62684430357
 20
982.3972916911079
 30
0.0
 10
1371.598184572829
 20
982.3972916911079
 30
0.0
  0
SPLINE
  5
200
330
70
100
AcDbEntity
  8
Camada 1
 62
    18
420
        0
370
    35
100
AcDbSpline
210
0.0
220
0.0
230
1.0
 70
     8
 71
     3
 72
     8
 73
     4
 74
     0
 42
0.0000000001
 43
0.0000000001
 40
0.0
 40
0.0
 40
0.0
 40
0.0
 40
1.0
 40
1.0
 40
1.0
 40
1.0
 10
1371.598184572829
 20
982.3972916911079
 30
0.0
 10
1372.569625833999
 20
982.3972916911079
 30
0.0
 10
1373.357059820209
 20
983.1847761732788
 30
0.0
 10
1373.357059820209
 20
984.1561669384937
 30
0.0
  0
SPLINE
  5
201
330
70
100
AcDbEntity
  8
Camada 1
 62
    18
420
        0
370
    35
100
AcDbSpline
210
0.0
220
0.0
230
1.0
 70
     8
 71
     3
 72
     8
 73
     4
 74
     0
 42
0.0000000001
 43
0.0000000001
 40
0.0
 40
0.0
 40
0.0
 40
0.0
 40
1.0
 40
1.0
 40
1.0
 40
1.0
 10
1385.083029458639
 20
984.1561669384937
 30
0.0
 10
1385.083029458639
 20
983.1847761732788
 30
0.0
 10
1385.870463444849
 20
982.3972916911079
 30
0.0
 10
1386.84190470602
 20
982.3972916911079
 30
0.0
  0
SPLINE
  5
202
330
70
100
AcDbEntity
  8
Camada 1
 62
    18
420
        0
370
    35
100
AcDbSpline
210
0.0
220
0.0
230
1.0
 70
     8
 71
     3
 72
     8
 73
     4
 74
     0
 42
0.0000000001
 43
0.0000000001
 40
0.0
 40
0.0
 40
0.0
 40
0.0
 40
1.0
 40
1.0
 40
1.0
 40
1.0
 10
1386.84190470602
 20
982.3972916911079
 30
0.0
 10
1387.81324497527
 20
982.3972916911079
 30
0.0
 10
1388.6007799534
 20
983.1847761732788
 30
0.0
 10
1388.6007799534
 20
984.1561669384937
 30
0.0
  0
SPLINE
  5
203
330
70
100
AcDbEntity
  8
Camada 1
 62
    18
420
        0
370
    35
100
AcDbSpline
210
0.0
220
0.0
230
1.0
 70
     8
 71
     3
 72
     8
 73
     4
 74
     0
 42
0.0000000001
 43
0.0000000001
 40
0.0
 40
0.0
 40
0.0
 40
0.0
 40
1.0
 40
1.0
 40
1.0
 40
1.0
 10
1400.32664859991
 20
984.1561669384937
 30
0.0
 10
1400.32664859991
 20
983.1847761732788
 30
0.0
 10
1401.11408258612
 20
982.3972916911079
 30
0.0
 10
1402.08552384729
 20
982.3972916911079
 30
0.0
  0
SPLINE
  5
204
330
70
100
AcDbEntity
  8
Camada 1
 62
    18
420
        0
370
    35
100
AcDbSpline
210
0.0
220
0.0
230
1.0
 70
     8
 71
     3
 72
     8
 73
     4
 74
     0
 42
0.0000000001
 43
0.0000000001
 40
0.0
 40
0.0
 40
0.0
 40
0.0
 40
1.0
 40
1.0
 40
1.0
 40
1.0
 10
1402.08552384729
 20
982.3972916911079
 30
0.0
 10
1403.056864116541
 20
982.3972916911079
 30
0.0
 10
1403.84439909467
 20
983.1847761732788
 30
0.0
 10
1403.84439909467
 20
984.1561669384937
 30
0.0
  0
SPLINE
  5
205
330
70
100
AcDbEntity
  8
Camada 1
 62
    18
420
        0
370
    35
100
AcDbSpline
210
0.0
220
0.0
230
1.0
 70
     8
 71
     3
 72
     8
 73
     4
 74
     0
 42
0.0000000001
 43
0.0000000001
 40
0.0
 40
0.0
 40
0.0
 40
0.0
 40
1.0
 40
1.0
 40
1.0
 40
1.0
 10
1415.570267741179
 20
984.1561669384937
 30
0.0
 10
1415.570267741179
 20
983.1847761732788
 30
0.0
 10
1416.357701727389
 20
982.3972916911079
 30
0.0
 10
1417.329142988559
 20
982.3972916911079
 30
0.0
  0
SPLINE
  5
206
330
70
100
AcDbEntity
  8
Camada 1
 62
    18
420
        0
370
    35
100
AcDbSpline
210
0.0
220
0.0
230
1.0
 70
     8
 71
     3
 72
     8
 73
     4
 74
     0
 42
0.0000000001
 43
0.0000000001
 40
0.0
 40
0.0
 40
0.0
 40
0.0
 40
1.0
 40
1.0
 40
1.0
 40
1.0
 10
1417.329142988559
 20
982.3972916911079
 30
0.0
 10
1418.30058424974
 20
982.3972916911079
 30
0.0
 10
1419.08801823594
 20
983.1847761732788
 30
0.0
 10
1419.08801823594
 20
984.1561669384937
 30
0.0
  0
SPLINE
  5
207
330
70
100
AcDbEntity
  8
Camada 1
 62
    18
420
        0
370
    35
100
AcDbSpline
210
0.0
220
0.0
230
1.0
 70
     8
 71
     3
 72
     8
 73
     4
 74
     0
 42
0.0000000001
 43
0.0000000001
 40
0.0
 40
0.0
 40
0.0
 40
0.0
 40
1.0
 40
1.0
 40
1.0
 40
1.0
 10
1430.813886882461
 20
984.1561669384937
 30
0.0
 10
1430.813886882461
 20
983.1847761732788
 30
0.0
 10
1431.60142186058
 20
982.3972916911079
 30
0.0
 10
1432.57276212983
 20
982.3972916911079
 30
0.0
  0
SPLINE
  5
208
330
70
100
AcDbEntity
  8
Camada 1
 62
    18
420
        0
370
    35
100
AcDbSpline
210
0.0
220
0.0
230
1.0
 70
     8
 71
     3
 72
     8
 73
     4
 74
     0
 42
0.0000000001
 43
0.0000000001
 40
0.0
 40
0.0
 40
0.0
 40
0.0
 40
1.0
 40
1.0
 40
1.0
 40
1.0
 10
1432.57276212983
 20
982.3972916911079
 30
0.0
 10
1433.544203391009
 20
982.3972916911079
 30
0.0
 10
1434.331637377219
 20
983.1847761732788
 30
0.0
 10
1434.331637377219
 20
984.1561669384937
 30
0.0
  0
SPLINE
  5
209
330
70
100
AcDbEntity
  8
Camada 1
 62
    18
420
        0
370
    35
100
AcDbSpline
210
0.0
220
0.0
230
1.0
 70
     8
 71
     3
 72
     8
 73
     4
 74
     0
 42
0.0000000001
 43
0.0000000001
 40
0.0
 40
0.0
 40
0.0
 40
0.0
 40
1.0
 40
1.0
 40
1.0
 40
1.0
 10
1446.05750602373
 20
984.1561669384937
 30
0.0
 10
1446.05750602373
 20
983.1847761732788
 30
0.0
 10
1446.845041001859
 20
982.3972916911079
 30
0.0
 10
1447.81638127111
 20
982.3972916911079
 30
0.0
  0
SPLINE
  5
20A
330
70
100
AcDbEntity
  8
Camada 1
 62
    18
420
        0
370
    35
100
AcDbSpline
210
0.0
220
0.0
230
1.0
 70
     8
 71
     3
 72
     8
 73
     4
 74
     0
 42
0.0000000001
 43
0.0000000001
 40
0.0
 40
0.0
 40
0.0
 40
0.0
 40
1.0
 40
1.0
 40
1.0
 40
1.0
 10
1447.81638127111
 20
982.3972916911079
 30
0.0
 10
1448.78782253228
 20
982.3972916911079
 30
0.0
 10
1449.57535751041
 20
983.1847761732788
 30
0.0
 10
1449.57535751041
 20
984.1561669384937
 30
0.0
  0
SPLINE
  5
20B
330
70
100
AcDbEntity
  8
Camada 1
 62
    18
420
        0
370
    35
100
AcDbSpline
210
0.0
220
0.0
230
1.0
 70
     8
 71
     3
 72
     8
 73
     4
 74
     0
 42
0.0000000001
 43
0.0000000001
 40
0.0
 40
0.0
 40
0.0
 40
0.0
 40
1.0
 40
1.0
 40
1.0
 40
1.0
 10
1461.30122615692
 20
984.1561669384937
 30
0.0
 10
1461.30122615692
 20
983.1847761732788
 30
0.0
 10
1462.08866014313
 20
982.3972916911079
 30
0.0
 10
1463.0601014043
 20
982.3972916911079
 30
0.0
  0
SPLINE
  5
20C
330
70
100
AcDbEntity
  8
Camada 1
 62
    18
420
        0
370
    35
100
AcDbSpline
210
0.0
220
0.0
230
1.0
 70
     8
 71
     3
 72
     8
 73
     4
 74
     0
 42
0.0000000001
 43
0.0000000001
 40
0.0
 40
0.0
 40
0.0
 40
0.0
 40
1.0
 40
1.0
 40
1.0
 40
1.0
 10
1463.0601014043
 20
982.3972916911079
 30
0.0
 10
1464.031441673549
 20
982.3972916911079
 30
0.0
 10
1464.818976651681
 20
983.1847761732788
 30
0.0
 10
1464.818976651681
 20
984.1561669384937
 30
0.0
  0
SPLINE
  5
20D
330
70
100
AcDbEntity
  8
Camada 1
 62
    18
420
        0
370
    35
100
AcDbSpline
210
0.0
220
0.0
230
1.0
 70
     8
 71
     3
 72
     8
 73
     4
 74
     0
 42
0.0000000001
 43
0.0000000001
 40
0.0
 40
0.0
 40
0.0
 40
0.0
 40
1.0
 40
1.0
 40
1.0
 40
1.0
 10
1476.544845298191
 20
984.1561669384937
 30
0.0
 10
1476.544845298191
 20
983.1847761732788
 30
0.0
 10
1477.332279284401
 20
982.3972916911079
 30
0.0
 10
1478.303720545569
 20
982.3972916911079
 30
0.0
  0
SPLINE
  5
20E
330
70
100
AcDbEntity
  8
Camada 1
 62
    18
420
        0
370
    35
100
AcDbSpline
210
0.0
220
0.0
230
1.0
 70
     8
 71
     3
 72
     8
 73
     4
 74
     0
 42
0.0000000001
 43
0.0000000001
 40
0.0
 40
0.0
 40
0.0
 40
0.0
 40
1.0
 40
1.0
 40
1.0
 40
1.0
 10
1478.303720545569
 20
982.3972916911079
 30
0.0
 10
1479.27516180675
 20
982.3972916911079
 30
0.0
 10
1480.06259579296
 20
983.1847761732788
 30
0.0
 10
1480.06259579296
 20
984.1561669384937
 30
0.0
  0
SPLINE
  5
20F
330
70
100
AcDbEntity
  8
Camada 1
 62
    18
420
        0
370
    35
100
AcDbSpline
210
0.0
220
0.0
230
1.0
 70
     8
 71
     3
 72
     8
 73
     4
 74
     0
 42
0.0000000001
 43
0.0000000001
 40
0.0
 40
0.0
 40
0.0
 40
0.0
 40
1.0
 40
1.0
 40
1.0
 40
1.0
 10
1491.78846443947
 20
984.1561669384937
 30
0.0
 10
1491.78846443947
 20
983.1847761732788
 30
0.0
 10
1492.57589842567
 20
982.3972916911079
 30
0.0
 10
1493.547339686849
 20
982.3972916911079
 30
0.0
  0
SPLINE
  5
210
330
70
100
AcDbEntity
  8
Camada 1
 62
    18
420
        0
370
    35
100
AcDbSpline
210
0.0
220
0.0
230
1.0
 70
     8
 71
     3
 72
     8
 73
     4
 74
     0
 42
0.0000000001
 43
0.0000000001
 40
0.0
 40
0.0
 40
0.0
 40
0.0
 40
1.0
 40
1.0
 40
1.0
 40
1.0
 10
1493.547339686849
 20
982.3972916911079
 30
0.0
 10
1494.518780948019
 20
982.3972916911079
 30
0.0
 10
1495.306214934229
 20
983.1847761732788
 30
0.0
 10
1495.306214934229
 20
984.1561669384937
 30
0.0
  0
SPLINE
  5
211
330
70
100
AcDbEntity
  8
Camada 1
 62
    18
420
        0
370
    35
100
AcDbSpline
210
0.0
220
0.0
230
1.0
 70
     8
 71
     3
 72
     8
 73
     4
 74
     0
 42
0.0000000001
 43
0.0000000001
 40
0.0
 40
0.0
 40
0.0
 40
0.0
 40
1.0
 40
1.0
 40
1.0
 40
1.0
 10
1507.03208358074
 20
984.1561669384937
 30
0.0
 10
1507.03208358074
 20
983.1847761732788
 30
0.0
 10
1507.819618558869
 20
982.3972916911079
 30
0.0
 10
1508.79095882812
 20
982.3972916911079
 30
0.0
  0
SPLINE
  5
212
330
70
100
AcDbEntity
  8
Camada 1
 62
    18
420
        0
370
    35
100
AcDbSpline
210
0.0
220
0.0
230
1.0
 70
     8
 71
     3
 72
     8
 73
     4
 74
     0
 42
0.0000000001
 43
0.0000000001
 40
0.0
 40
0.0
 40
0.0
 40
0.0
 40
1.0
 40
1.0
 40
1.0
 40
1.0
 10
1508.79095882812
 20
982.3972916911079
 30
0.0
 10
1509.76240008929
 20
982.3972916911079
 30
0.0
 10
1510.5498340755
 20
983.1847761732788
 30
0.0
 10
1510.5498340755
 20
984.1561669384937
 30
0.0
  0
SPLINE
  5
213
330
70
100
AcDbEntity
  8
Camada 1
 62
    18
420
        0
370
    35
100
AcDbSpline
210
0.0
220
0.0
230
1.0
 70
     8
 71
     3
 72
     8
 73
     4
 74
     0
 42
0.0000000001
 43
0.0000000001
 40
0.0
 40
0.0
 40
0.0
 40
0.0
 40
1.0
 40
1.0
 40
1.0
 40
1.0
 10
1522.27570272201
 20
984.1561669384937
 30
0.0
 10
1522.27570272201
 20
983.1847761732788
 30
0.0
 10
1523.06323770014
 20
982.3972916911079
 30
0.0
 10
1524.03467896131
 20
982.3972916911079
 30
0.0
  0
SPLINE
  5
214
330
70
100
AcDbEntity
  8
Camada 1
 62
    18
420
        0
370
    35
100
AcDbSpline
210
0.0
220
0.0
230
1.0
 70
     8
 71
     3
 72
     8
 73
     4
 74
     0
 42
0.0000000001
 43
0.0000000001
 40
0.0
 40
0.0
 40
0.0
 40
0.0
 40
1.0
 40
1.0
 40
1.0
 40
1.0
 10
1524.03467896131
 20
982.3972916911079
 30
0.0
 10
1525.006019230561
 20
982.3972916911079
 30
0.0
 10
1525.79355420869
 20
983.1847761732788
 30
0.0
 10
1525.79355420869
 20
984.1561669384937
 30
0.0
  0
SPLINE
  5
215
330
70
100
AcDbEntity
  8
Camada 1
 62
    18
420
        0
370
    35
100
AcDbSpline
210
0.0
220
0.0
230
1.0
 70
     8
 71
     3
 72
     8
 73
     4
 74
     0
 42
0.0000000001
 43
0.0000000001
 40
0.0
 40
0.0
 40
0.0
 40
0.0
 40
1.0
 40
1.0
 40
1.0
 40
1.0
 10
1537.519422855199
 20
984.1561669384937
 30
0.0
 10
1537.519422855199
 20
983.1847761732788
 30
0.0
 10
1538.306856841409
 20
982.3972916911079
 30
0.0
 10
1539.278298102579
 20
982.3972916911079
 30
0.0
  0
SPLINE
  5
216
330
70
100
AcDbEntity
  8
Camada 1
 62
    18
420
        0
370
    35
100
AcDbSpline
210
0.0
220
0.0
230
1.0
 70
     8
 71
     3
 72
     8
 73
     4
 74
     0
 42
0.0000000001
 43
0.0000000001
 40
0.0
 40
0.0
 40
0.0
 40
0.0
 40
1.0
 40
1.0
 40
1.0
 40
1.0
 10
1539.278298102579
 20
982.3972916911079
 30
0.0
 10
1540.249638371841
 20
982.3972916911079
 30
0.0
 10
1541.037173349959
 20
983.1847761732788
 30
0.0
 10
1541.037173349959
 20
984.1561669384937
 30
0.0
  0
SPLINE
  5
217
330
70
100
AcDbEntity
  8
Camada 1
 62
    18
420
        0
370
    35
100
AcDbSpline
210
0.0
220
0.0
230
1.0
 70
     8
 71
     3
 72
     8
 73
     4
 74
     0
 42
0.0000000001
 43
0.0000000001
 40
0.0
 40
0.0
 40
0.0
 40
0.0
 40
1.0
 40
1.0
 40
1.0
 40
1.0
 10
1552.76304199647
 20
984.1561669384937
 30
0.0
 10
1552.76304199647
 20
983.1847761732788
 30
0.0
 10
1553.55047598268
 20
982.3972916911079
 30
0.0
 10
1554.521917243859
 20
982.3972916911079
 30
0.0
  0
SPLINE
  5
218
330
70
100
AcDbEntity
  8
Camada 1
 62
    18
420
        0
370
    35
100
AcDbSpline
210
0.0
220
0.0
230
1.0
 70
     8
 71
     3
 72
     8
 73
     4
 74
     0
 42
0.0000000001
 43
0.0000000001
 40
0.0
 40
0.0
 40
0.0
 40
0.0
 40
1.0
 40
1.0
 40
1.0
 40
1.0
 10
1554.521917243859
 20
982.3972916911079
 30
0.0
 10
1555.49335850502
 20
982.3972916911079
 30
0.0
 10
1556.28079249123
 20
983.1847761732788
 30
0.0
 10
1556.28079249123
 20
984.1561669384937
 30
0.0
  0
SPLINE
  5
219
330
70
100
AcDbEntity
  8
Camada 1
 62
    18
420
        0
370
    35
100
AcDbSpline
210
0.0
220
0.0
230
1.0
 70
     8
 71
     3
 72
     8
 73
     4
 74
     0
 42
0.0000000001
 43
0.0000000001
 40
0.0
 40
0.0
 40
0.0
 40
0.0
 40
1.0
 40
1.0
 40
1.0
 40
1.0
 10
1568.00666113774
 20
984.1561669384937
 30
0.0
 10
1568.00666113774
 20
983.1847761732788
 30
0.0
 10
1568.79419611587
 20
982.3972916911079
 30
0.0
 10
1569.76553638513
 20
982.3972916911079
 30
0.0
  0
SPLINE
  5
21A
330
70
100
AcDbEntity
  8
Camada 1
 62
    18
420
        0
370
    35
100
AcDbSpline
210
0.0
220
0.0
230
1.0
 70
     8
 71
     3
 72
     8
 73
     4
 74
     0
 42
0.0000000001
 43
0.0000000001
 40
0.0
 40
0.0
 40
0.0
 40
0.0
 40
1.0
 40
1.0
 40
1.0
 40
1.0
 10
1569.76553638513
 20
982.3972916911079
 30
0.0
 10
1570.7369776463
 20
982.3972916911079
 30
0.0
 10
1571.524411632499
 20
983.1847761732788
 30
0.0
 10
1571.524411632499
 20
984.1561669384937
 30
0.0
  0
SPLINE
  5
21B
330
70
100
AcDbEntity
  8
Camada 1
 62
    18
420
        0
370
    35
100
AcDbSpline
210
0.0
220
0.0
230
1.0
 70
     8
 71
     3
 72
     8
 73
     4
 74
     0
 42
0.0000000001
 43
0.0000000001
 40
0.0
 40
0.0
 40
0.0
 40
0.0
 40
1.0
 40
1.0
 40
1.0
 40
1.0
 10
1583.25028027902
 20
984.1561669384937
 30
0.0
 10
1583.25028027902
 20
983.1847761732788
 30
0.0
 10
1584.037815257139
 20
982.3972916911079
 30
0.0
 10
1585.009155526401
 20
982.3972916911079
 30
0.0
  0
SPLINE
  5
21C
330
70
100
AcDbEntity
  8
Camada 1
 62
    18
420
        0
370
    35
100
AcDbSpline
210
0.0
220
0.0
230
1.0
 70
     8
 71
     3
 72
     8
 73
     4
 74
     0
 42
0.0000000001
 43
0.0000000001
 40
0.0
 40
0.0
 40
0.0
 40
0.0
 40
1.0
 40
1.0
 40
1.0
 40
1.0
 10
1585.009155526401
 20
982.3972916911079
 30
0.0
 10
1585.980596787569
 20
982.3972916911079
 30
0.0
 10
1586.768030773779
 20
983.1847761732788
 30
0.0
 10
1586.768030773779
 20
984.1561669384937
 30
0.0
  0
SPLINE
  5
21D
330
70
100
AcDbEntity
  8
Camada 1
 62
    18
420
        0
370
    35
100
AcDbSpline
210
0.0
220
0.0
230
1.0
 70
     8
 71
     3
 72
     8
 73
     4
 74
     0
 42
0.0000000001
 43
0.0000000001
 40
0.0
 40
0.0
 40
0.0
 40
0.0
 40
1.0
 40
1.0
 40
1.0
 40
1.0
 10
1598.494000412211
 20
984.1561669384937
 30
0.0
 10
1598.494000412211
 20
983.1847761732788
 30
0.0
 10
1599.281434398421
 20
982.3972916911079
 30
0.0
 10
1600.252875659589
 20
982.3972916911079
 30
0.0
  0
SPLINE
  5
21E
330
70
100
AcDbEntity
  8
Camada 1
 62
    18
420
        0
370
    35
100
AcDbSpline
210
0.0
220
0.0
230
1.0
 70
     8
 71
     3
 72
     8
 73
     4
 74
     0
 42
0.0000000001
 43
0.0000000001
 40
0.0
 40
0.0
 40
0.0
 40
0.0
 40
1.0
 40
1.0
 40
1.0
 40
1.0
 10
1600.252875659589
 20
982.3972916911079
 30
0.0
 10
1601.22421592884
 20
982.3972916911079
 30
0.0
 10
1602.011750906969
 20
983.1847761732788
 30
0.0
 10
1602.011750906969
 20
984.1561669384937
 30
0.0
  0
SPLINE
  5
21F
330
70
100
AcDbEntity
  8
Camada 1
 62
    18
420
        0
370
    35
100
AcDbSpline
210
0.0
220
0.0
230
1.0
 70
     8
 71
     3
 72
     8
 73
     4
 74
     0
 42
0.0000000001
 43
0.0000000001
 40
0.0
 40
0.0
 40
0.0
 40
0.0
 40
1.0
 40
1.0
 40
1.0
 40
1.0
 10
1613.73761955348
 20
984.1561669384937
 30
0.0
 10
1613.73761955348
 20
983.1847761732788
 30
0.0
 10
1614.52505353969
 20
982.3972916911079
 30
0.0
 10
1615.49649480086
 20
982.3972916911079
 30
0.0
  0
SPLINE
  5
220
330
70
100
AcDbEntity
  8
Camada 1
 62
    18
420
        0
370
    35
100
AcDbSpline
210
0.0
220
0.0
230
1.0
 70
     8
 71
     3
 72
     8
 73
     4
 74
     0
 42
0.0000000001
 43
0.0000000001
 40
0.0
 40
0.0
 40
0.0
 40
0.0
 40
1.0
 40
1.0
 40
1.0
 40
1.0
 10
1615.49649480086
 20
982.3972916911079
 30
0.0
 10
1616.46783507011
 20
982.3972916911079
 30
0.0
 10
1617.25537004824
 20
983.1847761732788
 30
0.0
 10
1617.25537004824
 20
984.1561669384937
 30
0.0
  0
SPLINE
  5
221
330
70
100
AcDbEntity
  8
Camada 1
 62
    18
420
        0
370
    35
100
AcDbSpline
210
0.0
220
0.0
230
1.0
 70
     8
 71
     3
 72
     8
 73
     4
 74
     0
 42
0.0000000001
 43
0.0000000001
 40
0.0
 40
0.0
 40
0.0
 40
0.0
 40
1.0
 40
1.0
 40
1.0
 40
1.0
 10
1628.98123869475
 20
984.1561669384937
 30
0.0
 10
1628.98123869475
 20
983.1847761732788
 30
0.0
 10
1629.768672680961
 20
982.3972916911079
 30
0.0
 10
1630.74011394214
 20
982.3972916911079
 30
0.0
  0
SPLINE
  5
222
330
70
100
AcDbEntity
  8
Camada 1
 62
    18
420
        0
370
    35
100
AcDbSpline
210
0.0
220
0.0
230
1.0
 70
     8
 71
     3
 72
     8
 73
     4
 74
     0
 42
0.0000000001
 43
0.0000000001
 40
0.0
 40
0.0
 40
0.0
 40
0.0
 40
1.0
 40
1.0
 40
1.0
 40
1.0
 10
1630.74011394214
 20
982.3972916911079
 30
0.0
 10
1631.711555203299
 20
982.3972916911079
 30
0.0
 10
1632.49898918952
 20
983.1847761732788
 30
0.0
 10
1632.49898918952
 20
984.1561669384937
 30
0.0
  0
SPLINE
  5
223
330
70
100
AcDbEntity
  8
Camada 1
 62
    18
420
        0
370
    35
100
AcDbSpline
210
0.0
220
0.0
230
1.0
 70
     8
 71
     3
 72
     8
 73
     4
 74
     0
 42
0.0000000001
 43
0.0000000001
 40
0.0
 40
0.0
 40
0.0
 40
0.0
 40
1.0
 40
1.0
 40
1.0
 40
1.0
 10
1658.882218892149
 20
974.7445785935051
 30
0.0
 10
1658.882218892149
 20
974.7403369329404
 30
0.0
 10
1658.882218892149
 20
974.7360952723756
 30
0.0
 10
1658.88211790022
 20
974.7318536118109
 30
0.0
  0
SPLINE
  5
224
330
70
100
AcDbEntity
  8
Camada 1
 62
    18
420
        0
370
    35
100
AcDbSpline
210
0.0
220
0.0
230
1.0
 70
     8
 71
     3
 72
     8
 73
     4
 74
     0
 42
0.0000000001
 43
0.0000000001
 40
0.0
 40
0.0
 40
0.0
 40
0.0
 40
1.0
 40
1.0
 40
1.0
 40
1.0
 10
1657.67960713021
 20
1022.028742215209
 30
0.0
 10
1653.02933326475
 20
1015.93696020531
 30
0.0
 10
1653.02933326475
 20
1007.48701690543
 30
0.0
 10
1657.67960713021
 20
1001.39523489553
 30
0.0
  0
SPLINE
  5
225
330
70
100
AcDbEntity
  8
Camada 1
 62
    18
420
        0
370
    35
100
AcDbSpline
210
0.0
220
0.0
230
1.0
 70
     8
 71
     3
 72
     8
 73
     4
 74
     0
 42
0.0000000001
 43
0.0000000001
 40
0.0
 40
0.0
 40
0.0
 40
0.0
 40
1.0
 40
1.0
 40
1.0
 40
1.0
 10
1657.67960713021
 20
1022.028742215209
 30
0.0
 10
1658.4596687064
 20
1023.05062893952
 30
0.0
 10
1658.882218892149
 20
1024.30060591109
 30
0.0
 10
1658.882218892149
 20
1025.58623302978
 30
0.0
  0
SPLINE
  5
226
330
70
100
AcDbEntity
  8
Camada 1
 62
    18
420
        0
370
    35
100
AcDbSpline
210
0.0
220
0.0
230
1.0
 70
     8
 71
     3
 72
     8
 73
     4
 74
     0
 42
0.0000000001
 43
0.0000000001
 40
0.0
 40
0.0
 40
0.0
 40
0.0
 40
1.0
 40
1.0
 40
1.0
 40
1.0
 10
1114.21523144282
 20
1039.26781017225
 30
0.0
 10
1114.21523144282
 20
1040.23920093746
 30
0.0
 10
1113.427746960649
 20
1041.02668541962
 30
0.0
 10
1112.45635619544
 20
1041.02668541962
 30
0.0
  0
SPLINE
  5
227
330
70
100
AcDbEntity
  8
Camada 1
 62
    18
420
        0
370
    35
100
AcDbSpline
210
0.0
220
0.0
230
1.0
 70
     8
 71
     3
 72
     8
 73
     4
 74
     0
 42
0.0000000001
 43
0.0000000001
 40
0.0
 40
0.0
 40
0.0
 40
0.0
 40
1.0
 40
1.0
 40
1.0
 40
1.0
 10
1112.45635619544
 20
1041.02668541962
 30
0.0
 10
1111.48491493427
 20
1041.02668541962
 30
0.0
 10
1110.697430452099
 20
1040.23920093746
 30
0.0
 10
1110.697430452099
 20
1039.26781017225
 30
0.0
  0
SPLINE
  5
228
330
70
100
AcDbEntity
  8
Camada 1
 62
    18
420
        0
370
    35
100
AcDbSpline
210
0.0
220
0.0
230
1.0
 70
     8
 71
     3
 72
     8
 73
     4
 74
     0
 42
0.0000000001
 43
0.0000000001
 40
0.0
 40
0.0
 40
0.0
 40
0.0
 40
1.0
 40
1.0
 40
1.0
 40
1.0
 10
1129.458850584089
 20
1039.26781017225
 30
0.0
 10
1129.458850584089
 20
1040.23920093746
 30
0.0
 10
1128.67136610192
 20
1041.02668541962
 30
0.0
 10
1127.699975336709
 20
1041.02668541962
 30
0.0
  0
SPLINE
  5
229
330
70
100
AcDbEntity
  8
Camada 1
 62
    18
420
        0
370
    35
100
AcDbSpline
210
0.0
220
0.0
230
1.0
 70
     8
 71
     3
 72
     8
 73
     4
 74
     0
 42
0.0000000001
 43
0.0000000001
 40
0.0
 40
0.0
 40
0.0
 40
0.0
 40
1.0
 40
1.0
 40
1.0
 40
1.0
 10
1127.699975336709
 20
1041.02668541962
 30
0.0
 10
1126.728584571499
 20
1041.02668541962
 30
0.0
 10
1125.94110008933
 20
1040.23920093746
 30
0.0
 10
1125.94110008933
 20
1039.26781017225
 30
0.0
  0
SPLINE
  5
22A
330
70
100
AcDbEntity
  8
Camada 1
 62
    18
420
        0
370
    35
100
AcDbSpline
210
0.0
220
0.0
230
1.0
 70
     8
 71
     3
 72
     8
 73
     4
 74
     0
 42
0.0000000001
 43
0.0000000001
 40
0.0
 40
0.0
 40
0.0
 40
0.0
 40
1.0
 40
1.0
 40
1.0
 40
1.0
 10
1144.702520221319
 20
1039.26781017225
 30
0.0
 10
1144.702520221319
 20
1040.23920093746
 30
0.0
 10
1143.915035739159
 20
1041.02668541962
 30
0.0
 10
1142.943594477979
 20
1041.02668541962
 30
0.0
  0
SPLINE
  5
22B
330
70
100
AcDbEntity
  8
Camada 1
 62
    18
420
        0
370
    35
100
AcDbSpline
210
0.0
220
0.0
230
1.0
 70
     8
 71
     3
 72
     8
 73
     4
 74
     0
 42
0.0000000001
 43
0.0000000001
 40
0.0
 40
0.0
 40
0.0
 40
0.0
 40
1.0
 40
1.0
 40
1.0
 40
1.0
 10
1142.943594477979
 20
1041.02668541962
 30
0.0
 10
1141.97220371277
 20
1041.02668541962
 30
0.0
 10
1141.184719230599
 20
1040.23920093746
 30
0.0
 10
1141.184719230599
 20
1039.26781017225
 30
0.0
  0
SPLINE
  5
22C
330
70
100
AcDbEntity
  8
Camada 1
 62
    18
420
        0
370
    35
100
AcDbSpline
210
0.0
220
0.0
230
1.0
 70
     8
 71
     3
 72
     8
 73
     4
 74
     0
 42
0.0000000001
 43
0.0000000001
 40
0.0
 40
0.0
 40
0.0
 40
0.0
 40
1.0
 40
1.0
 40
1.0
 40
1.0
 10
1159.9461393626
 20
1039.26781017225
 30
0.0
 10
1159.9461393626
 20
1040.23920093746
 30
0.0
 10
1159.15865488043
 20
1041.02668541962
 30
0.0
 10
1158.18726411522
 20
1041.02668541962
 30
0.0
  0
SPLINE
  5
22D
330
70
100
AcDbEntity
  8
Camada 1
 62
    18
420
        0
370
    35
100
AcDbSpline
210
0.0
220
0.0
230
1.0
 70
     8
 71
     3
 72
     8
 73
     4
 74
     0
 42
0.0000000001
 43
0.0000000001
 40
0.0
 40
0.0
 40
0.0
 40
0.0
 40
1.0
 40
1.0
 40
1.0
 40
1.0
 10
1158.18726411522
 20
1041.02668541962
 30
0.0
 10
1157.215873350011
 20
1041.02668541962
 30
0.0
 10
1156.428388867829
 20
1040.23920093746
 30
0.0
 10
1156.428388867829
 20
1039.26781017225
 30
0.0
  0
SPLINE
  5
22E
330
70
100
AcDbEntity
  8
Camada 1
 62
    18
420
        0
370
    35
100
AcDbSpline
210
0.0
220
0.0
230
1.0
 70
     8
 71
     3
 72
     8
 73
     4
 74
     0
 42
0.0000000001
 43
0.0000000001
 40
0.0
 40
0.0
 40
0.0
 40
0.0
 40
1.0
 40
1.0
 40
1.0
 40
1.0
 10
1175.18980899983
 20
1039.26781017225
 30
0.0
 10
1175.18980899983
 20
1040.23920093746
 30
0.0
 10
1174.4022740217
 20
1041.02668541962
 30
0.0
 10
1173.43093375245
 20
1041.02668541962
 30
0.0
  0
SPLINE
  5
22F
330
70
100
AcDbEntity
  8
Camada 1
 62
    18
420
        0
370
    35
100
AcDbSpline
210
0.0
220
0.0
230
1.0
 70
     8
 71
     3
 72
     8
 73
     4
 74
     0
 42
0.0000000001
 43
0.0000000001
 40
0.0
 40
0.0
 40
0.0
 40
0.0
 40
1.0
 40
1.0
 40
1.0
 40
1.0
 10
1173.43093375245
 20
1041.02668541962
 30
0.0
 10
1172.459492491271
 20
1041.02668541962
 30
0.0
 10
1171.67205850507
 20
1040.23920093746
 30
0.0
 10
1171.67205850507
 20
1039.26781017225
 30
0.0
  0
SPLINE
  5
230
330
70
100
AcDbEntity
  8
Camada 1
 62
    18
420
        0
370
    35
100
AcDbSpline
210
0.0
220
0.0
230
1.0
 70
     8
 71
     3
 72
     8
 73
     4
 74
     0
 42
0.0000000001
 43
0.0000000001
 40
0.0
 40
0.0
 40
0.0
 40
0.0
 40
1.0
 40
1.0
 40
1.0
 40
1.0
 10
1190.433428141099
 20
1039.26781017225
 30
0.0
 10
1190.433428141099
 20
1040.23920093746
 30
0.0
 10
1189.645893162969
 20
1041.02668541962
 30
0.0
 10
1188.674552893721
 20
1041.02668541962
 30
0.0
  0
SPLINE
  5
231
330
70
100
AcDbEntity
  8
Camada 1
 62
    18
420
        0
370
    35
100
AcDbSpline
210
0.0
220
0.0
230
1.0
 70
     8
 71
     3
 72
     8
 73
     4
 74
     0
 42
0.0000000001
 43
0.0000000001
 40
0.0
 40
0.0
 40
0.0
 40
0.0
 40
1.0
 40
1.0
 40
1.0
 40
1.0
 10
1188.674552893721
 20
1041.02668541962
 30
0.0
 10
1187.70311163255
 20
1041.02668541962
 30
0.0
 10
1186.91567764634
 20
1040.23920093746
 30
0.0
 10
1186.91567764634
 20
1039.26781017225
 30
0.0
  0
SPLINE
  5
232
330
70
100
AcDbEntity
  8
Camada 1
 62
    18
420
        0
370
    35
100
AcDbSpline
210
0.0
220
0.0
230
1.0
 70
     8
 71
     3
 72
     8
 73
     4
 74
     0
 42
0.0000000001
 43
0.0000000001
 40
0.0
 40
0.0
 40
0.0
 40
0.0
 40
1.0
 40
1.0
 40
1.0
 40
1.0
 10
1205.67704728237
 20
1039.26781017225
 30
0.0
 10
1205.67704728237
 20
1040.23920093746
 30
0.0
 10
1204.88961329616
 20
1041.02668541962
 30
0.0
 10
1203.91817203499
 20
1041.02668541962
 30
0.0
  0
SPLINE
  5
233
330
70
100
AcDbEntity
  8
Camada 1
 62
    18
420
        0
370
    35
100
AcDbSpline
210
0.0
220
0.0
230
1.0
 70
     8
 71
     3
 72
     8
 73
     4
 74
     0
 42
0.0000000001
 43
0.0000000001
 40
0.0
 40
0.0
 40
0.0
 40
0.0
 40
1.0
 40
1.0
 40
1.0
 40
1.0
 10
1203.91817203499
 20
1041.02668541962
 30
0.0
 10
1202.946730773819
 20
1041.02668541962
 30
0.0
 10
1202.159296787609
 20
1040.23920093746
 30
0.0
 10
1202.159296787609
 20
1039.26781017225
 30
0.0
  0
SPLINE
  5
234
330
70
100
AcDbEntity
  8
Camada 1
 62
    18
420
        0
370
    35
100
AcDbSpline
210
0.0
220
0.0
230
1.0
 70
     8
 71
     3
 72
     8
 73
     4
 74
     0
 42
0.0000000001
 43
0.0000000001
 40
0.0
 40
0.0
 40
0.0
 40
0.0
 40
1.0
 40
1.0
 40
1.0
 40
1.0
 10
1220.92066642365
 20
1039.26781017225
 30
0.0
 10
1220.92066642365
 20
1040.23920093746
 30
0.0
 10
1220.13323243743
 20
1041.02668541962
 30
0.0
 10
1219.16179117626
 20
1041.02668541962
 30
0.0
  0
SPLINE
  5
235
330
70
100
AcDbEntity
  8
Camada 1
 62
    18
420
        0
370
    35
100
AcDbSpline
210
0.0
220
0.0
230
1.0
 70
     8
 71
     3
 72
     8
 73
     4
 74
     0
 42
0.0000000001
 43
0.0000000001
 40
0.0
 40
0.0
 40
0.0
 40
0.0
 40
1.0
 40
1.0
 40
1.0
 40
1.0
 10
1219.16179117626
 20
1041.02668541962
 30
0.0
 10
1218.19045090701
 20
1041.02668541962
 30
0.0
 10
1217.402915928889
 20
1040.23920093746
 30
0.0
 10
1217.402915928889
 20
1039.26781017225
 30
0.0
  0
SPLINE
  5
236
330
70
100
AcDbEntity
  8
Camada 1
 62
    18
420
        0
370
    35
100
AcDbSpline
210
0.0
220
0.0
230
1.0
 70
     8
 71
     3
 72
     8
 73
     4
 74
     0
 42
0.0000000001
 43
0.0000000001
 40
0.0
 40
0.0
 40
0.0
 40
0.0
 40
1.0
 40
1.0
 40
1.0
 40
1.0
 10
1236.16438655684
 20
1039.26781017225
 30
0.0
 10
1236.16438655684
 20
1040.23920093746
 30
0.0
 10
1235.37685157871
 20
1041.02668541962
 30
0.0
 10
1234.40551130946
 20
1041.02668541962
 30
0.0
  0
SPLINE
  5
237
330
70
100
AcDbEntity
  8
Camada 1
 62
    18
420
        0
370
    35
100
AcDbSpline
210
0.0
220
0.0
230
1.0
 70
     8
 71
     3
 72
     8
 73
     4
 74
     0
 42
0.0000000001
 43
0.0000000001
 40
0.0
 40
0.0
 40
0.0
 40
0.0
 40
1.0
 40
1.0
 40
1.0
 40
1.0
 10
1234.40551130946
 20
1041.02668541962
 30
0.0
 10
1233.434070048281
 20
1041.02668541962
 30
0.0
 10
1232.646535070151
 20
1040.23920093746
 30
0.0
 10
1232.646535070151
 20
1039.26781017225
 30
0.0
  0
SPLINE
  5
238
330
70
100
AcDbEntity
  8
Camada 1
 62
    18
420
        0
370
    35
100
AcDbSpline
210
0.0
220
0.0
230
1.0
 70
     8
 71
     3
 72
     8
 73
     4
 74
     0
 42
0.0000000001
 43
0.0000000001
 40
0.0
 40
0.0
 40
0.0
 40
0.0
 40
1.0
 40
1.0
 40
1.0
 40
1.0
 10
1251.408005698109
 20
1039.26781017225
 30
0.0
 10
1251.408005698109
 20
1040.23920093746
 30
0.0
 10
1250.620470719979
 20
1041.02668541962
 30
0.0
 10
1249.649130450729
 20
1041.02668541962
 30
0.0
  0
SPLINE
  5
239
330
70
100
AcDbEntity
  8
Camada 1
 62
    18
420
        0
370
    35
100
AcDbSpline
210
0.0
220
0.0
230
1.0
 70
     8
 71
     3
 72
     8
 73
     4
 74
     0
 42
0.0000000001
 43
0.0000000001
 40
0.0
 40
0.0
 40
0.0
 40
0.0
 40
1.0
 40
1.0
 40
1.0
 40
1.0
 10
1249.649130450729
 20
1041.02668541962
 30
0.0
 10
1248.677689189561
 20
1041.02668541962
 30
0.0
 10
1247.89025520335
 20
1040.23920093746
 30
0.0
 10
1247.89025520335
 20
1039.26781017225
 30
0.0
  0
SPLINE
  5
23A
330
70
100
AcDbEntity
  8
Camada 1
 62
    18
420
        0
370
    35
100
AcDbSpline
210
0.0
220
0.0
230
1.0
 70
     8
 71
     3
 72
     8
 73
     4
 74
     0
 42
0.0000000001
 43
0.0000000001
 40
0.0
 40
0.0
 40
0.0
 40
0.0
 40
1.0
 40
1.0
 40
1.0
 40
1.0
 10
1266.65162483938
 20
1039.26781017225
 30
0.0
 10
1266.65162483938
 20
1040.23920093746
 30
0.0
 10
1265.86419085317
 20
1041.02668541962
 30
0.0
 10
1264.892749591999
 20
1041.02668541962
 30
0.0
  0
SPLINE
  5
23B
330
70
100
AcDbEntity
  8
Camada 1
 62
    18
420
        0
370
    35
100
AcDbSpline
210
0.0
220
0.0
230
1.0
 70
     8
 71
     3
 72
     8
 73
     4
 74
     0
 42
0.0000000001
 43
0.0000000001
 40
0.0
 40
0.0
 40
0.0
 40
0.0
 40
1.0
 40
1.0
 40
1.0
 40
1.0
 10
1264.892749591999
 20
1041.02668541962
 30
0.0
 10
1263.921308330829
 20
1041.02668541962
 30
0.0
 10
1263.133874344619
 20
1040.23920093746
 30
0.0
 10
1263.133874344619
 20
1039.26781017225
 30
0.0
  0
SPLINE
  5
23C
330
70
100
AcDbEntity
  8
Camada 1
 62
    18
420
        0
370
    35
100
AcDbSpline
210
0.0
220
0.0
230
1.0
 70
     8
 71
     3
 72
     8
 73
     4
 74
     0
 42
0.0000000001
 43
0.0000000001
 40
0.0
 40
0.0
 40
0.0
 40
0.0
 40
1.0
 40
1.0
 40
1.0
 40
1.0
 10
1281.895243980651
 20
1039.26781017225
 30
0.0
 10
1281.895243980651
 20
1040.23920093746
 30
0.0
 10
1281.107809994441
 20
1041.02668541962
 30
0.0
 10
1280.13636873327
 20
1041.02668541962
 30
0.0
  0
SPLINE
  5
23D
330
70
100
AcDbEntity
  8
Camada 1
 62
    18
420
        0
370
    35
100
AcDbSpline
210
0.0
220
0.0
230
1.0
 70
     8
 71
     3
 72
     8
 73
     4
 74
     0
 42
0.0000000001
 43
0.0000000001
 40
0.0
 40
0.0
 40
0.0
 40
0.0
 40
1.0
 40
1.0
 40
1.0
 40
1.0
 10
1280.13636873327
 20
1041.02668541962
 30
0.0
 10
1279.16502846402
 20
1041.02668541962
 30
0.0
 10
1278.37749348589
 20
1040.23920093746
 30
0.0
 10
1278.37749348589
 20
1039.26781017225
 30
0.0
  0
SPLINE
  5
23E
330
70
100
AcDbEntity
  8
Camada 1
 62
    18
420
        0
370
    35
100
AcDbSpline
210
0.0
220
0.0
230
1.0
 70
     8
 71
     3
 72
     8
 73
     4
 74
     0
 42
0.0000000001
 43
0.0000000001
 40
0.0
 40
0.0
 40
0.0
 40
0.0
 40
1.0
 40
1.0
 40
1.0
 40
1.0
 10
1297.13886312193
 20
1039.26781017225
 30
0.0
 10
1297.13886312193
 20
1040.23920093746
 30
0.0
 10
1296.35142913572
 20
1041.02668541962
 30
0.0
 10
1295.37998787455
 20
1041.02668541962
 30
0.0
  0
SPLINE
  5
23F
330
70
100
AcDbEntity
  8
Camada 1
 62
    18
420
        0
370
    35
100
AcDbSpline
210
0.0
220
0.0
230
1.0
 70
     8
 71
     3
 72
     8
 73
     4
 74
     0
 42
0.0000000001
 43
0.0000000001
 40
0.0
 40
0.0
 40
0.0
 40
0.0
 40
1.0
 40
1.0
 40
1.0
 40
1.0
 10
1295.37998787455
 20
1041.02668541962
 30
0.0
 10
1294.408647605291
 20
1041.02668541962
 30
0.0
 10
1293.621112627159
 20
1040.23920093746
 30
0.0
 10
1293.621112627159
 20
1039.26781017225
 30
0.0
  0
SPLINE
  5
240
330
70
100
AcDbEntity
  8
Camada 1
 62
    18
420
        0
370
    35
100
AcDbSpline
210
0.0
220
0.0
230
1.0
 70
     8
 71
     3
 72
     8
 73
     4
 74
     0
 42
0.0000000001
 43
0.0000000001
 40
0.0
 40
0.0
 40
0.0
 40
0.0
 40
1.0
 40
1.0
 40
1.0
 40
1.0
 10
1312.382583255119
 20
1039.26781017225
 30
0.0
 10
1312.382583255119
 20
1040.23920093746
 30
0.0
 10
1311.595048276989
 20
1041.02668541962
 30
0.0
 10
1310.623708007741
 20
1041.02668541962
 30
0.0
  0
SPLINE
  5
241
330
70
100
AcDbEntity
  8
Camada 1
 62
    18
420
        0
370
    35
100
AcDbSpline
210
0.0
220
0.0
230
1.0
 70
     8
 71
     3
 72
     8
 73
     4
 74
     0
 42
0.0000000001
 43
0.0000000001
 40
0.0
 40
0.0
 40
0.0
 40
0.0
 40
1.0
 40
1.0
 40
1.0
 40
1.0
 10
1310.623708007741
 20
1041.02668541962
 30
0.0
 10
1309.65226674657
 20
1041.02668541962
 30
0.0
 10
1308.86483276036
 20
1040.23920093746
 30
0.0
 10
1308.86483276036
 20
1039.26781017225
 30
0.0
  0
SPLINE
  5
242
330
70
100
AcDbEntity
  8
Camada 1
 62
    18
420
        0
370
    35
100
AcDbSpline
210
0.0
220
0.0
230
1.0
 70
     8
 71
     3
 72
     8
 73
     4
 74
     0
 42
0.0000000001
 43
0.0000000001
 40
0.0
 40
0.0
 40
0.0
 40
0.0
 40
1.0
 40
1.0
 40
1.0
 40
1.0
 10
1327.62620239639
 20
1039.26781017225
 30
0.0
 10
1327.62620239639
 20
1040.23920093746
 30
0.0
 10
1326.83866741826
 20
1041.02668541962
 30
0.0
 10
1325.86732714901
 20
1041.02668541962
 30
0.0
  0
SPLINE
  5
243
330
70
100
AcDbEntity
  8
Camada 1
 62
    18
420
        0
370
    35
100
AcDbSpline
210
0.0
220
0.0
230
1.0
 70
     8
 71
     3
 72
     8
 73
     4
 74
     0
 42
0.0000000001
 43
0.0000000001
 40
0.0
 40
0.0
 40
0.0
 40
0.0
 40
1.0
 40
1.0
 40
1.0
 40
1.0
 10
1325.86732714901
 20
1041.02668541962
 30
0.0
 10
1324.895885887839
 20
1041.02668541962
 30
0.0
 10
1324.108451901629
 20
1040.23920093746
 30
0.0
 10
1324.108451901629
 20
1039.26781017225
 30
0.0
  0
SPLINE
  5
244
330
70
100
AcDbEntity
  8
Camada 1
 62
    18
420
        0
370
    35
100
AcDbSpline
210
0.0
220
0.0
230
1.0
 70
     8
 71
     3
 72
     8
 73
     4
 74
     0
 42
0.0000000001
 43
0.0000000001
 40
0.0
 40
0.0
 40
0.0
 40
0.0
 40
1.0
 40
1.0
 40
1.0
 40
1.0
 10
1342.869821537661
 20
1039.26781017225
 30
0.0
 10
1342.869821537661
 20
1040.23920093746
 30
0.0
 10
1342.082387551451
 20
1041.02668541962
 30
0.0
 10
1341.11094629028
 20
1041.02668541962
 30
0.0
  0
SPLINE
  5
245
330
70
100
AcDbEntity
  8
Camada 1
 62
    18
420
        0
370
    35
100
AcDbSpline
210
0.0
220
0.0
230
1.0
 70
     8
 71
     3
 72
     8
 73
     4
 74
     0
 42
0.0000000001
 43
0.0000000001
 40
0.0
 40
0.0
 40
0.0
 40
0.0
 40
1.0
 40
1.0
 40
1.0
 40
1.0
 10
1341.11094629028
 20
1041.02668541962
 30
0.0
 10
1340.13950502911
 20
1041.02668541962
 30
0.0
 10
1339.3520710429
 20
1040.23920093746
 30
0.0
 10
1339.3520710429
 20
1039.26781017225
 30
0.0
  0
SPLINE
  5
246
330
70
100
AcDbEntity
  8
Camada 1
 62
    18
420
        0
370
    35
100
AcDbSpline
210
0.0
220
0.0
230
1.0
 70
     8
 71
     3
 72
     8
 73
     4
 74
     0
 42
0.0000000001
 43
0.0000000001
 40
0.0
 40
0.0
 40
0.0
 40
0.0
 40
1.0
 40
1.0
 40
1.0
 40
1.0
 10
1358.113440678941
 20
1039.26781017225
 30
0.0
 10
1358.113440678941
 20
1040.23920093746
 30
0.0
 10
1357.32600669273
 20
1041.02668541962
 30
0.0
 10
1356.35456543156
 20
1041.02668541962
 30
0.0
  0
SPLINE
  5
247
330
70
100
AcDbEntity
  8
Camada 1
 62
    18
420
        0
370
    35
100
AcDbSpline
210
0.0
220
0.0
230
1.0
 70
     8
 71
     3
 72
     8
 73
     4
 74
     0
 42
0.0000000001
 43
0.0000000001
 40
0.0
 40
0.0
 40
0.0
 40
0.0
 40
1.0
 40
1.0
 40
1.0
 40
1.0
 10
1356.35456543156
 20
1041.02668541962
 30
0.0
 10
1355.383225162301
 20
1041.02668541962
 30
0.0
 10
1354.595690184171
 20
1040.23920093746
 30
0.0
 10
1354.595690184171
 20
1039.26781017225
 30
0.0
  0
SPLINE
  5
248
330
70
100
AcDbEntity
  8
Camada 1
 62
    18
420
        0
370
    35
100
AcDbSpline
210
0.0
220
0.0
230
1.0
 70
     8
 71
     3
 72
     8
 73
     4
 74
     0
 42
0.0000000001
 43
0.0000000001
 40
0.0
 40
0.0
 40
0.0
 40
0.0
 40
1.0
 40
1.0
 40
1.0
 40
1.0
 10
1373.357059820209
 20
1039.26781017225
 30
0.0
 10
1373.357059820209
 20
1040.23920093746
 30
0.0
 10
1372.569625833999
 20
1041.02668541962
 30
0.0
 10
1371.598184572829
 20
1041.02668541962
 30
0.0
  0
SPLINE
  5
249
330
70
100
AcDbEntity
  8
Camada 1
 62
    18
420
        0
370
    35
100
AcDbSpline
210
0.0
220
0.0
230
1.0
 70
     8
 71
     3
 72
     8
 73
     4
 74
     0
 42
0.0000000001
 43
0.0000000001
 40
0.0
 40
0.0
 40
0.0
 40
0.0
 40
1.0
 40
1.0
 40
1.0
 40
1.0
 10
1371.598184572829
 20
1041.02668541962
 30
0.0
 10
1370.62684430357
 20
1041.02668541962
 30
0.0
 10
1369.839309325449
 20
1040.23920093746
 30
0.0
 10
1369.839309325449
 20
1039.26781017225
 30
0.0
  0
SPLINE
  5
24A
330
70
100
AcDbEntity
  8
Camada 1
 62
    18
420
        0
370
    35
100
AcDbSpline
210
0.0
220
0.0
230
1.0
 70
     8
 71
     3
 72
     8
 73
     4
 74
     0
 42
0.0000000001
 43
0.0000000001
 40
0.0
 40
0.0
 40
0.0
 40
0.0
 40
1.0
 40
1.0
 40
1.0
 40
1.0
 10
1388.6007799534
 20
1039.26781017225
 30
0.0
 10
1388.6007799534
 20
1040.23920093746
 30
0.0
 10
1387.81324497527
 20
1041.02668541962
 30
0.0
 10
1386.84190470602
 20
1041.02668541962
 30
0.0
  0
SPLINE
  5
24B
330
70
100
AcDbEntity
  8
Camada 1
 62
    18
420
        0
370
    35
100
AcDbSpline
210
0.0
220
0.0
230
1.0
 70
     8
 71
     3
 72
     8
 73
     4
 74
     0
 42
0.0000000001
 43
0.0000000001
 40
0.0
 40
0.0
 40
0.0
 40
0.0
 40
1.0
 40
1.0
 40
1.0
 40
1.0
 10
1386.84190470602
 20
1041.02668541962
 30
0.0
 10
1385.870463444849
 20
1041.02668541962
 30
0.0
 10
1385.083029458639
 20
1040.23920093746
 30
0.0
 10
1385.083029458639
 20
1039.26781017225
 30
0.0
  0
SPLINE
  5
24C
330
70
100
AcDbEntity
  8
Camada 1
 62
    18
420
        0
370
    35
100
AcDbSpline
210
0.0
220
0.0
230
1.0
 70
     8
 71
     3
 72
     8
 73
     4
 74
     0
 42
0.0000000001
 43
0.0000000001
 40
0.0
 40
0.0
 40
0.0
 40
0.0
 40
1.0
 40
1.0
 40
1.0
 40
1.0
 10
1403.84439909467
 20
1039.26781017225
 30
0.0
 10
1403.84439909467
 20
1040.23920093746
 30
0.0
 10
1403.056864116541
 20
1041.02668541962
 30
0.0
 10
1402.08552384729
 20
1041.02668541962
 30
0.0
  0
SPLINE
  5
24D
330
70
100
AcDbEntity
  8
Camada 1
 62
    18
420
        0
370
    35
100
AcDbSpline
210
0.0
220
0.0
230
1.0
 70
     8
 71
     3
 72
     8
 73
     4
 74
     0
 42
0.0000000001
 43
0.0000000001
 40
0.0
 40
0.0
 40
0.0
 40
0.0
 40
1.0
 40
1.0
 40
1.0
 40
1.0
 10
1402.08552384729
 20
1041.02668541962
 30
0.0
 10
1401.11408258612
 20
1041.02668541962
 30
0.0
 10
1400.32664859991
 20
1040.23920093746
 30
0.0
 10
1400.32664859991
 20
1039.26781017225
 30
0.0
  0
SPLINE
  5
24E
330
70
100
AcDbEntity
  8
Camada 1
 62
    18
420
        0
370
    35
100
AcDbSpline
210
0.0
220
0.0
230
1.0
 70
     8
 71
     3
 72
     8
 73
     4
 74
     0
 42
0.0000000001
 43
0.0000000001
 40
0.0
 40
0.0
 40
0.0
 40
0.0
 40
1.0
 40
1.0
 40
1.0
 40
1.0
 10
1419.08801823594
 20
1039.26781017225
 30
0.0
 10
1419.08801823594
 20
1040.23920093746
 30
0.0
 10
1418.30058424974
 20
1041.02668541962
 30
0.0
 10
1417.329142988559
 20
1041.02668541962
 30
0.0
  0
SPLINE
  5
24F
330
70
100
AcDbEntity
  8
Camada 1
 62
    18
420
        0
370
    35
100
AcDbSpline
210
0.0
220
0.0
230
1.0
 70
     8
 71
     3
 72
     8
 73
     4
 74
     0
 42
0.0000000001
 43
0.0000000001
 40
0.0
 40
0.0
 40
0.0
 40
0.0
 40
1.0
 40
1.0
 40
1.0
 40
1.0
 10
1417.329142988559
 20
1041.02668541962
 30
0.0
 10
1416.357701727389
 20
1041.02668541962
 30
0.0
 10
1415.570267741179
 20
1040.23920093746
 30
0.0
 10
1415.570267741179
 20
1039.26781017225
 30
0.0
  0
SPLINE
  5
250
330
70
100
AcDbEntity
  8
Camada 1
 62
    18
420
        0
370
    35
100
AcDbSpline
210
0.0
220
0.0
230
1.0
 70
     8
 71
     3
 72
     8
 73
     4
 74
     0
 42
0.0000000001
 43
0.0000000001
 40
0.0
 40
0.0
 40
0.0
 40
0.0
 40
1.0
 40
1.0
 40
1.0
 40
1.0
 10
1434.331637377219
 20
1039.26781017225
 30
0.0
 10
1434.331637377219
 20
1040.23920093746
 30
0.0
 10
1433.544203391009
 20
1041.02668541962
 30
0.0
 10
1432.57276212983
 20
1041.02668541962
 30
0.0
  0
SPLINE
  5
251
330
70
100
AcDbEntity
  8
Camada 1
 62
    18
420
        0
370
    35
100
AcDbSpline
210
0.0
220
0.0
230
1.0
 70
     8
 71
     3
 72
     8
 73
     4
 74
     0
 42
0.0000000001
 43
0.0000000001
 40
0.0
 40
0.0
 40
0.0
 40
0.0
 40
1.0
 40
1.0
 40
1.0
 40
1.0
 10
1432.57276212983
 20
1041.02668541962
 30
0.0
 10
1431.60142186058
 20
1041.02668541962
 30
0.0
 10
1430.813886882461
 20
1040.23920093746
 30
0.0
 10
1430.813886882461
 20
1039.26781017225
 30
0.0
  0
SPLINE
  5
252
330
70
100
AcDbEntity
  8
Camada 1
 62
    18
420
        0
370
    35
100
AcDbSpline
210
0.0
220
0.0
230
1.0
 70
     8
 71
     3
 72
     8
 73
     4
 74
     0
 42
0.0000000001
 43
0.0000000001
 40
0.0
 40
0.0
 40
0.0
 40
0.0
 40
1.0
 40
1.0
 40
1.0
 40
1.0
 10
1449.57535751041
 20
1039.26781017225
 30
0.0
 10
1449.57535751041
 20
1040.23920093746
 30
0.0
 10
1448.78782253228
 20
1041.02668541962
 30
0.0
 10
1447.81638127111
 20
1041.02668541962
 30
0.0
  0
SPLINE
  5
253
330
70
100
AcDbEntity
  8
Camada 1
 62
    18
420
        0
370
    35
100
AcDbSpline
210
0.0
220
0.0
230
1.0
 70
     8
 71
     3
 72
     8
 73
     4
 74
     0
 42
0.0000000001
 43
0.0000000001
 40
0.0
 40
0.0
 40
0.0
 40
0.0
 40
1.0
 40
1.0
 40
1.0
 40
1.0
 10
1447.81638127111
 20
1041.02668541962
 30
0.0
 10
1446.845041001859
 20
1041.02668541962
 30
0.0
 10
1446.05750602373
 20
1040.23920093746
 30
0.0
 10
1446.05750602373
 20
1039.26781017225
 30
0.0
  0
SPLINE
  5
254
330
70
100
AcDbEntity
  8
Camada 1
 62
    18
420
        0
370
    35
100
AcDbSpline
210
0.0
220
0.0
230
1.0
 70
     8
 71
     3
 72
     8
 73
     4
 74
     0
 42
0.0000000001
 43
0.0000000001
 40
0.0
 40
0.0
 40
0.0
 40
0.0
 40
1.0
 40
1.0
 40
1.0
 40
1.0
 10
1464.818976651681
 20
1039.26781017225
 30
0.0
 10
1464.818976651681
 20
1040.23920093746
 30
0.0
 10
1464.031441673549
 20
1041.02668541962
 30
0.0
 10
1463.0601014043
 20
1041.02668541962
 30
0.0
  0
SPLINE
  5
255
330
70
100
AcDbEntity
  8
Camada 1
 62
    18
420
        0
370
    35
100
AcDbSpline
210
0.0
220
0.0
230
1.0
 70
     8
 71
     3
 72
     8
 73
     4
 74
     0
 42
0.0000000001
 43
0.0000000001
 40
0.0
 40
0.0
 40
0.0
 40
0.0
 40
1.0
 40
1.0
 40
1.0
 40
1.0
 10
1463.0601014043
 20
1041.02668541962
 30
0.0
 10
1462.08866014313
 20
1041.02668541962
 30
0.0
 10
1461.30122615692
 20
1040.23920093746
 30
0.0
 10
1461.30122615692
 20
1039.26781017225
 30
0.0
  0
SPLINE
  5
256
330
70
100
AcDbEntity
  8
Camada 1
 62
    18
420
        0
370
    35
100
AcDbSpline
210
0.0
220
0.0
230
1.0
 70
     8
 71
     3
 72
     8
 73
     4
 74
     0
 42
0.0000000001
 43
0.0000000001
 40
0.0
 40
0.0
 40
0.0
 40
0.0
 40
1.0
 40
1.0
 40
1.0
 40
1.0
 10
1480.06259579296
 20
1039.26781017225
 30
0.0
 10
1480.06259579296
 20
1040.23920093746
 30
0.0
 10
1479.27516180675
 20
1041.02668541962
 30
0.0
 10
1478.303720545569
 20
1041.02668541962
 30
0.0
  0
SPLINE
  5
257
330
70
100
AcDbEntity
  8
Camada 1
 62
    18
420
        0
370
    35
100
AcDbSpline
210
0.0
220
0.0
230
1.0
 70
     8
 71
     3
 72
     8
 73
     4
 74
     0
 42
0.0000000001
 43
0.0000000001
 40
0.0
 40
0.0
 40
0.0
 40
0.0
 40
1.0
 40
1.0
 40
1.0
 40
1.0
 10
1478.303720545569
 20
1041.02668541962
 30
0.0
 10
1477.332279284401
 20
1041.02668541962
 30
0.0
 10
1476.544845298191
 20
1040.23920093746
 30
0.0
 10
1476.544845298191
 20
1039.26781017225
 30
0.0
  0
SPLINE
  5
258
330
70
100
AcDbEntity
  8
Camada 1
 62
    18
420
        0
370
    35
100
AcDbSpline
210
0.0
220
0.0
230
1.0
 70
     8
 71
     3
 72
     8
 73
     4
 74
     0
 42
0.0000000001
 43
0.0000000001
 40
0.0
 40
0.0
 40
0.0
 40
0.0
 40
1.0
 40
1.0
 40
1.0
 40
1.0
 10
1495.306214934229
 20
1039.26781017225
 30
0.0
 10
1495.306214934229
 20
1040.23920093746
 30
0.0
 10
1494.518780948019
 20
1041.02668541962
 30
0.0
 10
1493.547339686849
 20
1041.02668541962
 30
0.0
  0
SPLINE
  5
259
330
70
100
AcDbEntity
  8
Camada 1
 62
    18
420
        0
370
    35
100
AcDbSpline
210
0.0
220
0.0
230
1.0
 70
     8
 71
     3
 72
     8
 73
     4
 74
     0
 42
0.0000000001
 43
0.0000000001
 40
0.0
 40
0.0
 40
0.0
 40
0.0
 40
1.0
 40
1.0
 40
1.0
 40
1.0
 10
1493.547339686849
 20
1041.02668541962
 30
0.0
 10
1492.57589842567
 20
1041.02668541962
 30
0.0
 10
1491.78846443947
 20
1040.23920093746
 30
0.0
 10
1491.78846443947
 20
1039.26781017225
 30
0.0
  0
SPLINE
  5
25A
330
70
100
AcDbEntity
  8
Camada 1
 62
    18
420
        0
370
    35
100
AcDbSpline
210
0.0
220
0.0
230
1.0
 70
     8
 71
     3
 72
     8
 73
     4
 74
     0
 42
0.0000000001
 43
0.0000000001
 40
0.0
 40
0.0
 40
0.0
 40
0.0
 40
1.0
 40
1.0
 40
1.0
 40
1.0
 10
1510.5498340755
 20
1039.26781017225
 30
0.0
 10
1510.5498340755
 20
1040.23920093746
 30
0.0
 10
1509.76240008929
 20
1041.02668541962
 30
0.0
 10
1508.79095882812
 20
1041.02668541962
 30
0.0
  0
SPLINE
  5
25B
330
70
100
AcDbEntity
  8
Camada 1
 62
    18
420
        0
370
    35
100
AcDbSpline
210
0.0
220
0.0
230
1.0
 70
     8
 71
     3
 72
     8
 73
     4
 74
     0
 42
0.0000000001
 43
0.0000000001
 40
0.0
 40
0.0
 40
0.0
 40
0.0
 40
1.0
 40
1.0
 40
1.0
 40
1.0
 10
1508.79095882812
 20
1041.02668541962
 30
0.0
 10
1507.819618558869
 20
1041.02668541962
 30
0.0
 10
1507.03208358074
 20
1040.23920093746
 30
0.0
 10
1507.03208358074
 20
1039.26781017225
 30
0.0
  0
SPLINE
  5
25C
330
70
100
AcDbEntity
  8
Camada 1
 62
    18
420
        0
370
    35
100
AcDbSpline
210
0.0
220
0.0
230
1.0
 70
     8
 71
     3
 72
     8
 73
     4
 74
     0
 42
0.0000000001
 43
0.0000000001
 40
0.0
 40
0.0
 40
0.0
 40
0.0
 40
1.0
 40
1.0
 40
1.0
 40
1.0
 10
1525.79355420869
 20
1039.26781017225
 30
0.0
 10
1525.79355420869
 20
1040.23920093746
 30
0.0
 10
1525.006019230561
 20
1041.02668541962
 30
0.0
 10
1524.03467896131
 20
1041.02668541962
 30
0.0
  0
SPLINE
  5
25D
330
70
100
AcDbEntity
  8
Camada 1
 62
    18
420
        0
370
    35
100
AcDbSpline
210
0.0
220
0.0
230
1.0
 70
     8
 71
     3
 72
     8
 73
     4
 74
     0
 42
0.0000000001
 43
0.0000000001
 40
0.0
 40
0.0
 40
0.0
 40
0.0
 40
1.0
 40
1.0
 40
1.0
 40
1.0
 10
1524.03467896131
 20
1041.02668541962
 30
0.0
 10
1523.06323770014
 20
1041.02668541962
 30
0.0
 10
1522.27570272201
 20
1040.23920093746
 30
0.0
 10
1522.27570272201
 20
1039.26781017225
 30
0.0
  0
SPLINE
  5
25E
330
70
100
AcDbEntity
  8
Camada 1
 62
    18
420
        0
370
    35
100
AcDbSpline
210
0.0
220
0.0
230
1.0
 70
     8
 71
     3
 72
     8
 73
     4
 74
     0
 42
0.0000000001
 43
0.0000000001
 40
0.0
 40
0.0
 40
0.0
 40
0.0
 40
1.0
 40
1.0
 40
1.0
 40
1.0
 10
1541.037173349959
 20
1039.26781017225
 30
0.0
 10
1541.037173349959
 20
1040.23920093746
 30
0.0
 10
1540.249638371841
 20
1041.02668541962
 30
0.0
 10
1539.278298102579
 20
1041.02668541962
 30
0.0
  0
SPLINE
  5
25F
330
70
100
AcDbEntity
  8
Camada 1
 62
    18
420
        0
370
    35
100
AcDbSpline
210
0.0
220
0.0
230
1.0
 70
     8
 71
     3
 72
     8
 73
     4
 74
     0
 42
0.0000000001
 43
0.0000000001
 40
0.0
 40
0.0
 40
0.0
 40
0.0
 40
1.0
 40
1.0
 40
1.0
 40
1.0
 10
1539.278298102579
 20
1041.02668541962
 30
0.0
 10
1538.306856841409
 20
1041.02668541962
 30
0.0
 10
1537.519422855199
 20
1040.23920093746
 30
0.0
 10
1537.519422855199
 20
1039.26781017225
 30
0.0
  0
SPLINE
  5
260
330
70
100
AcDbEntity
  8
Camada 1
 62
    18
420
        0
370
    35
100
AcDbSpline
210
0.0
220
0.0
230
1.0
 70
     8
 71
     3
 72
     8
 73
     4
 74
     0
 42
0.0000000001
 43
0.0000000001
 40
0.0
 40
0.0
 40
0.0
 40
0.0
 40
1.0
 40
1.0
 40
1.0
 40
1.0
 10
1556.28079249123
 20
1039.26781017225
 30
0.0
 10
1556.28079249123
 20
1040.23920093746
 30
0.0
 10
1555.49335850502
 20
1041.02668541962
 30
0.0
 10
1554.521917243859
 20
1041.02668541962
 30
0.0
  0
SPLINE
  5
261
330
70
100
AcDbEntity
  8
Camada 1
 62
    18
420
        0
370
    35
100
AcDbSpline
210
0.0
220
0.0
230
1.0
 70
     8
 71
     3
 72
     8
 73
     4
 74
     0
 42
0.0000000001
 43
0.0000000001
 40
0.0
 40
0.0
 40
0.0
 40
0.0
 40
1.0
 40
1.0
 40
1.0
 40
1.0
 10
1554.521917243859
 20
1041.02668541962
 30
0.0
 10
1553.55047598268
 20
1041.02668541962
 30
0.0
 10
1552.76304199647
 20
1040.23920093746
 30
0.0
 10
1552.76304199647
 20
1039.26781017225
 30
0.0
  0
SPLINE
  5
262
330
70
100
AcDbEntity
  8
Camada 1
 62
    18
420
        0
370
    35
100
AcDbSpline
210
0.0
220
0.0
230
1.0
 70
     8
 71
     3
 72
     8
 73
     4
 74
     0
 42
0.0000000001
 43
0.0000000001
 40
0.0
 40
0.0
 40
0.0
 40
0.0
 40
1.0
 40
1.0
 40
1.0
 40
1.0
 10
1571.524411632499
 20
1039.26781017225
 30
0.0
 10
1571.524411632499
 20
1040.23920093746
 30
0.0
 10
1570.7369776463
 20
1041.02668541962
 30
0.0
 10
1569.76553638513
 20
1041.02668541962
 30
0.0
  0
SPLINE
  5
263
330
70
100
AcDbEntity
  8
Camada 1
 62
    18
420
        0
370
    35
100
AcDbSpline
210
0.0
220
0.0
230
1.0
 70
     8
 71
     3
 72
     8
 73
     4
 74
     0
 42
0.0000000001
 43
0.0000000001
 40
0.0
 40
0.0
 40
0.0
 40
0.0
 40
1.0
 40
1.0
 40
1.0
 40
1.0
 10
1569.76553638513
 20
1041.02668541962
 30
0.0
 10
1568.79419611587
 20
1041.02668541962
 30
0.0
 10
1568.00666113774
 20
1040.23920093746
 30
0.0
 10
1568.00666113774
 20
1039.26781017225
 30
0.0
  0
SPLINE
  5
264
330
70
100
AcDbEntity
  8
Camada 1
 62
    18
420
        0
370
    35
100
AcDbSpline
210
0.0
220
0.0
230
1.0
 70
     8
 71
     3
 72
     8
 73
     4
 74
     0
 42
0.0000000001
 43
0.0000000001
 40
0.0
 40
0.0
 40
0.0
 40
0.0
 40
1.0
 40
1.0
 40
1.0
 40
1.0
 10
1586.768030773779
 20
1039.26781017225
 30
0.0
 10
1586.768030773779
 20
1040.23920093746
 30
0.0
 10
1585.980596787569
 20
1041.02668541962
 30
0.0
 10
1585.009155526401
 20
1041.02668541962
 30
0.0
  0
SPLINE
  5
265
330
70
100
AcDbEntity
  8
Camada 1
 62
    18
420
        0
370
    35
100
AcDbSpline
210
0.0
220
0.0
230
1.0
 70
     8
 71
     3
 72
     8
 73
     4
 74
     0
 42
0.0000000001
 43
0.0000000001
 40
0.0
 40
0.0
 40
0.0
 40
0.0
 40
1.0
 40
1.0
 40
1.0
 40
1.0
 10
1585.009155526401
 20
1041.02668541962
 30
0.0
 10
1584.037815257139
 20
1041.02668541962
 30
0.0
 10
1583.25028027902
 20
1040.23920093746
 30
0.0
 10
1583.25028027902
 20
1039.26781017225
 30
0.0
  0
SPLINE
  5
266
330
70
100
AcDbEntity
  8
Camada 1
 62
    18
420
        0
370
    35
100
AcDbSpline
210
0.0
220
0.0
230
1.0
 70
     8
 71
     3
 72
     8
 73
     4
 74
     0
 42
0.0000000001
 43
0.0000000001
 40
0.0
 40
0.0
 40
0.0
 40
0.0
 40
1.0
 40
1.0
 40
1.0
 40
1.0
 10
1602.011750906969
 20
1039.26781017225
 30
0.0
 10
1602.011750906969
 20
1040.23920093746
 30
0.0
 10
1601.22421592884
 20
1041.02668541962
 30
0.0
 10
1600.252875659589
 20
1041.02668541962
 30
0.0
  0
SPLINE
  5
267
330
70
100
AcDbEntity
  8
Camada 1
 62
    18
420
        0
370
    35
100
AcDbSpline
210
0.0
220
0.0
230
1.0
 70
     8
 71
     3
 72
     8
 73
     4
 74
     0
 42
0.0000000001
 43
0.0000000001
 40
0.0
 40
0.0
 40
0.0
 40
0.0
 40
1.0
 40
1.0
 40
1.0
 40
1.0
 10
1600.252875659589
 20
1041.02668541962
 30
0.0
 10
1599.281434398421
 20
1041.02668541962
 30
0.0
 10
1598.494000412211
 20
1040.23920093746
 30
0.0
 10
1598.494000412211
 20
1039.26781017225
 30
0.0
  0
SPLINE
  5
268
330
70
100
AcDbEntity
  8
Camada 1
 62
    18
420
        0
370
    35
100
AcDbSpline
210
0.0
220
0.0
230
1.0
 70
     8
 71
     3
 72
     8
 73
     4
 74
     0
 42
0.0000000001
 43
0.0000000001
 40
0.0
 40
0.0
 40
0.0
 40
0.0
 40
1.0
 40
1.0
 40
1.0
 40
1.0
 10
1617.25537004824
 20
1039.26781017225
 30
0.0
 10
1617.25537004824
 20
1040.23920093746
 30
0.0
 10
1616.46783507011
 20
1041.02668541962
 30
0.0
 10
1615.49649480086
 20
1041.02668541962
 30
0.0
  0
SPLINE
  5
269
330
70
100
AcDbEntity
  8
Camada 1
 62
    18
420
        0
370
    35
100
AcDbSpline
210
0.0
220
0.0
230
1.0
 70
     8
 71
     3
 72
     8
 73
     4
 74
     0
 42
0.0000000001
 43
0.0000000001
 40
0.0
 40
0.0
 40
0.0
 40
0.0
 40
1.0
 40
1.0
 40
1.0
 40
1.0
 10
1615.49649480086
 20
1041.02668541962
 30
0.0
 10
1614.52505353969
 20
1041.02668541962
 30
0.0
 10
1613.73761955348
 20
1040.23920093746
 30
0.0
 10
1613.73761955348
 20
1039.26781017225
 30
0.0
  0
SPLINE
  5
26A
330
70
100
AcDbEntity
  8
Camada 1
 62
    18
420
        0
370
    35
100
AcDbSpline
210
0.0
220
0.0
230
1.0
 70
     8
 71
     3
 72
     8
 73
     4
 74
     0
 42
0.0000000001
 43
0.0000000001
 40
0.0
 40
0.0
 40
0.0
 40
0.0
 40
1.0
 40
1.0
 40
1.0
 40
1.0
 10
1632.49898918952
 20
1039.26781017225
 30
0.0
 10
1632.49898918952
 20
1040.23920093746
 30
0.0
 10
1631.711555203299
 20
1041.02668541962
 30
0.0
 10
1630.74011394214
 20
1041.02668541962
 30
0.0
  0
SPLINE
  5
26B
330
70
100
AcDbEntity
  8
Camada 1
 62
    18
420
        0
370
    35
100
AcDbSpline
210
0.0
220
0.0
230
1.0
 70
     8
 71
     3
 72
     8
 73
     4
 74
     0
 42
0.0000000001
 43
0.0000000001
 40
0.0
 40
0.0
 40
0.0
 40
0.0
 40
1.0
 40
1.0
 40
1.0
 40
1.0
 10
1630.74011394214
 20
1041.02668541962
 30
0.0
 10
1629.768672680961
 20
1041.02668541962
 30
0.0
 10
1628.98123869475
 20
1040.23920093746
 30
0.0
 10
1628.98123869475
 20
1039.26781017225
 30
0.0
  0
SPLINE
  5
26C
330
70
100
AcDbEntity
  8
Camada 1
 62
    18
420
        0
370
    35
100
AcDbSpline
210
0.0
220
0.0
230
1.0
 70
     8
 71
     3
 72
     8
 73
     4
 74
     0
 42
0.0000000001
 43
0.0000000001
 40
0.0
 40
0.0
 40
0.0
 40
0.0
 40
1.0
 40
1.0
 40
1.0
 40
1.0
 10
1658.53046404105
 20
1166.687293527509
 30
0.0
 10
1659.696112760919
 20
1166.687293527509
 30
0.0
 10
1660.641094139529
 20
1167.63227490611
 30
0.0
 10
1660.641094139529
 20
1168.797974121949
 30
0.0
  0
SPLINE
  5
26D
330
70
100
AcDbEntity
  8
Camada 1
 62
    18
420
        0
370
    35
100
AcDbSpline
210
0.0
220
0.0
230
1.0
 70
     8
 71
     3
 72
     8
 73
     4
 74
     0
 42
0.0000000001
 43
0.0000000001
 40
0.0
 40
0.0
 40
0.0
 40
0.0
 40
1.0
 40
1.0
 40
1.0
 40
1.0
 10
488.0533710571107
 20
1168.797974121949
 30
0.0
 10
488.0533710571107
 20
1167.63227490611
 30
0.0
 10
488.9983524357148
 20
1166.687293527509
 30
0.0
 10
490.1640264035649
 20
1166.687293527509
 30
0.0
  0
LWPOLYLINE
  5
26E
330
70
100
AcDbEntity
  8
Camada 1
 62
    18
420
        0
370
    35
100
AcDbPolyline
 90
       12
 70
     0
 43
0.0
 10
1658.53046404105
 20
972.7820531430698
 10
1658.6017643353
 20
972.6690431866044
 10
1658.67326661339
 20
972.5559322382213
 10
1658.746485754091
 20
972.4440331928562
 10
1658.82384556342
 20
972.3336490262626
 10
1658.9074668717
 20
972.2251332101587
 10
1658.999470509179
 20
972.1186877283725
 10
1659.04744167032
 20
972.0685452409853
 10
1659.154594095529
 20
971.9719464712252
 10
1659.265079254041
 20
971.8988283224499
 10
1659.36849497828
 20
971.8574721319491
 10
1659.468476977299
 20
971.8439897108655
  0
LWPOLYLINE
  5
26F
330
70
100
AcDbEntity
  8
Camada 1
 62
    18
420
        0
370
    35
100
AcDbPolyline
 90
       12
 70
     0
 43
0.0
 10
490.1640264035649
 20
972.7820531430698
 10
490.0927513572951
 20
972.6690431866044
 10
490.02124907921
 20
972.5559322382213
 10
489.9479541945738
 20
972.4440331928562
 10
489.8706196332132
 20
972.3336490262626
 10
489.7870235729223
 20
972.2251332101587
 10
489.6949946874619
 20
972.1186877283725
 10
489.6470740222757
 20
972.0685452409853
 10
489.5398458531235
 20
971.9719464712252
 10
489.4293859425943
 20
971.8988283224499
 10
489.3260207143157
 20
971.8574721319491
 10
489.225962971358
 20
971.8439897108655
  0
LWPOLYLINE
  5
270
330
70
100
AcDbEntity
  8
Camada 1
 62
    18
420
        0
370
    35
100
AcDbPolyline
 90
       12
 70
     0
 43
0.0
 10
490.1640264035649
 20
1050.6418734717
 10
490.0509911991175
 20
1050.71317376595
 10
489.937855002755
 20
1050.78467604404
 10
489.8259812053684
 20
1050.85799617665
 10
489.7155970387739
 20
1050.93530549003
 10
489.6070812226689
 20
1051.01887630235
 10
489.5006609888642
 20
1051.110930435789
 10
489.4505185014777
 20
1051.15885110097
 10
489.35389448374
 20
1051.26605402214
 10
489.2807510869833
 20
1051.37653918066
 10
489.2394201444585
 20
1051.47990440893
 10
489.225962971358
 20
1051.57998739987
  0
LWPOLYLINE
  5
271
330
70
100
AcDbEntity
  8
Camada 1
 62
    18
420
        0
370
    35
100
AcDbPolyline
 90
       12
 70
     0
 43
0.0
 10
490.1640264035649
 20
972.7820531430698
 10
490.0509911991175
 20
972.7108033447803
 10
489.937855002755
 20
972.6393010666942
 10
489.8259812053684
 20
972.5659809340832
 10
489.7155970387739
 20
972.4886716207002
 10
489.6070812226689
 20
972.4051008083916
 10
489.5006609888642
 20
972.3130466749498
 10
489.4505185014777
 20
972.2651260097627
 10
489.35389448374
 20
972.1578725926338
 10
489.2807510869833
 20
972.0474379300831
 10
489.2394201444585
 20
971.9440727018046
 10
489.225962971358
 20
971.8439897108655
  0
LWPOLYLINE
  5
272
330
70
100
AcDbEntity
  8
Camada 1
 62
    18
420
        0
370
    35
100
AcDbPolyline
 90
       12
 70
     0
 43
0.0
 10
1658.53046404105
 20
1050.6418734717
 10
1658.6017643353
 20
1050.75493392413
 10
1658.67326661339
 20
1050.86804487251
 10
1658.746485754091
 20
1050.97994391788
 10
1658.82384556342
 20
1051.09032808447
 10
1658.9074668717
 20
1051.19884390058
 10
1658.999470509179
 20
1051.30523888641
 10
1659.04744167032
 20
1051.35543186975
 10
1659.154594095529
 20
1051.452030639509
 10
1659.265079254041
 20
1051.525148788289
 10
1659.36849497828
 20
1051.566504978789
 10
1659.468476977299
 20
1051.57998739987
  0
LWPOLYLINE
  5
273
330
70
100
AcDbEntity
  8
Camada 1
 62
    18
420
        0
370
    35
100
AcDbPolyline
 90
       12
 70
     0
 43
0.0
 10
490.1640264035649
 20
1050.6418734717
 10
490.0927513572951
 20
1050.75493392413
 10
490.02124907921
 20
1050.86804487251
 10
489.9479541945738
 20
1050.97994391788
 10
489.8706196332132
 20
1051.09032808447
 10
489.7870235729223
 20
1051.19884390058
 10
489.6949946874619
 20
1051.30523888641
 10
489.6470740222757
 20
1051.35543186975
 10
489.5398458531235
 20
1051.452030639509
 10
489.4293859425943
 20
1051.525148788289
 10
489.3260207143157
 20
1051.566504978789
 10
489.225962971358
 20
1051.57998739987
  0
LWPOLYLINE
  5
274
330
70
100
AcDbEntity
  8
Camada 1
 62
    18
420
        0
370
    35
100
AcDbPolyline
 90
       12
 70
     0
 43
0.0
 10
1658.53046404105
 20
972.7820531430698
 10
1658.643473997519
 20
972.7108033447803
 10
1658.756584945901
 20
972.6393010666942
 10
1658.868483991269
 20
972.5659809340832
 10
1658.978868157859
 20
972.4886716207002
 10
1659.087434469929
 20
972.4051008083916
 10
1659.193778959791
 20
972.3130466749498
 10
1659.24397194314
 20
972.2651260097627
 10
1659.340621208859
 20
972.1578725926338
 10
1659.413739357629
 20
972.0474379300831
 10
1659.45504505218
 20
971.9440727018046
 10
1659.468476977299
 20
971.8439897108655
  0
LWPOLYLINE
  5
275
330
70
100
AcDbEntity
  8
Camada 1
 62
    18
420
        0
370
    35
100
AcDbPolyline
 90
       12
 70
     0
 43
0.0
 10
1658.53046404105
 20
1050.6418734717
 10
1658.643473997519
 20
1050.71317376595
 10
1658.756584945901
 20
1050.78467604404
 10
1658.868483991269
 20
1050.85799617665
 10
1658.978868157859
 20
1050.93530549003
 10
1659.087434469929
 20
1051.01887630235
 10
1659.193778959791
 20
1051.110930435789
 10
1659.24397194314
 20
1051.15885110097
 10
1659.340621208859
 20
1051.26605402214
 10
1659.413739357629
 20
1051.37653918066
 10
1659.45504505218
 20
1051.47990440893
 10
1659.468476977299
 20
1051.57998739987
  0
LWPOLYLINE
  5
276
330
70
100
AcDbEntity
  8
Camada 1
 62
    18
420
        0
370
    35
100
AcDbPolyline
 90
       11
 70
     0
 43
0.0
 10
1658.85989967822
 20
974.6875181597205
 10
1658.861717532749
 20
974.6882251031493
 10
1658.86343439536
 20
974.688982542535
 10
1658.865151257971
 20
974.6897399819209
 10
1658.86686812058
 20
974.6905479172674
 10
1658.868584983189
 20
974.6914063485746
 10
1658.870301845789
 20
974.6922647798783
 10
1658.871917716489
 20
974.6932242030998
 10
1658.87353358718
 20
974.6942341222821
 10
1658.87514945787
 20
974.695294537425
 10
1658.87666433664
 20
974.6964559444823
  0
LWPOLYLINE
  5
277
330
70
100
AcDbEntity
  8
Camada 1
 62
    18
420
        0
370
    35
100
AcDbPolyline
 90
       14
 70
     0
 43
0.0
 10
1655.82903122111
 20
974.0953015513923
 10
1655.992638128589
 20
974.1007551149778
 10
1656.18119003987
 20
974.1075720694571
 10
1656.36964095923
 20
974.1150959673614
 10
1656.5580918786
 20
974.1233773046552
 10
1656.56132361998
 20
974.1235287925301
 10
1656.749774539339
 20
974.1327695530454
 10
1656.93812446678
 20
974.1433232085
 10
1657.12637340231
 20
974.1556442225155
 10
1657.15586304243
 20
974.1577650528014
 10
1657.34390999411
 20
974.1730148324458
 10
1657.514384352031
 20
974.1910418898479
 10
1657.6362815973
 20
974.2095234108782
 10
1657.708692802649
 20
974.228307907666
  0
LWPOLYLINE
  5
278
330
70
100
AcDbEntity
  8
Camada 1
 62
    18
420
        0
370
    35
100
AcDbPolyline
 90
       12
 70
     0
 43
0.0
 10
1637.7081523303
 20
973.5887260896998
 10
1637.996888224439
 20
973.5889785694963
 10
1638.393079519539
 20
973.5901399765571
 10
1638.789169822719
 20
973.5922103108787
 10
1638.896524231761
 20
973.5929172543038
 10
1639.29271552687
 20
973.5961489956862
 10
1639.68880583005
 20
973.600390656251
 10
1640.08499712515
 20
973.6057937238765
 10
1640.48108742833
 20
973.6125601823951
 10
1640.877076739591
 20
973.6208415196887
 10
1641.27316704278
 20
973.630738727672
 10
1641.669055362119
 20
973.6424537901839
  0
LWPOLYLINE
  5
279
330
70
100
AcDbEntity
  8
Camada 1
 62
    18
420
        0
370
    35
100
AcDbPolyline
 90
       12
 70
     0
 43
0.0
 10
1562.88899667485
 20
973.6486647931524
 10
1563.132892157309
 20
973.6405349437372
 10
1563.5473629896
 20
973.6286683933467
 10
1563.961833821901
 20
973.6188721772823
 10
1564.376405646109
 20
973.6108433197841
 10
1564.79107846224
 20
973.6042788451014
 10
1564.961552820159
 20
973.6019560309832
 10
1565.376225636301
 20
973.5971084189113
 10
1565.79079746051
 20
973.593371717936
 10
1566.20547027664
 20
973.5907459280642
 10
1566.620042100851
 20
973.5892310492891
 10
1567.034714916979
 20
973.5887260896998
  0
LWPOLYLINE
  5
27A
330
70
100
AcDbEntity
  8
Camada 1
 62
    18
420
        0
370
    35
100
AcDbPolyline
 90
       12
 70
     0
 43
0.0
 10
1427.330069672211
 20
973.5887260896998
 10
1427.50064502205
 20
973.5887765856604
 10
1427.91521684626
 20
973.589736008882
 10
1428.3298896624
 20
973.5917053512858
 10
1428.744461486611
 20
973.5947856047932
 10
1429.159134302739
 20
973.5989767693972
 10
1429.57370612695
 20
973.6042788451014
 10
1429.81780359324
 20
973.6079650501196
 10
1430.23237541745
 20
973.6153879561062
 10
1430.64684624975
 20
973.6244267327856
 10
1431.061418073959
 20
973.6353843559081
 10
1431.47578791434
 20
973.6486647931524
  0
LWPOLYLINE
  5
27B
330
70
100
AcDbEntity
  8
Camada 1
 62
    18
420
        0
370
    35
100
AcDbPolyline
 90
       12
 70
     0
 43
0.0
 10
1351.471404202719
 20
973.6486647931524
 10
1351.71529968518
 20
973.6405349437372
 10
1352.129770517469
 20
973.6286683933467
 10
1352.544342341691
 20
973.6188721772823
 10
1352.9589141659
 20
973.6108433197841
 10
1353.37348599011
 20
973.6042788451014
 10
1353.54396034803
 20
973.6019560309832
 10
1353.95863316416
 20
973.5971084189113
 10
1354.37320498838
 20
973.593371717936
 10
1354.787877804511
 20
973.5907459280642
 10
1355.20244962873
 20
973.5892310492891
 10
1355.61712244485
 20
973.5887260896998
  0
LWPOLYLINE
  5
27C
330
70
100
AcDbEntity
  8
Camada 1
 62
    18
420
        0
370
    35
100
AcDbPolyline
 90
       12
 70
     0
 43
0.0
 10
1215.912477200079
 20
973.5887260896998
 10
1216.08305254992
 20
973.5887765856604
 10
1216.497725366051
 20
973.589736008882
 10
1216.912297190271
 20
973.5917053512858
 10
1217.326970006399
 20
973.5947856047932
 10
1217.74154183061
 20
973.5989767693972
 10
1218.156113654821
 20
973.6042788451014
 10
1218.40021112111
 20
973.6079650501196
 10
1218.81478294533
 20
973.6153879561062
 10
1219.229354769541
 20
973.6244267327856
 10
1219.643825601841
 20
973.6353843559081
 10
1220.05819544221
 20
973.6486647931524
  0
LWPOLYLINE
  5
27D
330
70
100
AcDbEntity
  8
Camada 1
 62
    18
420
        0
370
    35
100
AcDbPolyline
 90
       12
 70
     0
 43
0.0
 10
1140.053811730589
 20
973.6486647931524
 10
1140.297757709
 20
973.6405349437372
 10
1140.7122285413
 20
973.6286683933467
 10
1141.12674986956
 20
973.6188721772823
 10
1141.54132169377
 20
973.6108433197841
 10
1141.955893517979
 20
973.6042788451014
 10
1142.12641837187
 20
973.6019560309832
 10
1142.54104069204
 20
973.5971084189113
 10
1142.955663012209
 20
973.593371717936
 10
1143.370285332379
 20
973.5907459280642
 10
1143.784907652549
 20
973.5892310492891
 10
1144.199529972729
 20
973.5887260896998
  0
LWPOLYLINE
  5
27E
330
70
100
AcDbEntity
  8
Camada 1
 62
    18
420
        0
370
    35
100
AcDbPolyline
 90
       12
 70
     0
 43
0.0
 10
1004.494935223909
 20
973.5887260896998
 10
1004.66551057375
 20
973.5887765856604
 10
1005.08013289392
 20
973.589736008882
 10
1005.494755214089
 20
973.5917053512858
 10
1005.90937753427
 20
973.5947856047932
 10
1006.323999854439
 20
973.5989767693972
 10
1006.738571678659
 20
973.6042788451014
 10
1006.98261864899
 20
973.6079650501196
 10
1007.3971904732
 20
973.6153879561062
 10
1007.811762297409
 20
973.6244267327856
 10
1008.22623312971
 20
973.6353843559081
 10
1008.64065346604
 20
973.6486647931524
  0
LWPOLYLINE
  5
27F
330
70
100
AcDbEntity
  8
Camada 1
 62
    18
420
        0
370
    35
100
AcDbPolyline
 90
       12
 70
     0
 43
0.0
 10
928.6362697544246
 20
973.6486647931524
 10
928.8801652368784
 20
973.6405349437372
 10
929.2946360691731
 20
973.6286683933467
 10
929.7091573974284
 20
973.6188721772823
 10
930.1237292216429
 20
973.6108433197841
 10
930.5383010458536
 20
973.6042788451014
 10
930.7088763956944
 20
973.6019560309832
 10
931.123448219907
 20
973.5971084189113
 10
931.5380705400784
 20
973.593371717936
 10
931.9526928602517
 20
973.5907459280642
 10
932.3673151804232
 20
973.5892310492891
 10
932.7819879965572
 20
973.5887260896998
  0
LWPOLYLINE
  5
280
330
70
100
AcDbEntity
  8
Camada 1
 62
    18
420
        0
370
    35
100
AcDbPolyline
 90
       12
 70
     0
 43
0.0
 10
793.0773427517833
 20
973.5887260896998
 10
793.2479181016224
 20
973.5887765856604
 10
793.6625404217948
 20
973.589736008882
 10
794.0771627419672
 20
973.5917053512858
 10
794.4917850621414
 20
973.5947856047932
 10
794.9064073823128
 20
973.5989767693972
 10
795.3210297024843
 20
973.6042788451014
 10
795.5650766728158
 20
973.6079650501196
 10
795.9796484970302
 20
973.6153879561062
 10
796.3941698252838
 20
973.6244267327856
 10
796.8086911535383
 20
973.6353843559081
 10
797.2230609939161
 20
973.6486647931524
  0
LWPOLYLINE
  5
281
330
70
100
AcDbEntity
  8
Camada 1
 62
    18
420
        0
370
    35
100
AcDbPolyline
 90
       12
 70
     0
 43
0.0
 10
717.2186772822952
 20
973.6486647931524
 10
717.4626232607088
 20
973.6405349437372
 10
717.877068845024
 20
973.6286683933467
 10
718.2915901732804
 20
973.6188721772823
 10
718.7061619974929
 20
973.6108433197841
 10
719.1207590696849
 20
973.6042788451014
 10
719.291283923566
 20
973.6019560309832
 10
719.7059062437392
 20
973.5971084189113
 10
720.1205285639116
 20
973.593371717936
 10
720.535150884084
 20
973.5907459280642
 10
720.9497732042546
 20
973.5892310492891
 10
721.3643955244279
 20
973.5887260896998
  0
LWPOLYLINE
  5
282
330
70
100
AcDbEntity
  8
Camada 1
 62
    18
420
        0
370
    35
100
AcDbPolyline
 90
       12
 70
     0
 43
0.0
 10
581.6598007756137
 20
973.5887260896998
 10
581.8303508774743
 20
973.5887765856604
 10
582.2449731976485
 20
973.589736008882
 10
582.659595517819
 20
973.5917053512858
 10
583.0742178379924
 20
973.5947856047932
 10
583.4888401581629
 20
973.5989767693972
 10
583.9034372303567
 20
973.6042788451014
 10
584.1474842006882
 20
973.6079650501196
 10
584.5620812728811
 20
973.6153879561062
 10
584.9766026011366
 20
973.6244267327856
 10
585.3910986814098
 20
973.6353843559081
 10
585.8055190177456
 20
973.6486647931524
  0
LWPOLYLINE
  5
283
330
70
100
AcDbEntity
  8
Camada 1
 62
    18
420
        0
370
    35
100
AcDbPolyline
 90
       12
 70
     0
 43
0.0
 10
507.0253845865318
 20
973.6424537901839
 10
507.0983007514732
 20
973.6401814720229
 10
507.4942648147571
 20
973.6289713691004
 10
507.890304621982
 20
973.6195791207101
 10
508.2134282642646
 20
973.6129641500665
 10
508.6095185674476
 20
973.6060966996301
 10
509.0056341186091
 20
973.6004916481688
 10
509.4017496697706
 20
973.5960480037684
 10
509.7978904689134
 20
973.5927152704681
 10
510.1940312680544
 20
973.5904429523071
 10
510.5901720671964
 20
973.5891300573712
 10
510.9863128663382
 20
973.5887260896998
  0
LWPOLYLINE
  5
284
330
70
100
AcDbEntity
  8
Camada 1
 62
    18
420
        0
370
    35
100
AcDbPolyline
 90
       14
 70
     0
 43
0.0
 10
490.9857471460027
 20
974.228307907666
 10
491.0581583513531
 20
974.2095234108782
 10
491.1801060925808
 20
974.1910418898479
 10
491.350580450502
 20
974.1730148324458
 10
491.3799943466801
 20
974.1704395385349
 10
491.5680665463469
 20
974.1556442225155
 10
491.5712730397508
 20
974.1554422386798
 10
491.7595219752765
 20
974.1431212246608
 10
491.9478971506996
 20
974.1325675692095
 10
492.1363480700611
 20
974.1233773046552
 10
492.2998539856289
 20
974.1161563825007
 10
492.4883554009511
 20
974.1085314926786
 10
492.676882064251
 20
974.1016135462823
 10
492.8654339755321
 20
974.0953015513923
  0
LWPOLYLINE
  5
285
330
70
100
AcDbEntity
  8
Camada 1
 62
    18
420
        0
370
    35
100
AcDbPolyline
 90
       12
 70
     0
 43
0.0
 10
489.8178513559533
 20
974.6964559444823
 10
489.8183563155444
 20
974.6960519768071
 10
489.819441978665
 20
974.6952440414643
 10
489.8205276417857
 20
974.6944866020784
 10
489.8216638008643
 20
974.6937796586498
 10
489.8227999599448
 20
974.6930727152248
 10
489.8234059114529
 20
974.6927697394712
 10
489.8245673185138
 20
974.6921132919997
 10
489.8257539735523
 20
974.6915073404888
 10
489.8269406285899
 20
974.6909013889817
 10
489.8281272836302
 20
974.6902954374709
 10
489.8293391866473
 20
974.6897399819209
  0
LWPOLYLINE
  5
286
330
70
100
AcDbEntity
  8
Camada 1
 62
    18
420
        0
370
    35
100
AcDbPolyline
 90
       12
 70
     0
 43
0.0
 10
489.8293391866473
 20
974.6897399819209
 10
489.8297936502804
 20
974.6895379980887
 10
489.8302986098715
 20
974.6893360142493
 10
489.8308288174412
 20
974.689083534453
 10
489.8313337770332
 20
974.6888815506173
 10
489.831863984602
 20
974.6886290708207
 10
489.8319397285413
 20
974.6886290708207
 10
489.8324699361128
 20
974.6883765910279
 10
489.8329748957021
 20
974.6881746071922
 10
489.8335051032727
 20
974.6879726233574
 10
489.8340353108433
 20
974.6877706395171
 10
489.8345655184157
 20
974.6875181597205
  0
LWPOLYLINE
  5
287
330
70
100
AcDbEntity
  8
Camada 1
 62
    18
420
        0
370
    35
100
AcDbPolyline
 90
       11
 70
     0
 43
0.0
 10
489.8345655184157
 20
1048.73645895101
 10
489.8327981598468
 20
1048.73570151163
 10
489.8310560492563
 20
1048.7349945682
 10
489.8292886906883
 20
1048.73423712881
 10
489.8275718280784
 20
1048.73342919347
 10
489.8258549654692
 20
1048.73257076216
 10
489.8241633508405
 20
1048.73171233086
 10
489.8225222321697
 20
1048.73075290764
 10
489.8209063614785
 20
1048.72974298845
 10
489.8193409867453
 20
1048.72868257331
 10
489.8178513559533
 20
1048.72752116625
  0
LWPOLYLINE
  5
288
330
70
100
AcDbEntity
  8
Camada 1
 62
    18
420
        0
370
    35
100
AcDbPolyline
 90
       14
 70
     0
 43
0.0
 10
492.8654339755321
 20
1049.32867555934
 10
492.7018775640062
 20
1049.32322199576
 10
492.513325652726
 20
1049.316405041279
 10
492.3248242374038
 20
1049.30888114337
 10
492.1363480700611
 20
1049.30059980608
 10
492.1331415766599
 20
1049.3004483182
 10
491.9446906572975
 20
1049.291207557689
 10
491.7563154818753
 20
1049.28065390224
 10
491.5680665463469
 20
1049.268332888219
 10
491.538627402193
 20
1049.26621205794
 10
491.350580450502
 20
1049.25091178233
 10
491.1801060925808
 20
1049.23293522089
 10
491.0581583513531
 20
1049.21445369986
 10
490.9857471460027
 20
1049.19566920307
  0
LWPOLYLINE
  5
289
330
70
100
AcDbEntity
  8
Camada 1
 62
    18
420
        0
370
    35
100
AcDbPolyline
 90
       12
 70
     0
 43
0.0
 10
510.9863128663382
 20
1049.83525102104
 10
510.6975769722021
 20
1049.83499854124
 10
510.3014361730601
 20
1049.833837134179
 10
509.9053206218987
 20
1049.83176679986
 10
509.797915716892
 20
1049.83105985643
 10
509.4017749177519
 20
1049.827828115049
 10
509.0056341186091
 20
1049.82358645448
 10
508.6095185674476
 20
1049.81818338686
 10
508.2134282642646
 20
1049.81136643238
 10
507.8173632090611
 20
1049.80313559105
 10
507.4213486498174
 20
1049.793187887109
 10
507.0253845865318
 20
1049.78152332055
  0
LWPOLYLINE
  5
28A
330
70
100
AcDbEntity
  8
Camada 1
 62
    18
420
        0
370
    35
100
AcDbPolyline
 90
       12
 70
     0
 43
0.0
 10
585.8055190177456
 20
1049.77531231759
 10
585.5615730393329
 20
1049.783391671039
 10
585.1471274550167
 20
1049.79530871738
 10
584.7326061267631
 20
1049.80510493345
 10
584.3180343025487
 20
1049.81313379095
 10
583.9034372303567
 20
1049.81969826563
 10
583.7328871284953
 20
1049.82202107975
 10
583.3182900563024
 20
1049.82686869183
 10
582.9036677361309
 20
1049.8306053928
 10
582.4890454159604
 20
1049.83318068671
 10
582.0744230957862
 20
1049.834746061449
 10
581.6598007756137
 20
1049.83525102104
  0
LWPOLYLINE
  5
28B
330
70
100
AcDbEntity
  8
Camada 1
 62
    18
420
        0
370
    35
100
AcDbPolyline
 90
       12
 70
     0
 43
0.0
 10
721.3643955244279
 20
1049.83525102104
 10
721.1938454225656
 20
1049.83515002912
 10
720.779223102395
 20
1049.83424110186
 10
720.3646007822226
 20
1049.83227175945
 10
719.9499784620502
 20
1049.82919150594
 10
719.535356141877
 20
1049.825000341339
 10
719.1207590696849
 20
1049.81969826563
 10
718.8766868513739
 20
1049.81596156466
 10
718.4621150271595
 20
1049.80858915463
 10
718.0475684509255
 20
1049.79955037795
 10
717.6330976186309
 20
1049.788542258869
 10
717.2186772822952
 20
1049.77531231759
  0
LWPOLYLINE
  5
28C
330
70
100
AcDbEntity
  8
Camada 1
 62
    18
420
        0
370
    35
100
AcDbPolyline
 90
       12
 70
     0
 43
0.0
 10
797.2230609939161
 20
1049.77531231759
 10
796.9791655114613
 20
1049.783391671039
 10
796.5646946791649
 20
1049.79530871738
 10
796.1501733509122
 20
1049.80510493345
 10
795.7356015266977
 20
1049.81313379095
 10
795.3210297024843
 20
1049.81969826563
 10
795.1504543526444
 20
1049.82202107975
 10
794.7358825284318
 20
1049.82686869183
 10
794.3212602082585
 20
1049.8306053928
 10
793.9066378880871
 20
1049.83318068671
 10
793.4920155679137
 20
1049.834746061449
 10
793.0773427517833
 20
1049.83525102104
  0
LWPOLYLINE
  5
28D
330
70
100
AcDbEntity
  8
Camada 1
 62
    18
420
        0
370
    35
100
AcDbPolyline
 90
       12
 70
     0
 43
0.0
 10
932.7819879965572
 20
1049.83525102104
 10
932.6114126467164
 20
1049.83515002912
 10
932.1967903265431
 20
1049.83424110186
 10
931.7821680063698
 20
1049.83227175945
 10
931.3675456861984
 20
1049.82919150594
 10
930.9529233660269
 20
1049.825000341339
 10
930.5383010458536
 20
1049.81969826563
 10
930.294254075523
 20
1049.81596156466
 10
929.8796822513104
 20
1049.80858915463
 10
929.4651609230532
 20
1049.79955037795
 10
929.0506395948032
 20
1049.788542258869
 10
928.6362697544246
 20
1049.77531231759
  0
LWPOLYLINE
  5
28E
330
70
100
AcDbEntity
  8
Camada 1
 62
    18
420
        0
370
    35
100
AcDbPolyline
 90
       12
 70
     0
 43
0.0
 10
1008.64065346604
 20
1049.77531231759
 10
1008.396707487631
 20
1049.783391671039
 10
1007.982236655331
 20
1049.79530871738
 10
1007.567715327081
 20
1049.80510493345
 10
1007.15319399883
 20
1049.81313379095
 10
1006.738571678659
 20
1049.81969826563
 10
1006.56804682477
 20
1049.82202107975
 10
1006.1534245046
 20
1049.82686869183
 10
1005.738802184431
 20
1049.8306053928
 10
1005.324179864259
 20
1049.83318068671
 10
1004.90955754408
 20
1049.834746061449
 10
1004.494935223909
 20
1049.83525102104
  0
LWPOLYLINE
  5
28F
330
70
100
AcDbEntity
  8
Camada 1
 62
    18
420
        0
370
    35
100
AcDbPolyline
 90
       12
 70
     0
 43
0.0
 10
1144.199529972729
 20
1049.83525102104
 10
1144.029005118849
 20
1049.83515002912
 10
1143.61433230271
 20
1049.83424110186
 10
1143.19970998254
 20
1049.83227175945
 10
1142.78508766237
 20
1049.82919150594
 10
1142.370515838149
 20
1049.825000341339
 10
1141.955893517979
 20
1049.81969826563
 10
1141.71184654765
 20
1049.81596156466
 10
1141.29727472344
 20
1049.80858915463
 10
1140.88270289922
 20
1049.79955037795
 10
1140.468232066931
 20
1049.788542258869
 10
1140.053811730589
 20
1049.77531231759
  0
LWPOLYLINE
  5
290
330
70
100
AcDbEntity
  8
Camada 1
 62
    18
420
        0
370
    35
100
AcDbPolyline
 90
       12
 70
     0
 43
0.0
 10
1220.05819544221
 20
1049.77531231759
 10
1219.81429995976
 20
1049.783391671039
 10
1219.39982912746
 20
1049.79530871738
 10
1218.985257303249
 20
1049.80510493345
 10
1218.570786470949
 20
1049.81313379095
 10
1218.156113654821
 20
1049.81969826563
 10
1217.985639296899
 20
1049.82202107975
 10
1217.570966480769
 20
1049.82686869183
 10
1217.15639465656
 20
1049.8306053928
 10
1216.741721840421
 20
1049.83318068671
 10
1216.32715001621
 20
1049.834746061449
 10
1215.912477200079
 20
1049.83525102104
  0
LWPOLYLINE
  5
291
330
70
100
AcDbEntity
  8
Camada 1
 62
    18
420
        0
370
    35
100
AcDbPolyline
 90
       12
 70
     0
 43
0.0
 10
1355.61712244485
 20
1049.83525102104
 10
1355.446547095009
 20
1049.83515002912
 10
1355.03187427888
 20
1049.83424110186
 10
1354.617302454669
 20
1049.83227175945
 10
1354.202629638539
 20
1049.82919150594
 10
1353.788057814319
 20
1049.825000341339
 10
1353.37348599011
 20
1049.81969826563
 10
1353.129388523819
 20
1049.81596156466
 10
1352.71481669961
 20
1049.80858915463
 10
1352.30024487539
 20
1049.79955037795
 10
1351.885774043099
 20
1049.788542258869
 10
1351.471404202719
 20
1049.77531231759
  0
LWPOLYLINE
  5
292
330
70
100
AcDbEntity
  8
Camada 1
 62
    18
420
        0
370
    35
100
AcDbPolyline
 90
       12
 70
     0
 43
0.0
 10
1431.47578791434
 20
1049.77531231759
 10
1431.23189243189
 20
1049.783391671039
 10
1430.817421599589
 20
1049.79530871738
 10
1430.40284977538
 20
1049.80510493345
 10
1429.98827795117
 20
1049.81313379095
 10
1429.57370612695
 20
1049.81969826563
 10
1429.403130777109
 20
1049.82202107975
 10
1428.9885589529
 20
1049.82686869183
 10
1428.57398712868
 20
1049.8306053928
 10
1428.15931431255
 20
1049.83318068671
 10
1427.744742488339
 20
1049.834746061449
 10
1427.330069672211
 20
1049.83525102104
  0
LWPOLYLINE
  5
293
330
70
100
AcDbEntity
  8
Camada 1
 62
    18
420
        0
370
    35
100
AcDbPolyline
 90
       12
 70
     0
 43
0.0
 10
1567.034714916979
 20
1049.83525102104
 10
1566.86413956714
 20
1049.83515002912
 10
1566.44946675101
 20
1049.83424110186
 10
1566.034894926801
 20
1049.83227175945
 10
1565.62022211067
 20
1049.82919150594
 10
1565.205650286451
 20
1049.825000341339
 10
1564.79107846224
 20
1049.81969826563
 10
1564.54698099595
 20
1049.81596156466
 10
1564.132409171731
 20
1049.80858915463
 10
1563.717837347529
 20
1049.79955037795
 10
1563.303366515231
 20
1049.788542258869
 10
1562.88899667485
 20
1049.77531231759
  0
LWPOLYLINE
  5
294
330
70
100
AcDbEntity
  8
Camada 1
 62
    18
420
        0
370
    35
100
AcDbPolyline
 90
       12
 70
     0
 43
0.0
 10
1641.669055362119
 20
1049.78152332055
 10
1641.596139197179
 20
1049.78379563871
 10
1641.20025087784
 20
1049.79500574163
 10
1640.80416057466
 20
1049.80439799002
 10
1640.48108742833
 20
1049.81101296067
 10
1640.08499712515
 20
1049.81788041111
 10
1639.68880583005
 20
1049.82348546257
 10
1639.29271552687
 20
1049.82792910697
 10
1638.89662522369
 20
1049.831261840269
 10
1638.50043392858
 20
1049.83353415842
 10
1638.1043436254
 20
1049.83484705336
 10
1637.7081523303
 20
1049.83525102104
  0
LWPOLYLINE
  5
295
330
70
100
AcDbEntity
  8
Camada 1
 62
    18
420
        0
370
    35
100
AcDbPolyline
 90
       14
 70
     0
 43
0.0
 10
1657.708692802649
 20
1049.19566920307
 10
1657.6362815973
 20
1049.21445369986
 10
1657.514384352031
 20
1049.23293522089
 10
1657.34390999411
 20
1049.25091178233
 10
1657.314521345919
 20
1049.2535375722
 10
1657.12637340231
 20
1049.268332888219
 10
1657.123242652849
 20
1049.26853487206
 10
1656.934993717319
 20
1049.28085588607
 10
1656.74654279796
 20
1049.29140954153
 10
1656.5580918786
 20
1049.30059980608
 10
1656.394585963029
 20
1049.30782072823
 10
1656.20613504367
 20
1049.31544561806
 10
1656.01758313239
 20
1049.32236356445
 10
1655.82903122111
 20
1049.32867555934
  0
LWPOLYLINE
  5
296
330
70
100
AcDbEntity
  8
Camada 1
 62
    18
420
        0
370
    35
100
AcDbPolyline
 90
       12
 70
     0
 43
0.0
 10
1658.87666433664
 20
1048.72752116625
 10
1658.87615937705
 20
1048.72792513392
 10
1658.875048465959
 20
1048.72873306927
 10
1658.87393755485
 20
1048.72949050866
 10
1658.87282664375
 20
1048.730197452089
 10
1658.87171573265
 20
1048.73085389955
 10
1658.871109781139
 20
1048.73120737127
 10
1658.869897878119
 20
1048.73186381874
 10
1658.8686859751
 20
1048.73246977025
 10
1658.86757506401
 20
1048.733075721749
 10
1658.86636316099
 20
1048.7336311773
 10
1658.865151257971
 20
1048.73423712881
  0
LWPOLYLINE
  5
297
330
70
100
AcDbEntity
  8
Camada 1
 62
    18
420
        0
370
    35
100
AcDbPolyline
 90
       12
 70
     0
 43
0.0
 10
1658.865151257971
 20
1048.73423712881
 10
1658.864646298379
 20
1048.73443911265
 10
1658.86414133879
 20
1048.73464109649
 10
1658.863636379199
 20
1048.73489357628
 10
1658.863131419599
 20
1048.735095560119
 10
1658.86262646001
 20
1048.735348039909
 10
1658.86252546809
 20
1048.735348039909
 10
1658.8620205085
 20
1048.73560051971
 10
1658.86151554891
 20
1048.73580250355
 10
1658.86101058932
 20
1048.736004487389
 10
1658.860404637809
 20
1048.73620647122
 10
1658.85989967822
 20
1048.73645895101
  0
LWPOLYLINE
  5
298
330
70
100
AcDbEntity
  8
Camada 1
 62
    18
420
        0
370
    35
100
AcDbPolyline
 90
       12
 70
     0
 43
0.0
 10
489.8178513559533
 20
1048.72752116625
 10
489.8171444125246
 20
1048.72651124707
 10
489.8157557736503
 20
1048.72312801781
 10
489.8150993261825
 20
1048.72085569965
 10
489.8142661428574
 20
1048.717320982519
 10
489.8136601913465
 20
1048.71378626538
 10
489.8132057277162
 20
1048.710201052279
 10
489.8129027519607
 20
1048.70656534323
 10
489.812700768125
 20
1048.70298013013
 10
489.8125745282268
 20
1048.69934442107
 10
489.8124987842875
 20
1048.69575920798
 10
489.8123977923687
 20
1048.69212349892
  0
LWPOLYLINE
  5
299
330
70
100
AcDbEntity
  8
Camada 1
 62
    18
420
        0
370
    35
100
AcDbPolyline
 90
       12
 70
     0
 43
0.0
 10
1658.882218892149
 20
1048.67939851723
 10
1658.882218892149
 20
1048.68273125053
 10
1658.88211790022
 20
1048.68757886261
 10
1658.88191591639
 20
1048.69237597872
 10
1658.881713932549
 20
1048.69717309483
 10
1658.881511948719
 20
1048.70207120286
 10
1658.88120897296
 20
1048.7069693109
 10
1658.88080500529
 20
1048.71196841085
 10
1658.88070401337
 20
1048.71353378558
 10
1658.880199053779
 20
1048.71858338149
 10
1658.87898715076
 20
1048.72333000165
 10
1658.87666433664
 20
1048.72752116625
  0
LWPOLYLINE
  5
29A
330
70
100
AcDbEntity
  8
Camada 1
 62
    18
420
        0
370
    35
100
AcDbPolyline
 90
       12
 70
     0
 43
0.0
 10
1658.87666433664
 20
974.6964559444823
 10
1658.87737128007
 20
974.6974658636645
 10
1658.87868417501
 20
974.700849092922
 10
1658.879391118429
 20
974.7031214110865
 10
1658.880199053779
 20
974.706656128219
 10
1658.88080500529
 20
974.7101908453586
 10
1658.881309964879
 20
974.713776058452
 10
1658.88161294063
 20
974.7174117675104
 10
1658.881814924471
 20
974.7209969806062
 10
1658.88191591639
 20
974.7246326896602
 10
1658.88201690831
 20
974.7282179027569
 10
1658.88211790022
 20
974.7318536118109
  0
LWPOLYLINE
  5
29B
330
70
100
AcDbEntity
  8
Camada 1
 62
    18
420
        0
370
    35
100
AcDbPolyline
 90
       12
 70
     0
 43
0.0
 10
489.8122463044928
 20
974.7445785935051
 10
489.8122715524723
 20
974.7412458602047
 10
489.8123725443911
 20
974.7363982481292
 10
489.8125240322688
 20
974.7316011320153
 10
489.8127260161054
 20
974.7267535199425
 10
489.8130037438813
 20
974.721905907867
 10
489.813306719634
 20
974.7170077998344
 10
489.8136601913465
 20
974.7120086998839
 10
489.8137611832662
 20
974.7104433251516
 10
489.8143166388154
 20
974.705393729244
 10
489.8155285418343
 20
974.7006471090863
 10
489.8178513559533
 20
974.6964559444823
  0
LWPOLYLINE
  5
29C
330
70
100
AcDbEntity
  8
Camada 1
 62
    18
420
        0
370
    35
100
AcDbPolyline
 90
       12
 70
     0
 43
0.0
 10
1234.21261674569
 20
974.1426162650677
 10
1234.456512228149
 20
974.1506956185258
 10
1234.87098306044
 20
974.1625621689127
 10
1235.285554884649
 20
974.1724088809423
 10
1235.700126708871
 20
974.180437738436
 10
1236.11469853308
 20
974.1870022131188
 10
1236.28527388292
 20
974.1893250272406
 10
1236.69984570714
 20
974.1941726393134
 10
1237.114417531349
 20
974.1978588443235
 10
1237.52909034748
 20
974.2004846342034
 10
1237.94366217169
 20
974.202050008931
 10
1238.35833498783
 20
974.2025549685241
  0
LWPOLYLINE
  5
29D
330
70
100
AcDbEntity
  8
Camada 1
 62
    18
420
        0
370
    35
100
AcDbPolyline
 90
       12
 70
     0
 43
0.0
 10
1333.17126465711
 20
974.2025549685241
 10
1333.341840006949
 20
974.2024539766061
 10
1333.75641183116
 20
974.2015450493418
 10
1334.17108464729
 20
974.1995757069345
 10
1334.58565647151
 20
974.1964954534305
 10
1335.000329287639
 20
974.1923042888229
 10
1335.41490111185
 20
974.1870022131188
 10
1335.658998578139
 20
974.1832655121434
 10
1336.07357040235
 20
974.1758931021177
 10
1336.48814222657
 20
974.1668543254382
 10
1336.90261305887
 20
974.1558462063549
 10
1337.316982899239
 20
974.1426162650677
  0
LWPOLYLINE
  5
29E
330
70
100
AcDbEntity
  8
Camada 1
 62
    18
420
        0
370
    35
100
AcDbPolyline
 90
       12
 70
     0
 43
0.0
 10
1445.630209217819
 20
974.1426162650677
 10
1445.874104700269
 20
974.1506956185258
 10
1446.28857553257
 20
974.1625621689127
 10
1446.703147356789
 20
974.1724088809423
 10
1447.11761818908
 20
974.180437738436
 10
1447.532291005209
 20
974.1870022131188
 10
1447.702765363139
 20
974.1893250272406
 10
1448.11743817926
 20
974.1941726393134
 10
1448.53201000348
 20
974.1978588443235
 10
1448.946682819609
 20
974.2004846342034
 10
1449.361254643831
 20
974.202050008931
 10
1449.77592745995
 20
974.2025549685241
  0
LWPOLYLINE
  5
29F
330
70
100
AcDbEntity
  8
Camada 1
 62
    18
420
        0
370
    35
100
AcDbPolyline
 90
       12
 70
     0
 43
0.0
 10
1544.58885712924
 20
974.2025549685241
 10
1544.759432479081
 20
974.2024539766061
 10
1545.174004303289
 20
974.2015450493418
 10
1545.588677119431
 20
974.1995757069345
 10
1546.00324894364
 20
974.1964954534305
 10
1546.41792175977
 20
974.1923042888229
 10
1546.832493583981
 20
974.1870022131188
 10
1547.07659105027
 20
974.1832655121434
 10
1547.491162874479
 20
974.1758931021177
 10
1547.905633706779
 20
974.1668543254382
 10
1548.32010453908
 20
974.1558462063549
 10
1548.734575371371
 20
974.1426162650677
  0
LWPOLYLINE
  5
2A0
330
70
100
AcDbEntity
  8
Camada 1
 62
    18
420
        0
370
    35
100
AcDbPolyline
 90
       12
 70
     0
 43
0.0
 10
1121.75372268094
 20
974.2025549685241
 10
1121.92424753482
 20
974.2024539766061
 10
1122.338869854989
 20
974.2015450493418
 10
1122.75349217517
 20
974.1995757069345
 10
1123.16811449534
 20
974.1964954534305
 10
1123.582736815509
 20
974.1923042888229
 10
1123.997359135679
 20
974.1870022131188
 10
1124.241406106019
 20
974.1832655121434
 10
1124.655977930229
 20
974.1758931021177
 10
1125.07054975444
 20
974.1668543254382
 10
1125.48502058674
 20
974.1558462063549
 10
1125.899440923069
 20
974.1426162650677
  0
LWPOLYLINE
  5
2A1
330
70
100
AcDbEntity
  8
Camada 1
 62
    18
420
        0
370
    35
100
AcDbPolyline
 90
       12
 70
     0
 43
0.0
 10
599.9598898252661
 20
974.1426162650677
 10
600.2038358036798
 20
974.1506956185258
 10
600.6183066359754
 20
974.1625621689127
 10
601.032827964229
 20
974.1724088809423
 10
601.4473745404621
 20
974.180437738436
 10
601.8619716126559
 20
974.1870022131188
 10
602.0325217145163
 20
974.1893250272406
 10
602.4471187867102
 20
974.1941726393134
 10
602.8617411068826
 20
974.1978588443235
 10
603.2763634270549
 20
974.2004846342034
 10
603.6909857472274
 20
974.202050008931
 10
604.1056333153782
 20
974.2025549685241
  0
LWPOLYLINE
  5
2A2
330
70
100
AcDbEntity
  8
Camada 1
 62
    18
420
        0
370
    35
100
AcDbPolyline
 90
       12
 70
     0
 43
0.0
 10
698.9185629846633
 20
974.2025549685241
 10
699.0891130865239
 20
974.2024539766061
 10
699.5037606546757
 20
974.2015450493418
 10
699.9183829748489
 20
974.1995757069345
 10
700.3330052950214
 20
974.1964954534305
 10
700.7476023672134
 20
974.1923042888229
 10
701.1622246873858
 20
974.1870022131188
 10
701.4062716577172
 20
974.1832655121434
 10
701.8208434819298
 20
974.1758931021177
 10
702.2353900581656
 20
974.1668543254382
 10
702.6498608904585
 20
974.1558462063549
 10
703.064281226796
 20
974.1426162650677
  0
LWPOLYLINE
  5
2A3
330
70
100
AcDbEntity
  8
Camada 1
 62
    18
420
        0
370
    35
100
AcDbPolyline
 90
       12
 70
     0
 43
0.0
 10
811.3774822973955
 20
974.1426162650677
 10
811.6214282758074
 20
974.1506956185258
 10
812.0358486121441
 20
974.1625621689127
 10
812.4503699404003
 20
974.1724088809423
 10
812.8649417646119
 20
974.180437738436
 10
813.2795640847843
 20
974.1870022131188
 10
813.4500889386654
 20
974.1893250272406
 10
813.8647112588378
 20
974.1941726393134
 10
814.2793335790093
 20
974.1978588443235
 10
814.6939558991835
 20
974.2004846342034
 10
815.108578219354
 20
974.202050008931
 10
815.5232005395273
 20
974.2025549685241
  0
LWPOLYLINE
  5
2A4
330
70
100
AcDbEntity
  8
Camada 1
 62
    18
420
        0
370
    35
100
AcDbPolyline
 90
       12
 70
     0
 43
0.0
 10
910.3361302088124
 20
974.2025549685241
 10
910.5067055586514
 20
974.2024539766061
 10
910.9213278788265
 20
974.2015450493418
 10
911.3359501989981
 20
974.1995757069345
 10
911.7505725191694
 20
974.1964954534305
 10
912.1651948393409
 20
974.1923042888229
 10
912.5797666635554
 20
974.1870022131188
 10
912.8238136338859
 20
974.1832655121434
 10
913.2384359540592
 20
974.1758931021177
 10
913.6529572823128
 20
974.1668543254382
 10
914.0674281146093
 20
974.1558462063549
 10
914.4818484509452
 20
974.1426162650677
  0
LWPOLYLINE
  5
2A5
330
70
100
AcDbEntity
  8
Camada 1
 62
    18
420
        0
370
    35
100
AcDbPolyline
 90
       12
 70
     0
 43
0.0
 10
1022.79502427356
 20
974.1426162650677
 10
1023.03897025198
 20
974.1506956185258
 10
1023.45344108427
 20
974.1625621689127
 10
1023.867962412531
 20
974.1724088809423
 10
1024.282534236739
 20
974.180437738436
 10
1024.69710606095
 20
974.1870022131188
 10
1024.867681410789
 20
974.1893250272406
 10
1025.282253235011
 20
974.1941726393134
 10
1025.69687555518
 20
974.1978588443235
 10
1026.11149787535
 20
974.2004846342034
 10
1026.526120195529
 20
974.202050008931
 10
1026.9407425157
 20
974.2025549685241
  0
LWPOLYLINE
  5
2A6
330
70
100
AcDbEntity
  8
Camada 1
 62
    18
420
        0
370
    35
100
AcDbPolyline
 90
       12
 70
     0
 43
0.0
 10
914.4818484509452
 20
1049.28136084567
 10
914.2379024725306
 20
1049.27328149221
 10
913.8234821361947
 20
1049.261364445859
 10
913.4089608079394
 20
1049.2515682298
 10
912.9943889837267
 20
1049.2435393723
 10
912.5797666635554
 20
1049.23697489762
 10
912.4092418096735
 20
1049.2346520835
 10
911.9946194895019
 20
1049.22980447142
 10
911.5799971693268
 20
1049.22606777045
 10
911.1653748491553
 20
1049.22349247654
 10
910.7507525289838
 20
1049.22192710181
 10
910.3361302088124
 20
1049.22142214221
  0
LWPOLYLINE
  5
2A7
330
70
100
AcDbEntity
  8
Camada 1
 62
    18
420
        0
370
    35
100
AcDbPolyline
 90
       12
 70
     0
 43
0.0
 10
815.5232005395273
 20
1049.22142214221
 10
815.3526251896874
 20
1049.221523134129
 10
814.9380028695141
 20
1049.2224320614
 10
814.5233805493408
 20
1049.224401403799
 10
814.1087582291692
 20
1049.2274816573
 10
813.6941359089979
 20
1049.23167282191
 10
813.2795640847843
 20
1049.23697489762
 10
813.035517114452
 20
1049.24071159859
 10
812.6208947942796
 20
1049.24808400862
 10
812.2063734660251
 20
1049.2571227853
 10
811.7919026337313
 20
1049.26813090438
 10
811.3774822973955
 20
1049.28136084567
  0
LWPOLYLINE
  5
2A8
330
70
100
AcDbEntity
  8
Camada 1
 62
    18
420
        0
370
    35
100
AcDbPolyline
 90
       12
 70
     0
 43
0.0
 10
703.064281226796
 20
1049.28136084567
 10
702.820360496361
 20
1049.27328149221
 10
702.4058896640672
 20
1049.261364445859
 10
701.9913683358118
 20
1049.2515682298
 10
701.5767965115983
 20
1049.2435393723
 10
701.1622246873858
 20
1049.23697489762
 10
700.9916745855252
 20
1049.2346520835
 10
700.577052265352
 20
1049.22980447142
 10
700.162455193159
 20
1049.22606777045
 10
699.7478328729857
 20
1049.22349247654
 10
699.3331853048357
 20
1049.22192710181
 10
698.9185629846633
 20
1049.22142214221
  0
LWPOLYLINE
  5
2A9
330
70
100
AcDbEntity
  8
Camada 1
 62
    18
420
        0
370
    35
100
AcDbPolyline
 90
       12
 70
     0
 43
0.0
 10
604.1056333153782
 20
1049.22142214221
 10
603.9350579655383
 20
1049.221523134129
 10
603.5204356453659
 20
1049.2224320614
 10
603.1058133251936
 20
1049.224401403799
 10
602.6911910050212
 20
1049.2274816573
 10
602.2765939328273
 20
1049.23167282191
 10
601.8619716126559
 20
1049.23697489762
 10
601.6179246423243
 20
1049.24071159859
 10
601.2033528181109
 20
1049.24808400862
 10
600.7888062418778
 20
1049.2571227853
 10
600.3743101616028
 20
1049.26813090438
 10
599.9598898252661
 20
1049.28136084567
  0
LWPOLYLINE
  5
2AA
330
70
100
AcDbEntity
  8
Camada 1
 62
    18
420
        0
370
    35
100
AcDbPolyline
 90
       12
 70
     0
 43
0.0
 10
1548.734575371371
 20
1049.28136084567
 10
1548.490578896999
 20
1049.27328149221
 10
1548.07620905662
 20
1049.261364445859
 10
1547.661637232409
 20
1049.2515682298
 10
1547.24706540819
 20
1049.2435393723
 10
1546.832493583981
 20
1049.23697489762
 10
1546.66191823414
 20
1049.2346520835
 10
1546.247346409929
 20
1049.22980447142
 10
1545.832673593801
 20
1049.22606777045
 10
1545.418101769581
 20
1049.22349247654
 10
1545.00342895345
 20
1049.22192710181
 10
1544.58885712924
 20
1049.22142214221
  0
LWPOLYLINE
  5
2AB
330
70
100
AcDbEntity
  8
Camada 1
 62
    18
420
        0
370
    35
100
AcDbPolyline
 90
       12
 70
     0
 43
0.0
 10
1449.77592745995
 20
1049.22142214221
 10
1449.605352110109
 20
1049.221523134129
 10
1449.19067929398
 20
1049.2224320614
 10
1448.77610746977
 20
1049.224401403799
 10
1448.361434653639
 20
1049.2274816573
 10
1447.94686282942
 20
1049.23167282191
 10
1447.532291005209
 20
1049.23697489762
 10
1447.288193538919
 20
1049.24071159859
 10
1446.873621714711
 20
1049.24808400862
 10
1446.459049890491
 20
1049.2571227853
 10
1446.0445790582
 20
1049.26813090438
 10
1445.630209217819
 20
1049.28136084567
  0
LWPOLYLINE
  5
2AC
330
70
100
AcDbEntity
  8
Camada 1
 62
    18
420
        0
370
    35
100
AcDbPolyline
 90
       12
 70
     0
 43
0.0
 10
1337.316982899239
 20
1049.28136084567
 10
1337.073087416789
 20
1049.27328149221
 10
1336.658616584489
 20
1049.261364445859
 10
1336.24404476028
 20
1049.2515682298
 10
1335.829472936069
 20
1049.2435393723
 10
1335.41490111185
 20
1049.23697489762
 10
1335.24442675393
 20
1049.2346520835
 10
1334.8297539378
 20
1049.22980447142
 10
1334.415182113589
 20
1049.22606777045
 10
1334.00050929745
 20
1049.22349247654
 10
1333.585937473239
 20
1049.22192710181
 10
1333.17126465711
 20
1049.22142214221
  0
LWPOLYLINE
  5
2AD
330
70
100
AcDbEntity
  8
Camada 1
 62
    18
420
        0
370
    35
100
AcDbPolyline
 90
       12
 70
     0
 43
0.0
 10
1238.35833498783
 20
1049.22142214221
 10
1238.187759637989
 20
1049.221523134129
 10
1237.773187813769
 20
1049.2224320614
 10
1237.35851499764
 20
1049.224401403799
 10
1236.943943173421
 20
1049.2274816573
 10
1236.529270357299
 20
1049.23167282191
 10
1236.11469853308
 20
1049.23697489762
 10
1235.87060106679
 20
1049.24071159859
 10
1235.456029242579
 20
1049.24808400862
 10
1235.041558410279
 20
1049.2571227853
 10
1234.62698658607
 20
1049.26813090438
 10
1234.21261674569
 20
1049.28136084567
  0
LWPOLYLINE
  5
2AE
330
70
100
AcDbEntity
  8
Camada 1
 62
    18
420
        0
370
    35
100
AcDbPolyline
 90
       12
 70
     0
 43
0.0
 10
1125.899440923069
 20
1049.28136084567
 10
1125.65549494466
 20
1049.27328149221
 10
1125.24102411237
 20
1049.261364445859
 10
1124.82650278411
 20
1049.2515682298
 10
1124.411930959901
 20
1049.2435393723
 10
1123.997359135679
 20
1049.23697489762
 10
1123.826834281801
 20
1049.2346520835
 10
1123.412211961629
 20
1049.22980447142
 10
1122.99758964146
 20
1049.22606777045
 10
1122.582967321279
 20
1049.22349247654
 10
1122.168345001109
 20
1049.22192710181
 10
1121.75372268094
 20
1049.22142214221
  0
LWPOLYLINE
  5
2AF
330
70
100
AcDbEntity
  8
Camada 1
 62
    18
420
        0
370
    35
100
AcDbPolyline
 90
       12
 70
     0
 43
0.0
 10
1026.9407425157
 20
1049.22142214221
 10
1026.77021766182
 20
1049.221523134129
 10
1026.35559534164
 20
1049.2224320614
 10
1025.94097302147
 20
1049.224401403799
 10
1025.5263507013
 20
1049.2274816573
 10
1025.111728381129
 20
1049.23167282191
 10
1024.69710606095
 20
1049.23697489762
 10
1024.45305909062
 20
1049.24071159859
 10
1024.038487266411
 20
1049.24808400862
 10
1023.62396593815
 20
1049.2571227853
 10
1023.2094446099
 20
1049.26813090438
 10
1022.79502427356
 20
1049.28136084567
  0
LWPOLYLINE
  5
2B0
330
70
100
AcDbEntity
  8
Camada 1
 62
    18
420
        0
370
    35
100
AcDbPolyline
 90
       14
 70
     0
 43
0.0
 10
490.1640264035649
 20
1166.687293527509
 10
490.0848992356541
 20
1166.70087694051
 10
490.0122103025296
 20
1166.74097073204
 10
489.9413897198919
 20
1166.81136209902
 10
489.8689785145416
 20
1166.9211403141
 10
489.7892201471432
 20
1167.08641358824
 10
489.7735411518405
 20
1167.12277067879
 10
489.7187782841983
 20
1167.25395918053
 10
489.6499270439635
 20
1167.4290791667
 10
489.5886501975974
 20
1167.596624758989
 10
489.5330793946068
 20
1167.75957521901
 10
489.481371532489
 20
1167.921061296209
 10
489.4317087567133
 20
1168.08401175622
 10
489.3822479647751
 20
1168.251557348519
  0
LWPOLYLINE
  5
2B1
330
70
100
AcDbEntity
  8
Camada 1
 62
    18
420
        0
370
    35
100
AcDbPolyline
 90
       11
 70
     0
 43
0.0
 10
489.3822479647751
 20
1168.251557348519
 10
489.3663417376574
 20
1168.30609298435
 10
489.3505112544789
 20
1168.36067911614
 10
489.3347817632211
 20
1168.41531574389
 10
489.3191027679204
 20
1168.46995237163
 10
489.3034995165571
 20
1168.52458899937
 10
489.2879215131743
 20
1168.579225627119
 10
489.2724192537316
 20
1168.63391275083
 10
489.2569169942881
 20
1168.68859987453
 10
489.241439982823
 20
1168.74328699824
 10
489.225962971358
 20
1168.797974121949
  0
LWPOLYLINE
  5
2B2
330
70
100
AcDbEntity
  8
Camada 1
 62
    18
420
        0
370
    35
100
AcDbPolyline
 90
       14
 70
     0
 43
0.0
 10
1658.53046404105
 20
1166.687293527509
 10
1658.609540712999
 20
1166.70087694051
 10
1658.682254894109
 20
1166.74097073204
 10
1658.75305022877
 20
1166.81136209902
 10
1658.82546143412
 20
1166.9211403141
 10
1658.905245049489
 20
1167.08641358824
 10
1658.920898796819
 20
1167.12277067879
 10
1658.97563641648
 20
1167.25395918053
 10
1659.044512904689
 20
1167.4290791667
 10
1659.10581499904
 20
1167.596624758989
 10
1659.16136055405
 20
1167.75957521901
 10
1659.213068416169
 20
1167.921061296209
 10
1659.262756439919
 20
1168.08401175622
 10
1659.31224247984
 20
1168.251557348519
  0
LWPOLYLINE
  5
2B3
330
70
100
AcDbEntity
  8
Camada 1
 62
    18
420
        0
370
    35
100
AcDbPolyline
 90
       11
 70
     0
 43
0.0
 10
1659.31224247984
 20
1168.251557348519
 10
1659.328098211001
 20
1168.30609298435
 10
1659.34395394216
 20
1168.36067911614
 10
1659.359708681401
 20
1168.41531574389
 10
1659.37536242872
 20
1168.46995237163
 10
1659.391016176039
 20
1168.52458899937
 10
1659.406568931439
 20
1168.579225627119
 10
1659.422020694919
 20
1168.63391275083
 10
1659.43757345033
 20
1168.68859987453
 10
1659.45302521381
 20
1168.74328699824
 10
1659.468476977299
 20
1168.797974121949
  0
LINE
  5
2B4
330
70
100
AcDbEntity
  8
Camada 1
 62
    18
420
        0
370
    35
100
AcDbLine
 10
1050.884714418029
 20
1009.24144850841
 30
0.0
 11
1050.884714418029
 21
1014.67910586412
 31
0.0
  0
LINE
  5
2B5
330
70
100
AcDbEntity
  8
Camada 1
 62
    18
420
        0
370
    18
100
AcDbLine
 10
1054.711247702689
 20
1013.86713084179
 30
0.0
 11
1054.711247702689
 21
1013.42539219158
 31
0.0
  0
LINE
  5
2B6
330
70
100
AcDbEntity
  8
Camada 1
 62
    18
420
        0
370
    18
100
AcDbLine
 10
1055.899367124361
 20
1013.097774408939
 30
0.0
 11
1055.899367124361
 21
1009.89213943737
 31
0.0
  0
LINE
  5
2B7
330
70
100
AcDbEntity
  8
Camada 1
 62
    18
420
        0
370
    18
100
AcDbLine
 10
1056.747497253411
 20
1009.56336024767
 30
0.0
 11
1056.747497253411
 21
1013.097774408939
 31
0.0
  0
LINE
  5
2B8
330
70
100
AcDbEntity
  8
Camada 1
 62
    18
420
        0
370
    18
100
AcDbLine
 10
1057.935667171039
 20
1013.097774408939
 30
0.0
 11
1057.935667171039
 21
1013.86713084179
 31
0.0
  0
LINE
  5
2B9
330
70
100
AcDbEntity
  8
Camada 1
 62
    18
420
        0
370
    18
100
AcDbLine
 10
1058.448857603369
 20
1013.86713084179
 30
0.0
 11
1058.448857603369
 21
1009.89213943737
 31
0.0
  0
LINE
  5
2BA
330
70
100
AcDbEntity
  8
Camada 1
 62
    18
420
        0
370
    18
100
AcDbLine
 10
1059.254773110609
 20
1009.56336024767
 30
0.0
 11
1059.254773110609
 21
1011.15176113713
 31
0.0
  0
LINE
  5
2BB
330
70
100
AcDbEntity
  8
Camada 1
 62
    18
420
        0
370
    18
100
AcDbLine
 10
1059.254773110609
 20
1011.88496246327
 30
0.0
 11
1059.254773110609
 21
1013.12741553693
 31
0.0
  0
LINE
  5
2BC
330
70
100
AcDbEntity
  8
Camada 1
 62
    18
420
        0
370
    18
100
AcDbLine
 10
1076.38678963436
 20
1013.86713084179
 30
0.0
 11
1076.38678963436
 21
1009.89213943737
 31
0.0
  0
LINE
  5
2BD
330
70
100
AcDbEntity
  8
Camada 1
 62
    18
420
        0
370
    18
100
AcDbLine
 10
1077.169527496369
 20
1009.56336024767
 30
0.0
 11
1077.169527496369
 21
1012.55398342539
 31
0.0
  0
LINE
  5
2BE
330
70
100
AcDbEntity
  8
Camada 1
 62
    18
420
        0
370
    18
100
AcDbLine
 10
1079.22829824485
 20
1013.86713084179
 30
0.0
 11
1079.22829824485
 21
1010.82298194743
 31
0.0
  0
LINE
  5
2BF
330
70
100
AcDbEntity
  8
Camada 1
 62
    18
420
        0
370
    18
100
AcDbLine
 10
1066.87794607214
 20
1009.56336024767
 30
0.0
 11
1067.265401566319
 21
1012.5180303025
 31
0.0
  0
LINE
  5
2C0
330
70
100
AcDbEntity
  8
Camada 1
 62
    18
420
        0
370
    18
100
AcDbLine
 10
1066.7347900281
 20
1013.86713084179
 30
0.0
 11
1066.065971049809
 21
1009.56336024767
 31
0.0
  0
LINE
  5
2C1
330
70
100
AcDbEntity
  8
Camada 1
 62
    18
420
        0
370
    18
100
AcDbLine
 10
1062.549482954029
 20
1009.56336024767
 30
0.0
 11
1062.883564219439
 21
1010.51253279088
 31
0.0
  0
LINE
  5
2C2
330
70
100
AcDbEntity
  8
Camada 1
 62
    18
420
        0
370
    18
100
AcDbLine
 10
1063.152909665279
 20
1011.26431662996
 30
0.0
 11
1063.75502348159
 21
1012.94219635895
 31
0.0
  0
LINE
  5
2C3
330
70
100
AcDbEntity
  8
Camada 1
 62
    18
420
        0
370
    18
100
AcDbLine
 10
1068.948987338679
 20
1009.92152808557
 30
0.0
 11
1069.915984955451
 21
1012.47101856459
 31
0.0
  0
LINE
  5
2C4
330
70
100
AcDbEntity
  8
Camada 1
 62
    18
420
        0
370
    18
100
AcDbLine
 10
1069.72541320581
 20
1013.86713084179
 30
0.0
 11
1068.608947550099
 21
1010.94280885837
 31
0.0
  0
LINE
  5
2C5
330
70
100
AcDbEntity
  8
Camada 1
 62
    18
420
        0
370
    18
100
AcDbLine
 10
1063.355549949139
 20
1013.86713084179
 30
0.0
 11
1061.70746283603
 21
1009.56336024767
 31
0.0
  0
LINE
  5
2C6
330
70
100
AcDbEntity
  8
Camada 1
 62
    18
420
        0
370
    35
100
AcDbLine
 10
1095.734972811089
 20
1007.188181819469
 30
0.0
 11
1052.9381830908
 21
1007.188181819469
 31
0.0
  0
LINE
  5
2C7
330
70
100
AcDbEntity
  8
Camada 1
 62
    18
420
        0
370
    18
100
AcDbLine
 10
1056.228196810019
 20
1009.56336024767
 30
0.0
 11
1056.747497253411
 21
1009.56336024767
 31
0.0
  0
LINE
  5
2C8
330
70
100
AcDbEntity
  8
Camada 1
 62
    18
420
        0
370
    18
100
AcDbLine
 10
1058.777485305199
 20
1009.56336024767
 30
0.0
 11
1059.254773110609
 21
1009.56336024767
 31
0.0
  0
LINE
  5
2C9
330
70
100
AcDbEntity
  8
Camada 1
 62
    18
420
        0
370
    18
100
AcDbLine
 10
1061.70746283603
 20
1009.56336024767
 30
0.0
 11
1062.549482954029
 21
1009.56336024767
 31
0.0
  0
LINE
  5
2CA
330
70
100
AcDbEntity
  8
Camada 1
 62
    18
420
        0
370
    18
100
AcDbLine
 10
1060.90755634792
 20
1009.56336024767
 30
0.0
 11
1061.553046193099
 21
1009.56336024767
 31
0.0
  0
LINE
  5
2CB
330
70
100
AcDbEntity
  8
Camada 1
 62
    18
420
        0
370
    18
100
AcDbLine
 10
1065.25339007597
 20
1009.56336024767
 30
0.0
 11
1065.83338666219
 21
1009.56336024767
 31
0.0
  0
LINE
  5
2CC
330
70
100
AcDbEntity
  8
Camada 1
 62
    18
420
        0
370
    18
100
AcDbLine
 10
1066.065971049809
 20
1009.56336024767
 30
0.0
 11
1066.87794607214
 21
1009.56336024767
 31
0.0
  0
LINE
  5
2CD
330
70
100
AcDbEntity
  8
Camada 1
 62
    18
420
        0
370
    18
100
AcDbLine
 10
1070.65034768865
 20
1009.56336024767
 30
0.0
 11
1071.14621800701
 21
1009.56336024767
 31
0.0
  0
LINE
  5
2CE
330
70
100
AcDbEntity
  8
Camada 1
 62
    18
420
        0
370
    18
100
AcDbLine
 10
1076.71572031194
 20
1009.56336024767
 30
0.0
 11
1077.169527496369
 21
1009.56336024767
 31
0.0
  0
LINE
  5
2CF
330
70
100
AcDbEntity
  8
Camada 1
 62
    18
420
        0
370
    18
100
AcDbLine
 10
1079.5509674235
 20
1009.56336024767
 30
0.0
 11
1080.010682635149
 21
1009.56336024767
 31
0.0
  0
LINE
  5
2D0
330
70
100
AcDbEntity
  8
Camada 1
 62
    18
420
        0
370
    18
100
AcDbLine
 10
1082.040620190979
 20
1009.56336024767
 30
0.0
 11
1082.55997113032
 21
1009.56336024767
 31
0.0
  0
LINE
  5
2D1
330
70
100
AcDbEntity
  8
Camada 1
 62
    18
420
        0
370
    18
100
AcDbLine
 10
1084.62470040198
 20
1009.56336024767
 30
0.0
 11
1085.14405134132
 21
1009.56336024767
 31
0.0
  0
LINE
  5
2D2
330
70
100
AcDbEntity
  8
Camada 1
 62
    18
420
        0
370
    18
100
AcDbLine
 10
1086.290158125021
 20
1009.56336024767
 30
0.0
 11
1086.7439148135
 21
1009.56336024767
 31
0.0
  0
LINE
  5
2D3
330
70
100
AcDbEntity
  8
Camada 1
 62
    18
420
        0
370
    18
100
AcDbLine
 10
1089.126112180011
 20
1009.56336024767
 30
0.0
 11
1089.58623135933
 21
1009.56336024767
 31
0.0
  0
LINE
  5
2D4
330
70
100
AcDbEntity
  8
Camada 1
 62
    18
420
        0
370
    18
100
AcDbLine
 10
1090.04513863564
 20
1009.56336024767
 30
0.0
 11
1090.88715875363
 21
1009.56336024767
 31
0.0
  0
LINE
  5
2D5
330
70
100
AcDbEntity
  8
Camada 1
 62
    18
420
        0
370
    18
100
AcDbLine
 10
1093.590863891739
 20
1009.56336024767
 30
0.0
 11
1094.170658494129
 21
1009.56336024767
 31
0.0
  0
LINE
  5
2D6
330
70
100
AcDbEntity
  8
Camada 1
 62
    18
420
        0
370
    18
100
AcDbLine
 10
1068.560774405119
 20
1009.92152808557
 30
0.0
 11
1068.948987338679
 21
1009.92152808557
 31
0.0
  0
LINE
  5
2D7
330
70
100
AcDbEntity
  8
Camada 1
 62
    18
420
        0
370
    18
100
AcDbLine
 10
1062.883564219439
 20
1010.51253279088
 30
0.0
 11
1064.626634231619
 21
1010.51253279088
 31
0.0
  0
LINE
  5
2D8
330
70
100
AcDbEntity
  8
Camada 1
 62
    18
420
        0
370
    18
100
AcDbLine
 10
1091.22209845034
 20
1010.51253279088
 30
0.0
 11
1092.96410804739
 21
1010.51253279088
 31
0.0
  0
LINE
  5
2D9
330
70
100
AcDbEntity
  8
Camada 1
 62
    18
420
        0
370
    18
100
AcDbLine
 10
1059.254773110609
 20
1011.15176113713
 30
0.0
 11
1059.810026676879
 21
1011.15176113713
 31
0.0
  0
LINE
  5
2DA
330
70
100
AcDbEntity
  8
Camada 1
 62
    18
420
        0
370
    18
100
AcDbLine
 10
1092.695570536889
 20
1011.26431662996
 30
0.0
 11
1091.49023199317
 21
1011.26431662996
 31
0.0
  0
LINE
  5
2DB
330
70
100
AcDbEntity
  8
Camada 1
 62
    18
420
        0
370
    18
100
AcDbLine
 10
1064.358500688801
 20
1011.26431662996
 30
0.0
 11
1063.152909665279
 21
1011.26431662996
 31
0.0
  0
LINE
  5
2DC
330
70
100
AcDbEntity
  8
Camada 1
 62
    18
420
        0
370
    18
100
AcDbLine
 10
1059.816187183889
 20
1011.88496246327
 30
0.0
 11
1059.254773110609
 21
1011.88496246327
 31
0.0
  0
LINE
  5
2DD
330
70
100
AcDbEntity
  8
Camada 1
 62
    18
420
        0
370
    18
100
AcDbLine
 10
1055.040026892389
 20
1013.097774408939
 30
0.0
 11
1055.899367124361
 21
1013.097774408939
 31
0.0
  0
LINE
  5
2DE
330
70
100
AcDbEntity
  8
Camada 1
 62
    18
420
        0
370
    18
100
AcDbLine
 10
1056.747497253411
 20
1013.097774408939
 30
0.0
 11
1057.935667171039
 21
1013.097774408939
 31
0.0
  0
LINE
  5
2DF
330
70
100
AcDbEntity
  8
Camada 1
 62
    18
420
        0
370
    18
100
AcDbLine
 10
1080.85229878547
 20
1013.097774408939
 30
0.0
 11
1081.7116895134
 21
1013.097774408939
 31
0.0
  0
LINE
  5
2E0
330
70
100
AcDbEntity
  8
Camada 1
 62
    18
420
        0
370
    18
100
AcDbLine
 10
1082.55997113032
 20
1013.097774408939
 30
0.0
 11
1083.74793906412
 21
1013.097774408939
 31
0.0
  0
LINE
  5
2E1
330
70
100
AcDbEntity
  8
Camada 1
 62
    18
420
        0
370
    18
100
AcDbLine
 10
1059.254773110609
 20
1013.12741553693
 30
0.0
 11
1059.816187183889
 21
1013.12741553693
 31
0.0
  0
LINE
  5
2E2
330
70
100
AcDbEntity
  8
Camada 1
 62
    18
420
        0
370
    18
100
AcDbLine
 10
1092.51151276597
 20
1013.86713084179
 30
0.0
 11
1091.693225748749
 21
1013.86713084179
 31
0.0
  0
LINE
  5
2E3
330
70
100
AcDbEntity
  8
Camada 1
 62
    18
420
        0
370
    18
100
AcDbLine
 10
1089.58623135933
 20
1013.86713084179
 30
0.0
 11
1088.80349349732
 21
1013.86713084179
 31
0.0
  0
LINE
  5
2E4
330
70
100
AcDbEntity
  8
Camada 1
 62
    18
420
        0
370
    18
100
AcDbLine
 10
1086.726544203569
 20
1013.86713084179
 30
0.0
 11
1085.96274232621
 21
1013.86713084179
 31
0.0
  0
LINE
  5
2E5
330
70
100
AcDbEntity
  8
Camada 1
 62
    18
420
        0
370
    18
100
AcDbLine
 10
1085.14405134132
 20
1013.86713084179
 30
0.0
 11
1084.297284603169
 21
1013.86713084179
 31
0.0
  0
LINE
  5
2E6
330
70
100
AcDbEntity
  8
Camada 1
 62
    18
420
        0
370
    18
100
AcDbLine
 10
1083.74793906412
 20
1013.86713084179
 30
0.0
 11
1080.52407505132
 21
1013.86713084179
 31
0.0
  0
LINE
  5
2E7
330
70
100
AcDbEntity
  8
Camada 1
 62
    18
420
        0
370
    18
100
AcDbLine
 10
1080.010682635149
 20
1013.86713084179
 30
0.0
 11
1079.22829824485
 21
1013.86713084179
 31
0.0
  0
LINE
  5
2E8
330
70
100
AcDbEntity
  8
Camada 1
 62
    18
420
        0
370
    18
100
AcDbLine
 10
1077.15134895109
 20
1013.86713084179
 30
0.0
 11
1076.38678963436
 21
1013.86713084179
 31
0.0
  0
LINE
  5
2E9
330
70
100
AcDbEntity
  8
Camada 1
 62
    18
420
        0
370
    18
100
AcDbLine
 10
1070.477197044889
 20
1013.86713084179
 30
0.0
 11
1069.72541320581
 21
1013.86713084179
 31
0.0
  0
LINE
  5
2EA
330
70
100
AcDbEntity
  8
Camada 1
 62
    18
420
        0
370
    18
100
AcDbLine
 10
1067.49268387823
 20
1013.86713084179
 30
0.0
 11
1066.7347900281
 21
1013.86713084179
 31
0.0
  0
LINE
  5
2EB
330
70
100
AcDbEntity
  8
Camada 1
 62
    18
420
        0
370
    18
100
AcDbLine
 10
1064.17323101486
 20
1013.86713084179
 30
0.0
 11
1063.355549949139
 21
1013.86713084179
 31
0.0
  0
LINE
  5
2EC
330
70
100
AcDbEntity
  8
Camada 1
 62
    18
420
        0
370
    18
100
AcDbLine
 10
1059.88763896602
 20
1013.86713084179
 30
0.0
 11
1058.448857603369
 21
1013.86713084179
 31
0.0
  0
LINE
  5
2ED
330
70
100
AcDbEntity
  8
Camada 1
 62
    18
420
        0
370
    18
100
AcDbLine
 10
1057.935667171039
 20
1013.86713084179
 30
0.0
 11
1054.711247702689
 21
1013.86713084179
 31
0.0
  0
LINE
  5
2EE
330
70
100
AcDbEntity
  8
Camada 1
 62
    18
420
        0
370
    35
100
AcDbLine
 10
1052.9381830908
 20
1016.73277652073
 30
0.0
 11
1095.734972811089
 21
1016.73277652073
 31
0.0
  0
LINE
  5
2EF
330
70
100
AcDbEntity
  8
Camada 1
 62
    18
420
        0
370
    18
100
AcDbLine
 10
1077.169527496369
 20
1012.55398342539
 30
0.0
 11
1079.037928479039
 21
1009.86209434171
 31
0.0
  0
LINE
  5
2F0
330
70
100
AcDbEntity
  8
Camada 1
 62
    18
420
        0
370
    18
100
AcDbLine
 10
1079.22829824485
 20
1010.82298194743
 30
0.0
 11
1077.15134895109
 21
1013.86713084179
 31
0.0
  0
LINE
  5
2F1
330
70
100
AcDbEntity
  8
Camada 1
 62
    18
420
        0
370
    18
100
AcDbLine
 10
1061.553046193099
 20
1009.56336024767
 30
0.0
 11
1060.567870031049
 21
1011.306379763889
 31
0.0
  0
LINE
  5
2F2
330
70
100
AcDbEntity
  8
Camada 1
 62
    18
420
        0
370
    18
100
AcDbLine
 10
1059.810026676879
 20
1011.15176113713
 30
0.0
 11
1060.49601428126
 21
1009.808013169509
 31
0.0
  0
LINE
  5
2F3
330
70
100
AcDbEntity
  8
Camada 1
 62
    18
420
        0
370
    18
100
AcDbLine
 10
1065.83338666219
 20
1009.56336024767
 30
0.0
 11
1064.17323101486
 21
1013.86713084179
 31
0.0
  0
LINE
  5
2F4
330
70
100
AcDbEntity
  8
Camada 1
 62
    18
420
        0
370
    18
100
AcDbLine
 10
1067.265401566319
 20
1012.5180303025
 30
0.0
 11
1068.14292034356
 21
1010.23217922596
 31
0.0
  0
LINE
  5
2F5
330
70
100
AcDbEntity
  8
Camada 1
 62
    18
420
        0
370
    18
100
AcDbLine
 10
1068.608947550099
 20
1010.94280885837
 30
0.0
 11
1067.49268387823
 21
1013.86713084179
 31
0.0
  0
LINE
  5
2F6
330
70
100
AcDbEntity
  8
Camada 1
 62
    18
420
        0
370
    18
100
AcDbLine
 10
1064.626634231619
 20
1010.51253279088
 30
0.0
 11
1064.86558111008
 21
1009.856186314499
 31
0.0
  0
LINE
  5
2F7
330
70
100
AcDbEntity
  8
Camada 1
 62
    18
420
        0
370
    18
100
AcDbLine
 10
1063.75502348159
 20
1012.94219635895
 30
0.0
 11
1064.358500688801
 21
1011.26431662996
 31
0.0
  0
LINE
  5
2F8
330
70
100
AcDbEntity
  8
Camada 1
 62
    18
420
        0
370
    18
100
AcDbLine
 10
1071.14621800701
 20
1009.56336024767
 30
0.0
 11
1070.477197044889
 21
1013.86713084179
 31
0.0
  0
LINE
  5
2F9
330
70
100
AcDbEntity
  8
Camada 1
 62
    18
420
        0
370
    18
100
AcDbLine
 10
1069.915984955451
 20
1012.47101856459
 30
0.0
 11
1070.26213475509
 21
1009.87946495164
 31
0.0
  0
LINE
  5
2FA
330
70
100
AcDbEntity
  8
Camada 1
 62
    18
420
        0
370
    18
100
AcDbLine
 10
1080.010682635149
 20
1009.56336024767
 30
0.0
 11
1080.010682635149
 21
1013.86713084179
 31
0.0
  0
LINE
  5
2FB
330
70
100
AcDbEntity
  8
Camada 1
 62
    18
420
        0
370
    18
100
AcDbLine
 10
1080.52407505132
 20
1013.86713084179
 30
0.0
 11
1080.52407505132
 21
1013.42539219158
 31
0.0
  0
LINE
  5
2FC
330
70
100
AcDbEntity
  8
Camada 1
 62
    18
420
        0
370
    18
100
AcDbLine
 10
1081.7116895134
 20
1013.097774408939
 30
0.0
 11
1081.7116895134
 21
1009.89213943737
 31
0.0
  0
LINE
  5
2FD
330
70
100
AcDbEntity
  8
Camada 1
 62
    18
420
        0
370
    18
100
AcDbLine
 10
1082.55997113032
 20
1009.56336024767
 30
0.0
 11
1082.55997113032
 21
1013.097774408939
 31
0.0
  0
LINE
  5
2FE
330
70
100
AcDbEntity
  8
Camada 1
 62
    18
420
        0
370
    18
100
AcDbLine
 10
1083.74793906412
 20
1013.097774408939
 30
0.0
 11
1083.74793906412
 21
1013.86713084179
 31
0.0
  0
LINE
  5
2FF
330
70
100
AcDbEntity
  8
Camada 1
 62
    18
420
        0
370
    18
100
AcDbLine
 10
1084.297284603169
 20
1013.86713084179
 30
0.0
 11
1084.297284603169
 21
1009.89213943737
 31
0.0
  0
LINE
  5
300
330
70
100
AcDbEntity
  8
Camada 1
 62
    18
420
        0
370
    18
100
AcDbLine
 10
1085.14405134132
 20
1009.56336024767
 30
0.0
 11
1085.14405134132
 21
1013.86713084179
 31
0.0
  0
LINE
  5
301
330
70
100
AcDbEntity
  8
Camada 1
 62
    18
420
        0
370
    18
100
AcDbLine
 10
1085.96274232621
 20
1013.86713084179
 30
0.0
 11
1085.96274232621
 21
1009.89213943737
 31
0.0
  0
LINE
  5
302
330
70
100
AcDbEntity
  8
Camada 1
 62
    18
420
        0
370
    18
100
AcDbLine
 10
1086.7439148135
 20
1009.56336024767
 30
0.0
 11
1086.7439148135
 21
1012.55398342539
 31
0.0
  0
LINE
  5
303
330
70
100
AcDbEntity
  8
Camada 1
 62
    18
420
        0
370
    18
100
AcDbLine
 10
1088.80349349732
 20
1013.86713084179
 30
0.0
 11
1088.80349349732
 21
1010.82298194743
 31
0.0
  0
LINE
  5
304
330
70
100
AcDbEntity
  8
Camada 1
 62
    18
420
        0
370
    18
100
AcDbLine
 10
1089.58623135933
 20
1009.56336024767
 30
0.0
 11
1089.58623135933
 21
1013.86713084179
 31
0.0
  0
LINE
  5
305
330
70
100
AcDbEntity
  8
Camada 1
 62
    18
420
        0
370
    35
100
AcDbLine
 10
1097.78823950003
 20
1014.67910586412
 30
0.0
 11
1097.78823950003
 21
1009.24144850841
 31
0.0
  0
LINE
  5
306
330
70
100
AcDbEntity
  8
Camada 1
 62
    18
420
        0
370
    18
100
AcDbLine
 10
1090.88715875363
 20
1009.56336024767
 30
0.0
 11
1091.22209845034
 21
1010.51253279088
 31
0.0
  0
LINE
  5
307
330
70
100
AcDbEntity
  8
Camada 1
 62
    18
420
        0
370
    18
100
AcDbLine
 10
1091.49023199317
 20
1011.26431662996
 30
0.0
 11
1092.0933052327
 21
1012.94219635895
 31
0.0
  0
LINE
  5
308
330
70
100
AcDbEntity
  8
Camada 1
 62
    18
420
        0
370
    18
100
AcDbLine
 10
1091.693225748749
 20
1013.86713084179
 30
0.0
 11
1090.04513863564
 21
1009.56336024767
 31
0.0
  0
LINE
  5
309
330
70
100
AcDbEntity
  8
Camada 1
 62
    18
420
        0
370
    18
100
AcDbLine
 10
1086.7439148135
 20
1012.55398342539
 30
0.0
 11
1088.613123731509
 21
1009.86209434171
 31
0.0
  0
LINE
  5
30A
330
70
100
AcDbEntity
  8
Camada 1
 62
    18
420
        0
370
    18
100
AcDbLine
 10
1088.80349349732
 20
1010.82298194743
 30
0.0
 11
1086.726544203569
 21
1013.86713084179
 31
0.0
  0
LINE
  5
30B
330
70
100
AcDbEntity
  8
Camada 1
 62
    18
420
        0
370
    18
100
AcDbLine
 10
1094.170658494129
 20
1009.56336024767
 30
0.0
 11
1092.51151276597
 21
1013.86713084179
 31
0.0
  0
LINE
  5
30C
330
70
100
AcDbEntity
  8
Camada 1
 62
    18
420
        0
370
    18
100
AcDbLine
 10
1092.96410804739
 20
1010.51253279088
 30
0.0
 11
1093.203862861199
 21
1009.856186314499
 31
0.0
  0
LINE
  5
30D
330
70
100
AcDbEntity
  8
Camada 1
 62
    18
420
        0
370
    18
100
AcDbLine
 10
1092.0933052327
 20
1012.94219635895
 30
0.0
 11
1092.695570536889
 21
1011.26431662996
 31
0.0
  0
LWPOLYLINE
  5
30E
330
70
100
AcDbEntity
  8
Camada 1
 62
    18
420
        0
370
    18
100
AcDbPolyline
 90
       11
 70
     0
 43
0.0
 10
1054.711247702689
 20
1013.42539219158
 10
1054.71427746023
 20
1013.36126232352
 10
1054.723619212669
 20
1013.30450486549
 10
1054.73927295999
 20
1013.25491783366
 10
1054.761491181991
 20
1013.212400236089
 10
1054.790374870599
 20
1013.17680058493
 10
1054.82607551368
 20
1013.14796739228
 10
1054.86874459912
 20
1013.12579966624
 10
1054.918533614789
 20
1013.11014591892
 10
1054.975594048579
 20
1013.10085466244
 10
1055.040026892389
 20
1013.097774408939
  0
LWPOLYLINE
  5
30F
330
70
100
AcDbEntity
  8
Camada 1
 62
    18
420
        0
370
    18
100
AcDbPolyline
 90
       11
 70
     0
 43
0.0
 10
1055.899367124361
 20
1009.89213943737
 10
1055.902447377859
 20
1009.82760560164
 10
1055.91173863434
 20
1009.7704946719
 10
1055.927442877621
 20
1009.72070565623
 10
1055.949661099619
 20
1009.67803657079
 10
1055.978544788229
 20
1009.64233592771
 10
1056.01424543131
 20
1009.61350273506
 10
1056.05691451675
 20
1009.591335009019
 10
1056.106703532419
 20
1009.57568126169
 10
1056.163763966209
 20
1009.56639000522
 10
1056.228196810019
 20
1009.56336024767
  0
LWPOLYLINE
  5
310
330
70
100
AcDbEntity
  8
Camada 1
 62
    18
420
        0
370
    18
100
AcDbPolyline
 90
       11
 70
     0
 43
0.0
 10
1080.52407505132
 20
1013.42539219158
 10
1080.52715530482
 20
1013.36126232352
 10
1080.536396065339
 20
1013.30450486549
 10
1080.552049812661
 20
1013.25491783366
 10
1080.574217538709
 20
1013.212400236089
 10
1080.603000235391
 20
1013.17680058493
 10
1080.638650382519
 20
1013.14796739228
 10
1080.681268971999
 20
1013.12579966624
 10
1080.730956995759
 20
1013.11014591892
 10
1080.787916437621
 20
1013.10085466244
 10
1080.85229878547
 20
1013.097774408939
  0
LWPOLYLINE
  5
311
330
70
100
AcDbEntity
  8
Camada 1
 62
    18
420
        0
370
    18
100
AcDbPolyline
 90
       11
 70
     0
 43
0.0
 10
1081.7116895134
 20
1009.89213943737
 10
1081.7147697669
 20
1009.82760560164
 10
1081.72406102338
 20
1009.7704946719
 10
1081.739714770699
 20
1009.72070565623
 10
1081.761932992709
 20
1009.67803657079
 10
1081.790867177269
 20
1009.64233592771
 10
1081.82656782035
 20
1009.61350273506
 10
1081.86923690579
 20
1009.591335009019
 10
1081.919076417431
 20
1009.57568126169
 10
1081.97613685121
 20
1009.56639000522
 10
1082.040620190979
 20
1009.56336024767
  0
LWPOLYLINE
  5
312
330
70
100
AcDbEntity
  8
Camada 1
 62
    18
420
        0
370
    18
100
AcDbPolyline
 90
       11
 70
     0
 43
0.0
 10
1093.203862861199
 20
1009.856186314499
 10
1093.22683852259
 20
1009.80018629585
 10
1093.25284394152
 20
1009.75019529634
 10
1093.28203060588
 20
1009.706213315969
 10
1093.3146004995
 20
1009.668139362809
 10
1093.35070511026
 20
1009.636023932819
 10
1093.390546421989
 20
1009.60976603409
 10
1093.434275922569
 20
1009.58941616257
 10
1093.482146091799
 20
1009.574923822309
 10
1093.53425792159
 20
1009.56623851734
 10
1093.590863891739
 20
1009.56336024767
  0
LWPOLYLINE
  5
313
330
70
100
AcDbEntity
  8
Camada 1
 62
    18
420
        0
370
    18
100
AcDbPolyline
 90
       11
 70
     0
 43
0.0
 10
1064.86558111008
 20
1009.856186314499
 10
1064.888506275511
 20
1009.80018629585
 10
1064.914511694449
 20
1009.75019529634
 10
1064.943799350731
 20
1009.70616282001
 10
1064.976419740309
 20
1009.668139362809
 10
1065.012625342981
 20
1009.636023932819
 10
1065.05261814259
 20
1009.60976603409
 10
1065.09649913105
 20
1009.58941616257
 10
1065.144470292191
 20
1009.574923822309
 10
1065.19673360986
 20
1009.56623851734
 10
1065.25339007597
 20
1009.56336024767
  0
LWPOLYLINE
  5
314
330
70
100
AcDbEntity
  8
Camada 1
 62
    18
420
        0
370
    18
100
AcDbPolyline
 90
       11
 70
     0
 43
0.0
 10
1079.037928479039
 20
1009.86209434171
 10
1079.08261740284
 20
1009.80149919079
 10
1079.12740731857
 20
1009.74847843373
 10
1079.17290417772
 20
1009.70277959075
 10
1079.219511947969
 20
1009.664099686079
 10
1079.26773558891
 20
1009.63213574397
 10
1079.31813055609
 20
1009.60663528462
 10
1079.37115131314
 20
1009.58724483633
 10
1079.42730281966
 20
1009.57376241525
 10
1079.48709003524
 20
1009.56588504562
 10
1079.5509674235
 20
1009.56336024767
  0
LWPOLYLINE
  5
315
330
70
100
AcDbEntity
  8
Camada 1
 62
    18
420
        0
370
    18
100
AcDbPolyline
 90
       11
 70
     0
 43
0.0
 10
1076.38678963436
 20
1009.89213943737
 10
1076.38986988786
 20
1009.82760560164
 10
1076.399161144339
 20
1009.7704946719
 10
1076.41486538762
 20
1009.72070565623
 10
1076.43708360962
 20
1009.67803657079
 10
1076.46596729823
 20
1009.64233592771
 10
1076.501667941309
 20
1009.61350273506
 10
1076.544337026749
 20
1009.591335009019
 10
1076.59417653839
 20
1009.57568126169
 10
1076.65123697216
 20
1009.56639000522
 10
1076.71572031194
 20
1009.56336024767
  0
LWPOLYLINE
  5
316
330
70
100
AcDbEntity
  8
Camada 1
 62
    18
420
        0
370
    18
100
AcDbPolyline
 90
       11
 70
     0
 43
0.0
 10
1088.613123731509
 20
1009.86209434171
 10
1088.65776215936
 20
1009.80149919079
 10
1088.702552075079
 20
1009.74852892969
 10
1088.747947942309
 20
1009.702830086709
 10
1088.79445472064
 20
1009.664099686079
 10
1088.84262786562
 20
1009.63213574397
 10
1088.892972336849
 20
1009.60663528462
 10
1088.945993093899
 20
1009.58724483633
 10
1089.00219509638
 20
1009.573812911209
 10
1089.062032807909
 20
1009.56588504562
 10
1089.126112180011
 20
1009.56336024767
  0
LWPOLYLINE
  5
317
330
70
100
AcDbEntity
  8
Camada 1
 62
    18
420
        0
370
    18
100
AcDbPolyline
 90
       11
 70
     0
 43
0.0
 10
1085.96274232621
 20
1009.89213943737
 10
1085.965822579719
 20
1009.82760560164
 10
1085.97511383619
 20
1009.7704946719
 10
1085.99076758352
 20
1009.72070565623
 10
1086.01293530956
 20
1009.67803657079
 10
1086.04171800625
 20
1009.64233592771
 10
1086.077317657409
 20
1009.61350273506
 10
1086.119784759019
 20
1009.591335009019
 10
1086.169371790849
 20
1009.57568126169
 10
1086.226078752919
 20
1009.56639000522
 10
1086.290158125021
 20
1009.56336024767
  0
LWPOLYLINE
  5
318
330
70
100
AcDbEntity
  8
Camada 1
 62
    18
420
        0
370
    18
100
AcDbPolyline
 90
       11
 70
     0
 43
0.0
 10
1060.567870031049
 20
1011.306379763889
 10
1060.69274653791
 20
1011.375458235939
 10
1060.80868526001
 20
1011.45690821797
 10
1060.914676278149
 20
1011.55027524635
 10
1061.0098106651
 20
1011.65500386552
 10
1061.0930280057
 20
1011.77063961186
 10
1061.16336887673
 20
1011.896627029819
 10
1061.219823359
 20
1012.03251165575
 10
1061.26133103738
 20
1012.17778853009
 10
1061.2869829846
 20
1012.33195269322
 10
1061.295769281491
 20
1012.49449918557
  0
LWPOLYLINE
  5
319
330
70
100
AcDbEntity
  8
Camada 1
 62
    18
420
        0
370
    18
100
AcDbPolyline
 90
       11
 70
     0
 43
0.0
 10
1060.49601428126
 20
1009.808013169509
 10
1060.523736562809
 20
1009.75761820233
 10
1060.55363017059
 20
1009.71378770983
 10
1060.58599808037
 20
1009.676168220299
 10
1060.621092771949
 20
1009.64450725395
 10
1060.65926771703
 20
1009.618501835009
 10
1060.700876387331
 20
1009.597899483699
 10
1060.746171262639
 20
1009.58234672829
 10
1060.79550581468
 20
1009.57159108901
 10
1060.849183019199
 20
1009.56538008603
 10
1060.90755634792
 20
1009.56336024767
  0
LWPOLYLINE
  5
31A
330
70
100
AcDbEntity
  8
Camada 1
 62
    18
420
        0
370
    18
100
AcDbPolyline
 90
       11
 70
     0
 43
0.0
 10
1058.448857603369
 20
1009.89213943737
 10
1058.45193785688
 20
1009.82760560164
 10
1058.461229113351
 20
1009.7704946719
 10
1058.47688286067
 20
1009.72070565623
 10
1058.499050586721
 20
1009.67803657079
 10
1058.527883779359
 20
1009.64233592771
 10
1058.56353392649
 20
1009.61350273506
 10
1058.606152515969
 20
1009.591335009019
 10
1058.65594153164
 20
1009.57568126169
 10
1058.71300196543
 20
1009.56639000522
 10
1058.777485305199
 20
1009.56336024767
  0
LWPOLYLINE
  5
31B
330
70
100
AcDbEntity
  8
Camada 1
 62
    18
420
        0
370
    18
100
AcDbPolyline
 90
       13
 70
     0
 43
0.0
 10
1061.295769281491
 20
1012.49449918557
 10
1061.28188289273
 20
1012.71395462381
 10
1061.241435629499
 20
1012.916291931929
 10
1061.176093858419
 20
1013.10135962203
 10
1061.087321962321
 20
1013.26855174261
 10
1060.97638234018
 20
1013.41731283812
 10
1060.84428491117
 20
1013.546986461089
 10
1060.691787114691
 20
1013.656764676179
 10
1060.51964639011
 20
1013.74528409248
 10
1060.32872116876
 20
1013.81108032718
 10
1060.120071865749
 20
1013.85233552577
 10
1059.89526385584
 20
1013.86713084179
 10
1059.88763896602
 20
1013.86713084179
  0
LWPOLYLINE
  5
31C
330
70
100
AcDbEntity
  8
Camada 1
 62
    18
420
        0
370
    18
100
AcDbPolyline
 90
       11
 70
     0
 43
0.0
 10
1068.14292034356
 20
1010.23217922596
 10
1068.1694307221
 20
1010.172644490179
 10
1068.19866788241
 20
1010.1195227412
 10
1068.23083380836
 20
1010.07281397903
 10
1068.266231475689
 20
1010.032467707709
 10
1068.3051133642
 20
1009.99843343128
 10
1068.34773195368
 20
1009.97066065377
 10
1068.394339723931
 20
1009.94909887924
 10
1068.4452396507
 20
1009.93374810767
 10
1068.500633717829
 20
1009.92455784312
 10
1068.560774405119
 20
1009.92152808557
  0
LWPOLYLINE
  5
31D
330
70
100
AcDbEntity
  8
Camada 1
 62
    18
420
        0
370
    18
100
AcDbPolyline
 90
       11
 70
     0
 43
0.0
 10
1070.26213475509
 20
1009.87946495164
 10
1070.2749607287
 20
1009.815739051259
 10
1070.29505812042
 20
1009.75984002453
 10
1070.321972466619
 20
1009.71156588763
 10
1070.35504731983
 20
1009.6706136648
 10
1070.393676728539
 20
1009.63668038028
 10
1070.437355733171
 20
1009.60956405025
 10
1070.485427886229
 20
1009.58891120298
 10
1070.537337732179
 20
1009.57451985464
 10
1070.592529815479
 20
1009.566087029459
 10
1070.65034768865
 20
1009.56336024767
  0
LWPOLYLINE
  5
31E
330
70
100
AcDbEntity
  8
Camada 1
 62
    18
420
        0
370
    35
100
AcDbPolyline
 90
       16
 70
     0
 43
0.0
 10
1050.884714418029
 20
1014.67910586412
 10
1050.898651302739
 20
1014.95456132101
 10
1050.939250053859
 20
1015.21204021647
 10
1051.00494529665
 20
1015.45118907876
 10
1051.094373640209
 20
1015.6716544362
 10
1051.2063736775
 20
1015.87313331301
 10
1051.33988499336
 20
1016.0553732294
 10
1051.41451802091
 20
1016.13914602555
 10
1051.494251140329
 20
1016.21786922578
 10
1051.66856319114
 20
1016.35986386277
 10
1051.862366682169
 20
1016.480650196939
 10
1052.075207149781
 20
1016.57926880506
 10
1052.306832114169
 20
1016.654709767959
 10
1052.556938599589
 20
1016.70560969473
 10
1052.82517313433
 20
1016.73050420257
 10
1052.9381830908
 20
1016.73277652073
  0
LWPOLYLINE
  5
31F
330
70
100
AcDbEntity
  8
Camada 1
 62
    18
420
        0
370
    35
100
AcDbPolyline
 90
       16
 70
     0
 43
0.0
 10
1052.9381830908
 20
1007.188181819469
 10
1052.825072142419
 20
1007.19045413763
 10
1052.5566861198
 20
1007.21529814951
 10
1052.30647864246
 20
1007.26619807628
 10
1052.0748031821
 20
1007.34158854322
 10
1051.8619627145
 20
1007.440207151339
 10
1051.66826021539
 20
1007.560892493589
 10
1051.49394816457
 20
1007.702786138659
 10
1051.41426554111
 20
1007.7815093389
 10
1051.33968300952
 20
1007.86523163909
 10
1051.206222189619
 20
1008.047370563559
 10
1051.094323144259
 20
1008.248798944419
 10
1051.00489480069
 20
1008.46916330993
 10
1050.939199557901
 20
1008.70831217222
 10
1050.89860080678
 20
1008.9658920596
 10
1050.884714418029
 20
1009.24144850841
  0
LWPOLYLINE
  5
320
330
70
100
AcDbEntity
  8
Camada 1
 62
    18
420
        0
370
    35
100
AcDbPolyline
 90
       16
 70
     0
 43
0.0
 10
1097.78823950003
 20
1009.24144850841
 10
1097.77430261532
 20
1008.9658920596
 10
1097.73375436016
 20
1008.70831217222
 10
1097.668059117379
 20
1008.46916330993
 10
1097.578630773809
 20
1008.24874844846
 10
1097.46673172844
 20
1008.04732006761
 10
1097.333270908541
 20
1007.86518114313
 10
1097.258688376951
 20
1007.78145884294
 10
1097.17895525753
 20
1007.702735642709
 10
1097.004693702671
 20
1007.56084199763
 10
1096.810991203571
 20
1007.44015665538
 10
1096.598150735959
 20
1007.34158854322
 10
1096.36652577156
 20
1007.26619807628
 10
1096.11631829422
 20
1007.21529814951
 10
1095.847932271599
 20
1007.19045413763
 10
1095.734972811089
 20
1007.188181819469
  0
LWPOLYLINE
  5
321
330
70
100
AcDbEntity
  8
Camada 1
 62
    18
420
        0
370
    35
100
AcDbPolyline
 90
       16
 70
     0
 43
0.0
 10
1095.734972811089
 20
1016.73277652073
 10
1095.84783127969
 20
1016.73050420257
 10
1096.116065814429
 20
1016.70566019069
 10
1096.366172299849
 20
1016.65476026392
 10
1096.59774676828
 20
1016.57931930103
 10
1096.81058723589
 20
1016.480650196939
 10
1097.00434023096
 20
1016.35991435873
 10
1097.17870277773
 20
1016.21791972174
 10
1097.258435897151
 20
1016.13914602555
 10
1097.333068924699
 20
1016.0553732294
 10
1097.46658024056
 20
1015.87313331301
 10
1097.57858027785
 20
1015.6716544362
 10
1097.668008621411
 20
1015.45118907876
 10
1097.7337038642
 20
1015.21204021647
 10
1097.77430261532
 20
1014.95456132101
 10
1097.78823950003
 20
1014.67910586412
  0
LWPOLYLINE
  5
322
330
70
100
AcDbEntity
  8
Camada 1
 62
    18
420
        0
370
    18
100
AcDbPolyline
 90
       12
 70
     0
 43
0.0
 10
1074.966186816989
 20
1011.71196330739
 10
1074.95219943632
 20
1011.50967649523
 10
1074.910590766019
 20
1011.31269175878
 10
1074.84201725356
 20
1011.123836871749
 10
1074.747690801959
 20
1010.94654555935
 10
1074.62937876979
 20
1010.78440303468
 10
1074.49283769638
 20
1010.64397377242
 10
1074.337007166599
 20
1010.52369239784
 10
1074.16784570361
 20
1010.42840652302
 10
1073.988686040729
 20
1010.35953003481
 10
1073.802456943569
 20
1010.31782037259
 10
1073.611380234329
 20
1010.30383299192
  0
LWPOLYLINE
  5
323
330
70
100
AcDbEntity
  8
Camada 1
 62
    18
420
        0
370
    18
100
AcDbPolyline
 90
       12
 70
     0
 43
0.0
 10
1073.611380234329
 20
1013.12741553693
 10
1073.801548016299
 20
1013.11342815626
 10
1073.987019674079
 20
1013.07171849404
 10
1074.165674377369
 20
1013.00279150987
 10
1074.334532864599
 20
1012.90735414717
 10
1074.49036339439
 20
1012.7868202928
 10
1074.62937876979
 20
1012.64320978511
 10
1074.74743832217
 20
1012.48051180489
 10
1074.84191626165
 20
1012.30216007735
 10
1074.91054027006
 20
1012.11244675901
 10
1074.95219943632
 20
1011.91475507913
 10
1074.966186816989
 20
1011.71196330739
  0
LWPOLYLINE
  5
324
330
70
100
AcDbEntity
  8
Camada 1
 62
    18
420
        0
370
    18
100
AcDbPolyline
 90
       12
 70
     0
 43
0.0
 10
1072.262279695049
 20
1011.71196330739
 10
1072.27626707572
 20
1011.91571450236
 10
1072.317926241971
 20
1012.11421411758
 10
1072.386499754429
 20
1012.30453338743
 10
1072.48082620603
 20
1012.48308709881
 10
1072.597017407919
 20
1012.64386623258
 10
1072.73522484798
 20
1012.787325252389
 10
1072.89019694646
 20
1012.907707618879
 10
1073.05824749834
 20
1013.00294299774
 10
1073.23614476226
 20
1013.07176899
 10
1073.421262948319
 20
1013.11342815626
 10
1073.611380234329
 20
1013.12741553693
  0
LWPOLYLINE
  5
325
330
70
100
AcDbEntity
  8
Camada 1
 62
    18
420
        0
370
    18
100
AcDbPolyline
 90
       12
 70
     0
 43
0.0
 10
1073.611380234329
 20
1010.30383299192
 10
1073.420354021049
 20
1010.31782037259
 10
1073.23452889156
 20
1010.35947953885
 10
1073.056076172099
 20
1010.42825503514
 10
1072.88772264446
 20
1010.52333892613
 10
1072.73280104194
 20
1010.64341831687
 10
1072.594795585719
 20
1010.786422873039
 10
1072.480573726239
 20
1010.94397026543
 10
1072.386398762519
 20
1011.121514057629
 10
1072.317875746019
 20
1011.31087390425
 10
1072.27626707572
 20
1011.50866657605
 10
1072.262279695049
 20
1011.71196330739
  0
LWPOLYLINE
  5
326
330
70
100
AcDbEntity
  8
Camada 1
 62
    18
420
        0
370
    18
100
AcDbPolyline
 90
       15
 70
     0
 43
0.0
 10
1075.838201534691
 20
1011.718073318439
 10
1075.8241131621
 20
1011.96939170688
 10
1075.782201516049
 20
1012.21611496304
 10
1075.71276957229
 20
1012.45637473644
 10
1075.616524274239
 20
1012.687797716999
 10
1075.49437454918
 20
1012.907707618879
 10
1075.34773428395
 20
1013.11327666838
 10
1075.195488967271
 20
1013.284407473769
 10
1075.008249950919
 20
1013.45412439231
 10
1074.80409478828
 20
1013.60096664137
 10
1074.58585125305
 20
1013.72316686239
 10
1074.35629662298
 20
1013.81936166448
 10
1074.118056687939
 20
1013.88874311228
 10
1073.87320178226
 20
1013.9307052543
 10
1073.62365075239
 20
1013.94474313092
  0
LWPOLYLINE
  5
327
330
70
100
AcDbEntity
  8
Camada 1
 62
    18
420
        0
370
    18
100
AcDbPolyline
 90
       15
 70
     0
 43
0.0
 10
1073.59890773243
 20
1009.48534399086
 10
1073.85153901581
 20
1009.49938186749
 10
1074.09942367903
 20
1009.5413440095
 10
1074.340642875661
 20
1009.610775953269
 10
1074.572873791559
 20
1009.70697075535
 10
1074.79349063687
 20
1009.8290194885
 10
1074.999564645959
 20
1009.97555876181
 10
1075.179784723979
 20
1010.13608541579
 10
1075.34894618697
 20
1010.32408187152
 10
1075.495283476441
 20
1010.52899447355
 10
1075.617079729789
 20
1010.74814693604
 10
1075.713022052079
 20
1010.97891346913
 10
1075.78225201201
 20
1011.21881977082
 10
1075.8241131621
 20
1011.465795506779
 10
1075.838201534691
 20
1011.718073318439
  0
LWPOLYLINE
  5
328
330
70
100
AcDbEntity
  8
Camada 1
 62
    18
420
        0
370
    18
100
AcDbPolyline
 90
       15
 70
     0
 43
0.0
 10
1071.390870928849
 20
1011.70706519936
 10
1071.40495930144
 20
1011.454888379609
 10
1071.446870947489
 20
1011.20755917194
 10
1071.516201899339
 20
1010.96714791066
 10
1071.61229570951
 20
1010.73582592202
 10
1071.734142458819
 20
1010.516319987809
 10
1071.880429252331
 20
1010.311407385779
 10
1072.028988364011
 20
1010.1442152652
 10
1072.215267957119
 20
1009.97495281029
 10
1072.41861518442
 20
1009.8285145289
 10
1072.63620227218
 20
1009.70661728364
 10
1072.865352934579
 20
1009.61057396943
 10
1073.103542373659
 20
1009.54129351355
 10
1073.348649759129
 20
1009.49938186749
 10
1073.59890773243
 20
1009.48534399086
  0
LWPOLYLINE
  5
329
330
70
100
AcDbEntity
  8
Camada 1
 62
    18
420
        0
370
    18
100
AcDbPolyline
 90
       15
 70
     0
 43
0.0
 10
1073.62365075239
 20
1013.94474313092
 10
1073.371776908399
 20
1013.93065475834
 10
1073.12470018052
 20
1013.88874311228
 10
1072.88444040712
 20
1013.81936166448
 10
1072.653168914439
 20
1013.723217358349
 10
1072.433460996401
 20
1013.601168625209
 10
1072.22809393074
 20
1013.4546293519
 10
1072.04893426785
 20
1013.29435517771
 10
1071.8799747887
 20
1013.10600525027
 10
1071.733788987099
 20
1012.90048669673
 10
1071.61204322971
 20
1012.68057679485
 10
1071.51610090742
 20
1012.44900232642
 10
1071.446820451539
 20
1012.20813660151
 10
1071.40495930144
 20
1011.96020144233
 10
1071.390870928849
 20
1011.70706519936
  0
LWPOLYLINE
  5
32A
330
70
100
AcDbEntity
  8
Camada 1
 62
    18
420
        0
370
    18
100
AcDbPolyline
 90
       11
 70
     0
 43
0.0
 10
1060.46642364923
 20
1012.50065969257
 10
1060.456425449331
 20
1012.36871375145
 10
1060.427996224349
 20
1012.255299827309
 10
1060.38340829246
 20
1012.15945849694
 10
1060.325085459699
 20
1012.07997785731
 10
1060.255300044229
 20
1012.01574699733
 10
1060.17642535611
 20
1011.96570550187
 10
1060.090733713519
 20
1011.928691963849
 10
1060.000547930569
 20
1011.90364596813
 10
1059.908241317331
 20
1011.88945660363
 10
1059.816187183889
 20
1011.88496246327
  0
LWPOLYLINE
  5
32B
330
70
100
AcDbEntity
  8
Camada 1
 62
    18
420
        0
370
    18
100
AcDbPolyline
 90
       11
 70
     0
 43
0.0
 10
1059.816187183889
 20
1013.12741553693
 10
1059.908241317331
 20
1013.12292139657
 10
1060.000547930569
 20
1013.108681536099
 10
1060.090733713519
 20
1013.083433556549
 10
1060.17642535611
 20
1013.04606654682
 10
1060.255300044229
 20
1012.99541909984
 10
1060.325085459699
 20
1012.93017832068
 10
1060.38340829246
 20
1012.84933429016
 10
1060.427996224349
 20
1012.75157411334
 10
1060.456425449331
 20
1012.63573638317
 10
1060.46642364923
 20
1012.50065969257
  0
LWPOLYLINE
  5
32C
330
70
100
AcDbEntity
  8
Camada 1
 62
    18
420
        0
370
    18
100
AcDbPolyline
 90
       11
 70
     0
 43
0.0
 10
1084.297284603169
 20
1009.89213943737
 10
1084.300364856681
 20
1009.82760560164
 10
1084.309656113149
 20
1009.7704946719
 10
1084.325309860469
 20
1009.72070565623
 10
1084.34747758652
 20
1009.67803657079
 10
1084.376260283199
 20
1009.64233592771
 10
1084.411859934371
 20
1009.61350273506
 10
1084.454377531931
 20
1009.591335009019
 10
1084.503914067809
 20
1009.57568126169
 10
1084.560621029879
 20
1009.56639000522
 10
1084.62470040198
 20
1009.56336024767
  0
LINE
  5
32D
330
70
100
AcDbEntity
  8
Camada 1
 62
    18
420
        0
370
    18
100
AcDbLine
 10
479.8067776632378
 20
1052.75255406614
 30
0.0
 11
461.3789331069165
 21
1052.75255406614
 31
0.0
  0
LINE
  5
32E
330
70
100
AcDbEntity
  8
Camada 1
 62
    18
420
        0
370
    18
100
AcDbLine
 10
479.8067776632378
 20
971.4368665616639
 30
0.0
 11
461.3789331069165
 21
971.4368665616639
 31
0.0
  0
LINE
  5
32F
330
70
100
AcDbEntity
  8
Camada 1
 62
    18
420
        0
370
    18
100
AcDbLine
 10
481.1544458111966
 20
1201.864949963
 30
0.0
 11
462.7266012548752
 21
1201.864949963
 31
0.0
  0
LINE
  5
330
330
70
100
AcDbEntity
  8
Camada 1
 62
    18
420
        0
370
    18
100
AcDbLine
 10
481.1544458111966
 20
1167.01539104325
 30
0.0
 11
462.7266012548752
 21
1167.01539104325
 31
0.0
  0
MTEXT
  5
331
330
70
100
AcDbEntity
  8
Camada 1
100
AcDbMText
 10
463.4315223693857
 20
1176.253417968749
 30
0.0
 40
0.2
 41
0.0
 46
0.0
 71
     7
 72
     1
  1
\C250;\c1776925;\FMyriad Pro|b0|i0|c1;\H12.036000;\W1.000000;33
 11
0.0000000000000001
 21
1.0
 31
0.0
 73
     1
 44
1.0
  0
MTEXT
  5
332
330
70
100
AcDbEntity
  8
Camada 1
100
AcDbMText
 10
460.3787879943856
 20
1003.843261718749
 30
0.0
 40
0.2
 41
0.0
 46
0.0
 71
     7
 72
     1
  1
\C250;\c1776925;\FMyriad Pro|b0|i0|c1;\H12.036000;\W1.000000;70
 11
0.0000000000000001
 21
1.0
 31
0.0
 73
     1
 44
1.0
  0
LINE
  5
333
330
70
100
AcDbEntity
  8
Camada 1
 62
   250
420
  1974045
370
    18
100
AcDbLine
 10
466.2455227018763
 20
1201.864949963
 30
0.0
 11
466.2455227018763
 21
1167.01539104325
 31
0.0
  0
LINE
  5
334
330
70
100
AcDbEntity
  8
Camada 1
 62
   250
420
  1974045
370
    18
100
AcDbLine
 10
464.8978545539176
 20
1052.75255406614
 30
0.0
 11
464.8978545539176
 21
971.4368665616639
 31
0.0
  0
LINE
  5
335
330
70
100
AcDbEntity
  8
Camada 1
 62
    18
420
        0
370
    18
100
AcDbLine
 10
488.0533710571107
 20
962.8011407299554
 30
0.0
 11
488.0533710571107
 21
929.1036490925334
 31
0.0
  0
LINE
  5
336
330
70
100
AcDbEntity
  8
Camada 1
 62
    18
420
        0
370
    18
100
AcDbLine
 10
1660.641094139529
 20
962.8011407299554
 30
0.0
 11
1660.641094139529
 21
929.1036490925334
 31
0.0
  0
MTEXT
  5
337
330
70
100
AcDbEntity
  8
Camada 1
100
AcDbMText
 10
1056.728118896484
 20
937.7115859985352
 30
0.0
 40
0.2
 41
0.0
 46
0.0
 71
     7
 72
     1
  1
\C250;\c1776925;\FMyriad Pro|b0|i0|c1;\H12.036000;\W1.000000;1000
 73
     1
 44
1.0
  0
LINE
  5
338
330
70
100
AcDbEntity
  8
Camada 1
 62
   250
420
  1974045
370
    18
100
AcDbLine
 10
1660.4629351487
 20
934.2965594720299
 30
0.0
 11
487.8752120662811
 21
934.2965594720299
 31
0.0
  0
MTEXT
  5
339
330
70
100
AcDbEntity
  8
Camada 1
100
AcDbMText
 10
1787.960632324219
 20
861.9930038452148
 30
0.0
 40
0.2
 41
0.0
 46
0.0
 71
     7
 72
     1
  1
\C8;\c8485235;\FFrutiger Bold|b1|i0|c1;\H11.805467;\W1.000000;mm
 73
     1
 44
1.0
  0
INSERT
  5
33B
330
70
100
AcDbEntity
  8
Camada 1
100
AcDbBlockReference
  2
Block_0
 10
0.0
 20
0.0
 30
0.0
  0
LINE
  5
340
330
70
100
AcDbEntity
  8
Camada 1
 62
     8
420
  7567745
370
    35
100
AcDbLine
 10
1787.706419313954
 20
853.0900267809775
 30
0.0
 11
1814.784056030197
 21
853.0900267809775
 31
0.0
  0
LINE
  5
341
330
70
100
AcDbEntity
  8
Camada 1
 62
     8
420
  7567745
370
    35
100
AcDbLine
 10
1787.383900854948
 20
856.7276262794521
 30
0.0
 11
1787.383900854948
 21
849.4568976470391
 31
0.0
  0
LINE
  5
342
330
70
100
AcDbEntity
  8
Camada 1
 62
     8
420
  7567745
370
    35
100
AcDbLine
 10
1815.114237971284
 20
856.7276262794521
 30
0.0
 11
1815.114237971284
 21
849.4568976470391
 31
0.0
  0
ENDSEC
  0
SECTION
  2
OBJECTS
  0
DICTIONARY
  5
C
330
0
100
AcDbDictionary
281
     1
  3
ACAD_COLOR
350
63
  3
ACAD_DETAILVIEWSTYLE
350
6A
  3
ACAD_GROUP
350
D
  3
ACAD_LAYOUT
350
62
  3
ACAD_MATERIAL
350
10
  3
ACAD_MLEADERSTYLE
350
66
  3
ACAD_MLINESTYLE
350
5F
  3
ACAD_PLOTSETTINGS
350
61
  3
ACAD_PLOTSTYLENAME
350
E
  3
ACAD_SCALELIST
350
42
  3
ACAD_SECTIONVIEWSTYLE
350
68
  3
ACAD_TABLESTYLE
350
64
  3
ACAD_VISUALSTYLE
350
29
  3
ACDB_RECOMPOSE_DATA
350
34B
  3
AcDbVariableDictionary
350
343
  0
DICTIONARY
  5
63
102
{ACAD_REACTORS
330
C
102
}
330
C
100
AcDbDictionary
281
     1
  0
DICTIONARY
  5
6A
102
{ACAD_REACTORS
330
C
102
}
330
C
100
AcDbDictionary
281
     1
  3
Imperial24
350
6B
  0
DICTIONARY
  5
D
102
{ACAD_REACTORS
330
C
102
}
330
C
100
AcDbDictionary
281
     1
  0
DICTIONARY
  5
62
102
{ACAD_REACTORS
330
C
102
}
330
C
100
AcDbDictionary
281
     1
  3
Layout1
350
6F
  3
Layout2
350
77
  3
Model
350
73
  0
DICTIONARY
  5
10
102
{ACAD_REACTORS
330
C
102
}
330
C
100
AcDbDictionary
281
     1
  3
ByBlock
350
19
  3
ByLayer
350
11
  3
Global
350
21
  0
DICTIONARY
  5
66
102
{ACAD_REACTORS
330
C
102
}
330
C
100
AcDbDictionary
281
     1
  3
Standard
350
67
  0
DICTIONARY
  5
5F
102
{ACAD_REACTORS
330
C
102
}
330
C
100
AcDbDictionary
281
     1
  3
Standard
350
60
  0
DICTIONARY
  5
61
102
{ACAD_REACTORS
330
C
102
}
330
C
100
AcDbDictionary
281
     1
  0
ACDBDICTIONARYWDFLT
  5
E
102
{ACAD_REACTORS
330
C
102
}
330
C
100
AcDbDictionary
281
     1
  3
Normal
350
F
100
AcDbDictionaryWithDefault
340
F
  0
DICTIONARY
  5
42
102
{ACAD_REACTORS
330
C
102
}
330
C
100
AcDbDictionary
281
     1
  3
A0
350
43
  3
A1
350
44
  3
A2
350
45
  3
A3
350
46
  3
A4
350
47
  3
A5
350
48
  3
A6
350
49
  3
A7
350
4A
  3
A8
350
4B
  3
A9
350
4C
  3
B0
350
4D
  3
B1
350
4E
  3
B2
350
4F
  3
B3
350
50
  3
B4
350
51
  3
B5
350
52
  3
B6
350
53
  0
DICTIONARY
  5
68
102
{ACAD_REACTORS
330
C
102
}
330
C
100
AcDbDictionary
281
     1
  3
Imperial24
350
69
  0
DICTIONARY
  5
64
102
{ACAD_REACTORS
330
C
102
}
330
C
100
AcDbDictionary
281
     1
  3
Standard
350
65
  0
DICTIONARY
  5
29
102
{ACAD_REACTORS
330
C
102
}
330
C
100
AcDbDictionary
281
     1
  3
2dWireframe
350
2F
  3
Basic
350
2E
  3
Brighten
350
35
  3
ColorChange
350
39
  3
Conceptual
350
32
  3
Dim
350
34
  3
EdgeColorOff
350
41
  3
Facepattern
350
38
  3
Flat
350
2A
  3
FlatWithEdges
350
2B
  3
Gouraud
350
2C
  3
GouraudWithEdges
350
2D
  3
Hidden
350
31
  3
JitterOff
350
3F
  3
Linepattern
350
37
  3
OverhangOff
350
40
  3
Realistic
350
33
  3
Shaded
350
3E
  3
Shaded with edges
350
3D
  3
Shades of Gray
350
3A
  3
Sketchy
350
3B
  3
Thicken
350
36
  3
Wireframe
350
30
  3
X-Ray
350
3C
  0
XRECORD
  5
34B
102
{ACAD_REACTORS
330
C
102
}
330
C
100
AcDbXrecord
280
     1
 90
        1
330
65
  0
DICTIONARY
  5
343
102
{ACAD_REACTORS
330
C
102
}
330
C
100
AcDbDictionary
281
     1
  3
CANNOSCALE
350
348
  3
CMLEADERSTYLE
350
345
  3
CTABLESTYLE
350
344
  3
CVIEWDETAILSTYLE
350
346
  3
CVIEWSECTIONSTYLE
350
347
  0
ACDBDETAILVIEWSTYLE
  5
6B
102
{ACAD_REACTORS
330
6A
102
}
330
6A
100
AcDbModelDocViewStyle
 70
     0
  3
Imperial24
290
     1
300
Imperial24
 90
        0
100
AcDbDetailViewStyle
 70
     0
 71
     0
 90
        3
 71
     1
340
55
 62
   256
 40
0.24
340
0
 62
   256
 40
0.24
300

 40
0.36
280
     3
 71
     2
340
5D
 90
       25
 62
   256
 71
     3
340
55
 62
   256
 40
0.24
 90
        1
 40
0.75
 90
        1
300
%<\AcVar ViewType \f "%tc1">% %<\AcVar ViewDetailId>%\PSCALE %<\AcVar ViewScale \f "%sn">%
 71
     4
340
5D
 90
       25
 62
   256
340
5D
 90
       25
 62
   256
280
     0
  0
LAYOUT
  5
6F
102
{ACAD_REACTORS
330
62
102
}
330
62
100
AcDbPlotSettings
  1

  2

  4

  6

 40
0.0
 41
0.0
 42
0.0
 43
0.0
 44
0.0
 45
0.0
 46
0.0
 47
0.0
 48
0.0
 49
0.0
140
0.0
141
0.0
142
1.0
143
1.0
 70
   688
 72
     0
 73
     0
 74
     5
  7

 75
    16
147
1.0
 76
     0
 77
     2
 78
   300
148
0.0
149
0.0
100
AcDbLayout
  1
Layout1
 70
     1
 71
     1
 10
0.0
 20
0.0
 11
12.0
 21
9.0
 12
0.0
 22
0.0
 32
0.0
 14
0.0
 24
0.0
 34
0.0
 15
0.0
 25
0.0
 35
0.0
146
0.0
 13
0.0
 23
0.0
 33
0.0
 16
1.0
 26
0.0
 36
0.0
 17
0.0
 27
1.0
 37
0.0
 76
     0
330
6C
  0
LAYOUT
  5
77
102
{ACAD_REACTORS
330
62
102
}
330
62
100
AcDbPlotSettings
  1

  2

  4

  6

 40
0.0
 41
0.0
 42
0.0
 43
0.0
 44
0.0
 45
0.0
 46
0.0
 47
0.0
 48
0.0
 49
0.0
140
0.0
141
0.0
142
1.0
143
1.0
 70
   688
 72
     0
 73
     0
 74
     5
  7

 75
    16
147
1.0
 76
     0
 77
     2
 78
   300
148
0.0
149
0.0
100
AcDbLayout
  1
Layout2
 70
     1
 71
     2
 10
0.0
 20
0.0
 11
12.0
 21
9.0
 12
0.0
 22
0.0
 32
0.0
 14
0.0
 24
0.0
 34
0.0
 15
0.0
 25
0.0
 35
0.0
146
0.0
 13
0.0
 23
0.0
 33
0.0
 16
1.0
 26
0.0
 36
0.0
 17
0.0
 27
1.0
 37
0.0
 76
     0
330
74
  0
LAYOUT
  5
73
102
{ACAD_REACTORS
330
62
102
}
330
62
100
AcDbPlotSettings
  1

  2

  4

  6

 40
0.0
 41
0.0
 42
0.0
 43
0.0
 44
0.0
 45
0.0
 46
0.0
 47
0.0
 48
0.0
 49
0.0
140
0.0
141
0.0
142
1.0
143
1.0
 70
  1712
 72
     0
 73
     0
 74
     0
  7

 75
     0
147
1.0
 76
     0
 77
     2
 78
   300
148
0.0
149
0.0
100
AcDbLayout
  1
Model
 70
     1
 71
     0
 10
0.0
 20
0.0
 11
12.0
 21
9.0
 12
0.0
 22
0.0
 32
0.0
 14
0.0
 24
0.0
 34
0.0
 15
0.0
 25
0.0
 35
0.0
146
0.0
 13
0.0
 23
0.0
 33
0.0
 16
1.0
 26
0.0
 36
0.0
 17
0.0
 27
1.0
 37
0.0
 76
     0
330
70
  0
MATERIAL
  5
19
102
{ACAD_XDICTIONARY
360
1A
102
}
102
{ACAD_REACTORS
330
10
102
}
330
10
100
AcDbMaterial
  1
ByBlock
 72
     0
 43
0.0208333333333333
 43
0.0
 43
0.0
 43
0.0
 43
0.0
 43
0.0208333333333333
 43
0.0
 43
0.0
 43
0.0
 43
0.0
 43
1.0
 43
0.0
 43
0.0
 43
0.0
 43
0.0
 43
1.0
 77
     0
 47
0.0208333333333333
 47
0.0
 47
0.0
 47
0.0
 47
0.0
 47
0.0208333333333333
 47
0.0
 47
0.0
 47
0.0
 47
0.0
 47
1.0
 47
0.0
 47
0.0
 47
0.0
 47
0.0
 47
1.0
171
     0
 49
0.0208333333333333
 49
0.0
 49
0.0
 49
0.0
 49
0.0
 49
0.0208333333333333
 49
0.0
 49
0.0
 49
0.0
 49
0.0
 49
1.0
 49
0.0
 49
0.0
 49
0.0
 49
0.0
 49
1.0
175
     0
142
0.0208333333333333
142
0.0
142
0.0
142
0.0
142
0.0
142
0.0208333333333333
142
0.0
142
0.0
142
0.0
142
0.0
142
1.0
142
0.0
142
0.0
142
0.0
142
0.0
142
1.0
179
     0
144
0.0208333333333333
144
0.0
144
0.0
144
0.0
144
0.0
144
0.0208333333333333
144
0.0
144
0.0
144
0.0
144
0.0
144
1.0
144
0.0
144
0.0
144
0.0
144
0.0
144
1.0
147
0.0208333333333333
147
0.0
147
0.0
147
0.0
147
0.0
147
0.0208333333333333
147
0.0
147
0.0
147
0.0
147
0.0
147
1.0
147
0.0
147
0.0
147
0.0
147
0.0
147
1.0
  0
MATERIAL
  5
11
102
{ACAD_XDICTIONARY
360
12
102
}
102
{ACAD_REACTORS
330
10
102
}
330
10
100
AcDbMaterial
  1
ByLayer
 72
     0
 43
0.0208333333333333
 43
0.0
 43
0.0
 43
0.0
 43
0.0
 43
0.0208333333333333
 43
0.0
 43
0.0
 43
0.0
 43
0.0
 43
1.0
 43
0.0
 43
0.0
 43
0.0
 43
0.0
 43
1.0
 77
     0
 47
0.0208333333333333
 47
0.0
 47
0.0
 47
0.0
 47
0.0
 47
0.0208333333333333
 47
0.0
 47
0.0
 47
0.0
 47
0.0
 47
1.0
 47
0.0
 47
0.0
 47
0.0
 47
0.0
 47
1.0
171
     0
 49
0.0208333333333333
 49
0.0
 49
0.0
 49
0.0
 49
0.0
 49
0.0208333333333333
 49
0.0
 49
0.0
 49
0.0
 49
0.0
 49
1.0
 49
0.0
 49
0.0
 49
0.0
 49
0.0
 49
1.0
175
     0
142
0.0208333333333333
142
0.0
142
0.0
142
0.0
142
0.0
142
0.0208333333333333
142
0.0
142
0.0
142
0.0
142
0.0
142
1.0
142
0.0
142
0.0
142
0.0
142
0.0
142
1.0
179
     0
144
0.0208333333333333
144
0.0
144
0.0
144
0.0
144
0.0
144
0.0208333333333333
144
0.0
144
0.0
144
0.0
144
0.0
144
1.0
144
0.0
144
0.0
144
0.0
144
0.0
144
1.0
147
0.0208333333333333
147
0.0
147
0.0
147
0.0
147
0.0
147
0.0208333333333333
147
0.0
147
0.0
147
0.0
147
0.0
147
1.0
147
0.0
147
0.0
147
0.0
147
0.0
147
1.0
  0
MATERIAL
  5
21
102
{ACAD_XDICTIONARY
360
22
102
}
102
{ACAD_REACTORS
330
10
102
}
330
10
100
AcDbMaterial
  1
Global
 72
     0
 43
0.0208333333333333
 43
0.0
 43
0.0
 43
0.0
 43
0.0
 43
0.0208333333333333
 43
0.0
 43
0.0
 43
0.0
 43
0.0
 43
1.0
 43
0.0
 43
0.0
 43
0.0
 43
0.0
 43
1.0
 77
     0
 47
0.0208333333333333
 47
0.0
 47
0.0
 47
0.0
 47
0.0
 47
0.0208333333333333
 47
0.0
 47
0.0
 47
0.0
 47
0.0
 47
1.0
 47
0.0
 47
0.0
 47
0.0
 47
0.0
 47
1.0
171
     0
 49
0.0208333333333333
 49
0.0
 49
0.0
 49
0.0
 49
0.0
 49
0.0208333333333333
 49
0.0
 49
0.0
 49
0.0
 49
0.0
 49
1.0
 49
0.0
 49
0.0
 49
0.0
 49
0.0
 49
1.0
175
     0
142
0.0208333333333333
142
0.0
142
0.0
142
0.0
142
0.0
142
0.0208333333333333
142
0.0
142
0.0
142
0.0
142
0.0
142
1.0
142
0.0
142
0.0
142
0.0
142
0.0
142
1.0
179
     0
144
0.0208333333333333
144
0.0
144
0.0
144
0.0
144
0.0
144
0.0208333333333333
144
0.0
144
0.0
144
0.0
144
0.0
144
1.0
144
0.0
144
0.0
144
0.0
144
0.0
144
1.0
147
0.0208333333333333
147
0.0
147
0.0
147
0.0
147
0.0
147
0.0208333333333333
147
0.0
147
0.0
147
0.0
147
0.0
147
1.0
147
0.0
147
0.0
147
0.0
147
0.0
147
1.0
  0
MLEADERSTYLE
  5
67
102
{ACAD_REACTORS
330
66
102
}
330
66
100
AcDbMLeaderStyle
179
     2
170
     2
171
     1
172
     0
 90
        2
 40
0.0
 41
0.0
173
     1
 91
-1056964608
340
5B
 92
       -2
290
     1
 42
0.09
291
     1
 43
0.36
  3
Standard
 44
0.18
300

342
55
174
     1
178
     6
175
     1
176
     0
 93
-1056964608
 45
0.18
292
     0
297
     0
 46
0.18
 94
-1056964608
 47
1.0
 49
1.0
140
1.0
293
     1
141
0.0
294
     1
177
     0
142
1.0
295
     1
296
     0
143
0.125
271
     0
272
     9
273
     9
298
     1
  0
MLINESTYLE
  5
60
102
{ACAD_REACTORS
330
5F
102
}
330
5F
100
AcDbMlineStyle
  2
STANDARD
 70
     0
  3

 62
   256
 51
90.0
 52
90.0
 71
     2
 49
0.5
 62
   256
  6
BYLAYER
 49
-0.5
 62
   256
  6
BYLAYER
  0
ACDBPLACEHOLDER
  5
F
102
{ACAD_REACTORS
330
E
102
}
330
E
  0
SCALE
  5
43
102
{ACAD_REACTORS
330
42
102
}
330
42
100
AcDbScale
 70
     0
300
1:1
140
1.0
141
1.0
290
     1
  0
SCALE
  5
44
102
{ACAD_REACTORS
330
42
102
}
330
42
100
AcDbScale
 70
     0
300
1/128" = 1'-0"
140
0.0078125
141
12.0
290
     0
  0
SCALE
  5
45
102
{ACAD_REACTORS
330
42
102
}
330
42
100
AcDbScale
 70
     0
300
1/64" = 1'-0"
140
0.015625
141
12.0
290
     0
  0
SCALE
  5
46
102
{ACAD_REACTORS
330
42
102
}
330
42
100
AcDbScale
 70
     0
300
1/32" = 1'-0"
140
0.03125
141
12.0
290
     0
  0
SCALE
  5
47
102
{ACAD_REACTORS
330
42
102
}
330
42
100
AcDbScale
 70
     0
300
1/16" = 1'-0"
140
0.0625
141
12.0
290
     0
  0
SCALE
  5
48
102
{ACAD_REACTORS
330
42
102
}
330
42
100
AcDbScale
 70
     0
300
3/32" = 1'-0"
140
0.09375
141
12.0
290
     0
  0
SCALE
  5
49
102
{ACAD_REACTORS
330
42
102
}
330
42
100
AcDbScale
 70
     0
300
1/8" = 1'-0"
140
0.125
141
12.0
290
     0
  0
SCALE
  5
4A
102
{ACAD_REACTORS
330
42
102
}
330
42
100
AcDbScale
 70
     0
300
3/16" = 1'-0"
140
0.1875
141
12.0
290
     0
  0
SCALE
  5
4B
102
{ACAD_REACTORS
330
42
102
}
330
42
100
AcDbScale
 70
     0
300
1/4" = 1'-0"
140
0.25
141
12.0
290
     0
  0
SCALE
  5
4C
102
{ACAD_REACTORS
330
42
102
}
330
42
100
AcDbScale
 70
     0
300
3/8" = 1'-0"
140
0.375
141
12.0
290
     0
  0
SCALE
  5
4D
102
{ACAD_REACTORS
330
42
102
}
330
42
100
AcDbScale
 70
     0
300
1/2" = 1'-0"
140
0.5
141
12.0
290
     0
  0
SCALE
  5
4E
102
{ACAD_REACTORS
330
42
102
}
330
42
100
AcDbScale
 70
     0
300
3/4" = 1'-0"
140
0.75
141
12.0
290
     0
  0
SCALE
  5
4F
102
{ACAD_REACTORS
330
42
102
}
330
42
100
AcDbScale
 70
     0
300
1" = 1'-0"
140
1.0
141
12.0
290
     0
  0
SCALE
  5
50
102
{ACAD_REACTORS
330
42
102
}
330
42
100
AcDbScale
 70
     0
300
1-1/2" = 1'-0"
140
1.5
141
12.0
290
     0
  0
SCALE
  5
51
102
{ACAD_REACTORS
330
42
102
}
330
42
100
AcDbScale
 70
     0
300
3" = 1'-0"
140
3.0
141
12.0
290
     0
  0
SCALE
  5
52
102
{ACAD_REACTORS
330
42
102
}
330
42
100
AcDbScale
 70
     0
300
6" = 1'-0"
140
6.0
141
12.0
290
     0
  0
SCALE
  5
53
102
{ACAD_REACTORS
330
42
102
}
330
42
100
AcDbScale
 70
     0
300
1'-0" = 1'-0"
140
12.0
141
12.0
290
     0
  0
ACDBSECTIONVIEWSTYLE
  5
69
102
{ACAD_REACTORS
330
68
102
}
330
68
100
AcDbModelDocViewStyle
 70
     0
  3
Imperial24
290
     1
300
Imperial24
 90
        0
100
AcDbSectionViewStyle
 70
     0
 71
     0
 90
       78
 71
     1
340
55
 62
   256
 40
0.24
340
0
340
0
 62
   256
 40
0.24
300
I, O, Q, S, X, Z
 40
0.48
 90
        3
 40
0.18
 90
        1
 71
     2
340
5D
 90
       25
 62
   256
340
5D
 90
       50
 62
   256
 40
0.24
 40
0.0
 40
0.24
 71
     3
340
55
 62
   256
 40
0.24
 90
        1
 40
0.75
 90
        1
300
%<\AcVar ViewType \f "%tc1">% %<\AcVar ViewSectionStartId>%-%<\AcVar ViewSectionEndId>%\PSCALE %<\AcVar ViewScale \f "%sn">%
 71
     4
 62
   256
 62
   257
300
ANSI31
 40
1.0
 90
        0
290
     0
290
     0
 90
        6
 40
0.0
 40
1.570796326794896
 40
0.2617993877991494
 40
1.308996938995747
 40
-0.2617993877991494
 40
1.832595714594046
  0
TABLESTYLE
  5
65
102
{ACAD_XDICTIONARY
360
349
102
}
102
{ACAD_REACTORS
330
64
102
}
330
64
100
AcDbTableStyle
280
     0
  3
Standard
 70
     0
 71
     0
 40
0.06
 41
0.06
280
     0
281
     0
  7
Standard
140
0.18
170
     2
 62
     0
 63
     7
283
     0
 90
      512
 91
        0
  1

274
    -2
284
     1
 64
     0
275
    -2
285
     1
 65
     0
276
    -2
286
     1
 66
     0
277
    -2
287
     1
 67
     0
278
    -2
288
     1
 68
     0
279
    -2
289
     1
 69
     0
  7
Standard
140
0.25
170
     5
 62
     0
 63
     7
283
     0
 90
      512
 91
        0
  1

274
    -2
284
     1
 64
     0
275
    -2
285
     1
 65
     0
276
    -2
286
     1
 66
     0
277
    -2
287
     1
 67
     0
278
    -2
288
     1
 68
     0
279
    -2
289
     1
 69
     0
  7
Standard
140
0.18
170
     5
 62
     0
 63
     7
283
     0
 90
      512
 91
        0
  1

274
    -2
284
     1
 64
     0
275
    -2
285
     1
 65
     0
276
    -2
286
     1
 66
     0
277
    -2
287
     1
 67
     0
278
    -2
288
     1
 68
     0
279
    -2
289
     1
 69
     0
  0
VISUALSTYLE
  5
2F
102
{ACAD_REACTORS
330
29
102
}
330
29
100
AcDbVisualStyle
  2
2dWireframe
 70
     4
177
     3
291
     0
 70
    58
 90
        0
176
     1
 90
        2
176
     1
 90
        0
176
     1
 90
        0
176
     1
 40
0.6
176
     1
 40
30.0
176
     1
 62
     7
420
 16777215
176
     1
 90
        1
176
     1
 90
        4
176
     1
 62
     7
176
     1
 62
   257
176
     1
 90
        1
176
     1
 90
        1
176
     1
 40
1.0
176
     1
 90
        0
176
     1
 62
   257
176
     1
 40
1.0
176
     1
 90
        1
176
     1
 90
        6
176
     1
 90
        2
176
     1
 62
     7
176
     1
 90
        5
176
     1
 90
        0
176
     1
 90
        0
176
     1
290
     0
176
     1
 90
        1
176
     1
 40
0.0
176
     1
 90
        0
176
     1
290
     1
176
     1
290
     1
176
     1
290
     0
176
     1
290
     0
176
     1
290
     0
176
     1
290
     0
176
     1
290
     0
176
     1
290
     0
176
     1
290
     0
176
     1
 90
       50
176
     1
 40
0.0
176
     1
 40
1.0
176
     1
 90
        0
176
     1
 62
    18
420
        0
176
     1
 90
       50
176
     1
 90
        3
176
     1
 62
     5
420
      255
176
     1
290
     0
176
     1
 90
       50
176
     1
 90
       50
176
     1
 90
       50
176
     1
290
     0
176
     1
 90
       50
176
     1
 62
   256
176
     0
 40
1.0
176
     0
 90
        2
176
     1
  1
strokes_ogs.tif
176
     1
290
     0
176
     1
 40
1.0
176
     1
 40
1.0
176
     1
  0
VISUALSTYLE
  5
2E
102
{ACAD_REACTORS
330
29
102
}
330
29
100
AcDbVisualStyle
  2
Basic
 70
     7
177
     3
291
     1
 70
    58
 90
        1
176
     1
 90
        0
176
     1
 90
        1
176
     1
 90
        0
176
     1
 40
0.6
176
     1
 40
30.0
176
     1
 62
     7
420
 16777215
176
     1
 90
        0
176
     1
 90
        4
176
     1
 62
     7
176
     1
 62
   257
176
     1
 90
        1
176
     1
 90
        1
176
     1
 40
1.0
176
     1
 90
        8
176
     1
 62
     7
176
     1
 40
1.0
176
     1
 90
        1
176
     1
 90
        6
176
     1
 90
        2
176
     1
 62
     7
176
     1
 90
        5
176
     1
 90
        0
176
     1
 90
        0
176
     1
290
     0
176
     1
 90
        1
176
     1
 40
0.0
176
     1
 90
        0
176
     1
290
     0
176
     1
290
     1
176
     1
290
     1
176
     1
290
     0
176
     1
290
     0
176
     1
290
     0
176
     1
290
     0
176
     1
290
     0
176
     1
290
     0
176
     1
 90
       50
176
     1
 40
0.0
176
     1
 40
1.0
176
     1
 90
        0
176
     1
 62
    18
420
        0
176
     1
 90
       50
176
     1
 90
        3
176
     1
 62
     5
420
      255
176
     1
290
     0
176
     1
 90
       50
176
     1
 90
       50
176
     1
 90
       50
176
     1
290
     0
176
     1
 90
       50
176
     1
 62
   256
176
     0
 40
1.0
176
     0
 90
        2
176
     1
  1
strokes_ogs.tif
176
     1
290
     0
176
     1
 40
1.0
176
     1
 40
1.0
176
     1
  0
VISUALSTYLE
  5
35
102
{ACAD_REACTORS
330
29
102
}
330
29
100
AcDbVisualStyle
  2
Brighten
 70
    12
177
     3
291
     1
 70
    58
 90
        2
176
     1
 90
        2
176
     1
 90
        0
176
     1
 90
        0
176
     1
 40
0.6
176
     1
 40
30.0
176
     1
 62
     7
420
 16777215
176
     1
 90
        1
176
     1
 90
        4
176
     1
 62
     7
176
     1
 62
   257
176
     1
 90
        1
176
     1
 90
        1
176
     1
 40
1.0
176
     1
 90
        8
176
     1
 62
     7
176
     1
 40
1.0
176
     1
 90
        1
176
     1
 90
        6
176
     1
 90
        2
176
     1
 62
     7
176
     1
 90
        5
176
     1
 90
        0
176
     1
 90
        0
176
     1
290
     0
176
     1
 90
        1
176
     1
 40
50.0
176
     1
 90
        0
176
     1
290
     0
176
     1
290
     1
176
     1
290
     1
176
     1
290
     0
176
     1
290
     0
176
     1
290
     0
176
     1
290
     0
176
     1
290
     0
176
     1
290
     0
176
     1
 90
       50
176
     1
 40
0.0
176
     1
 40
1.0
176
     1
 90
        0
176
     1
 62
    18
420
        0
176
     1
 90
       50
176
     1
 90
        3
176
     1
 62
     5
420
      255
176
     1
290
     0
176
     1
 90
       50
176
     1
 90
       50
176
     1
 90
       50
176
     1
290
     0
176
     1
 90
       50
176
     1
 62
   256
176
     0
 40
1.0
176
     0
 90
        2
176
     1
  1
strokes_ogs.tif
176
     1
290
     0
176
     1
 40
1.0
176
     1
 40
1.0
176
     1
  0
VISUALSTYLE
  5
39
102
{ACAD_REACTORS
330
29
102
}
330
29
100
AcDbVisualStyle
  2
ColorChange
 70
    16
177
     3
291
     1
 70
    58
 90
        2
176
     1
 90
        2
176
     1
 90
        3
176
     1
 90
        0
176
     1
 40
0.6
176
     1
 40
30.0
176
     1
 62
     8
420
  8421504
176
     1
 90
        1
176
     1
 90
        4
176
     1
 62
     7
176
     1
 62
   257
176
     1
 90
        1
176
     1
 90
        1
176
     1
 40
1.0
176
     1
 90
        8
176
     1
 62
     8
420
  8421504
176
     1
 40
1.0
176
     1
 90
        1
176
     1
 90
        6
176
     1
 90
        2
176
     1
 62
     7
176
     1
 90
        5
176
     1
 90
        0
176
     1
 90
        0
176
     1
290
     0
176
     1
 90
        1
176
     1
 40
0.0
176
     1
 90
        0
176
     1
290
     0
176
     1
290
     1
176
     1
290
     1
176
     1
290
     0
176
     1
290
     0
176
     1
290
     0
176
     1
290
     0
176
     1
290
     0
176
     1
290
     0
176
     1
 90
       50
176
     1
 40
0.0
176
     1
 40
1.0
176
     1
 90
        0
176
     1
 62
    18
420
        0
176
     1
 90
       50
176
     1
 90
        3
176
     1
 62
     5
420
      255
176
     1
290
     0
176
     1
 90
       50
176
     1
 90
       50
176
     1
 90
       50
176
     1
290
     0
176
     1
 90
       50
176
     1
 62
   256
176
     0
 40
1.0
176
     0
 90
        2
176
     1
  1
strokes_ogs.tif
176
     1
290
     0
176
     1
 40
1.0
176
     1
 40
1.0
176
     1
  0
VISUALSTYLE
  5
32
102
{ACAD_REACTORS
330
29
102
}
330
29
100
AcDbVisualStyle
  2
Conceptual
 70
     9
177
     3
291
     0
 70
    58
 90
        3
176
     1
 90
        2
176
     1
 90
        0
176
     1
 90
        0
176
     1
 40
0.6
176
     1
 40
30.0
176
     1
 62
     7
420
 16777215
176
     1
 90
        2
176
     1
 90
        2
176
     1
 62
     7
176
     1
 62
   257
176
     1
 90
        1
176
     1
 90
        1
176
     1
 40
179.0
176
     1
 90
        8
176
     1
 62
     7
176
     1
 40
1.0
176
     1
 90
        1
176
     1
 90
        6
176
     1
 90
        2
176
     1
 62
     7
176
     1
 90
        3
176
     1
 90
        0
176
     1
 90
        0
176
     1
290
     0
176
     1
 90
        1
176
     1
 40
0.0
176
     1
 90
        0
176
     1
290
     0
176
     1
290
     1
176
     1
290
     1
176
     1
290
     0
176
     1
290
     0
176
     1
290
     0
176
     1
290
     0
176
     1
290
     0
176
     1
290
     0
176
     1
 90
       50
176
     1
 40
0.0
176
     1
 40
1.0
176
     1
 90
        0
176
     1
 62
    18
420
        0
176
     1
 90
       50
176
     1
 90
        3
176
     1
 62
     5
420
      255
176
     1
290
     0
176
     1
 90
       50
176
     1
 90
       50
176
     1
 90
       50
176
     1
290
     0
176
     1
 90
       50
176
     1
 62
   256
176
     0
 40
1.0
176
     0
 90
        2
176
     1
  1
strokes_ogs.tif
176
     1
290
     0
176
     1
 40
1.0
176
     1
 40
1.0
176
     1
  0
VISUALSTYLE
  5
34
102
{ACAD_REACTORS
330
29
102
}
330
29
100
AcDbVisualStyle
  2
Dim
 70
    11
177
     3
291
     1
 70
    58
 90
        2
176
     1
 90
        2
176
     1
 90
        0
176
     1
 90
        0
176
     1
 40
0.6
176
     1
 40
30.0
176
     1
 62
     7
420
 16777215
176
     1
 90
        1
176
     1
 90
        4
176
     1
 62
     7
176
     1
 62
   257
176
     1
 90
        1
176
     1
 90
        1
176
     1
 40
1.0
176
     1
 90
        8
176
     1
 62
     7
176
     1
 40
1.0
176
     1
 90
        1
176
     1
 90
        6
176
     1
 90
        2
176
     1
 62
     7
176
     1
 90
        5
176
     1
 90
        0
176
     1
 90
        0
176
     1
290
     0
176
     1
 90
        1
176
     1
 40
-50.0
176
     1
 90
        0
176
     1
290
     0
176
     1
290
     1
176
     1
290
     1
176
     1
290
     0
176
     1
290
     0
176
     1
290
     0
176
     1
290
     0
176
     1
290
     0
176
     1
290
     0
176
     1
 90
       50
176
     1
 40
0.0
176
     1
 40
1.0
176
     1
 90
        0
176
     1
 62
    18
420
        0
176
     1
 90
       50
176
     1
 90
        3
176
     1
 62
     5
420
      255
176
     1
290
     0
176
     1
 90
       50
176
     1
 90
       50
176
     1
 90
       50
176
     1
290
     0
176
     1
 90
       50
176
     1
 62
   256
176
     0
 40
1.0
176
     0
 90
        2
176
     1
  1
strokes_ogs.tif
176
     1
290
     0
176
     1
 40
1.0
176
     1
 40
1.0
176
     1
  0
VISUALSTYLE
  5
41
102
{ACAD_REACTORS
330
29
102
}
330
29
100
AcDbVisualStyle
  2
EdgeColorOff
 70
    22
177
     3
291
     1
 70
    58
 90
        2
176
     0
 90
        2
176
     0
 90
        0
176
     0
 90
        0
176
     0
 40
0.6
176
     0
 40
30.0
176
     0
 62
     7
420
 16777215
176
     0
 90
        1
176
     0
 90
        4
176
     0
 62
     7
176
     0
 62
   257
176
     0
 90
        1
176
     0
 90
        1
176
     0
 40
1.0
176
     0
 90
        8
176
     2
 62
     7
176
     0
 40
1.0
176
     0
 90
        1
176
     0
 90
        6
176
     0
 90
        2
176
     0
 62
     7
176
     0
 90
        5
176
     0
 90
        0
176
     0
 90
        0
176
     0
290
     0
176
     0
 90
        1
176
     0
 40
0.0
176
     0
 90
        0
176
     0
290
     0
176
     0
290
     1
176
     0
290
     1
176
     0
290
     0
176
     0
290
     0
176
     0
290
     0
176
     0
290
     0
176
     0
290
     0
176
     0
290
     0
176
     0
 90
       50
176
     0
 40
0.0
176
     0
 40
1.0
176
     0
 90
        0
176
     0
 62
    18
420
        0
176
     0
 90
       50
176
     0
 90
        3
176
     0
 62
     5
420
      255
176
     0
290
     0
176
     0
 90
       50
176
     0
 90
       50
176
     0
 90
       50
176
     0
290
     0
176
     0
 90
       50
176
     0
 62
   256
176
     0
 40
1.0
176
     0
 90
        2
176
     0
  1
strokes_ogs.tif
176
     0
290
     0
176
     0
 40
1.0
176
     0
 40
1.0
176
     0
  0
VISUALSTYLE
  5
38
102
{ACAD_REACTORS
330
29
102
}
330
29
100
AcDbVisualStyle
  2
Facepattern
 70
    15
177
     3
291
     1
 70
    58
 90
        2
176
     1
 90
        2
176
     1
 90
        0
176
     1
 90
        0
176
     1
 40
0.6
176
     1
 40
30.0
176
     1
 62
     7
420
 16777215
176
     1
 90
        1
176
     1
 90
        4
176
     1
 62
     7
176
     1
 62
   257
176
     1
 90
        1
176
     1
 90
        1
176
     1
 40
1.0
176
     1
 90
        8
176
     1
 62
     7
176
     1
 40
1.0
176
     1
 90
        1
176
     1
 90
        6
176
     1
 90
        2
176
     1
 62
     7
176
     1
 90
        5
176
     1
 90
        0
176
     1
 90
        0
176
     1
290
     0
176
     1
 90
        1
176
     1
 40
0.0
176
     1
 90
        0
176
     1
290
     0
176
     1
290
     1
176
     1
290
     1
176
     1
290
     0
176
     1
290
     0
176
     1
290
     0
176
     1
290
     0
176
     1
290
     0
176
     1
290
     0
176
     1
 90
       50
176
     1
 40
0.0
176
     1
 40
1.0
176
     1
 90
        0
176
     1
 62
    18
420
        0
176
     1
 90
       50
176
     1
 90
        3
176
     1
 62
     5
420
      255
176
     1
290
     0
176
     1
 90
       50
176
     1
 90
       50
176
     1
 90
       50
176
     1
290
     0
176
     1
 90
       50
176
     1
 62
   256
176
     0
 40
1.0
176
     0
 90
        2
176
     1
  1
strokes_ogs.tif
176
     1
290
     0
176
     1
 40
1.0
176
     1
 40
1.0
176
     1
  0
VISUALSTYLE
  5
2A
102
{ACAD_REACTORS
330
29
102
}
330
29
100
AcDbVisualStyle
  2
Flat
 70
     0
177
     3
291
     1
 70
    58
 90
        2
176
     1
 90
        1
176
     1
 90
        1
176
     1
 90
        2
176
     1
 40
0.6
176
     1
 40
30.0
176
     1
 62
     7
420
 16777215
176
     1
 90
        0
176
     1
 90
        0
176
     1
 62
     7
176
     1
 62
   257
176
     1
 90
        1
176
     1
 90
        1
176
     1
 40
1.0
176
     1
 90
        8
176
     1
 62
     7
176
     1
 40
1.0
176
     1
 90
        1
176
     1
 90
        6
176
     1
 90
        2
176
     1
 62
     7
176
     1
 90
        5
176
     1
 90
        0
176
     1
 90
        0
176
     1
290
     0
176
     1
 90
       13
176
     1
 40
0.0
176
     1
 90
        0
176
     1
290
     0
176
     1
290
     1
176
     1
290
     1
176
     1
290
     0
176
     1
290
     0
176
     1
290
     0
176
     1
290
     0
176
     1
290
     0
176
     1
290
     0
176
     1
 90
       50
176
     1
 40
0.0
176
     1
 40
1.0
176
     1
 90
        0
176
     1
 62
    18
420
        0
176
     1
 90
       50
176
     1
 90
        3
176
     1
 62
     5
420
      255
176
     1
290
     0
176
     1
 90
       50
176
     1
 90
       50
176
     1
 90
       50
176
     1
290
     0
176
     1
 90
       50
176
     1
 62
   256
176
     0
 40
1.0
176
     0
 90
        2
176
     1
  1
strokes_ogs.tif
176
     1
290
     0
176
     1
 40
1.0
176
     1
 40
1.0
176
     1
  0
VISUALSTYLE
  5
2B
102
{ACAD_REACTORS
330
29
102
}
330
29
100
AcDbVisualStyle
  2
FlatWithEdges
 70
     1
177
     3
291
     1
 70
    58
 90
        2
176
     1
 90
        1
176
     1
 90
        1
176
     1
 90
        2
176
     1
 40
0.6
176
     1
 40
30.0
176
     1
 62
     7
420
 16777215
176
     1
 90
        1
176
     1
 90
        0
176
     1
 62
     7
176
     1
 62
   257
176
     1
 90
        1
176
     1
 90
        1
176
     1
 40
1.0
176
     1
 90
        0
176
     1
 62
   257
176
     1
 40
1.0
176
     1
 90
        1
176
     1
 90
        6
176
     1
 90
        2
176
     1
 62
     7
176
     1
 90
        5
176
     1
 90
        0
176
     1
 90
        0
176
     1
290
     0
176
     1
 90
       13
176
     1
 40
0.0
176
     1
 90
        0
176
     1
290
     0
176
     1
290
     1
176
     1
290
     1
176
     1
290
     0
176
     1
290
     0
176
     1
290
     0
176
     1
290
     0
176
     1
290
     0
176
     1
290
     0
176
     1
 90
       50
176
     1
 40
0.0
176
     1
 40
1.0
176
     1
 90
        0
176
     1
 62
    18
420
        0
176
     1
 90
       50
176
     1
 90
        3
176
     1
 62
     5
420
      255
176
     1
290
     0
176
     1
 90
       50
176
     1
 90
       50
176
     1
 90
       50
176
     1
290
     0
176
     1
 90
       50
176
     1
 62
   256
176
     0
 40
1.0
176
     0
 90
        2
176
     1
  1
strokes_ogs.tif
176
     1
290
     0
176
     1
 40
1.0
176
     1
 40
1.0
176
     1
  0
VISUALSTYLE
  5
2C
102
{ACAD_REACTORS
330
29
102
}
330
29
100
AcDbVisualStyle
  2
Gouraud
 70
     2
177
     3
291
     1
 70
    58
 90
        2
176
     1
 90
        2
176
     1
 90
        1
176
     1
 90
        2
176
     1
 40
0.6
176
     1
 40
30.0
176
     1
 62
     7
420
 16777215
176
     1
 90
        0
176
     1
 90
        0
176
     1
 62
     7
176
     1
 62
   257
176
     1
 90
        1
176
     1
 90
        1
176
     1
 40
1.0
176
     1
 90
        0
176
     1
 62
     7
176
     1
 40
1.0
176
     1
 90
        1
176
     1
 90
        6
176
     1
 90
        2
176
     1
 62
     7
176
     1
 90
        5
176
     1
 90
        0
176
     1
 90
        0
176
     1
290
     0
176
     1
 90
       13
176
     1
 40
0.0
176
     1
 90
        0
176
     1
290
     0
176
     1
290
     1
176
     1
290
     1
176
     1
290
     0
176
     1
290
     0
176
     1
290
     0
176
     1
290
     0
176
     1
290
     0
176
     1
290
     0
176
     1
 90
       50
176
     1
 40
0.0
176
     1
 40
1.0
176
     1
 90
        0
176
     1
 62
    18
420
        0
176
     1
 90
       50
176
     1
 90
        3
176
     1
 62
     5
420
      255
176
     1
290
     0
176
     1
 90
       50
176
     1
 90
       50
176
     1
 90
       50
176
     1
290
     0
176
     1
 90
       50
176
     1
 62
   256
176
     0
 40
1.0
176
     0
 90
        2
176
     1
  1
strokes_ogs.tif
176
     1
290
     0
176
     1
 40
1.0
176
     1
 40
1.0
176
     1
  0
VISUALSTYLE
  5
2D
102
{ACAD_REACTORS
330
29
102
}
330
29
100
AcDbVisualStyle
  2
GouraudWithEdges
 70
     3
177
     3
291
     1
 70
    58
 90
        2
176
     1
 90
        2
176
     1
 90
        1
176
     1
 90
        2
176
     1
 40
0.6
176
     1
 40
30.0
176
     1
 62
     7
420
 16777215
176
     1
 90
        1
176
     1
 90
        0
176
     1
 62
     7
176
     1
 62
   257
176
     1
 90
        1
176
     1
 90
        1
176
     1
 40
1.0
176
     1
 90
        0
176
     1
 62
   257
176
     1
 40
1.0
176
     1
 90
        1
176
     1
 90
        6
176
     1
 90
        2
176
     1
 62
     7
176
     1
 90
        5
176
     1
 90
        0
176
     1
 90
        0
176
     1
290
     0
176
     1
 90
       13
176
     1
 40
0.0
176
     1
 90
        0
176
     1
290
     0
176
     1
290
     1
176
     1
290
     1
176
     1
290
     0
176
     1
290
     0
176
     1
290
     0
176
     1
290
     0
176
     1
290
     0
176
     1
290
     0
176
     1
 90
       50
176
     1
 40
0.0
176
     1
 40
1.0
176
     1
 90
        0
176
     1
 62
    18
420
        0
176
     1
 90
       50
176
     1
 90
        3
176
     1
 62
     5
420
      255
176
     1
290
     0
176
     1
 90
       50
176
     1
 90
       50
176
     1
 90
       50
176
     1
290
     0
176
     1
 90
       50
176
     1
 62
   256
176
     0
 40
1.0
176
     0
 90
        2
176
     1
  1
strokes_ogs.tif
176
     1
290
     0
176
     1
 40
1.0
176
     1
 40
1.0
176
     1
  0
VISUALSTYLE
  5
31
102
{ACAD_REACTORS
330
29
102
}
330
29
100
AcDbVisualStyle
  2
Hidden
 70
     6
177
     3
291
     0
 70
    58
 90
        1
176
     1
 90
        2
176
     1
 90
        2
176
     1
 90
        0
176
     1
 40
0.6
176
     1
 40
30.0
176
     1
 62
     7
420
 16777215
176
     1
 90
        2
176
     1
 90
        2
176
     1
 62
     7
176
     1
 62
   257
176
     1
 90
        2
176
     1
 90
        1
176
     1
 40
40.0
176
     1
 90
        0
176
     1
 62
   257
176
     1
 40
1.0
176
     1
 90
        1
176
     1
 90
        6
176
     1
 90
        2
176
     1
 62
     7
176
     1
 90
        3
176
     1
 90
        0
176
     1
 90
        0
176
     1
290
     0
176
     1
 90
        1
176
     1
 40
0.0
176
     1
 90
        0
176
     1
290
     0
176
     1
290
     1
176
     1
290
     1
176
     1
290
     0
176
     1
290
     0
176
     1
290
     0
176
     1
290
     0
176
     1
290
     0
176
     1
290
     0
176
     1
 90
       50
176
     1
 40
0.0
176
     1
 40
1.0
176
     1
 90
        0
176
     1
 62
    18
420
        0
176
     1
 90
       50
176
     1
 90
        3
176
     1
 62
     5
420
      255
176
     1
290
     0
176
     1
 90
       50
176
     1
 90
       50
176
     1
 90
       50
176
     1
290
     0
176
     1
 90
       50
176
     1
 62
   256
176
     0
 40
1.0
176
     0
 90
        2
176
     1
  1
strokes_ogs.tif
176
     1
290
     0
176
     1
 40
1.0
176
     1
 40
1.0
176
     1
  0
VISUALSTYLE
  5
3F
102
{ACAD_REACTORS
330
29
102
}
330
29
100
AcDbVisualStyle
  2
JitterOff
 70
    20
177
     3
291
     1
 70
    58
 90
        2
176
     0
 90
        2
176
     0
 90
        0
176
     0
 90
        0
176
     0
 40
0.6
176
     0
 40
30.0
176
     0
 62
     7
420
 16777215
176
     0
 90
        1
176
     0
 90
        4
176
     0
 62
     7
176
     0
 62
   257
176
     0
 90
        1
176
     0
 90
        1
176
     0
 40
1.0
176
     0
 90
       10
176
     2
 62
     7
176
     0
 40
1.0
176
     0
 90
        1
176
     0
 90
        6
176
     0
 90
        2
176
     0
 62
     7
176
     0
 90
        5
176
     0
 90
        0
176
     0
 90
        0
176
     0
290
     0
176
     0
 90
        1
176
     0
 40
0.0
176
     0
 90
        0
176
     0
290
     0
176
     0
290
     1
176
     0
290
     1
176
     0
290
     0
176
     0
290
     0
176
     0
290
     0
176
     0
290
     0
176
     0
290
     0
176
     0
290
     0
176
     0
 90
       50
176
     0
 40
0.0
176
     0
 40
1.0
176
     0
 90
        0
176
     0
 62
    18
420
        0
176
     0
 90
       50
176
     0
 90
        3
176
     0
 62
     5
420
      255
176
     0
290
     0
176
     0
 90
       50
176
     0
 90
       50
176
     0
 90
       50
176
     0
290
     0
176
     0
 90
       50
176
     0
 62
   256
176
     0
 40
1.0
176
     0
 90
        2
176
     0
  1
strokes_ogs.tif
176
     0
290
     0
176
     0
 40
1.0
176
     0
 40
1.0
176
     0
  0
VISUALSTYLE
  5
37
102
{ACAD_REACTORS
330
29
102
}
330
29
100
AcDbVisualStyle
  2
Linepattern
 70
    14
177
     3
291
     1
 70
    58
 90
        2
176
     1
 90
        2
176
     1
 90
        0
176
     1
 90
        0
176
     1
 40
0.6
176
     1
 40
30.0
176
     1
 62
     7
420
 16777215
176
     1
 90
        1
176
     1
 90
        4
176
     1
 62
     7
176
     1
 62
   257
176
     1
 90
        7
176
     1
 90
        7
176
     1
 40
1.0
176
     1
 90
        8
176
     1
 62
     7
176
     1
 40
1.0
176
     1
 90
        1
176
     1
 90
        6
176
     1
 90
        2
176
     1
 62
     7
176
     1
 90
        5
176
     1
 90
        0
176
     1
 90
        0
176
     1
290
     0
176
     1
 90
        1
176
     1
 40
0.0
176
     1
 90
        0
176
     1
290
     0
176
     1
290
     1
176
     1
290
     1
176
     1
290
     0
176
     1
290
     0
176
     1
290
     0
176
     1
290
     0
176
     1
290
     0
176
     1
290
     0
176
     1
 90
       50
176
     1
 40
0.0
176
     1
 40
1.0
176
     1
 90
        0
176
     1
 62
    18
420
        0
176
     1
 90
       50
176
     1
 90
        3
176
     1
 62
     5
420
      255
176
     1
290
     0
176
     1
 90
       50
176
     1
 90
       50
176
     1
 90
       50
176
     1
290
     0
176
     1
 90
       50
176
     1
 62
   256
176
     0
 40
1.0
176
     0
 90
        2
176
     1
  1
strokes_ogs.tif
176
     1
290
     0
176
     1
 40
1.0
176
     1
 40
1.0
176
     1
  0
VISUALSTYLE
  5
40
102
{ACAD_REACTORS
330
29
102
}
330
29
100
AcDbVisualStyle
  2
OverhangOff
 70
    21
177
     3
291
     1
 70
    58
 90
        2
176
     0
 90
        2
176
     0
 90
        0
176
     0
 90
        0
176
     0
 40
0.6
176
     0
 40
30.0
176
     0
 62
     7
420
 16777215
176
     0
 90
        1
176
     0
 90
        4
176
     0
 62
     7
176
     0
 62
   257
176
     0
 90
        1
176
     0
 90
        1
176
     0
 40
1.0
176
     0
 90
        9
176
     2
 62
     7
176
     0
 40
1.0
176
     0
 90
        1
176
     0
 90
        6
176
     0
 90
        2
176
     0
 62
     7
176
     0
 90
        5
176
     0
 90
        0
176
     0
 90
        0
176
     0
290
     0
176
     0
 90
        1
176
     0
 40
0.0
176
     0
 90
        0
176
     0
290
     0
176
     0
290
     1
176
     0
290
     1
176
     0
290
     0
176
     0
290
     0
176
     0
290
     0
176
     0
290
     0
176
     0
290
     0
176
     0
290
     0
176
     0
 90
       50
176
     0
 40
0.0
176
     0
 40
1.0
176
     0
 90
        0
176
     0
 62
    18
420
        0
176
     0
 90
       50
176
     0
 90
        3
176
     0
 62
     5
420
      255
176
     0
290
     0
176
     0
 90
       50
176
     0
 90
       50
176
     0
 90
       50
176
     0
290
     0
176
     0
 90
       50
176
     0
 62
   256
176
     0
 40
1.0
176
     0
 90
        2
176
     0
  1
strokes_ogs.tif
176
     0
290
     0
176
     0
 40
1.0
176
     0
 40
1.0
176
     0
  0
VISUALSTYLE
  5
33
102
{ACAD_REACTORS
330
29
102
}
330
29
100
AcDbVisualStyle
  2
Realistic
 70
     8
177
     3
291
     0
 70
    58
 90
        2
176
     1
 90
        3
176
     1
 90
        0
176
     1
 90
        2
176
     1
 40
0.6
176
     1
 40
30.0
176
     1
 62
     7
420
 16777215
176
     1
 90
        0
176
     1
 90
        0
176
     1
 62
     7
176
     1
 62
   257
176
     1
 90
        1
176
     1
 90
        1
176
     1
 40
1.0
176
     1
 90
        8
176
     1
 62
   257
176
     1
 40
1.0
176
     1
 90
        1
176
     1
 90
        6
176
     1
 90
        2
176
     1
 62
     7
176
     1
 90
        3
176
     1
 90
        0
176
     1
 90
        0
176
     1
290
     0
176
     1
 90
       13
176
     1
 40
0.0
176
     1
 90
        0
176
     1
290
     0
176
     1
290
     1
176
     1
290
     1
176
     1
290
     0
176
     1
290
     0
176
     1
290
     0
176
     1
290
     0
176
     1
290
     0
176
     1
290
     0
176
     1
 90
       50
176
     1
 40
0.0
176
     1
 40
1.0
176
     1
 90
        0
176
     1
 62
    18
420
        0
176
     1
 90
       50
176
     1
 90
        3
176
     1
 62
     5
420
      255
176
     1
290
     0
176
     1
 90
       50
176
     1
 90
       50
176
     1
 90
       50
176
     1
290
     0
176
     1
 90
       50
176
     1
 62
   256
176
     0
 40
1.0
176
     0
 90
        2
176
     1
  1
strokes_ogs.tif
176
     1
290
     0
176
     1
 40
1.0
176
     1
 40
1.0
176
     1
  0
VISUALSTYLE
  5
3E
102
{ACAD_REACTORS
330
29
102
}
330
29
100
AcDbVisualStyle
  2
Shaded
 70
    27
177
     3
291
     0
 70
    58
 90
        2
176
     1
 90
        2
176
     1
 90
        1
176
     1
 90
        2
176
     1
 40
0.6
176
     1
 40
30.0
176
     1
 62
     7
420
 16777215
176
     1
 90
        0
176
     1
 90
        4
176
     1
 62
     7
176
     1
 62
   257
176
     1
 90
        1
176
     1
 90
        1
176
     1
 40
1.0
176
     1
 90
        8
176
     1
 62
   257
176
     1
 40
1.0
176
     1
 90
        1
176
     1
 90
        6
176
     1
 90
        2
176
     1
 62
     8
420
  7895160
176
     1
 90
        3
176
     1
 90
        0
176
     1
 90
        0
176
     1
290
     0
176
     1
 90
        5
176
     1
 40
0.0
176
     1
 90
        0
176
     1
290
     0
176
     1
290
     1
176
     1
290
     1
176
     1
290
     0
176
     1
290
     0
176
     1
290
     0
176
     1
290
     0
176
     1
290
     0
176
     1
290
     0
176
     1
 90
       50
176
     1
 40
0.0
176
     1
 40
1.0
176
     1
 90
        0
176
     1
 62
    18
420
        0
176
     1
 90
       50
176
     1
 90
        3
176
     1
 62
     5
420
      255
176
     1
290
     0
176
     1
 90
       50
176
     1
 90
       50
176
     1
 90
       50
176
     1
290
     0
176
     1
 90
       50
176
     1
 62
   256
176
     0
 40
1.0
176
     0
 90
        2
176
     1
  1
strokes_ogs.tif
176
     1
290
     0
176
     1
 40
1.0
176
     1
 40
1.0
176
     1
  0
VISUALSTYLE
  5
3D
102
{ACAD_REACTORS
330
29
102
}
330
29
100
AcDbVisualStyle
  2
Shaded with edges
 70
    26
177
     3
291
     0
 70
    58
 90
        2
176
     1
 90
        2
176
     1
 90
        1
176
     1
 90
        2
176
     1
 40
0.6
176
     1
 40
30.0
176
     1
 62
     7
420
 16777215
176
     1
 90
        1
176
     1
 90
        2
176
     1
 62
     7
176
     1
 62
   257
176
     1
 90
        2
176
     1
 90
        1
176
     1
 40
1.0
176
     1
 90
        8
176
     1
 62
   257
176
     1
 40
1.0
176
     1
 90
        1
176
     1
 90
        6
176
     1
 90
        2
176
     1
 62
     7
176
     1
 90
        3
176
     1
 90
        0
176
     1
 90
        0
176
     1
290
     0
176
     1
 90
        5
176
     1
 40
0.0
176
     1
 90
        0
176
     1
290
     0
176
     1
290
     1
176
     1
290
     1
176
     1
290
     0
176
     1
290
     0
176
     1
290
     0
176
     1
290
     0
176
     1
290
     0
176
     1
290
     0
176
     1
 90
       50
176
     1
 40
0.0
176
     1
 40
1.0
176
     1
 90
        0
176
     1
 62
    18
420
        0
176
     1
 90
       50
176
     1
 90
        3
176
     1
 62
     5
420
      255
176
     1
290
     0
176
     1
 90
       50
176
     1
 90
       50
176
     1
 90
       50
176
     1
290
     0
176
     1
 90
       50
176
     1
 62
   256
176
     0
 40
1.0
176
     0
 90
        2
176
     1
  1
strokes_ogs.tif
176
     1
290
     0
176
     1
 40
1.0
176
     1
 40
1.0
176
     1
  0
VISUALSTYLE
  5
3A
102
{ACAD_REACTORS
330
29
102
}
330
29
100
AcDbVisualStyle
  2
Shades of Gray
 70
    23
177
     3
291
     0
 70
    58
 90
        2
176
     1
 90
        2
176
     1
 90
        3
176
     1
 90
        0
176
     1
 40
0.6
176
     1
 40
30.0
176
     1
 62
     7
420
 16777215
176
     1
 90
        2
176
     1
 90
        2
176
     1
 62
     7
176
     1
 62
     7
176
     1
 90
        1
176
     1
 90
        1
176
     1
 40
40.0
176
     1
 90
        8
176
     1
 62
     7
176
     1
 40
1.0
176
     1
 90
        1
176
     1
 90
        6
176
     1
 90
        2
176
     1
 62
     7
176
     1
 90
        3
176
     1
 90
        0
176
     1
 90
        0
176
     1
290
     0
176
     1
 90
        1
176
     1
 40
0.0
176
     1
 90
        0
176
     1
290
     0
176
     1
290
     1
176
     1
290
     1
176
     1
290
     0
176
     1
290
     0
176
     1
290
     0
176
     1
290
     0
176
     1
290
     0
176
     1
290
     0
176
     1
 90
       50
176
     1
 40
0.0
176
     1
 40
1.0
176
     1
 90
        0
176
     1
 62
    18
420
        0
176
     1
 90
       50
176
     1
 90
        3
176
     1
 62
     5
420
      255
176
     1
290
     0
176
     1
 90
       50
176
     1
 90
       50
176
     1
 90
       50
176
     1
290
     0
176
     1
 90
       50
176
     1
 62
   256
176
     0
 40
1.0
176
     0
 90
        2
176
     1
  1
strokes_ogs.tif
176
     1
290
     0
176
     1
 40
1.0
176
     1
 40
1.0
176
     1
  0
VISUALSTYLE
  5
3B
102
{ACAD_REACTORS
330
29
102
}
330
29
100
AcDbVisualStyle
  2
Sketchy
 70
    24
177
     3
291
     0
 70
    58
 90
        1
176
     1
 90
        2
176
     1
 90
        2
176
     1
 90
        0
176
     1
 40
0.6
176
     1
 40
30.0
176
     1
 62
     7
420
 16777215
176
     1
 90
        2
176
     1
 90
        2
176
     1
 62
     7
176
     1
 62
     7
176
     1
 90
        1
176
     1
 90
        1
176
     1
 40
40.0
176
     1
 90
       11
176
     1
 62
     7
176
     1
 40
1.0
176
     1
 90
        1
176
     1
 90
        6
176
     1
 90
        2
176
     1
 62
     7
176
     1
 90
        6
176
     1
 90
        0
176
     1
 90
        0
176
     1
290
     0
176
     1
 90
        1
176
     1
 40
0.0
176
     1
 90
        0
176
     1
290
     0
176
     1
290
     1
176
     1
290
     1
176
     1
290
     0
176
     1
290
     0
176
     1
290
     0
176
     1
290
     0
176
     1
290
     0
176
     1
290
     0
176
     1
 90
       50
176
     1
 40
0.0
176
     1
 40
1.0
176
     1
 90
        0
176
     1
 62
    18
420
        0
176
     1
 90
       50
176
     1
 90
        3
176
     1
 62
     5
420
      255
176
     1
290
     0
176
     1
 90
       50
176
     1
 90
       50
176
     1
 90
       50
176
     1
290
     0
176
     1
 90
       50
176
     1
 62
   256
176
     0
 40
1.0
176
     0
 90
        2
176
     1
  1
strokes_ogs.tif
176
     1
290
     0
176
     1
 40
1.0
176
     1
 40
1.0
176
     1
  0
VISUALSTYLE
  5
36
102
{ACAD_REACTORS
330
29
102
}
330
29
100
AcDbVisualStyle
  2
Thicken
 70
    13
177
     3
291
     1
 70
    58
 90
        2
176
     1
 90
        2
176
     1
 90
        0
176
     1
 90
        0
176
     1
 40
0.6
176
     1
 40
30.0
176
     1
 62
     7
420
 16777215
176
     1
 90
        1
176
     1
 90
        4
176
     1
 62
     7
176
     1
 62
   257
176
     1
 90
        1
176
     1
 90
        1
176
     1
 40
1.0
176
     1
 90
       12
176
     1
 62
     7
176
     1
 40
1.0
176
     1
 90
        1
176
     1
 90
        6
176
     1
 90
        2
176
     1
 62
     7
176
     1
 90
        5
176
     1
 90
        0
176
     1
 90
        0
176
     1
290
     0
176
     1
 90
        1
176
     1
 40
0.0
176
     1
 90
        0
176
     1
290
     0
176
     1
290
     1
176
     1
290
     1
176
     1
290
     0
176
     1
290
     0
176
     1
290
     0
176
     1
290
     0
176
     1
290
     0
176
     1
290
     0
176
     1
 90
       50
176
     1
 40
0.0
176
     1
 40
1.0
176
     1
 90
        0
176
     1
 62
    18
420
        0
176
     1
 90
       50
176
     1
 90
        3
176
     1
 62
     5
420
      255
176
     1
290
     0
176
     1
 90
       50
176
     1
 90
       50
176
     1
 90
       50
176
     1
290
     0
176
     1
 90
       50
176
     1
 62
   256
176
     0
 40
1.0
176
     0
 90
        2
176
     1
  1
strokes_ogs.tif
176
     1
290
     0
176
     1
 40
1.0
176
     1
 40
1.0
176
     1
  0
VISUALSTYLE
  5
30
102
{ACAD_REACTORS
330
29
102
}
330
29
100
AcDbVisualStyle
  2
Wireframe
 70
     5
177
     3
291
     0
 70
    58
 90
        0
176
     1
 90
        2
176
     1
 90
        0
176
     1
 90
        0
176
     1
 40
0.6
176
     1
 40
30.0
176
     1
 62
     7
420
 16777215
176
     1
 90
        1
176
     1
 90
        4
176
     1
 62
     7
176
     1
 62
   257
176
     1
 90
        1
176
     1
 90
        1
176
     1
 40
1.0
176
     1
 90
        0
176
     1
 62
   257
176
     1
 40
1.0
176
     1
 90
        1
176
     1
 90
        6
176
     1
 90
        2
176
     1
 62
     7
176
     1
 90
        3
176
     1
 90
        0
176
     1
 90
        0
176
     1
290
     0
176
     1
 90
        1
176
     1
 40
0.0
176
     1
 90
        0
176
     1
290
     0
176
     1
290
     1
176
     1
290
     1
176
     1
290
     0
176
     1
290
     0
176
     1
290
     0
176
     1
290
     0
176
     1
290
     0
176
     1
290
     0
176
     1
 90
       50
176
     1
 40
0.0
176
     1
 40
1.0
176
     1
 90
        0
176
     1
 62
    18
420
        0
176
     1
 90
       50
176
     1
 90
        3
176
     1
 62
     5
420
      255
176
     1
290
     0
176
     1
 90
       50
176
     1
 90
       50
176
     1
 90
       50
176
     1
290
     0
176
     1
 90
       50
176
     1
 62
   256
176
     0
 40
1.0
176
     0
 90
        2
176
     1
  1
strokes_ogs.tif
176
     1
290
     0
176
     1
 40
1.0
176
     1
 40
1.0
176
     1
  0
VISUALSTYLE
  5
3C
102
{ACAD_REACTORS
330
29
102
}
330
29
100
AcDbVisualStyle
  2
X-Ray
 70
    25
177
     3
291
     0
 70
    58
 90
        2
176
     1
 90
        2
176
     1
 90
        1
176
     1
 90
        1
176
     1
 40
0.5
176
     1
 40
30.0
176
     1
 62
     7
420
 16777215
176
     1
 90
        1
176
     1
 90
        0
176
     1
 62
     7
176
     1
 62
   257
176
     1
 90
        1
176
     1
 90
        1
176
     1
 40
1.0
176
     1
 90
        8
176
     1
 62
     7
176
     1
 40
1.0
176
     1
 90
        1
176
     1
 90
        6
176
     1
 90
        2
176
     1
 62
     7
176
     1
 90
        3
176
     1
 90
        0
176
     1
 90
        0
176
     1
290
     0
176
     1
 90
       13
176
     1
 40
0.0
176
     1
 90
        0
176
     1
290
     0
176
     1
290
     1
176
     1
290
     1
176
     1
290
     0
176
     1
290
     0
176
     1
290
     0
176
     1
290
     0
176
     1
290
     0
176
     1
290
     0
176
     1
 90
       50
176
     1
 40
0.0
176
     1
 40
1.0
176
     1
 90
        0
176
     1
 62
    18
420
        0
176
     1
 90
       50
176
     1
 90
        3
176
     1
 62
     5
420
      255
176
     1
290
     0
176
     1
 90
       50
176
     1
 90
       50
176
     1
 90
       50
176
     1
290
     0
176
     1
 90
       50
176
     1
 62
   256
176
     0
 40
1.0
176
     0
 90
        2
176
     1
  1
strokes_ogs.tif
176
     1
290
     0
176
     1
 40
1.0
176
     1
 40
1.0
176
     1
  0
DICTIONARYVAR
  5
348
102
{ACAD_REACTORS
330
343
102
}
330
343
100
DictionaryVariables
280
     0
  1
1:1
  0
DICTIONARYVAR
  5
345
102
{ACAD_REACTORS
330
343
102
}
330
343
100
DictionaryVariables
280
     0
  1
STANDARD
  0
DICTIONARYVAR
  5
344
102
{ACAD_REACTORS
330
343
102
}
330
343
100
DictionaryVariables
280
     0
  1
STANDARD
  0
DICTIONARYVAR
  5
346
102
{ACAD_REACTORS
330
343
102
}
330
343
100
DictionaryVariables
280
     0
  1
Imperial24
  0
DICTIONARYVAR
  5
347
102
{ACAD_REACTORS
330
343
102
}
330
343
100
DictionaryVariables
280
     0
  1
Imperial24
  0
DICTIONARY
  5
1A
330
19
100
AcDbDictionary
280
     1
281
     1
  3
BUMPTILE
360
1C
  3
DIFFUSETILE
360
1B
  3
OPACITYTILE
360
1F
  3
REFLECTIONTILE
360
1E
  3
REFRACTIONTILE
360
20
  3
SPECULARTILE
360
1D
  0
DICTIONARY
  5
12
330
11
100
AcDbDictionary
280
     1
281
     1
  3
BUMPTILE
360
14
  3
DIFFUSETILE
360
13
  3
OPACITYTILE
360
17
  3
REFLECTIONTILE
360
16
  3
REFRACTIONTILE
360
18
  3
SPECULARTILE
360
15
  0
DICTIONARY
  5
22
330
21
100
AcDbDictionary
280
     1
281
     1
  3
BUMPTILE
360
24
  3
DIFFUSETILE
360
23
  3
OPACITYTILE
360
27
  3
REFLECTIONTILE
360
26
  3
REFRACTIONTILE
360
28
  3
SPECULARTILE
360
25
  0
DICTIONARY
  5
349
330
65
100
AcDbDictionary
280
     1
281
     1
  3
ACAD_ROUNDTRIP_2008_TABLESTYLE_CELLSTYLEMAP
360
34A
  0
XRECORD
  5
1C
102
{ACAD_REACTORS
330
1A
102
}
330
1A
100
AcDbXrecord
280
     1
270
     1
271
     1
  0
XRECORD
  5
1B
102
{ACAD_REACTORS
330
1A
102
}
330
1A
100
AcDbXrecord
280
     1
270
     1
271
     1
  0
XRECORD
  5
1F
102
{ACAD_REACTORS
330
1A
102
}
330
1A
100
AcDbXrecord
280
     1
270
     1
271
     1
  0
XRECORD
  5
1E
102
{ACAD_REACTORS
330
1A
102
}
330
1A
100
AcDbXrecord
280
     1
270
     1
271
     1
  0
XRECORD
  5
20
102
{ACAD_REACTORS
330
1A
102
}
330
1A
100
AcDbXrecord
280
     1
270
     1
271
     1
  0
XRECORD
  5
1D
102
{ACAD_REACTORS
330
1A
102
}
330
1A
100
AcDbXrecord
280
     1
270
     1
271
     1
  0
XRECORD
  5
14
102
{ACAD_REACTORS
330
12
102
}
330
12
100
AcDbXrecord
280
     1
270
     1
271
     1
  0
XRECORD
  5
13
102
{ACAD_REACTORS
330
12
102
}
330
12
100
AcDbXrecord
280
     1
270
     1
271
     1
  0
XRECORD
  5
17
102
{ACAD_REACTORS
330
12
102
}
330
12
100
AcDbXrecord
280
     1
270
     1
271
     1
  0
XRECORD
  5
16
102
{ACAD_REACTORS
330
12
102
}
330
12
100
AcDbXrecord
280
     1
270
     1
271
     1
  0
XRECORD
  5
18
102
{ACAD_REACTORS
330
12
102
}
330
12
100
AcDbXrecord
280
     1
270
     1
271
     1
  0
XRECORD
  5
15
102
{ACAD_REACTORS
330
12
102
}
330
12
100
AcDbXrecord
280
     1
270
     1
271
     1
  0
XRECORD
  5
24
102
{ACAD_REACTORS
330
22
102
}
330
22
100
AcDbXrecord
280
     1
270
     1
271
     1
  0
XRECORD
  5
23
102
{ACAD_REACTORS
330
22
102
}
330
22
100
AcDbXrecord
280
     1
270
     1
271
     1
  0
XRECORD
  5
27
102
{ACAD_REACTORS
330
22
102
}
330
22
100
AcDbXrecord
280
     1
270
     1
271
     1
  0
XRECORD
  5
26
102
{ACAD_REACTORS
330
22
102
}
330
22
100
AcDbXrecord
280
     1
270
     1
271
     1
  0
XRECORD
  5
28
102
{ACAD_REACTORS
330
22
102
}
330
22
100
AcDbXrecord
280
     1
270
     1
271
     1
  0
XRECORD
  5
25
102
{ACAD_REACTORS
330
22
102
}
330
22
100
AcDbXrecord
280
     1
270
     1
271
     1
  0
CELLSTYLEMAP
  5
34A
102
{ACAD_REACTORS
330
349
102
}
330
349
100
AcDbCellStyleMap
 90
        3
300
CELLSTYLE
  1
TABLEFORMAT_BEGIN
 90
        5
170
     1
 91
        0
 92
    32768
 62
   257
 93
        1
300
CONTENTFORMAT
  1
CONTENTFORMAT_BEGIN
 90
        0
 91
        0
 92
      512
 93
        0
300

 40
0.0
140
1.0
 94
        5
 62
     0
340
55
144
0.25
309
CONTENTFORMAT_END
171
     0
 94
        0
309
TABLEFORMAT_END
  1
CELLSTYLE_BEGIN
 90
        1
 91
        1
300
_TITLE
309
CELLSTYLE_END
300
CELLSTYLE
  1
TABLEFORMAT_BEGIN
 90
        5
170
     1
 91
        0
 92
        0
 62
   257
 93
        1
300
CONTENTFORMAT
  1
CONTENTFORMAT_BEGIN
 90
        0
 91
        0
 92
      512
 93
        0
300

 40
0.0
140
1.0
 94
        5
 62
     0
340
55
144
0.18
309
CONTENTFORMAT_END
171
     0
 94
        0
309
TABLEFORMAT_END
  1
CELLSTYLE_BEGIN
 90
        2
 91
        1
300
_HEADER
309
CELLSTYLE_END
300
CELLSTYLE
  1
TABLEFORMAT_BEGIN
 90
        5
170
     1
 91
        0
 92
        0
 62
   257
 93
        1
300
CONTENTFORMAT
  1
CONTENTFORMAT_BEGIN
 90
        0
 91
        0
 92
      512
 93
        0
300

 40
0.0
140
1.0
 94
        2
 62
     0
340
55
144
0.18
309
CONTENTFORMAT_END
171
     0
 94
        0
309
TABLEFORMAT_END
  1
CELLSTYLE_BEGIN
 90
        3
 91
        2
300
_DATA
309
CELLSTYLE_END
  0
ENDSEC
  0
EOF
