  0
SECTION
  2
HEADER
  9
$ACADVER
  1
AC1032
  9
$ACADMAINTVER
 90
      251
  9
$DWGCODEPAGE
  3
ANSI_1252
  9
$REQUIREDVERSIONS
160
                 0
  9
$INSBASE
 10
0.0
 20
0.0
 30
0.0
  9
$EXTMIN
 10
1.000000000000000E+20
 20
1.000000000000000E+20
 30
1.000000000000000E+20
  9
$EXTMAX
 10
-1.000000000000000E+20
 20
-1.000000000000000E+20
 30
-1.000000000000000E+20
  9
$LIMMIN
 10
0.0
 20
0.0
  9
$LIMMAX
 10
12.0
 20
9.0
  9
$ORTHOMODE
 70
     0
  9
$REGENMODE
 70
     1
  9
$FILLMODE
 70
     1
  9
$QTEXTMODE
 70
     0
  9
$MIRRTEXT
 70
     0
  9
$LTSCALE
 40
1.0
  9
$ATTMODE
 70
     1
  9
$TEXTSIZE
 40
0.2
  9
$TRACEWID
 40
0.05
  9
$TEXTSTYLE
  7
Standard
  9
$CLAYER
  8
0
  9
$CELTYPE
  6
ByLayer
  9
$CECOLOR
 62
   256
  9
$CELTSCALE
 40
1.0
  9
$DISPSILH
 70
     0
  9
$DIMSCALE
 40
1.0
  9
$DIMASZ
 40
0.18
  9
$DIMEXO
 40
0.0625
  9
$DIMDLI
 40
0.38
  9
$DIMRND
 40
0.0
  9
$DIMDLE
 40
0.0
  9
$DIMEXE
 40
0.18
  9
$DIMTP
 40
0.0
  9
$DIMTM
 40
0.0
  9
$DIMTXT
 40
0.18
  9
$DIMCEN
 40
0.09
  9
$DIMTSZ
 40
0.0
  9
$DIMTOL
 70
     0
  9
$DIMLIM
 70
     0
  9
$DIMTIH
 70
     1
  9
$DIMTOH
 70
     1
  9
$DIMSE1
 70
     0
  9
$DIMSE2
 70
     0
  9
$DIMTAD
 70
     0
  9
$DIMZIN
 70
     0
  9
$DIMBLK
  1

  9
$DIMASO
 70
     1
  9
$DIMSHO
 70
     1
  9
$DIMPOST
  1

  9
$DIMAPOST
  1

  9
$DIMALT
 70
     0
  9
$DIMALTD
 70
     2
  9
$DIMALTF
 40
25.4
  9
$DIMLFAC
 40
1.0
  9
$DIMTOFL
 70
     0
  9
$DIMTVP
 40
0.0
  9
$DIMTIX
 70
     0
  9
$DIMSOXD
 70
     0
  9
$DIMSAH
 70
     0
  9
$DIMBLK1
  1

  9
$DIMBLK2
  1

  9
$DIMSTYLE
  2
Standard
  9
$DIMCLRD
 70
     0
  9
$DIMCLRE
 70
     0
  9
$DIMCLRT
 70
     0
  9
$DIMTFAC
 40
1.0
  9
$DIMGAP
 40
0.09
  9
$DIMJUST
 70
     0
  9
$DIMSD1
 70
     0
  9
$DIMSD2
 70
     0
  9
$DIMTOLJ
 70
     1
  9
$DIMTZIN
 70
     0
  9
$DIMALTZ
 70
     0
  9
$DIMALTTZ
 70
     0
  9
$DIMUPT
 70
     0
  9
$DIMDEC
 70
     4
  9
$DIMTDEC
 70
     4
  9
$DIMALTU
 70
     2
  9
$DIMALTTD
 70
     2
  9
$DIMTXSTY
  7
Standard
  9
$DIMAUNIT
 70
     0
  9
$DIMADEC
 70
     0
  9
$DIMALTRND
 40
0.0
  9
$DIMAZIN
 70
     0
  9
$DIMDSEP
 70
    46
  9
$DIMATFIT
 70
     3
  9
$DIMFRAC
 70
     0
  9
$DIMLDRBLK
  1

  9
$DIMLUNIT
 70
     2
  9
$DIMLWD
 70
    -2
  9
$DIMLWE
 70
    -2
  9
$DIMTMOVE
 70
     0
  9
$DIMFXL
 40
1.0
  9
$DIMFXLON
 70
     0
  9
$DIMJOGANG
 40
0.7853981633974483
  9
$DIMTFILL
 70
     0
  9
$DIMTFILLCLR
 70
     0
  9
$DIMARCSYM
 70
     0
  9
$DIMLTYPE
  6

  9
$DIMLTEX1
  6

  9
$DIMLTEX2
  6

  9
$DIMTXTDIRECTION
 70
     0
  9
$LUNITS
 70
     2
  9
$LUPREC
 70
     4
  9
$SKETCHINC
 40
0.1
  9
$FILLETRAD
 40
0.0
  9
$AUNITS
 70
     0
  9
$AUPREC
 70
     0
  9
$MENU
  1
.
  9
$ELEVATION
 40
0.0
  9
$PELEVATION
 40
0.0
  9
$THICKNESS
 40
0.0
  9
$LIMCHECK
 70
     0
  9
$CHAMFERA
 40
0.0
  9
$CHAMFERB
 40
0.0
  9
$CHAMFERC
 40
0.0
  9
$CHAMFERD
 40
0.0
  9
$SKPOLY
 70
     0
  9
$TDCREATE
 40
2460098.320347222
  9
$TDUCREATE
 40
2460098.445347222
  9
$TDUPDATE
 40
2460098.320347222
  9
$TDUUPDATE
 40
2460098.445347222
  9
$TDINDWG
 40
0.0000000000
  9
$TDUSRTIMER
 40
0.0000000000
  9
$USRTIMER
 70
     1
  9
$ANGBASE
 50
0.0
  9
$ANGDIR
 70
     0
  9
$PDMODE
 70
     0
  9
$PDSIZE
 40
0.0
  9
$PLINEWID
 40
0.0
  9
$SPLFRAME
 70
     0
  9
$SPLINETYPE
 70
     6
  9
$SPLINESEGS
 70
     8
  9
$HANDSEED
  5
328
  9
$SURFTAB1
 70
     6
  9
$SURFTAB2
 70
     6
  9
$SURFTYPE
 70
     6
  9
$SURFU
 70
     6
  9
$SURFV
 70
     6
  9
$UCSBASE
  2

  9
$UCSNAME
  2

  9
$UCSORG
 10
0.0
 20
0.0
 30
0.0
  9
$UCSXDIR
 10
1.0
 20
0.0
 30
0.0
  9
$UCSYDIR
 10
0.0
 20
1.0
 30
0.0
  9
$UCSORTHOREF
  2

  9
$UCSORTHOVIEW
 70
     0
  9
$UCSORGTOP
 10
0.0
 20
0.0
 30
0.0
  9
$UCSORGBOTTOM
 10
0.0
 20
0.0
 30
0.0
  9
$UCSORGLEFT
 10
0.0
 20
0.0
 30
0.0
  9
$UCSORGRIGHT
 10
0.0
 20
0.0
 30
0.0
  9
$UCSORGFRONT
 10
0.0
 20
0.0
 30
0.0
  9
$UCSORGBACK
 10
0.0
 20
0.0
 30
0.0
  9
$PUCSBASE
  2

  9
$PUCSNAME
  2

  9
$PUCSORG
 10
0.0
 20
0.0
 30
0.0
  9
$PUCSXDIR
 10
1.0
 20
0.0
 30
0.0
  9
$PUCSYDIR
 10
0.0
 20
1.0
 30
0.0
  9
$PUCSORTHOREF
  2

  9
$PUCSORTHOVIEW
 70
     0
  9
$PUCSORGTOP
 10
0.0
 20
0.0
 30
0.0
  9
$PUCSORGBOTTOM
 10
0.0
 20
0.0
 30
0.0
  9
$PUCSORGLEFT
 10
0.0
 20
0.0
 30
0.0
  9
$PUCSORGRIGHT
 10
0.0
 20
0.0
 30
0.0
  9
$PUCSORGFRONT
 10
0.0
 20
0.0
 30
0.0
  9
$PUCSORGBACK
 10
0.0
 20
0.0
 30
0.0
  9
$USERI1
 70
     0
  9
$USERI2
 70
     0
  9
$USERI3
 70
     0
  9
$USERI4
 70
     0
  9
$USERI5
 70
     0
  9
$USERR1
 40
0.0
  9
$USERR2
 40
0.0
  9
$USERR3
 40
0.0
  9
$USERR4
 40
0.0
  9
$USERR5
 40
0.0
  9
$WORLDVIEW
 70
     1
  9
$SHADEDGE
 70
     3
  9
$SHADEDIF
 70
    70
  9
$TILEMODE
 70
     1
  9
$MAXACTVP
 70
    64
  9
$PINSBASE
 10
0.0
 20
0.0
 30
0.0
  9
$PLIMCHECK
 70
     0
  9
$PEXTMIN
 10
1.000000000000000E+20
 20
1.000000000000000E+20
 30
1.000000000000000E+20
  9
$PEXTMAX
 10
-1.000000000000000E+20
 20
-1.000000000000000E+20
 30
-1.000000000000000E+20
  9
$PLIMMIN
 10
0.0
 20
0.0
  9
$PLIMMAX
 10
12.0
 20
9.0
  9
$UNITMODE
 70
     0
  9
$VISRETAIN
 70
     1
  9
$PLINEGEN
 70
     0
  9
$PSLTSCALE
 70
     1
  9
$TREEDEPTH
 70
  3020
  9
$CMLSTYLE
  2
Standard
  9
$CMLJUST
 70
     0
  9
$CMLSCALE
 40
1.0
  9
$PROXYGRAPHICS
 70
     1
  9
$MEASUREMENT
 70
     0
  9
$CELWEIGHT
370
    -1
  9
$ENDCAPS
280
     0
  9
$JOINSTYLE
280
     0
  9
$LWDISPLAY
290
     1
  9
$INSUNITS
 70
     0
  9
$HYPERLINKBASE
  1

  9
$STYLESHEET
  1

  9
$XEDIT
290
     1
  9
$CEPSNTYPE
380
     0
  9
$PSTYLEMODE
290
     1
  9
$FINGERPRINTGUID
  2
{4936A9A0-64E5-2948-9198-363584CABF03}
  9
$VERSIONGUID
  2
{BF8B4FC7-0499-6748-BA00-EE85C0706855}
  9
$EXTNAMES
290
     1
  9
$PSVPSCALE
 40
0.0
  9
$OLESTARTUP
290
     0
  9
$SORTENTS
280
   127
  9
$INDEXCTL
280
     0
  9
$HIDETEXT
280
     1
  9
$XCLIPFRAME
280
     2
  9
$HALOGAP
280
     0
  9
$OBSCOLOR
 70
   257
  9
$OBSLTYPE
280
     0
  9
$INTERSECTIONDISPLAY
280
     0
  9
$INTERSECTIONCOLOR
 70
   257
  9
$DIMASSOC
280
     2
  9
$PROJECTNAME
  1

  9
$CAMERADISPLAY
290
     0
  9
$LENSLENGTH
 40
50.0
  9
$CAMERAHEIGHT
 40
0.0
  9
$STEPSPERSEC
 40
2.0
  9
$STEPSIZE
 40
6.0
  9
$3DDWFPREC
 40
2.0
  9
$PSOLWIDTH
 40
0.25
  9
$PSOLHEIGHT
 40
4.0
  9
$LOFTANG1
 40
1.570796326794896
  9
$LOFTANG2
 40
1.570796326794896
  9
$LOFTMAG1
 40
0.0
  9
$LOFTMAG2
 40
0.0
  9
$LOFTPARAM
 70
     7
  9
$LOFTNORMALS
280
     1
  9
$LATITUDE
 40
37.795
  9
$LONGITUDE
 40
-122.394
  9
$NORTHDIRECTION
 40
0.0
  9
$TIMEZONE
 70
 -8000
  9
$LIGHTGLYPHDISPLAY
280
     1
  9
$TILEMODELIGHTSYNCH
280
     1
  9
$CMATERIAL
347
11
  9
$SOLIDHIST
280
     0
  9
$SHOWHIST
280
     1
  9
$DWFFRAME
280
     2
  9
$DGNFRAME
280
     0
  9
$REALWORLDSCALE
290
     1
  9
$INTERFERECOLOR
 62
     1
  9
$INTERFEREOBJVS
345
33
  9
$INTERFEREVPVS
346
30
  9
$CSHADOW
280
     0
  9
$SHADOWPLANELOCATION
 40
0.0
  0
ENDSEC
  0
SECTION
  2
CLASSES
  0
CLASS
  1
ACDBDICTIONARYWDFLT
  2
AcDbDictionaryWithDefault
  3
ObjectDBX Classes
 90
        0
 91
        1
280
     0
281
     0
  0
CLASS
  1
MATERIAL
  2
AcDbMaterial
  3
ObjectDBX Classes
 90
     1153
 91
        3
280
     0
281
     0
  0
CLASS
  1
VISUALSTYLE
  2
AcDbVisualStyle
  3
ObjectDBX Classes
 90
     4095
 91
       24
280
     0
281
     0
  0
CLASS
  1
SCALE
  2
AcDbScale
  3
ObjectDBX Classes
 90
     1153
 91
       17
280
     0
281
     0
  0
CLASS
  1
TABLESTYLE
  2
AcDbTableStyle
  3
ObjectDBX Classes
 90
     4095
 91
        1
280
     0
281
     0
  0
CLASS
  1
MLEADERSTYLE
  2
AcDbMLeaderStyle
  3
ACDB_MLEADERSTYLE_CLASS
 90
     4095
 91
        1
280
     0
281
     0
  0
CLASS
  1
ACDBSECTIONVIEWSTYLE
  2
AcDbSectionViewStyle
  3
ObjectDBX Classes
 90
     1025
 91
        1
280
     0
281
     0
  0
CLASS
  1
ACDBDETAILVIEWSTYLE
  2
AcDbDetailViewStyle
  3
ObjectDBX Classes
 90
     1025
 91
        1
280
     0
281
     0
  0
CLASS
  1
DICTIONARYVAR
  2
AcDbDictionaryVar
  3
ObjectDBX Classes
 90
        0
 91
        5
280
     0
281
     0
  0
CLASS
  1
CELLSTYLEMAP
  2
AcDbCellStyleMap
  3
ObjectDBX Classes
 90
     1152
 91
        1
280
     0
281
     0
  0
ENDSEC
  0
SECTION
  2
TABLES
  0
TABLE
  2
VPORT
  5
8
330
0
100
AcDbSymbolTable
 70
     1
  0
VPORT
  5
57
330
8
100
AcDbSymbolTableRecord
100
AcDbViewportTableRecord
  2
*Active
 70
     0
 10
0.0
 20
0.0
 11
1.0
 21
1.0
 12
0.0
 22
0.0
 13
0.0
 23
0.0
 14
1.0
 24
1.0
 15
0.0
 25
0.0
 16
0.0
 26
0.0
 36
1.0
 17
1217.701339645575
 27
1042.565905858127
 37
0.0
 40
437.5574950314462
 41
3.088372093023256
 42
50.0
 43
0.0
 44
0.0
 50
0.0
 51
0.0
 71
     0
 72
   100
 73
     1
 74
     1
 75
     0
 76
     0
 77
     0
 78
     0
281
     0
 65
     1
110
0.0
120
0.0
130
0.0
111
1.0
121
0.0
131
0.0
112
0.0
122
1.0
132
0.0
 79
     0
146
0.0
 60
     3
 61
     5
292
     1
282
     1
141
0.0
142
0.0
 63
   250
421
  3355443
  0
ENDTAB
  0
TABLE
  2
LTYPE
  5
5
330
0
100
AcDbSymbolTable
 70
     1
  0
LTYPE
  5
5B
330
5
100
AcDbSymbolTableRecord
100
AcDbLinetypeTableRecord
  2
ByBlock
 70
     0
  3

 72
    65
 73
     0
 40
0.0
  0
LTYPE
  5
5C
330
5
100
AcDbSymbolTableRecord
100
AcDbLinetypeTableRecord
  2
ByLayer
 70
     0
  3

 72
    65
 73
     0
 40
0.0
  0
LTYPE
  5
5D
330
5
100
AcDbSymbolTableRecord
100
AcDbLinetypeTableRecord
  2
Continuous
 70
     0
  3
Solid line
 72
    65
 73
     0
 40
0.0
  0
ENDTAB
  0
TABLE
  2
LAYER
  5
2
330
0
100
AcDbSymbolTable
 70
     2
  0
LAYER
  5
54
330
2
100
AcDbSymbolTableRecord
100
AcDbLayerTableRecord
  2
0
 70
     0
 62
     7
  6
Continuous
370
    -3
390
F
347
21
348
0
  0
LAYER
  5
78
330
2
100
AcDbSymbolTableRecord
100
AcDbLayerTableRecord
  2
Camada 1
 70
     0
 62
     7
  6
Continuous
370
     0
390
F
347
21
348
0
  0
ENDTAB
  0
TABLE
  2
STYLE
  5
3
330
0
100
AcDbSymbolTable
 70
     2
  0
STYLE
  5
55
330
3
100
AcDbSymbolTableRecord
100
AcDbTextStyleTableRecord
  2
Standard
 70
     0
 40
0.0
 41
1.0
 50
0.0
 71
     0
 42
0.2
  3
txt
  4

  0
STYLE
  5
5A
330
3
100
AcDbSymbolTableRecord
100
AcDbTextStyleTableRecord
  2
Annotative
 70
     0
 40
0.0
 41
1.0
 50
0.0
 71
     0
 42
0.2
  3
txt
  4

1001
AcadAnnotative
1000
AnnotativeData
1002
{
1070
     1
1070
     1
1002
}
  0
ENDTAB
  0
TABLE
  2
VIEW
  5
6
330
0
100
AcDbSymbolTable
 70
     0
  0
ENDTAB
  0
TABLE
  2
UCS
  5
7
330
0
100
AcDbSymbolTable
 70
     0
  0
ENDTAB
  0
TABLE
  2
APPID
  5
9
330
0
100
AcDbSymbolTable
 70
     2
  0
APPID
  5
56
330
9
100
AcDbSymbolTableRecord
100
AcDbRegAppTableRecord
  2
ACAD
 70
     0
  0
APPID
  5
5E
330
9
100
AcDbSymbolTableRecord
100
AcDbRegAppTableRecord
  2
AcadAnnotative
 70
     0
  0
ENDTAB
  0
TABLE
  2
DIMSTYLE
  5
A
330
0
100
AcDbSymbolTable
 70
     2
100
AcDbDimStyleTable
 71
     0
  0
DIMSTYLE
105
58
330
A
100
AcDbSymbolTableRecord
100
AcDbDimStyleTableRecord
  2
Standard
 70
     0
340
55
  0
DIMSTYLE
105
59
330
A
100
AcDbSymbolTableRecord
100
AcDbDimStyleTableRecord
  2
Annotative
 70
     0
340
55
1001
AcadAnnotative
1000
AnnotativeData
1002
{
1070
     1
1070
     1
1002
}
  0
ENDTAB
  0
TABLE
  2
BLOCK_RECORD
  5
1
330
0
100
AcDbSymbolTable
 70
     2
  0
BLOCK_RECORD
  5
70
330
1
100
AcDbSymbolTableRecord
100
AcDbBlockTableRecord
  2
*Model_Space
340
73
 70
     0
280
     1
281
     0
  0
BLOCK_RECORD
  5
6C
330
1
100
AcDbSymbolTableRecord
100
AcDbBlockTableRecord
  2
*Paper_Space
340
6F
 70
     0
280
     1
281
     0
  0
BLOCK_RECORD
  5
74
330
1
100
AcDbSymbolTableRecord
100
AcDbBlockTableRecord
  2
*Paper_Space0
340
77
 70
     0
280
     1
281
     0
  0
BLOCK_RECORD
  5
316
330
1
100
AcDbSymbolTableRecord
100
AcDbBlockTableRecord
  2
Block_0
340
0
102
{BLKREFS
331
317
102
}
 70
     0
280
     1
281
     0
  0
ENDTAB
  0
ENDSEC
  0
SECTION
  2
BLOCKS
  0
BLOCK
  5
71
330
70
100
AcDbEntity
  8
0
100
AcDbBlockBegin
  2
*Model_Space
 70
     0
 10
0.0
 20
0.0
 30
0.0
  3
*Model_Space
  1

  0
ENDBLK
  5
72
330
70
100
AcDbEntity
  8
0
100
AcDbBlockEnd
  0
BLOCK
  5
6D
330
6C
100
AcDbEntity
 67
     1
  8
0
100
AcDbBlockBegin
  2
*Paper_Space
 70
     0
 10
0.0
 20
0.0
 30
0.0
  3
*Paper_Space
  1

  0
ENDBLK
  5
6E
330
6C
100
AcDbEntity
 67
     1
  8
0
100
AcDbBlockEnd
  0
BLOCK
  5
75
330
74
100
AcDbEntity
 67
     1
  8
0
100
AcDbBlockBegin
  2
*Paper_Space0
 70
     0
 10
0.0
 20
0.0
 30
0.0
  3
*Paper_Space0
  1

  0
ENDBLK
  5
76
330
74
100
AcDbEntity
 67
     1
  8
0
100
AcDbBlockEnd
  0
BLOCK
  5
318
330
316
100
AcDbEntity
  8
0
100
AcDbBlockBegin
  2
Block_0
 70
     0
 10
0.0
 20
0.0
 30
0.0
  3
Block_0
  1

  0
SPLINE
  5
31A
330
316
100
AcDbEntity
  8
Camada 1
 62
   149
420
  3818319
370
    35
100
AcDbSpline
210
0.0
220
0.0
230
1.0
 70
     9
 71
     3
 72
    29
 73
    25
 74
     0
 42
0.0000000001
 43
0.0000000001
 40
0.0
 40
0.0
 40
0.0
 40
0.0
 40
1.0
 40
1.0
 40
1.0
 40
2.0
 40
2.0
 40
2.0
 40
3.0
 40
3.0
 40
3.0
 40
4.0
 40
4.0
 40
4.0
 40
5.0
 40
5.0
 40
5.0
 40
6.0
 40
6.0
 40
6.0
 40
7.0
 40
7.0
 40
7.0
 40
8.0
 40
8.0
 40
8.0
 40
8.0
 10
1833.266775543543
 20
873.2612575668399
 30
0.0
 10
1833.266775543543
 20
870.2018979781042
 30
0.0
 10
1830.76523228245
 20
867.7003578099037
 30
0.0
 10
1827.703713851675
 20
867.7003578099037
 30
0.0
 10
1827.703713851675
 20
867.7003578099037
 30
0.0
 10
1795.008564625886
 20
867.7003578099037
 30
0.0
 10
1795.008564625886
 20
867.7003578099037
 30
0.0
 10
1791.953528907002
 20
867.7003578099037
 30
0.0
 10
1789.449824741954
 20
870.2018979781042
 30
0.0
 10
1789.449824741954
 20
873.2612575668399
 30
0.0
 10
1789.449824741954
 20
873.2612575668399
 30
0.0
 10
1789.449824741954
 20
905.9607270541155
 30
0.0
 10
1789.449824741954
 20
905.9607270541155
 30
0.0
 10
1789.449824741954
 20
909.0157668968505
 30
0.0
 10
1791.953528907002
 20
911.5194669380443
 30
0.0
 10
1795.008564625886
 20
911.5194669380443
 30
0.0
 10
1795.008564625886
 20
911.5194669380443
 30
0.0
 10
1827.703713851675
 20
911.5194669380443
 30
0.0
 10
1827.703713851675
 20
911.5194669380443
 30
0.0
 10
1830.76523228245
 20
911.5194669380443
 30
0.0
 10
1833.266775543543
 20
909.0157668968505
 30
0.0
 10
1833.266775543543
 20
905.9607270541155
 30
0.0
 10
1833.266775543543
 20
905.9607270541155
 30
0.0
 10
1833.266775543543
 20
873.2612575668399
 30
0.0
 10
1833.266775543543
 20
873.2612575668399
 30
0.0
  0
LWPOLYLINE
  5
31B
330
316
100
AcDbEntity
  8
Camada 1
100
AcDbPolyline
 90
        4
 70
     1
 43
0.0
 10
1788.557099228224
 20
866.8080627243371
 10
1834.339388064875
 20
866.8080627243371
 10
1834.339388064875
 20
912.410897558937
 10
1788.557099228224
 20
912.410897558937
  0
ENDBLK
  5
319
330
316
100
AcDbEntity
  8
0
100
AcDbBlockEnd
  0
ENDSEC
  0
SECTION
  2
ENTITIES
  0
LINE
  5
79
330
70
100
AcDbEntity
  8
Camada 1
 62
    18
420
        0
370
    35
100
AcDbLine
 10
637.5145588191708
 20
995.0198610927436
 30
0.0
 11
637.5145588191708
 21
1074.01228468928
 31
0.0
  0
LINE
  5
7A
330
70
100
AcDbEntity
  8
Camada 1
 62
    18
420
        0
370
    35
100
AcDbLine
 10
638.6762157856701
 20
993.8582291387739
 30
0.0
 11
638.6762157856701
 21
1075.17391664325
 31
0.0
  0
LINE
  5
7B
330
70
100
AcDbEntity
  8
Camada 1
 62
    18
420
        0
370
    35
100
AcDbLine
 10
639.2570567751836
 20
997.8934006775908
 30
0.0
 11
639.2570567751836
 21
1022.89952823857
 31
0.0
  0
LINE
  5
7C
330
70
100
AcDbEntity
  8
Camada 1
 62
    18
420
        0
370
    35
100
AcDbLine
 10
639.2570567751836
 20
1048.26093378658
 30
0.0
 11
639.2570567751836
 21
1071.13874510443
 31
0.0
  0
LINE
  5
7D
330
70
100
AcDbEntity
  8
Camada 1
 62
    18
420
        0
370
    35
100
AcDbLine
 10
652.6160493585812
 20
1007.21722172217
 30
0.0
 11
652.6160493585812
 21
1061.81492405985
 31
0.0
  0
LINE
  5
7E
330
70
100
AcDbEntity
  8
Camada 1
 62
    18
420
        0
370
    35
100
AcDbLine
 10
656.1010202580737
 20
1061.81492405985
 30
0.0
 11
656.1010202580737
 21
1007.21722172217
 31
0.0
  0
LINE
  5
7F
330
70
100
AcDbEntity
  8
Camada 1
 62
    18
420
        0
370
    35
100
AcDbLine
 10
667.7175398979906
 20
1007.21722172217
 30
0.0
 11
667.7175398979906
 21
1061.81492405985
 31
0.0
  0
LINE
  5
80
330
70
100
AcDbEntity
  8
Camada 1
 62
    18
420
        0
370
    35
100
AcDbLine
 10
671.2025107974832
 20
1061.81492405985
 30
0.0
 11
671.2025107974832
 21
1007.21722172217
 31
0.0
  0
LINE
  5
81
330
70
100
AcDbEntity
  8
Camada 1
 62
    18
420
        0
370
    35
100
AcDbLine
 10
682.8190304374002
 20
1007.21722172217
 30
0.0
 11
682.8190304374002
 21
1061.81492405985
 31
0.0
  0
LINE
  5
82
330
70
100
AcDbEntity
  8
Camada 1
 62
    18
420
        0
370
    35
100
AcDbLine
 10
686.3039763243632
 20
1061.81492405985
 30
0.0
 11
686.3039763243632
 21
1007.21722172217
 31
0.0
  0
LINE
  5
83
330
70
100
AcDbEntity
  8
Camada 1
 62
    18
420
        0
370
    35
100
AcDbLine
 10
697.9205209768088
 20
1007.21722172217
 30
0.0
 11
697.9205209768088
 21
1061.81492405985
 31
0.0
  0
LINE
  5
84
330
70
100
AcDbEntity
  8
Camada 1
 62
    18
420
        0
370
    35
100
AcDbLine
 10
701.4054668637718
 20
1061.81492405985
 30
0.0
 11
701.4054668637718
 21
1007.21722172217
 31
0.0
  0
LINE
  5
85
330
70
100
AcDbEntity
  8
Camada 1
 62
    18
420
        0
370
    35
100
AcDbLine
 10
713.0220115162192
 20
1007.21722172217
 30
0.0
 11
713.0220115162192
 21
1061.81492405985
 31
0.0
  0
LINE
  5
86
330
70
100
AcDbEntity
  8
Camada 1
 62
    18
420
        0
370
    35
100
AcDbLine
 10
716.5069574031822
 20
1061.81492405985
 30
0.0
 11
716.5069574031822
 21
1007.21722172217
 31
0.0
  0
LINE
  5
87
330
70
100
AcDbEntity
  8
Camada 1
 62
    18
420
        0
370
    35
100
AcDbLine
 10
728.1235020556278
 20
1007.21722172217
 30
0.0
 11
728.1235020556278
 21
1061.81492405985
 31
0.0
  0
LINE
  5
88
330
70
100
AcDbEntity
  8
Camada 1
 62
    18
420
        0
370
    35
100
AcDbLine
 10
731.6084479425908
 20
1061.81492405985
 30
0.0
 11
731.6084479425908
 21
1007.21722172217
 31
0.0
  0
LINE
  5
89
330
70
100
AcDbEntity
  8
Camada 1
 62
    18
420
        0
370
    35
100
AcDbLine
 10
743.2249675825069
 20
1007.21722172217
 30
0.0
 11
743.2249675825069
 21
1061.81492405985
 31
0.0
  0
LINE
  5
8A
330
70
100
AcDbEntity
  8
Camada 1
 62
    18
420
        0
370
    35
100
AcDbLine
 10
746.7099384820012
 20
1061.81492405985
 30
0.0
 11
746.7099384820012
 21
1007.21722172217
 31
0.0
  0
LINE
  5
8B
330
70
100
AcDbEntity
  8
Camada 1
 62
    18
420
        0
370
    35
100
AcDbLine
 10
758.3264581219155
 20
1007.21722172217
 30
0.0
 11
758.3264581219155
 21
1061.81492405985
 31
0.0
  0
LINE
  5
8C
330
70
100
AcDbEntity
  8
Camada 1
 62
    18
420
        0
370
    35
100
AcDbLine
 10
761.8114290214107
 20
1061.81492405985
 30
0.0
 11
761.8114290214107
 21
1007.21722172217
 31
0.0
  0
LINE
  5
8D
330
70
100
AcDbEntity
  8
Camada 1
 62
    18
420
        0
370
    35
100
AcDbLine
 10
773.4279486613258
 20
1007.21722172217
 30
0.0
 11
773.4279486613258
 21
1061.81492405985
 31
0.0
  0
LINE
  5
8E
330
70
100
AcDbEntity
  8
Camada 1
 62
    18
420
        0
370
    35
100
AcDbLine
 10
776.9129195608184
 20
1061.81492405985
 30
0.0
 11
776.9129195608184
 21
1007.21722172217
 31
0.0
  0
LINE
  5
8F
330
70
100
AcDbEntity
  8
Camada 1
 62
    18
420
        0
370
    35
100
AcDbLine
 10
788.5294392007353
 20
1007.21722172217
 30
0.0
 11
788.5294392007353
 21
1061.81492405985
 31
0.0
  0
LINE
  5
90
330
70
100
AcDbEntity
  8
Camada 1
 62
    18
420
        0
370
    35
100
AcDbLine
 10
792.0143850876975
 20
1061.81492405985
 30
0.0
 11
792.0143850876975
 21
1007.21722172217
 31
0.0
  0
LINE
  5
91
330
70
100
AcDbEntity
  8
Camada 1
 62
    18
420
        0
370
    35
100
AcDbLine
 10
803.6309297401457
 20
1007.21722172217
 30
0.0
 11
803.6309297401457
 21
1061.81492405985
 31
0.0
  0
LINE
  5
92
330
70
100
AcDbEntity
  8
Camada 1
 62
    18
420
        0
370
    35
100
AcDbLine
 10
807.1158756271071
 20
1061.81492405985
 30
0.0
 11
807.1158756271071
 21
1007.21722172217
 31
0.0
  0
LINE
  5
93
330
70
100
AcDbEntity
  8
Camada 1
 62
    18
420
        0
370
    35
100
AcDbLine
 10
818.7324202795544
 20
1007.21722172217
 30
0.0
 11
818.7324202795544
 21
1061.81492405985
 31
0.0
  0
LINE
  5
94
330
70
100
AcDbEntity
  8
Camada 1
 62
    18
420
        0
370
    35
100
AcDbLine
 10
822.2173661665165
 20
1061.81492405985
 30
0.0
 11
822.2173661665165
 21
1007.21722172217
 31
0.0
  0
LINE
  5
95
330
70
100
AcDbEntity
  8
Camada 1
 62
    18
420
        0
370
    35
100
AcDbLine
 10
833.8338858064325
 20
1007.21722172217
 30
0.0
 11
833.8338858064325
 21
1061.81492405985
 31
0.0
  0
LINE
  5
96
330
70
100
AcDbEntity
  8
Camada 1
 62
    18
420
        0
370
    35
100
AcDbLine
 10
837.3188316933974
 20
1061.81492405985
 30
0.0
 11
837.3188316933974
 21
1007.21722172217
 31
0.0
  0
LINE
  5
97
330
70
100
AcDbEntity
  8
Camada 1
 62
    18
420
        0
370
    35
100
AcDbLine
 10
848.9354013583733
 20
1007.21722172217
 30
0.0
 11
848.9354013583733
 21
1061.81492405985
 31
0.0
  0
LINE
  5
98
330
70
100
AcDbEntity
  8
Camada 1
 62
    18
420
        0
370
    35
100
AcDbLine
 10
852.4203472453354
 20
1061.81492405985
 30
0.0
 11
852.4203472453354
 21
1007.21722172217
 31
0.0
  0
LINE
  5
99
330
70
100
AcDbEntity
  8
Camada 1
 62
    18
420
        0
370
    35
100
AcDbLine
 10
864.0368668852515
 20
1007.21722172217
 30
0.0
 11
864.0368668852515
 21
1061.81492405985
 31
0.0
  0
LINE
  5
9A
330
70
100
AcDbEntity
  8
Camada 1
 62
    18
420
        0
370
    35
100
AcDbLine
 10
867.5218127722146
 20
1061.81492405985
 30
0.0
 11
867.5218127722146
 21
1007.21722172217
 31
0.0
  0
LINE
  5
9B
330
70
100
AcDbEntity
  8
Camada 1
 62
    18
420
        0
370
    35
100
AcDbLine
 10
879.1383824371932
 20
1007.21722172217
 30
0.0
 11
879.1383824371932
 21
1061.81492405985
 31
0.0
  0
LINE
  5
9C
330
70
100
AcDbEntity
  8
Camada 1
 62
    18
420
        0
370
    35
100
AcDbLine
 10
882.6233283241545
 20
1061.81492405985
 30
0.0
 11
882.6233283241545
 21
1007.21722172217
 31
0.0
  0
LINE
  5
9D
330
70
100
AcDbEntity
  8
Camada 1
 62
    18
420
        0
370
    35
100
AcDbLine
 10
894.2398479640724
 20
1007.21722172217
 30
0.0
 11
894.2398479640724
 21
1061.81492405985
 31
0.0
  0
LINE
  5
9E
330
70
100
AcDbEntity
  8
Camada 1
 62
    18
420
        0
370
    35
100
AcDbLine
 10
897.7247938510336
 20
1061.81492405985
 30
0.0
 11
897.7247938510336
 21
1007.21722172217
 31
0.0
  0
LINE
  5
9F
330
70
100
AcDbEntity
  8
Camada 1
 62
    18
420
        0
370
    35
100
AcDbLine
 10
909.3413134909496
 20
1007.21722172217
 30
0.0
 11
909.3413134909496
 21
1061.81492405985
 31
0.0
  0
LINE
  5
A0
330
70
100
AcDbEntity
  8
Camada 1
 62
    18
420
        0
370
    35
100
AcDbLine
 10
912.8263094029753
 20
1061.81492405985
 30
0.0
 11
912.8263094029753
 21
1007.21722172217
 31
0.0
  0
LINE
  5
A1
330
70
100
AcDbEntity
  8
Camada 1
 62
    18
420
        0
370
    35
100
AcDbLine
 10
924.4428290428913
 20
1007.21722172217
 30
0.0
 11
924.4428290428913
 21
1061.81492405985
 31
0.0
  0
LINE
  5
A2
330
70
100
AcDbEntity
  8
Camada 1
 62
    18
420
        0
370
    35
100
AcDbLine
 10
927.9277749298525
 20
1061.81492405985
 30
0.0
 11
927.9277749298525
 21
1007.21722172217
 31
0.0
  0
LINE
  5
A3
330
70
100
AcDbEntity
  8
Camada 1
 62
    18
420
        0
370
    35
100
AcDbLine
 10
939.5442945697686
 20
1007.21722172217
 30
0.0
 11
939.5442945697686
 21
1061.81492405985
 31
0.0
  0
LINE
  5
A4
330
70
100
AcDbEntity
  8
Camada 1
 62
    18
420
        0
370
    35
100
AcDbLine
 10
640.4196141927886
 20
1071.6502013336
 30
0.0
 11
639.2791428398513
 21
1071.19527342397
 31
0.0
  0
LINE
  5
A5
330
70
100
AcDbEntity
  8
Camada 1
 62
    18
420
        0
370
    35
100
AcDbLine
 10
639.2791428398513
 20
997.8368723580533
 30
0.0
 11
640.4196141927886
 21
997.3819444484288
 31
0.0
  0
LINE
  5
A6
330
70
100
AcDbEntity
  8
Camada 1
 62
    18
420
        0
370
    35
100
AcDbLine
 10
943.0292404567298
 20
1061.81492405985
 30
0.0
 11
943.0292404567298
 21
1007.21722172217
 31
0.0
  0
LINE
  5
A7
330
70
100
AcDbEntity
  8
Camada 1
 62
    18
420
        0
370
    35
100
AcDbLine
 10
954.6458101217103
 20
1007.21722172217
 30
0.0
 11
954.6458101217103
 21
1061.81492405985
 31
0.0
  0
LINE
  5
A8
330
70
100
AcDbEntity
  8
Camada 1
 62
    18
420
        0
370
    35
100
AcDbLine
 10
958.1307560086715
 20
1061.81492405985
 30
0.0
 11
958.1307560086715
 21
1007.21722172217
 31
0.0
  0
LINE
  5
A9
330
70
100
AcDbEntity
  8
Camada 1
 62
    18
420
        0
370
    35
100
AcDbLine
 10
969.7472756485877
 20
1007.21722172217
 30
0.0
 11
969.7472756485877
 21
1061.81492405985
 31
0.0
  0
LINE
  5
AA
330
70
100
AcDbEntity
  8
Camada 1
 62
    18
420
        0
370
    35
100
AcDbLine
 10
973.2322215355489
 20
1061.81492405985
 30
0.0
 11
973.2322215355489
 21
1007.21722172217
 31
0.0
  0
LINE
  5
AB
330
70
100
AcDbEntity
  8
Camada 1
 62
    18
420
        0
370
    35
100
AcDbLine
 10
984.8487411754685
 20
1007.21722172217
 30
0.0
 11
984.8487411754685
 21
1061.81492405985
 31
0.0
  0
LINE
  5
AC
330
70
100
AcDbEntity
  8
Camada 1
 62
    18
420
        0
370
    35
100
AcDbLine
 10
988.3337370874906
 20
1061.81492405985
 30
0.0
 11
988.3337370874906
 21
1007.21722172217
 31
0.0
  0
LINE
  5
AD
330
70
100
AcDbEntity
  8
Camada 1
 62
    18
420
        0
370
    35
100
AcDbLine
 10
999.9502567274067
 20
1007.21722172217
 30
0.0
 11
999.9502567274067
 21
1061.81492405985
 31
0.0
  0
LINE
  5
AE
330
70
100
AcDbEntity
  8
Camada 1
 62
    18
420
        0
370
    35
100
AcDbLine
 10
1003.43520261437
 20
1061.81492405985
 30
0.0
 11
1003.43520261437
 21
1007.21722172217
 31
0.0
  0
LINE
  5
AF
330
70
100
AcDbEntity
  8
Camada 1
 62
    18
420
        0
370
    35
100
AcDbLine
 10
1015.051722254289
 20
1007.21722172217
 30
0.0
 11
1015.051722254289
 21
1061.81492405985
 31
0.0
  0
LINE
  5
B0
330
70
100
AcDbEntity
  8
Camada 1
 62
    18
420
        0
370
    35
100
AcDbLine
 10
1018.536718166309
 20
1061.81492405985
 30
0.0
 11
1018.536718166309
 21
1007.21722172217
 31
0.0
  0
LINE
  5
B1
330
70
100
AcDbEntity
  8
Camada 1
 62
    18
420
        0
370
    35
100
AcDbLine
 10
1030.153237806229
 20
1007.21722172217
 30
0.0
 11
1030.153237806229
 21
1061.81492405985
 31
0.0
  0
LINE
  5
B2
330
70
100
AcDbEntity
  8
Camada 1
 62
    18
420
        0
370
    35
100
AcDbLine
 10
1033.63818369319
 20
1061.81492405985
 30
0.0
 11
1033.63818369319
 21
1007.21722172217
 31
0.0
  0
LINE
  5
B3
330
70
100
AcDbEntity
  8
Camada 1
 62
    18
420
        0
370
    35
100
AcDbLine
 10
1045.254703333099
 20
1007.21722172217
 30
0.0
 11
1045.254703333099
 21
1061.81492405985
 31
0.0
  0
LINE
  5
B4
330
70
100
AcDbEntity
  8
Camada 1
 62
    18
420
        0
370
    35
100
AcDbLine
 10
1048.73964922007
 20
1061.81492405985
 30
0.0
 11
1048.73964922007
 21
1007.21722172217
 31
0.0
  0
LINE
  5
B5
330
70
100
AcDbEntity
  8
Camada 1
 62
    18
420
        0
370
    35
100
AcDbLine
 10
1060.356218885041
 20
1007.21722172217
 30
0.0
 11
1060.356218885041
 21
1061.81492405985
 31
0.0
  0
LINE
  5
B6
330
70
100
AcDbEntity
  8
Camada 1
 62
    18
420
        0
370
    35
100
AcDbLine
 10
1063.841164772009
 20
1061.81492405985
 30
0.0
 11
1063.841164772009
 21
1007.21722172217
 31
0.0
  0
LINE
  5
B7
330
70
100
AcDbEntity
  8
Camada 1
 62
    18
420
        0
370
    35
100
AcDbLine
 10
1075.45768441192
 20
1007.21722172217
 30
0.0
 11
1075.45768441192
 21
1061.81492405985
 31
0.0
  0
LINE
  5
B8
330
70
100
AcDbEntity
  8
Camada 1
 62
    18
420
        0
370
    35
100
AcDbLine
 10
1078.94263029889
 20
1061.81492405985
 30
0.0
 11
1078.94263029889
 21
1007.21722172217
 31
0.0
  0
LINE
  5
B9
330
70
100
AcDbEntity
  8
Camada 1
 62
    18
420
        0
370
    35
100
AcDbLine
 10
1090.559149938799
 20
1007.21722172217
 30
0.0
 11
1090.559149938799
 21
1061.81492405985
 31
0.0
  0
LINE
  5
BA
330
70
100
AcDbEntity
  8
Camada 1
 62
    18
420
        0
370
    35
100
AcDbLine
 10
1094.04414585083
 20
1061.81492405985
 30
0.0
 11
1094.04414585083
 21
1007.21722172217
 31
0.0
  0
LINE
  5
BB
330
70
100
AcDbEntity
  8
Camada 1
 62
    18
420
        0
370
    35
100
AcDbLine
 10
1105.660665490741
 20
1007.21722172217
 30
0.0
 11
1105.660665490741
 21
1061.81492405985
 31
0.0
  0
LINE
  5
BC
330
70
100
AcDbEntity
  8
Camada 1
 62
    18
420
        0
370
    35
100
AcDbLine
 10
1109.145611377709
 20
1061.81492405985
 30
0.0
 11
1109.145611377709
 21
1007.21722172217
 31
0.0
  0
LINE
  5
BD
330
70
100
AcDbEntity
  8
Camada 1
 62
    18
420
        0
370
    35
100
AcDbLine
 10
1120.76213101762
 20
1007.21722172217
 30
0.0
 11
1120.76213101762
 21
1061.81492405985
 31
0.0
  0
LINE
  5
BE
330
70
100
AcDbEntity
  8
Camada 1
 62
    18
420
        0
370
    35
100
AcDbLine
 10
1124.247126929649
 20
1061.81492405985
 30
0.0
 11
1124.247126929649
 21
1007.21722172217
 31
0.0
  0
LINE
  5
BF
330
70
100
AcDbEntity
  8
Camada 1
 62
    18
420
        0
370
    35
100
AcDbLine
 10
1475.35022243473
 20
996.8077067670401
 30
0.0
 11
1489.37264738424
 21
997.2970519190003
 31
0.0
  0
LINE
  5
C0
330
70
100
AcDbEntity
  8
Camada 1
 62
    18
420
        0
370
    35
100
AcDbLine
 10
1285.2573897944
 20
996.8077067670401
 30
0.0
 11
1299.279814743921
 21
997.2970519190003
 31
0.0
  0
LINE
  5
C1
330
70
100
AcDbEntity
  8
Camada 1
 62
    18
420
        0
370
    35
100
AcDbLine
 10
1095.16450712902
 20
996.8077067670401
 30
0.0
 11
1109.186882053469
 21
997.2970519190003
 31
0.0
  0
LINE
  5
C2
330
70
100
AcDbEntity
  8
Camada 1
 62
    18
420
        0
370
    35
100
AcDbLine
 10
1664.20703585457
 20
996.8015536844687
 30
0.0
 11
1678.23496356085
 21
997.2501784363375
 31
0.0
  0
LINE
  5
C3
330
70
100
AcDbEntity
  8
Camada 1
 62
    18
420
        0
370
    35
100
AcDbLine
 10
1681.84046984612
 20
993.8582291387739
 30
0.0
 11
638.6762157856701
 21
993.8582291387739
 31
0.0
  0
LINE
  5
C4
330
70
100
AcDbEntity
  8
Camada 1
 62
    18
420
        0
370
    35
100
AcDbLine
 10
637.5145588191708
 20
995.0198610927436
 30
0.0
 11
1683.00215182515
 21
995.0198610927436
 31
0.0
  0
LINE
  5
C5
330
70
100
AcDbEntity
  8
Camada 1
 62
    18
420
        0
370
    35
100
AcDbLine
 10
660.2336656292955
 20
996.7483270189914
 30
0.0
 11
710.871709258552
 21
996.7483270189914
 31
0.0
  0
LINE
  5
C6
330
70
100
AcDbEntity
  8
Camada 1
 62
    18
420
        0
370
    35
100
AcDbLine
 10
849.2735207493078
 20
996.7483270189914
 30
0.0
 11
900.9645669113997
 21
996.7483270189914
 31
0.0
  0
LINE
  5
C7
330
70
100
AcDbEntity
  8
Camada 1
 62
    18
420
        0
370
    35
100
AcDbLine
 10
1039.36635338962
 20
996.7483270189914
 30
0.0
 11
1091.057449576779
 21
996.7483270189914
 31
0.0
  0
LINE
  5
C8
330
70
100
AcDbEntity
  8
Camada 1
 62
    18
420
        0
370
    35
100
AcDbLine
 10
1229.45923605501
 20
996.7483270189914
 30
0.0
 11
1281.150332242159
 21
996.7483270189914
 31
0.0
  0
LINE
  5
C9
330
70
100
AcDbEntity
  8
Camada 1
 62
    18
420
        0
370
    35
100
AcDbLine
 10
1419.55206869532
 20
996.7483270189914
 30
0.0
 11
1471.24316488248
 21
996.7483270189914
 31
0.0
  0
LINE
  5
CA
330
70
100
AcDbEntity
  8
Camada 1
 62
    18
420
        0
370
    35
100
AcDbLine
 10
1609.64500138577
 20
996.7483270189914
 30
0.0
 11
1660.28307002755
 21
996.7483270189914
 31
0.0
  0
LINE
  5
CB
330
70
100
AcDbEntity
  8
Camada 1
 62
    18
420
        0
370
    35
100
AcDbLine
 10
733.1082243000219
 20
997.3564316670454
 30
0.0
 11
827.0369806953057
 21
997.3564316670454
 31
0.0
  0
LINE
  5
CC
330
70
100
AcDbEntity
  8
Camada 1
 62
    18
420
        0
370
    35
100
AcDbLine
 10
923.2011069654017
 20
997.3564316670454
 30
0.0
 11
1017.129863360689
 21
997.3564316670454
 31
0.0
  0
LINE
  5
CD
330
70
100
AcDbEntity
  8
Camada 1
 62
    18
420
        0
370
    35
100
AcDbLine
 10
1113.293939605719
 20
997.3564316670454
 30
0.0
 11
1207.22274602606
 21
997.3564316670454
 31
0.0
  0
LINE
  5
CE
330
70
100
AcDbEntity
  8
Camada 1
 62
    18
420
        0
370
    35
100
AcDbLine
 10
1303.38687229616
 20
997.3564316670454
 30
0.0
 11
1397.31562869144
 21
997.3564316670454
 31
0.0
  0
LINE
  5
CF
330
70
100
AcDbEntity
  8
Camada 1
 62
    18
420
        0
370
    35
100
AcDbLine
 10
1493.47970493648
 20
997.3564316670454
 30
0.0
 11
1587.40846133177
 21
997.3564316670454
 31
0.0
  0
LINE
  5
D0
330
70
100
AcDbEntity
  8
Camada 1
 62
    18
420
        0
370
    35
100
AcDbLine
 10
642.2817720959992
 20
997.2501784363375
 30
0.0
 11
656.3096497772185
 21
996.8015536844687
 31
0.0
  0
LINE
  5
D1
330
70
100
AcDbEntity
  8
Camada 1
 62
    18
420
        0
370
    35
100
AcDbLine
 10
831.1440382475511
 20
997.2970519190003
 30
0.0
 11
845.1664631970615
 21
996.8077067670401
 31
0.0
  0
LINE
  5
D2
330
70
100
AcDbEntity
  8
Camada 1
 62
    18
420
        0
370
    35
100
AcDbLine
 10
1021.23692091293
 20
997.2970519190003
 30
0.0
 11
1035.25929583738
 21
996.8077067670401
 31
0.0
  0
LINE
  5
D3
330
70
100
AcDbEntity
  8
Camada 1
 62
    18
420
        0
370
    35
100
AcDbLine
 10
1211.32980357831
 20
997.2970519190003
 30
0.0
 11
1225.352178502761
 21
996.8077067670401
 31
0.0
  0
LINE
  5
D4
330
70
100
AcDbEntity
  8
Camada 1
 62
    18
420
        0
370
    35
100
AcDbLine
 10
905.0716244636459
 20
996.8077067670401
 30
0.0
 11
919.0940494131554
 21
997.2970519190003
 31
0.0
  0
LINE
  5
D5
330
70
100
AcDbEntity
  8
Camada 1
 62
    18
420
        0
370
    35
100
AcDbLine
 10
714.9787668107965
 20
996.8077067670401
 30
0.0
 11
729.0011667477775
 21
997.2970519190003
 31
0.0
  0
LINE
  5
D6
330
70
100
AcDbEntity
  8
Camada 1
 62
    18
420
        0
370
    35
100
AcDbLine
 10
1401.42268624369
 20
997.2970519190003
 30
0.0
 11
1415.44501114308
 21
996.8077067670401
 31
0.0
  0
LINE
  5
D7
330
70
100
AcDbEntity
  8
Camada 1
 62
    18
420
        0
370
    35
100
AcDbLine
 10
1591.515518884011
 20
997.2970519190003
 30
0.0
 11
1605.53794383352
 21
996.8077067670401
 31
0.0
  0
LINE
  5
D8
330
70
100
AcDbEntity
  8
Camada 1
 62
    18
420
        0
370
    35
100
AcDbLine
 10
1196.269558702141
 20
1007.21722172217
 30
0.0
 11
1196.269558702141
 21
1061.81492405985
 31
0.0
  0
LINE
  5
D9
330
70
100
AcDbEntity
  8
Camada 1
 62
    18
420
        0
370
    35
100
AcDbLine
 10
1199.754554614159
 20
1061.81492405985
 30
0.0
 11
1199.754554614159
 21
1007.21722172217
 31
0.0
  0
LINE
  5
DA
330
70
100
AcDbEntity
  8
Camada 1
 62
    18
420
        0
370
    35
100
AcDbLine
 10
1605.53794383352
 20
1072.22443901499
 30
0.0
 11
1591.515518884011
 21
1071.73509386303
 31
0.0
  0
LINE
  5
DB
330
70
100
AcDbEntity
  8
Camada 1
 62
    18
420
        0
370
    35
100
AcDbLine
 10
1415.44501114308
 20
1072.22443901499
 30
0.0
 11
1401.42268624369
 21
1071.73509386303
 31
0.0
  0
LINE
  5
DC
330
70
100
AcDbEntity
  8
Camada 1
 62
    18
420
        0
370
    35
100
AcDbLine
 10
1225.352178502761
 20
1072.22443901499
 30
0.0
 11
1211.32980357831
 21
1071.73509386303
 31
0.0
  0
LINE
  5
DD
330
70
100
AcDbEntity
  8
Camada 1
 62
    18
420
        0
370
    35
100
AcDbLine
 10
1035.25929583738
 20
1072.22443901499
 30
0.0
 11
1021.23692091293
 21
1071.73509386303
 31
0.0
  0
LINE
  5
DE
330
70
100
AcDbEntity
  8
Camada 1
 62
    18
420
        0
370
    35
100
AcDbLine
 10
1587.40846133177
 20
1071.67571411498
 30
0.0
 11
1493.47970493648
 21
1071.67571411498
 31
0.0
  0
LINE
  5
DF
330
70
100
AcDbEntity
  8
Camada 1
 62
    18
420
        0
370
    35
100
AcDbLine
 10
1397.31562869144
 20
1071.67571411498
 30
0.0
 11
1303.38687229616
 21
1071.67571411498
 31
0.0
  0
LINE
  5
E0
330
70
100
AcDbEntity
  8
Camada 1
 62
    18
420
        0
370
    35
100
AcDbLine
 10
1207.22274602606
 20
1071.67571411498
 30
0.0
 11
1113.293939605719
 21
1071.67571411498
 31
0.0
  0
LINE
  5
E1
330
70
100
AcDbEntity
  8
Camada 1
 62
    18
420
        0
370
    35
100
AcDbLine
 10
1017.129863360689
 20
1071.67571411498
 30
0.0
 11
923.2011069654017
 21
1071.67571411498
 31
0.0
  0
LINE
  5
E2
330
70
100
AcDbEntity
  8
Camada 1
 62
    18
420
        0
370
    35
100
AcDbLine
 10
827.0369806953057
 20
1071.67571411498
 30
0.0
 11
733.1082243000219
 21
1071.67571411498
 31
0.0
  0
LINE
  5
E3
330
70
100
AcDbEntity
  8
Camada 1
 62
    18
420
        0
370
    35
100
AcDbLine
 10
1660.28307002755
 20
1072.283818763029
 30
0.0
 11
1609.64500138577
 21
1072.283818763029
 31
0.0
  0
LINE
  5
E4
330
70
100
AcDbEntity
  8
Camada 1
 62
    18
420
        0
370
    35
100
AcDbLine
 10
1471.24316488248
 20
1072.283818763029
 30
0.0
 11
1419.55206869532
 21
1072.283818763029
 31
0.0
  0
LINE
  5
E5
330
70
100
AcDbEntity
  8
Camada 1
 62
    18
420
        0
370
    35
100
AcDbLine
 10
1281.150332242159
 20
1072.283818763029
 30
0.0
 11
1229.45923605501
 21
1072.283818763029
 31
0.0
  0
LINE
  5
E6
330
70
100
AcDbEntity
  8
Camada 1
 62
    18
420
        0
370
    35
100
AcDbLine
 10
1091.057449576779
 20
1072.283818763029
 30
0.0
 11
1039.36635338962
 21
1072.283818763029
 31
0.0
  0
LINE
  5
E7
330
70
100
AcDbEntity
  8
Camada 1
 62
    18
420
        0
370
    35
100
AcDbLine
 10
900.9645669113997
 20
1072.283818763029
 30
0.0
 11
849.2735207493078
 21
1072.283818763029
 31
0.0
  0
LINE
  5
E8
330
70
100
AcDbEntity
  8
Camada 1
 62
    18
420
        0
370
    35
100
AcDbLine
 10
710.871709258552
 20
1072.283818763029
 30
0.0
 11
660.2336656292955
 21
1072.283818763029
 31
0.0
  0
LINE
  5
E9
330
70
100
AcDbEntity
  8
Camada 1
 62
    18
420
        0
370
    35
100
AcDbLine
 10
637.5145588191708
 20
1074.01228468928
 30
0.0
 11
1683.00215182515
 21
1074.01228468928
 31
0.0
  0
LINE
  5
EA
330
70
100
AcDbEntity
  8
Camada 1
 62
    18
420
        0
370
    35
100
AcDbLine
 10
638.6762157856701
 20
1075.17391664325
 30
0.0
 11
1681.84046984612
 21
1075.17391664325
 31
0.0
  0
LINE
  5
EB
330
70
100
AcDbEntity
  8
Camada 1
 62
    18
420
        0
370
    35
100
AcDbLine
 10
729.0011667477775
 20
1071.73509386303
 30
0.0
 11
714.9787668107965
 21
1072.22443901499
 31
0.0
  0
LINE
  5
EC
330
70
100
AcDbEntity
  8
Camada 1
 62
    18
420
        0
370
    35
100
AcDbLine
 10
919.0940494131554
 20
1071.73509386303
 30
0.0
 11
905.0716244636459
 21
1072.22443901499
 31
0.0
  0
LINE
  5
ED
330
70
100
AcDbEntity
  8
Camada 1
 62
    18
420
        0
370
    35
100
AcDbLine
 10
1109.186882053469
 20
1071.73509386303
 30
0.0
 11
1095.16450712902
 21
1072.22443901499
 31
0.0
  0
LINE
  5
EE
330
70
100
AcDbEntity
  8
Camada 1
 62
    18
420
        0
370
    35
100
AcDbLine
 10
1299.279814743921
 20
1071.73509386303
 30
0.0
 11
1285.2573897944
 21
1072.22443901499
 31
0.0
  0
LINE
  5
EF
330
70
100
AcDbEntity
  8
Camada 1
 62
    18
420
        0
370
    35
100
AcDbLine
 10
1211.371074254081
 20
1007.21722172217
 30
0.0
 11
1211.371074254081
 21
1061.81492405985
 31
0.0
  0
LINE
  5
F0
330
70
100
AcDbEntity
  8
Camada 1
 62
    18
420
        0
370
    35
100
AcDbLine
 10
1214.85602014104
 20
1061.81492405985
 30
0.0
 11
1214.85602014104
 21
1007.21722172217
 31
0.0
  0
LINE
  5
F1
330
70
100
AcDbEntity
  8
Camada 1
 62
    18
420
        0
370
    35
100
AcDbLine
 10
1226.47253978096
 20
1007.21722172217
 30
0.0
 11
1226.47253978096
 21
1061.81492405985
 31
0.0
  0
LINE
  5
F2
330
70
100
AcDbEntity
  8
Camada 1
 62
    18
420
        0
370
    35
100
AcDbLine
 10
1229.95753569298
 20
1061.81492405985
 30
0.0
 11
1229.95753569298
 21
1007.21722172217
 31
0.0
  0
LINE
  5
F3
330
70
100
AcDbEntity
  8
Camada 1
 62
    18
420
        0
370
    35
100
AcDbLine
 10
845.1664631970615
 20
1072.22443901499
 30
0.0
 11
831.1440382475511
 21
1071.73509386303
 31
0.0
  0
LINE
  5
F4
330
70
100
AcDbEntity
  8
Camada 1
 62
    18
420
        0
370
    35
100
AcDbLine
 10
656.3096497772185
 20
1072.23059209755
 30
0.0
 11
642.2817720959992
 21
1071.78196734569
 31
0.0
  0
LINE
  5
F5
330
70
100
AcDbEntity
  8
Camada 1
 62
    18
420
        0
370
    35
100
AcDbLine
 10
1678.23496356085
 20
1071.78196734569
 30
0.0
 11
1664.20703585457
 21
1072.23059209755
 31
0.0
  0
LINE
  5
F6
330
70
100
AcDbEntity
  8
Camada 1
 62
    18
420
        0
370
    35
100
AcDbLine
 10
1489.37264738424
 20
1071.73509386303
 30
0.0
 11
1475.35022243473
 21
1072.22443901499
 31
0.0
  0
LINE
  5
F7
330
70
100
AcDbEntity
  8
Camada 1
 62
    18
420
        0
370
    35
100
AcDbLine
 10
1241.574055332899
 20
1007.21722172217
 30
0.0
 11
1241.574055332899
 21
1061.81492405985
 31
0.0
  0
LINE
  5
F8
330
70
100
AcDbEntity
  8
Camada 1
 62
    18
420
        0
370
    35
100
AcDbLine
 10
1245.059001219859
 20
1061.81492405985
 30
0.0
 11
1245.059001219859
 21
1007.21722172217
 31
0.0
  0
LINE
  5
F9
330
70
100
AcDbEntity
  8
Camada 1
 62
    18
420
        0
370
    35
100
AcDbLine
 10
1256.675570884839
 20
1007.21722172217
 30
0.0
 11
1256.675570884839
 21
1061.81492405985
 31
0.0
  0
LINE
  5
FA
330
70
100
AcDbEntity
  8
Camada 1
 62
    18
420
        0
370
    35
100
AcDbLine
 10
1260.160516771801
 20
1061.81492405985
 30
0.0
 11
1260.160516771801
 21
1007.21722172217
 31
0.0
  0
LINE
  5
FB
330
70
100
AcDbEntity
  8
Camada 1
 62
    18
420
        0
370
    35
100
AcDbLine
 10
1271.77703641172
 20
1007.21722172217
 30
0.0
 11
1271.77703641172
 21
1061.81492405985
 31
0.0
  0
LINE
  5
FC
330
70
100
AcDbEntity
  8
Camada 1
 62
    18
420
        0
370
    35
100
AcDbLine
 10
1275.26198229868
 20
1061.81492405985
 30
0.0
 11
1275.26198229868
 21
1007.21722172217
 31
0.0
  0
LINE
  5
FD
330
70
100
AcDbEntity
  8
Camada 1
 62
    18
420
        0
370
    35
100
AcDbLine
 10
1286.87850193859
 20
1007.21722172217
 30
0.0
 11
1286.87850193859
 21
1061.81492405985
 31
0.0
  0
LINE
  5
FE
330
70
100
AcDbEntity
  8
Camada 1
 62
    18
420
        0
370
    35
100
AcDbLine
 10
1290.363447825559
 20
1061.81492405985
 30
0.0
 11
1290.363447825559
 21
1007.21722172217
 31
0.0
  0
LINE
  5
FF
330
70
100
AcDbEntity
  8
Camada 1
 62
    18
420
        0
370
    35
100
AcDbLine
 10
1301.97996746548
 20
1007.21722172217
 30
0.0
 11
1301.97996746548
 21
1061.81492405985
 31
0.0
  0
LINE
  5
100
330
70
100
AcDbEntity
  8
Camada 1
 62
    18
420
        0
370
    35
100
AcDbLine
 10
1305.46491335244
 20
1061.81492405985
 30
0.0
 11
1305.46491335244
 21
1007.21722172217
 31
0.0
  0
LINE
  5
101
330
70
100
AcDbEntity
  8
Camada 1
 62
    18
420
        0
370
    35
100
AcDbLine
 10
1317.08143299235
 20
1007.21722172217
 30
0.0
 11
1317.08143299235
 21
1061.81492405985
 31
0.0
  0
LINE
  5
102
330
70
100
AcDbEntity
  8
Camada 1
 62
    18
420
        0
370
    35
100
AcDbLine
 10
1320.56647892944
 20
1061.81492405985
 30
0.0
 11
1320.56647892944
 21
1007.21722172217
 31
0.0
  0
LINE
  5
103
330
70
100
AcDbEntity
  8
Camada 1
 62
    18
420
        0
370
    35
100
AcDbLine
 10
1332.182998569349
 20
1007.21722172217
 30
0.0
 11
1332.182998569349
 21
1061.81492405985
 31
0.0
  0
LINE
  5
104
330
70
100
AcDbEntity
  8
Camada 1
 62
    18
420
        0
370
    35
100
AcDbLine
 10
1335.667944456319
 20
1061.81492405985
 30
0.0
 11
1335.667944456319
 21
1007.21722172217
 31
0.0
  0
LINE
  5
105
330
70
100
AcDbEntity
  8
Camada 1
 62
    18
420
        0
370
    35
100
AcDbLine
 10
1347.28446409623
 20
1007.21722172217
 30
0.0
 11
1347.28446409623
 21
1061.81492405985
 31
0.0
  0
LINE
  5
106
330
70
100
AcDbEntity
  8
Camada 1
 62
    18
420
        0
370
    35
100
AcDbLine
 10
1350.769409983201
 20
1061.81492405985
 30
0.0
 11
1350.769409983201
 21
1007.21722172217
 31
0.0
  0
LINE
  5
107
330
70
100
AcDbEntity
  8
Camada 1
 62
    18
420
        0
370
    35
100
AcDbLine
 10
1362.385929623109
 20
1007.21722172217
 30
0.0
 11
1362.385929623109
 21
1061.81492405985
 31
0.0
  0
LINE
  5
108
330
70
100
AcDbEntity
  8
Camada 1
 62
    18
420
        0
370
    35
100
AcDbLine
 10
1365.870875510071
 20
1061.81492405985
 30
0.0
 11
1365.870875510071
 21
1007.21722172217
 31
0.0
  0
LINE
  5
109
330
70
100
AcDbEntity
  8
Camada 1
 62
    18
420
        0
370
    35
100
AcDbLine
 10
1377.48739514999
 20
1007.21722172217
 30
0.0
 11
1377.48739514999
 21
1061.81492405985
 31
0.0
  0
LINE
  5
10A
330
70
100
AcDbEntity
  8
Camada 1
 62
    18
420
        0
370
    35
100
AcDbLine
 10
1380.97234103695
 20
1061.81492405985
 30
0.0
 11
1380.97234103695
 21
1007.21722172217
 31
0.0
  0
LINE
  5
10B
330
70
100
AcDbEntity
  8
Camada 1
 62
    18
420
        0
370
    35
100
AcDbLine
 10
1680.097096451529
 20
997.3819444484288
 30
0.0
 11
1681.23756780447
 21
997.8368723580533
 31
0.0
  0
LINE
  5
10C
330
70
100
AcDbEntity
  8
Camada 1
 62
    18
420
        0
370
    35
100
AcDbLine
 10
1681.23756780447
 20
1071.19527342397
 30
0.0
 11
1680.097096451529
 21
1071.6502013336
 31
0.0
  0
LINE
  5
10D
330
70
100
AcDbEntity
  8
Camada 1
 62
    18
420
        0
370
    35
100
AcDbLine
 10
1392.588860676869
 20
1007.21722172217
 30
0.0
 11
1392.588860676869
 21
1061.81492405985
 31
0.0
  0
LINE
  5
10E
330
70
100
AcDbEntity
  8
Camada 1
 62
    18
420
        0
370
    35
100
AcDbLine
 10
1396.073906613959
 20
1061.81492405985
 30
0.0
 11
1396.073906613959
 21
1007.21722172217
 31
0.0
  0
LINE
  5
10F
330
70
100
AcDbEntity
  8
Camada 1
 62
    18
420
        0
370
    35
100
AcDbLine
 10
1407.69042625387
 20
1007.21722172217
 30
0.0
 11
1407.69042625387
 21
1061.81492405985
 31
0.0
  0
LINE
  5
110
330
70
100
AcDbEntity
  8
Camada 1
 62
    18
420
        0
370
    35
100
AcDbLine
 10
1411.17537214084
 20
1061.81492405985
 30
0.0
 11
1411.17537214084
 21
1007.21722172217
 31
0.0
  0
LINE
  5
111
330
70
100
AcDbEntity
  8
Camada 1
 62
    18
420
        0
370
    35
100
AcDbLine
 10
1422.791891780749
 20
1007.21722172217
 30
0.0
 11
1422.791891780749
 21
1061.81492405985
 31
0.0
  0
LINE
  5
112
330
70
100
AcDbEntity
  8
Camada 1
 62
    18
420
        0
370
    35
100
AcDbLine
 10
1426.27683766771
 20
1061.81492405985
 30
0.0
 11
1426.27683766771
 21
1007.21722172217
 31
0.0
  0
LINE
  5
113
330
70
100
AcDbEntity
  8
Camada 1
 62
    18
420
        0
370
    35
100
AcDbLine
 10
1437.89335730763
 20
1007.21722172217
 30
0.0
 11
1437.89335730763
 21
1061.81492405985
 31
0.0
  0
LINE
  5
114
330
70
100
AcDbEntity
  8
Camada 1
 62
    18
420
        0
370
    35
100
AcDbLine
 10
1441.378303194589
 20
1061.81492405985
 30
0.0
 11
1441.378303194589
 21
1007.21722172217
 31
0.0
  0
LINE
  5
115
330
70
100
AcDbEntity
  8
Camada 1
 62
    18
420
        0
370
    35
100
AcDbLine
 10
1452.994822834509
 20
1007.21722172217
 30
0.0
 11
1452.994822834509
 21
1061.81492405985
 31
0.0
  0
LINE
  5
116
330
70
100
AcDbEntity
  8
Camada 1
 62
    18
420
        0
370
    35
100
AcDbLine
 10
1456.47976872147
 20
1061.81492405985
 30
0.0
 11
1456.47976872147
 21
1007.21722172217
 31
0.0
  0
LINE
  5
117
330
70
100
AcDbEntity
  8
Camada 1
 62
    18
420
        0
370
    35
100
AcDbLine
 10
1468.09638841151
 20
1007.21722172217
 30
0.0
 11
1468.09638841151
 21
1061.81492405985
 31
0.0
  0
LINE
  5
118
330
70
100
AcDbEntity
  8
Camada 1
 62
    18
420
        0
370
    35
100
AcDbLine
 10
1471.581334298469
 20
1061.81492405985
 30
0.0
 11
1471.581334298469
 21
1007.21722172217
 31
0.0
  0
LINE
  5
119
330
70
100
AcDbEntity
  8
Camada 1
 62
    18
420
        0
370
    35
100
AcDbLine
 10
1483.197853938389
 20
1007.21722172217
 30
0.0
 11
1483.197853938389
 21
1061.81492405985
 31
0.0
  0
LINE
  5
11A
330
70
100
AcDbEntity
  8
Camada 1
 62
    18
420
        0
370
    35
100
AcDbLine
 10
1486.68279982535
 20
1061.81492405985
 30
0.0
 11
1486.68279982535
 21
1007.21722172217
 31
0.0
  0
LINE
  5
11B
330
70
100
AcDbEntity
  8
Camada 1
 62
    18
420
        0
370
    35
100
AcDbLine
 10
1498.29931946527
 20
1007.21722172217
 30
0.0
 11
1498.29931946527
 21
1061.81492405985
 31
0.0
  0
LINE
  5
11C
330
70
100
AcDbEntity
  8
Camada 1
 62
    18
420
        0
370
    35
100
AcDbLine
 10
1501.784265352229
 20
1061.81492405985
 30
0.0
 11
1501.784265352229
 21
1007.21722172217
 31
0.0
  0
LINE
  5
11D
330
70
100
AcDbEntity
  8
Camada 1
 62
    18
420
        0
370
    35
100
AcDbLine
 10
1513.400784992151
 20
1007.21722172217
 30
0.0
 11
1513.400784992151
 21
1061.81492405985
 31
0.0
  0
LINE
  5
11E
330
70
100
AcDbEntity
  8
Camada 1
 62
    18
420
        0
370
    35
100
AcDbLine
 10
1516.88573087911
 20
1061.81492405985
 30
0.0
 11
1516.88573087911
 21
1007.21722172217
 31
0.0
  0
LINE
  5
11F
330
70
100
AcDbEntity
  8
Camada 1
 62
    18
420
        0
370
    35
100
AcDbLine
 10
1528.50225051903
 20
1007.21722172217
 30
0.0
 11
1528.50225051903
 21
1061.81492405985
 31
0.0
  0
LINE
  5
120
330
70
100
AcDbEntity
  8
Camada 1
 62
    18
420
        0
370
    35
100
AcDbLine
 10
1531.987296456111
 20
1061.81492405985
 30
0.0
 11
1531.987296456111
 21
1007.21722172217
 31
0.0
  0
LINE
  5
121
330
70
100
AcDbEntity
  8
Camada 1
 62
    18
420
        0
370
    35
100
AcDbLine
 10
1543.60381609603
 20
1007.21722172217
 30
0.0
 11
1543.60381609603
 21
1061.81492405985
 31
0.0
  0
LINE
  5
122
330
70
100
AcDbEntity
  8
Camada 1
 62
    18
420
        0
370
    35
100
AcDbLine
 10
1547.08876198299
 20
1061.81492405985
 30
0.0
 11
1547.08876198299
 21
1007.21722172217
 31
0.0
  0
LINE
  5
123
330
70
100
AcDbEntity
  8
Camada 1
 62
    18
420
        0
370
    35
100
AcDbLine
 10
1558.70528162291
 20
1007.21722172217
 30
0.0
 11
1558.70528162291
 21
1061.81492405985
 31
0.0
  0
LINE
  5
124
330
70
100
AcDbEntity
  8
Camada 1
 62
    18
420
        0
370
    35
100
AcDbLine
 10
1562.190227509869
 20
1061.81492405985
 30
0.0
 11
1562.190227509869
 21
1007.21722172217
 31
0.0
  0
LINE
  5
125
330
70
100
AcDbEntity
  8
Camada 1
 62
    18
420
        0
370
    35
100
AcDbLine
 10
1573.806747149791
 20
1007.21722172217
 30
0.0
 11
1573.806747149791
 21
1061.81492405985
 31
0.0
  0
LINE
  5
126
330
70
100
AcDbEntity
  8
Camada 1
 62
    18
420
        0
370
    35
100
AcDbLine
 10
1577.29169303675
 20
1061.81492405985
 30
0.0
 11
1577.29169303675
 21
1007.21722172217
 31
0.0
  0
LINE
  5
127
330
70
100
AcDbEntity
  8
Camada 1
 62
    18
420
        0
370
    35
100
AcDbLine
 10
1588.908212676661
 20
1007.21722172217
 30
0.0
 11
1588.908212676661
 21
1061.81492405985
 31
0.0
  0
LINE
  5
128
330
70
100
AcDbEntity
  8
Camada 1
 62
    18
420
        0
370
    35
100
AcDbLine
 10
1592.393158563631
 20
1061.81492405985
 30
0.0
 11
1592.393158563631
 21
1007.21722172217
 31
0.0
  0
LINE
  5
129
330
70
100
AcDbEntity
  8
Camada 1
 62
    18
420
        0
370
    35
100
AcDbLine
 10
1604.009678203551
 20
1007.21722172217
 30
0.0
 11
1604.009678203551
 21
1061.81492405985
 31
0.0
  0
LINE
  5
12A
330
70
100
AcDbEntity
  8
Camada 1
 62
    18
420
        0
370
    35
100
AcDbLine
 10
1607.49472414063
 20
1061.81492405985
 30
0.0
 11
1607.49472414063
 21
1007.21722172217
 31
0.0
  0
LINE
  5
12B
330
70
100
AcDbEntity
  8
Camada 1
 62
    18
420
        0
370
    35
100
AcDbLine
 10
1619.111243780549
 20
1007.21722172217
 30
0.0
 11
1619.111243780549
 21
1061.81492405985
 31
0.0
  0
LINE
  5
12C
330
70
100
AcDbEntity
  8
Camada 1
 62
    18
420
        0
370
    35
100
AcDbLine
 10
1622.596189667511
 20
1061.81492405985
 30
0.0
 11
1622.596189667511
 21
1007.21722172217
 31
0.0
  0
LINE
  5
12D
330
70
100
AcDbEntity
  8
Camada 1
 62
    18
420
        0
370
    35
100
AcDbLine
 10
1634.212709307419
 20
1007.21722172217
 30
0.0
 11
1634.212709307419
 21
1061.81492405985
 31
0.0
  0
LINE
  5
12E
330
70
100
AcDbEntity
  8
Camada 1
 62
    18
420
        0
370
    35
100
AcDbLine
 10
1637.69765519439
 20
1061.81492405985
 30
0.0
 11
1637.69765519439
 21
1007.21722172217
 31
0.0
  0
LINE
  5
12F
330
70
100
AcDbEntity
  8
Camada 1
 62
    18
420
        0
370
    35
100
AcDbLine
 10
1649.314174834301
 20
1007.21722172217
 30
0.0
 11
1649.314174834301
 21
1061.81492405985
 31
0.0
  0
LINE
  5
130
330
70
100
AcDbEntity
  8
Camada 1
 62
    18
420
        0
370
    35
100
AcDbLine
 10
1652.799120721269
 20
1061.81492405985
 30
0.0
 11
1652.799120721269
 21
1007.21722172217
 31
0.0
  0
LINE
  5
131
330
70
100
AcDbEntity
  8
Camada 1
 62
    18
420
        0
370
    35
100
AcDbLine
 10
1664.415640361179
 20
1007.21722172217
 30
0.0
 11
1664.415640361179
 21
1061.81492405985
 31
0.0
  0
LINE
  5
132
330
70
100
AcDbEntity
  8
Camada 1
 62
    18
420
        0
370
    35
100
AcDbLine
 10
1667.90058624815
 20
1061.81492405985
 30
0.0
 11
1667.90058624815
 21
1007.21722172217
 31
0.0
  0
LINE
  5
133
330
70
100
AcDbEntity
  8
Camada 1
 62
    18
420
        0
370
    35
100
AcDbLine
 10
1681.25967888167
 20
1071.13874510443
 30
0.0
 11
1681.25967888167
 21
1048.26093378658
 31
0.0
  0
LINE
  5
134
330
70
100
AcDbEntity
  8
Camada 1
 62
    18
420
        0
370
    35
100
AcDbLine
 10
1681.25967888167
 20
997.8934006775908
 30
0.0
 11
1681.25967888167
 21
1020.77121199544
 31
0.0
  0
LINE
  5
135
330
70
100
AcDbEntity
  8
Camada 1
 62
    18
420
        0
370
    35
100
AcDbLine
 10
1681.84046984612
 20
993.8582291387739
 30
0.0
 11
1681.84046984612
 21
1075.17391664325
 31
0.0
  0
LINE
  5
136
330
70
100
AcDbEntity
  8
Camada 1
 62
    18
420
        0
370
    35
100
AcDbLine
 10
1683.00215182515
 20
1074.01228468928
 30
0.0
 11
1683.00215182515
 21
995.0198610927436
 31
0.0
  0
LINE
  5
137
330
70
100
AcDbEntity
  8
Camada 1
 62
    18
420
        0
370
    35
100
AcDbLine
 10
637.5145588191708
 20
1166.02219937688
 30
0.0
 11
637.5145588191708
 21
1198.780810774469
 31
0.0
  0
LINE
  5
138
330
70
100
AcDbEntity
  8
Camada 1
 62
    18
420
        0
370
    35
100
AcDbLine
 10
638.6762157856701
 20
1166.02219937688
 30
0.0
 11
638.6762157856701
 21
1198.780810774469
 31
0.0
  0
LINE
  5
139
330
70
100
AcDbEntity
  8
Camada 1
 62
    18
420
        0
370
    35
100
AcDbLine
 10
639.6055563663849
 20
1163.931251854719
 30
0.0
 11
1680.911104252869
 21
1163.931251854719
 31
0.0
  0
LINE
  5
13A
330
70
100
AcDbEntity
  8
Camada 1
 62
    18
420
        0
370
    35
100
AcDbLine
 10
638.6762157856701
 20
1166.02219937688
 30
0.0
 11
637.5145588191708
 21
1166.02219937688
 31
0.0
  0
LINE
  5
13B
330
70
100
AcDbEntity
  8
Camada 1
 62
    18
420
        0
370
    35
100
AcDbLine
 10
1681.84046984612
 20
1166.02219937688
 30
0.0
 11
1683.00215182515
 21
1166.02219937688
 31
0.0
  0
LINE
  5
13C
330
70
100
AcDbEntity
  8
Camada 1
 62
    18
420
        0
370
    35
100
AcDbLine
 10
1681.84046984612
 20
1198.780810774469
 30
0.0
 11
638.6762157856701
 21
1198.780810774469
 31
0.0
  0
LINE
  5
13D
330
70
100
AcDbEntity
  8
Camada 1
 62
    18
420
        0
370
    35
100
AcDbLine
 10
638.6762157856701
 20
1198.780810774469
 30
0.0
 11
637.5145588191708
 21
1198.780810774469
 31
0.0
  0
LINE
  5
13E
330
70
100
AcDbEntity
  8
Camada 1
 62
    18
420
        0
370
    35
100
AcDbLine
 10
1681.84046984612
 20
1198.780810774469
 30
0.0
 11
1683.00215182515
 21
1198.780810774469
 31
0.0
  0
LINE
  5
13F
330
70
100
AcDbEntity
  8
Camada 1
 62
    18
420
        0
370
    35
100
AcDbLine
 10
1681.84046984612
 20
1166.02219937688
 30
0.0
 11
1681.84046984612
 21
1198.780810774469
 31
0.0
  0
LINE
  5
140
330
70
100
AcDbEntity
  8
Camada 1
 62
    18
420
        0
370
    35
100
AcDbLine
 10
1683.00215182515
 20
1166.02219937688
 30
0.0
 11
1683.00215182515
 21
1198.780810774469
 31
0.0
  0
SPLINE
  5
141
330
70
100
AcDbEntity
  8
Camada 1
 62
    18
420
        0
370
    35
100
AcDbSpline
210
0.0
220
0.0
230
1.0
 70
     8
 71
     3
 72
     8
 73
     4
 74
     0
 42
0.0000000001
 43
0.0000000001
 40
0.0
 40
0.0
 40
0.0
 40
0.0
 40
1.0
 40
1.0
 40
1.0
 40
1.0
 10
652.6160493585812
 20
1007.21722172217
 30
0.0
 10
652.6160493585812
 20
1006.25488961337
 30
0.0
 10
653.3961901932616
 20
1005.47474877869
 30
0.0
 10
654.3585473145922
 20
1005.47474877869
 30
0.0
  0
SPLINE
  5
142
330
70
100
AcDbEntity
  8
Camada 1
 62
    18
420
        0
370
    35
100
AcDbSpline
210
0.0
220
0.0
230
1.0
 70
     8
 71
     3
 72
     8
 73
     4
 74
     0
 42
0.0000000001
 43
0.0000000001
 40
0.0
 40
0.0
 40
0.0
 40
0.0
 40
1.0
 40
1.0
 40
1.0
 40
1.0
 10
654.3585473145922
 20
1005.47474877869
 30
0.0
 10
655.3208794233942
 20
1005.47474877869
 30
0.0
 10
656.1010202580737
 20
1006.25488961337
 30
0.0
 10
656.1010202580737
 20
1007.21722172217
 30
0.0
  0
SPLINE
  5
143
330
70
100
AcDbEntity
  8
Camada 1
 62
    18
420
        0
370
    35
100
AcDbSpline
210
0.0
220
0.0
230
1.0
 70
     8
 71
     3
 72
     8
 73
     4
 74
     0
 42
0.0000000001
 43
0.0000000001
 40
0.0
 40
0.0
 40
0.0
 40
0.0
 40
1.0
 40
1.0
 40
1.0
 40
1.0
 10
667.7175398979906
 20
1007.21722172217
 30
0.0
 10
667.7175398979906
 20
1006.25488961337
 30
0.0
 10
668.4976807326702
 20
1005.47474877869
 30
0.0
 10
669.4600128414722
 20
1005.47474877869
 30
0.0
  0
SPLINE
  5
144
330
70
100
AcDbEntity
  8
Camada 1
 62
    18
420
        0
370
    35
100
AcDbSpline
210
0.0
220
0.0
230
1.0
 70
     8
 71
     3
 72
     8
 73
     4
 74
     0
 42
0.0000000001
 43
0.0000000001
 40
0.0
 40
0.0
 40
0.0
 40
0.0
 40
1.0
 40
1.0
 40
1.0
 40
1.0
 10
669.4600128414722
 20
1005.47474877869
 30
0.0
 10
670.4223699628037
 20
1005.47474877869
 30
0.0
 10
671.2025107974832
 20
1006.25488961337
 30
0.0
 10
671.2025107974832
 20
1007.21722172217
 30
0.0
  0
SPLINE
  5
145
330
70
100
AcDbEntity
  8
Camada 1
 62
    18
420
        0
370
    35
100
AcDbSpline
210
0.0
220
0.0
230
1.0
 70
     8
 71
     3
 72
     8
 73
     4
 74
     0
 42
0.0000000001
 43
0.0000000001
 40
0.0
 40
0.0
 40
0.0
 40
0.0
 40
1.0
 40
1.0
 40
1.0
 40
1.0
 10
682.8190304374002
 20
1007.21722172217
 30
0.0
 10
682.8190304374002
 20
1006.25488961337
 30
0.0
 10
683.5991712720806
 20
1005.47474877869
 30
0.0
 10
684.5615033808808
 20
1005.47474877869
 30
0.0
  0
SPLINE
  5
146
330
70
100
AcDbEntity
  8
Camada 1
 62
    18
420
        0
370
    35
100
AcDbSpline
210
0.0
220
0.0
230
1.0
 70
     8
 71
     3
 72
     8
 73
     4
 74
     0
 42
0.0000000001
 43
0.0000000001
 40
0.0
 40
0.0
 40
0.0
 40
0.0
 40
1.0
 40
1.0
 40
1.0
 40
1.0
 10
684.5615033808808
 20
1005.47474877869
 30
0.0
 10
685.5238605022131
 20
1005.47474877869
 30
0.0
 10
686.3039763243632
 20
1006.25488961337
 30
0.0
 10
686.3039763243632
 20
1007.21722172217
 30
0.0
  0
SPLINE
  5
147
330
70
100
AcDbEntity
  8
Camada 1
 62
    18
420
        0
370
    35
100
AcDbSpline
210
0.0
220
0.0
230
1.0
 70
     8
 71
     3
 72
     8
 73
     4
 74
     0
 42
0.0000000001
 43
0.0000000001
 40
0.0
 40
0.0
 40
0.0
 40
0.0
 40
1.0
 40
1.0
 40
1.0
 40
1.0
 10
697.9205209768088
 20
1007.21722172217
 30
0.0
 10
697.9205209768088
 20
1006.25488961337
 30
0.0
 10
698.7006618114901
 20
1005.47474877869
 30
0.0
 10
699.6629939202912
 20
1005.47474877869
 30
0.0
  0
SPLINE
  5
148
330
70
100
AcDbEntity
  8
Camada 1
 62
    18
420
        0
370
    35
100
AcDbSpline
210
0.0
220
0.0
230
1.0
 70
     8
 71
     3
 72
     8
 73
     4
 74
     0
 42
0.0000000001
 43
0.0000000001
 40
0.0
 40
0.0
 40
0.0
 40
0.0
 40
1.0
 40
1.0
 40
1.0
 40
1.0
 10
699.6629939202912
 20
1005.47474877869
 30
0.0
 10
700.6253510416227
 20
1005.47474877869
 30
0.0
 10
701.4054668637718
 20
1006.25488961337
 30
0.0
 10
701.4054668637718
 20
1007.21722172217
 30
0.0
  0
SPLINE
  5
149
330
70
100
AcDbEntity
  8
Camada 1
 62
    18
420
        0
370
    35
100
AcDbSpline
210
0.0
220
0.0
230
1.0
 70
     8
 71
     3
 72
     8
 73
     4
 74
     0
 42
0.0000000001
 43
0.0000000001
 40
0.0
 40
0.0
 40
0.0
 40
0.0
 40
1.0
 40
1.0
 40
1.0
 40
1.0
 10
713.0220115162192
 20
1007.21722172217
 30
0.0
 10
713.0220115162192
 20
1006.25488961337
 30
0.0
 10
713.8021273383692
 20
1005.47474877869
 30
0.0
 10
714.7644844596998
 20
1005.47474877869
 30
0.0
  0
SPLINE
  5
14A
330
70
100
AcDbEntity
  8
Camada 1
 62
    18
420
        0
370
    35
100
AcDbSpline
210
0.0
220
0.0
230
1.0
 70
     8
 71
     3
 72
     8
 73
     4
 74
     0
 42
0.0000000001
 43
0.0000000001
 40
0.0
 40
0.0
 40
0.0
 40
0.0
 40
1.0
 40
1.0
 40
1.0
 40
1.0
 10
714.7644844596998
 20
1005.47474877869
 30
0.0
 10
715.7268165685
 20
1005.47474877869
 30
0.0
 10
716.5069574031822
 20
1006.25488961337
 30
0.0
 10
716.5069574031822
 20
1007.21722172217
 30
0.0
  0
SPLINE
  5
14B
330
70
100
AcDbEntity
  8
Camada 1
 62
    18
420
        0
370
    35
100
AcDbSpline
210
0.0
220
0.0
230
1.0
 70
     8
 71
     3
 72
     8
 73
     4
 74
     0
 42
0.0000000001
 43
0.0000000001
 40
0.0
 40
0.0
 40
0.0
 40
0.0
 40
1.0
 40
1.0
 40
1.0
 40
1.0
 10
728.1235020556278
 20
1007.21722172217
 30
0.0
 10
728.1235020556278
 20
1006.25488961337
 30
0.0
 10
728.9036178777769
 20
1005.47474877869
 30
0.0
 10
729.8659749991102
 20
1005.47474877869
 30
0.0
  0
SPLINE
  5
14C
330
70
100
AcDbEntity
  8
Camada 1
 62
    18
420
        0
370
    35
100
AcDbSpline
210
0.0
220
0.0
230
1.0
 70
     8
 71
     3
 72
     8
 73
     4
 74
     0
 42
0.0000000001
 43
0.0000000001
 40
0.0
 40
0.0
 40
0.0
 40
0.0
 40
1.0
 40
1.0
 40
1.0
 40
1.0
 10
729.8659749991102
 20
1005.47474877869
 30
0.0
 10
730.8283071079122
 20
1005.47474877869
 30
0.0
 10
731.6084479425908
 20
1006.25488961337
 30
0.0
 10
731.6084479425908
 20
1007.21722172217
 30
0.0
  0
SPLINE
  5
14D
330
70
100
AcDbEntity
  8
Camada 1
 62
    18
420
        0
370
    35
100
AcDbSpline
210
0.0
220
0.0
230
1.0
 70
     8
 71
     3
 72
     8
 73
     4
 74
     0
 42
0.0000000001
 43
0.0000000001
 40
0.0
 40
0.0
 40
0.0
 40
0.0
 40
1.0
 40
1.0
 40
1.0
 40
1.0
 10
743.2249675825069
 20
1007.21722172217
 30
0.0
 10
743.2249675825069
 20
1006.25488961337
 30
0.0
 10
744.0051084171882
 20
1005.47474877869
 30
0.0
 10
744.9674655385187
 20
1005.47474877869
 30
0.0
  0
SPLINE
  5
14E
330
70
100
AcDbEntity
  8
Camada 1
 62
    18
420
        0
370
    35
100
AcDbSpline
210
0.0
220
0.0
230
1.0
 70
     8
 71
     3
 72
     8
 73
     4
 74
     0
 42
0.0000000001
 43
0.0000000001
 40
0.0
 40
0.0
 40
0.0
 40
0.0
 40
1.0
 40
1.0
 40
1.0
 40
1.0
 10
744.9674655385187
 20
1005.47474877869
 30
0.0
 10
745.9297976473189
 20
1005.47474877869
 30
0.0
 10
746.7099384820012
 20
1006.25488961337
 30
0.0
 10
746.7099384820012
 20
1007.21722172217
 30
0.0
  0
SPLINE
  5
14F
330
70
100
AcDbEntity
  8
Camada 1
 62
    18
420
        0
370
    35
100
AcDbSpline
210
0.0
220
0.0
230
1.0
 70
     8
 71
     3
 72
     8
 73
     4
 74
     0
 42
0.0000000001
 43
0.0000000001
 40
0.0
 40
0.0
 40
0.0
 40
0.0
 40
1.0
 40
1.0
 40
1.0
 40
1.0
 10
758.3264581219155
 20
1007.21722172217
 30
0.0
 10
758.3264581219155
 20
1006.25488961337
 30
0.0
 10
759.1065989565959
 20
1005.47474877869
 30
0.0
 10
760.0689310653979
 20
1005.47474877869
 30
0.0
  0
SPLINE
  5
150
330
70
100
AcDbEntity
  8
Camada 1
 62
    18
420
        0
370
    35
100
AcDbSpline
210
0.0
220
0.0
230
1.0
 70
     8
 71
     3
 72
     8
 73
     4
 74
     0
 42
0.0000000001
 43
0.0000000001
 40
0.0
 40
0.0
 40
0.0
 40
0.0
 40
1.0
 40
1.0
 40
1.0
 40
1.0
 10
760.0689310653979
 20
1005.47474877869
 30
0.0
 10
761.0312881867285
 20
1005.47474877869
 30
0.0
 10
761.8114290214107
 20
1006.25488961337
 30
0.0
 10
761.8114290214107
 20
1007.21722172217
 30
0.0
  0
SPLINE
  5
151
330
70
100
AcDbEntity
  8
Camada 1
 62
    18
420
        0
370
    35
100
AcDbSpline
210
0.0
220
0.0
230
1.0
 70
     8
 71
     3
 72
     8
 73
     4
 74
     0
 42
0.0000000001
 43
0.0000000001
 40
0.0
 40
0.0
 40
0.0
 40
0.0
 40
1.0
 40
1.0
 40
1.0
 40
1.0
 10
773.4279486613258
 20
1007.21722172217
 30
0.0
 10
773.4279486613258
 20
1006.25488961337
 30
0.0
 10
774.2080894960072
 20
1005.47474877869
 30
0.0
 10
775.1704216048092
 20
1005.47474877869
 30
0.0
  0
SPLINE
  5
152
330
70
100
AcDbEntity
  8
Camada 1
 62
    18
420
        0
370
    35
100
AcDbSpline
210
0.0
220
0.0
230
1.0
 70
     8
 71
     3
 72
     8
 73
     4
 74
     0
 42
0.0000000001
 43
0.0000000001
 40
0.0
 40
0.0
 40
0.0
 40
0.0
 40
1.0
 40
1.0
 40
1.0
 40
1.0
 10
775.1704216048092
 20
1005.47474877869
 30
0.0
 10
776.1327787261389
 20
1005.47474877869
 30
0.0
 10
776.9129195608184
 20
1006.25488961337
 30
0.0
 10
776.9129195608184
 20
1007.21722172217
 30
0.0
  0
SPLINE
  5
153
330
70
100
AcDbEntity
  8
Camada 1
 62
    18
420
        0
370
    35
100
AcDbSpline
210
0.0
220
0.0
230
1.0
 70
     8
 71
     3
 72
     8
 73
     4
 74
     0
 42
0.0000000001
 43
0.0000000001
 40
0.0
 40
0.0
 40
0.0
 40
0.0
 40
1.0
 40
1.0
 40
1.0
 40
1.0
 10
788.5294392007353
 20
1007.21722172217
 30
0.0
 10
788.5294392007353
 20
1006.25488961337
 30
0.0
 10
789.3095800354158
 20
1005.47474877869
 30
0.0
 10
790.2719121442169
 20
1005.47474877869
 30
0.0
  0
SPLINE
  5
154
330
70
100
AcDbEntity
  8
Camada 1
 62
    18
420
        0
370
    35
100
AcDbSpline
210
0.0
220
0.0
230
1.0
 70
     8
 71
     3
 72
     8
 73
     4
 74
     0
 42
0.0000000001
 43
0.0000000001
 40
0.0
 40
0.0
 40
0.0
 40
0.0
 40
1.0
 40
1.0
 40
1.0
 40
1.0
 10
790.2719121442169
 20
1005.47474877869
 30
0.0
 10
791.2342692655483
 20
1005.47474877869
 30
0.0
 10
792.0143850876975
 20
1006.25488961337
 30
0.0
 10
792.0143850876975
 20
1007.21722172217
 30
0.0
  0
SPLINE
  5
155
330
70
100
AcDbEntity
  8
Camada 1
 62
    18
420
        0
370
    35
100
AcDbSpline
210
0.0
220
0.0
230
1.0
 70
     8
 71
     3
 72
     8
 73
     4
 74
     0
 42
0.0000000001
 43
0.0000000001
 40
0.0
 40
0.0
 40
0.0
 40
0.0
 40
1.0
 40
1.0
 40
1.0
 40
1.0
 10
803.6309297401457
 20
1007.21722172217
 30
0.0
 10
803.6309297401457
 20
1006.25488961337
 30
0.0
 10
804.4110705748263
 20
1005.47474877869
 30
0.0
 10
805.3734026836282
 20
1005.47474877869
 30
0.0
  0
SPLINE
  5
156
330
70
100
AcDbEntity
  8
Camada 1
 62
    18
420
        0
370
    35
100
AcDbSpline
210
0.0
220
0.0
230
1.0
 70
     8
 71
     3
 72
     8
 73
     4
 74
     0
 42
0.0000000001
 43
0.0000000001
 40
0.0
 40
0.0
 40
0.0
 40
0.0
 40
1.0
 40
1.0
 40
1.0
 40
1.0
 10
805.3734026836282
 20
1005.47474877869
 30
0.0
 10
806.3357598049579
 20
1005.47474877869
 30
0.0
 10
807.1158756271071
 20
1006.25488961337
 30
0.0
 10
807.1158756271071
 20
1007.21722172217
 30
0.0
  0
SPLINE
  5
157
330
70
100
AcDbEntity
  8
Camada 1
 62
    18
420
        0
370
    35
100
AcDbSpline
210
0.0
220
0.0
230
1.0
 70
     8
 71
     3
 72
     8
 73
     4
 74
     0
 42
0.0000000001
 43
0.0000000001
 40
0.0
 40
0.0
 40
0.0
 40
0.0
 40
1.0
 40
1.0
 40
1.0
 40
1.0
 10
818.7324202795544
 20
1007.21722172217
 30
0.0
 10
818.7324202795544
 20
1006.25488961337
 30
0.0
 10
819.5125361017035
 20
1005.47474877869
 30
0.0
 10
820.474893223035
 20
1005.47474877869
 30
0.0
  0
SPLINE
  5
158
330
70
100
AcDbEntity
  8
Camada 1
 62
    18
420
        0
370
    35
100
AcDbSpline
210
0.0
220
0.0
230
1.0
 70
     8
 71
     3
 72
     8
 73
     4
 74
     0
 42
0.0000000001
 43
0.0000000001
 40
0.0
 40
0.0
 40
0.0
 40
0.0
 40
1.0
 40
1.0
 40
1.0
 40
1.0
 10
820.474893223035
 20
1005.47474877869
 30
0.0
 10
821.4372253318369
 20
1005.47474877869
 30
0.0
 10
822.2173661665165
 20
1006.25488961337
 30
0.0
 10
822.2173661665165
 20
1007.21722172217
 30
0.0
  0
SPLINE
  5
159
330
70
100
AcDbEntity
  8
Camada 1
 62
    18
420
        0
370
    35
100
AcDbSpline
210
0.0
220
0.0
230
1.0
 70
     8
 71
     3
 72
     8
 73
     4
 74
     0
 42
0.0000000001
 43
0.0000000001
 40
0.0
 40
0.0
 40
0.0
 40
0.0
 40
1.0
 40
1.0
 40
1.0
 40
1.0
 10
833.8338858064325
 20
1007.21722172217
 30
0.0
 10
833.8338858064325
 20
1006.25488961337
 30
0.0
 10
834.6140266411138
 20
1005.47474877869
 30
0.0
 10
835.576358749914
 20
1005.47474877869
 30
0.0
  0
SPLINE
  5
15A
330
70
100
AcDbEntity
  8
Camada 1
 62
    18
420
        0
370
    35
100
AcDbSpline
210
0.0
220
0.0
230
1.0
 70
     8
 71
     3
 72
     8
 73
     4
 74
     0
 42
0.0000000001
 43
0.0000000001
 40
0.0
 40
0.0
 40
0.0
 40
0.0
 40
1.0
 40
1.0
 40
1.0
 40
1.0
 10
835.576358749914
 20
1005.47474877869
 30
0.0
 10
836.5387408837769
 20
1005.47474877869
 30
0.0
 10
837.3188316933974
 20
1006.25488961337
 30
0.0
 10
837.3188316933974
 20
1007.21722172217
 30
0.0
  0
SPLINE
  5
15B
330
70
100
AcDbEntity
  8
Camada 1
 62
    18
420
        0
370
    35
100
AcDbSpline
210
0.0
220
0.0
230
1.0
 70
     8
 71
     3
 72
     8
 73
     4
 74
     0
 42
0.0000000001
 43
0.0000000001
 40
0.0
 40
0.0
 40
0.0
 40
0.0
 40
1.0
 40
1.0
 40
1.0
 40
1.0
 10
848.9354013583733
 20
1007.21722172217
 30
0.0
 10
848.9354013583733
 20
1006.25488961337
 30
0.0
 10
849.7155421930537
 20
1005.47474877869
 30
0.0
 10
850.6778743018548
 20
1005.47474877869
 30
0.0
  0
SPLINE
  5
15C
330
70
100
AcDbEntity
  8
Camada 1
 62
    18
420
        0
370
    35
100
AcDbSpline
210
0.0
220
0.0
230
1.0
 70
     8
 71
     3
 72
     8
 73
     4
 74
     0
 42
0.0000000001
 43
0.0000000001
 40
0.0
 40
0.0
 40
0.0
 40
0.0
 40
1.0
 40
1.0
 40
1.0
 40
1.0
 10
850.6778743018548
 20
1005.47474877869
 30
0.0
 10
851.6402064106559
 20
1005.47474877869
 30
0.0
 10
852.4203472453354
 20
1006.25488961337
 30
0.0
 10
852.4203472453354
 20
1007.21722172217
 30
0.0
  0
SPLINE
  5
15D
330
70
100
AcDbEntity
  8
Camada 1
 62
    18
420
        0
370
    35
100
AcDbSpline
210
0.0
220
0.0
230
1.0
 70
     8
 71
     3
 72
     8
 73
     4
 74
     0
 42
0.0000000001
 43
0.0000000001
 40
0.0
 40
0.0
 40
0.0
 40
0.0
 40
1.0
 40
1.0
 40
1.0
 40
1.0
 10
864.0368668852515
 20
1007.21722172217
 30
0.0
 10
864.0368668852515
 20
1006.25488961337
 30
0.0
 10
864.8170077199329
 20
1005.47474877869
 30
0.0
 10
865.779339828734
 20
1005.47474877869
 30
0.0
  0
SPLINE
  5
15E
330
70
100
AcDbEntity
  8
Camada 1
 62
    18
420
        0
370
    35
100
AcDbSpline
210
0.0
220
0.0
230
1.0
 70
     8
 71
     3
 72
     8
 73
     4
 74
     0
 42
0.0000000001
 43
0.0000000001
 40
0.0
 40
0.0
 40
0.0
 40
0.0
 40
1.0
 40
1.0
 40
1.0
 40
1.0
 10
865.779339828734
 20
1005.47474877869
 30
0.0
 10
866.7416719375323
 20
1005.47474877869
 30
0.0
 10
867.5218127722146
 20
1006.25488961337
 30
0.0
 10
867.5218127722146
 20
1007.21722172217
 30
0.0
  0
SPLINE
  5
15F
330
70
100
AcDbEntity
  8
Camada 1
 62
    18
420
        0
370
    35
100
AcDbSpline
210
0.0
220
0.0
230
1.0
 70
     8
 71
     3
 72
     8
 73
     4
 74
     0
 42
0.0000000001
 43
0.0000000001
 40
0.0
 40
0.0
 40
0.0
 40
0.0
 40
1.0
 40
1.0
 40
1.0
 40
1.0
 10
879.1383824371932
 20
1007.21722172217
 30
0.0
 10
879.1383824371932
 20
1006.25488961337
 30
0.0
 10
879.9184732468102
 20
1005.47474877869
 30
0.0
 10
880.8808553806739
 20
1005.47474877869
 30
0.0
  0
SPLINE
  5
160
330
70
100
AcDbEntity
  8
Camada 1
 62
    18
420
        0
370
    35
100
AcDbSpline
210
0.0
220
0.0
230
1.0
 70
     8
 71
     3
 72
     8
 73
     4
 74
     0
 42
0.0000000001
 43
0.0000000001
 40
0.0
 40
0.0
 40
0.0
 40
0.0
 40
1.0
 40
1.0
 40
1.0
 40
1.0
 10
880.8808553806739
 20
1005.47474877869
 30
0.0
 10
881.843187489474
 20
1005.47474877869
 30
0.0
 10
882.6233283241545
 20
1006.25488961337
 30
0.0
 10
882.6233283241545
 20
1007.21722172217
 30
0.0
  0
SPLINE
  5
161
330
70
100
AcDbEntity
  8
Camada 1
 62
    18
420
        0
370
    35
100
AcDbSpline
210
0.0
220
0.0
230
1.0
 70
     8
 71
     3
 72
     8
 73
     4
 74
     0
 42
0.0000000001
 43
0.0000000001
 40
0.0
 40
0.0
 40
0.0
 40
0.0
 40
1.0
 40
1.0
 40
1.0
 40
1.0
 10
894.2398479640724
 20
1007.21722172217
 30
0.0
 10
894.2398479640724
 20
1006.25488961337
 30
0.0
 10
895.0199887987528
 20
1005.47474877869
 30
0.0
 10
895.9823209075512
 20
1005.47474877869
 30
0.0
  0
SPLINE
  5
162
330
70
100
AcDbEntity
  8
Camada 1
 62
    18
420
        0
370
    35
100
AcDbSpline
210
0.0
220
0.0
230
1.0
 70
     8
 71
     3
 72
     8
 73
     4
 74
     0
 42
0.0000000001
 43
0.0000000001
 40
0.0
 40
0.0
 40
0.0
 40
0.0
 40
1.0
 40
1.0
 40
1.0
 40
1.0
 10
895.9823209075512
 20
1005.47474877869
 30
0.0
 10
896.9446530163514
 20
1005.47474877869
 30
0.0
 10
897.7247938510336
 20
1006.25488961337
 30
0.0
 10
897.7247938510336
 20
1007.21722172217
 30
0.0
  0
SPLINE
  5
163
330
70
100
AcDbEntity
  8
Camada 1
 62
    18
420
        0
370
    35
100
AcDbSpline
210
0.0
220
0.0
230
1.0
 70
     8
 71
     3
 72
     8
 73
     4
 74
     0
 42
0.0000000001
 43
0.0000000001
 40
0.0
 40
0.0
 40
0.0
 40
0.0
 40
1.0
 40
1.0
 40
1.0
 40
1.0
 10
909.3413134909496
 20
1007.21722172217
 30
0.0
 10
909.3413134909496
 20
1006.25488961337
 30
0.0
 10
910.1214543256283
 20
1005.47474877869
 30
0.0
 10
911.083786434432
 20
1005.47474877869
 30
0.0
  0
SPLINE
  5
164
330
70
100
AcDbEntity
  8
Camada 1
 62
    18
420
        0
370
    35
100
AcDbSpline
210
0.0
220
0.0
230
1.0
 70
     8
 71
     3
 72
     8
 73
     4
 74
     0
 42
0.0000000001
 43
0.0000000001
 40
0.0
 40
0.0
 40
0.0
 40
0.0
 40
1.0
 40
1.0
 40
1.0
 40
1.0
 10
911.083786434432
 20
1005.47474877869
 30
0.0
 10
912.0461685682931
 20
1005.47474877869
 30
0.0
 10
912.8263094029753
 20
1006.25488961337
 30
0.0
 10
912.8263094029753
 20
1007.21722172217
 30
0.0
  0
SPLINE
  5
165
330
70
100
AcDbEntity
  8
Camada 1
 62
    18
420
        0
370
    35
100
AcDbSpline
210
0.0
220
0.0
230
1.0
 70
     8
 71
     3
 72
     8
 73
     4
 74
     0
 42
0.0000000001
 43
0.0000000001
 40
0.0
 40
0.0
 40
0.0
 40
0.0
 40
1.0
 40
1.0
 40
1.0
 40
1.0
 10
924.4428290428913
 20
1007.21722172217
 30
0.0
 10
924.4428290428913
 20
1006.25488961337
 30
0.0
 10
925.22296987757
 20
1005.47474877869
 30
0.0
 10
926.1853019863702
 20
1005.47474877869
 30
0.0
  0
SPLINE
  5
166
330
70
100
AcDbEntity
  8
Camada 1
 62
    18
420
        0
370
    35
100
AcDbSpline
210
0.0
220
0.0
230
1.0
 70
     8
 71
     3
 72
     8
 73
     4
 74
     0
 42
0.0000000001
 43
0.0000000001
 40
0.0
 40
0.0
 40
0.0
 40
0.0
 40
1.0
 40
1.0
 40
1.0
 40
1.0
 10
926.1853019863702
 20
1005.47474877869
 30
0.0
 10
927.1476340951721
 20
1005.47474877869
 30
0.0
 10
927.9277749298525
 20
1006.25488961337
 30
0.0
 10
927.9277749298525
 20
1007.21722172217
 30
0.0
  0
SPLINE
  5
167
330
70
100
AcDbEntity
  8
Camada 1
 62
    18
420
        0
370
    35
100
AcDbSpline
210
0.0
220
0.0
230
1.0
 70
     8
 71
     3
 72
     8
 73
     4
 74
     0
 42
0.0000000001
 43
0.0000000001
 40
0.0
 40
0.0
 40
0.0
 40
0.0
 40
1.0
 40
1.0
 40
1.0
 40
1.0
 10
939.5442945697686
 20
1007.21722172217
 30
0.0
 10
939.5442945697686
 20
1006.25488961337
 30
0.0
 10
940.324435404451
 20
1005.47474877869
 30
0.0
 10
941.2867675132511
 20
1005.47474877869
 30
0.0
  0
SPLINE
  5
168
330
70
100
AcDbEntity
  8
Camada 1
 62
    18
420
        0
370
    35
100
AcDbSpline
210
0.0
220
0.0
230
1.0
 70
     8
 71
     3
 72
     8
 73
     4
 74
     0
 42
0.0000000001
 43
0.0000000001
 40
0.0
 40
0.0
 40
0.0
 40
0.0
 40
1.0
 40
1.0
 40
1.0
 40
1.0
 10
941.2867675132511
 20
1005.47474877869
 30
0.0
 10
942.2491496471121
 20
1005.47474877869
 30
0.0
 10
943.0292404567298
 20
1006.25488961337
 30
0.0
 10
943.0292404567298
 20
1007.21722172217
 30
0.0
  0
SPLINE
  5
169
330
70
100
AcDbEntity
  8
Camada 1
 62
    18
420
        0
370
    35
100
AcDbSpline
210
0.0
220
0.0
230
1.0
 70
     8
 71
     3
 72
     8
 73
     4
 74
     0
 42
0.0000000001
 43
0.0000000001
 40
0.0
 40
0.0
 40
0.0
 40
0.0
 40
1.0
 40
1.0
 40
1.0
 40
1.0
 10
954.6458101217103
 20
1007.21722172217
 30
0.0
 10
954.6458101217103
 20
1006.25488961337
 30
0.0
 10
955.4259509563907
 20
1005.47474877869
 30
0.0
 10
956.3882830651891
 20
1005.47474877869
 30
0.0
  0
SPLINE
  5
16A
330
70
100
AcDbEntity
  8
Camada 1
 62
    18
420
        0
370
    35
100
AcDbSpline
210
0.0
220
0.0
230
1.0
 70
     8
 71
     3
 72
     8
 73
     4
 74
     0
 42
0.0000000001
 43
0.0000000001
 40
0.0
 40
0.0
 40
0.0
 40
0.0
 40
1.0
 40
1.0
 40
1.0
 40
1.0
 10
956.3882830651891
 20
1005.47474877869
 30
0.0
 10
957.350615173993
 20
1005.47474877869
 30
0.0
 10
958.1307560086715
 20
1006.25488961337
 30
0.0
 10
958.1307560086715
 20
1007.21722172217
 30
0.0
  0
SPLINE
  5
16B
330
70
100
AcDbEntity
  8
Camada 1
 62
    18
420
        0
370
    35
100
AcDbSpline
210
0.0
220
0.0
230
1.0
 70
     8
 71
     3
 72
     8
 73
     4
 74
     0
 42
0.0000000001
 43
0.0000000001
 40
0.0
 40
0.0
 40
0.0
 40
0.0
 40
1.0
 40
1.0
 40
1.0
 40
1.0
 10
969.7472756485877
 20
1007.21722172217
 30
0.0
 10
969.7472756485877
 20
1006.25488961337
 30
0.0
 10
970.5274164832699
 20
1005.47474877869
 30
0.0
 10
971.4897485920701
 20
1005.47474877869
 30
0.0
  0
SPLINE
  5
16C
330
70
100
AcDbEntity
  8
Camada 1
 62
    18
420
        0
370
    35
100
AcDbSpline
210
0.0
220
0.0
230
1.0
 70
     8
 71
     3
 72
     8
 73
     4
 74
     0
 42
0.0000000001
 43
0.0000000001
 40
0.0
 40
0.0
 40
0.0
 40
0.0
 40
1.0
 40
1.0
 40
1.0
 40
1.0
 10
971.4897485920701
 20
1005.47474877869
 30
0.0
 10
972.4520807008703
 20
1005.47474877869
 30
0.0
 10
973.2322215355489
 20
1006.25488961337
 30
0.0
 10
973.2322215355489
 20
1007.21722172217
 30
0.0
  0
SPLINE
  5
16D
330
70
100
AcDbEntity
  8
Camada 1
 62
    18
420
        0
370
    35
100
AcDbSpline
210
0.0
220
0.0
230
1.0
 70
     8
 71
     3
 72
     8
 73
     4
 74
     0
 42
0.0000000001
 43
0.0000000001
 40
0.0
 40
0.0
 40
0.0
 40
0.0
 40
1.0
 40
1.0
 40
1.0
 40
1.0
 10
984.8487411754685
 20
1007.21722172217
 30
0.0
 10
984.8487411754685
 20
1006.25488961337
 30
0.0
 10
985.6288820101472
 20
1005.47474877869
 30
0.0
 10
986.59126414401
 20
1005.47474877869
 30
0.0
  0
SPLINE
  5
16E
330
70
100
AcDbEntity
  8
Camada 1
 62
    18
420
        0
370
    35
100
AcDbSpline
210
0.0
220
0.0
230
1.0
 70
     8
 71
     3
 72
     8
 73
     4
 74
     0
 42
0.0000000001
 43
0.0000000001
 40
0.0
 40
0.0
 40
0.0
 40
0.0
 40
1.0
 40
1.0
 40
1.0
 40
1.0
 10
986.59126414401
 20
1005.47474877869
 30
0.0
 10
987.553596252812
 20
1005.47474877869
 30
0.0
 10
988.3337370874906
 20
1006.25488961337
 30
0.0
 10
988.3337370874906
 20
1007.21722172217
 30
0.0
  0
SPLINE
  5
16F
330
70
100
AcDbEntity
  8
Camada 1
 62
    18
420
        0
370
    35
100
AcDbSpline
210
0.0
220
0.0
230
1.0
 70
     8
 71
     3
 72
     8
 73
     4
 74
     0
 42
0.0000000001
 43
0.0000000001
 40
0.0
 40
0.0
 40
0.0
 40
0.0
 40
1.0
 40
1.0
 40
1.0
 40
1.0
 10
999.9502567274067
 20
1007.21722172217
 30
0.0
 10
999.9502567274067
 20
1006.25488961337
 30
0.0
 10
1000.73039756209
 20
1005.47474877869
 30
0.0
 10
1001.692729670889
 20
1005.47474877869
 30
0.0
  0
SPLINE
  5
170
330
70
100
AcDbEntity
  8
Camada 1
 62
    18
420
        0
370
    35
100
AcDbSpline
210
0.0
220
0.0
230
1.0
 70
     8
 71
     3
 72
     8
 73
     4
 74
     0
 42
0.0000000001
 43
0.0000000001
 40
0.0
 40
0.0
 40
0.0
 40
0.0
 40
1.0
 40
1.0
 40
1.0
 40
1.0
 10
1001.692729670889
 20
1005.47474877869
 30
0.0
 10
1002.655061779689
 20
1005.47474877869
 30
0.0
 10
1003.43520261437
 20
1006.25488961337
 30
0.0
 10
1003.43520261437
 20
1007.21722172217
 30
0.0
  0
SPLINE
  5
171
330
70
100
AcDbEntity
  8
Camada 1
 62
    18
420
        0
370
    35
100
AcDbSpline
210
0.0
220
0.0
230
1.0
 70
     8
 71
     3
 72
     8
 73
     4
 74
     0
 42
0.0000000001
 43
0.0000000001
 40
0.0
 40
0.0
 40
0.0
 40
0.0
 40
1.0
 40
1.0
 40
1.0
 40
1.0
 10
1015.051722254289
 20
1007.21722172217
 30
0.0
 10
1015.051722254289
 20
1006.25488961337
 30
0.0
 10
1015.83186308897
 20
1005.47474877869
 30
0.0
 10
1016.79419519777
 20
1005.47474877869
 30
0.0
  0
SPLINE
  5
172
330
70
100
AcDbEntity
  8
Camada 1
 62
    18
420
        0
370
    35
100
AcDbSpline
210
0.0
220
0.0
230
1.0
 70
     8
 71
     3
 72
     8
 73
     4
 74
     0
 42
0.0000000001
 43
0.0000000001
 40
0.0
 40
0.0
 40
0.0
 40
0.0
 40
1.0
 40
1.0
 40
1.0
 40
1.0
 10
1016.79419519777
 20
1005.47474877869
 30
0.0
 10
1017.756577331629
 20
1005.47474877869
 30
0.0
 10
1018.536718166309
 20
1006.25488961337
 30
0.0
 10
1018.536718166309
 20
1007.21722172217
 30
0.0
  0
SPLINE
  5
173
330
70
100
AcDbEntity
  8
Camada 1
 62
    18
420
        0
370
    35
100
AcDbSpline
210
0.0
220
0.0
230
1.0
 70
     8
 71
     3
 72
     8
 73
     4
 74
     0
 42
0.0000000001
 43
0.0000000001
 40
0.0
 40
0.0
 40
0.0
 40
0.0
 40
1.0
 40
1.0
 40
1.0
 40
1.0
 10
1030.153237806229
 20
1007.21722172217
 30
0.0
 10
1030.153237806229
 20
1006.25488961337
 30
0.0
 10
1030.933378640909
 20
1005.47474877869
 30
0.0
 10
1031.89571074971
 20
1005.47474877869
 30
0.0
  0
SPLINE
  5
174
330
70
100
AcDbEntity
  8
Camada 1
 62
    18
420
        0
370
    35
100
AcDbSpline
210
0.0
220
0.0
230
1.0
 70
     8
 71
     3
 72
     8
 73
     4
 74
     0
 42
0.0000000001
 43
0.0000000001
 40
0.0
 40
0.0
 40
0.0
 40
0.0
 40
1.0
 40
1.0
 40
1.0
 40
1.0
 10
1031.89571074971
 20
1005.47474877869
 30
0.0
 10
1032.85804285851
 20
1005.47474877869
 30
0.0
 10
1033.63818369319
 20
1006.25488961337
 30
0.0
 10
1033.63818369319
 20
1007.21722172217
 30
0.0
  0
SPLINE
  5
175
330
70
100
AcDbEntity
  8
Camada 1
 62
    18
420
        0
370
    35
100
AcDbSpline
210
0.0
220
0.0
230
1.0
 70
     8
 71
     3
 72
     8
 73
     4
 74
     0
 42
0.0000000001
 43
0.0000000001
 40
0.0
 40
0.0
 40
0.0
 40
0.0
 40
1.0
 40
1.0
 40
1.0
 40
1.0
 10
1045.254703333099
 20
1007.21722172217
 30
0.0
 10
1045.254703333099
 20
1006.25488961337
 30
0.0
 10
1046.03484416779
 20
1005.47474877869
 30
0.0
 10
1046.997176276589
 20
1005.47474877869
 30
0.0
  0
SPLINE
  5
176
330
70
100
AcDbEntity
  8
Camada 1
 62
    18
420
        0
370
    35
100
AcDbSpline
210
0.0
220
0.0
230
1.0
 70
     8
 71
     3
 72
     8
 73
     4
 74
     0
 42
0.0000000001
 43
0.0000000001
 40
0.0
 40
0.0
 40
0.0
 40
0.0
 40
1.0
 40
1.0
 40
1.0
 40
1.0
 10
1046.997176276589
 20
1005.47474877869
 30
0.0
 10
1047.95955841045
 20
1005.47474877869
 30
0.0
 10
1048.73964922007
 20
1006.25488961337
 30
0.0
 10
1048.73964922007
 20
1007.21722172217
 30
0.0
  0
SPLINE
  5
177
330
70
100
AcDbEntity
  8
Camada 1
 62
    18
420
        0
370
    35
100
AcDbSpline
210
0.0
220
0.0
230
1.0
 70
     8
 71
     3
 72
     8
 73
     4
 74
     0
 42
0.0000000001
 43
0.0000000001
 40
0.0
 40
0.0
 40
0.0
 40
0.0
 40
1.0
 40
1.0
 40
1.0
 40
1.0
 10
1060.356218885041
 20
1007.21722172217
 30
0.0
 10
1060.356218885041
 20
1006.25488961337
 30
0.0
 10
1061.13630969466
 20
1005.47474877869
 30
0.0
 10
1062.098691828531
 20
1005.47474877869
 30
0.0
  0
SPLINE
  5
178
330
70
100
AcDbEntity
  8
Camada 1
 62
    18
420
        0
370
    35
100
AcDbSpline
210
0.0
220
0.0
230
1.0
 70
     8
 71
     3
 72
     8
 73
     4
 74
     0
 42
0.0000000001
 43
0.0000000001
 40
0.0
 40
0.0
 40
0.0
 40
0.0
 40
1.0
 40
1.0
 40
1.0
 40
1.0
 10
1062.098691828531
 20
1005.47474877869
 30
0.0
 10
1063.061023937331
 20
1005.47474877869
 30
0.0
 10
1063.841164772009
 20
1006.25488961337
 30
0.0
 10
1063.841164772009
 20
1007.21722172217
 30
0.0
  0
SPLINE
  5
179
330
70
100
AcDbEntity
  8
Camada 1
 62
    18
420
        0
370
    35
100
AcDbSpline
210
0.0
220
0.0
230
1.0
 70
     8
 71
     3
 72
     8
 73
     4
 74
     0
 42
0.0000000001
 43
0.0000000001
 40
0.0
 40
0.0
 40
0.0
 40
0.0
 40
1.0
 40
1.0
 40
1.0
 40
1.0
 10
1075.45768441192
 20
1007.21722172217
 30
0.0
 10
1075.45768441192
 20
1006.25488961337
 30
0.0
 10
1076.2378252466
 20
1005.47474877869
 30
0.0
 10
1077.200157355401
 20
1005.47474877869
 30
0.0
  0
SPLINE
  5
17A
330
70
100
AcDbEntity
  8
Camada 1
 62
    18
420
        0
370
    35
100
AcDbSpline
210
0.0
220
0.0
230
1.0
 70
     8
 71
     3
 72
     8
 73
     4
 74
     0
 42
0.0000000001
 43
0.0000000001
 40
0.0
 40
0.0
 40
0.0
 40
0.0
 40
1.0
 40
1.0
 40
1.0
 40
1.0
 10
1077.200157355401
 20
1005.47474877869
 30
0.0
 10
1078.162489464201
 20
1005.47474877869
 30
0.0
 10
1078.94263029889
 20
1006.25488961337
 30
0.0
 10
1078.94263029889
 20
1007.21722172217
 30
0.0
  0
SPLINE
  5
17B
330
70
100
AcDbEntity
  8
Camada 1
 62
    18
420
        0
370
    35
100
AcDbSpline
210
0.0
220
0.0
230
1.0
 70
     8
 71
     3
 72
     8
 73
     4
 74
     0
 42
0.0000000001
 43
0.0000000001
 40
0.0
 40
0.0
 40
0.0
 40
0.0
 40
1.0
 40
1.0
 40
1.0
 40
1.0
 10
1090.559149938799
 20
1007.21722172217
 30
0.0
 10
1090.559149938799
 20
1006.25488961337
 30
0.0
 10
1091.33929077348
 20
1005.47474877869
 30
0.0
 10
1092.30167290735
 20
1005.47474877869
 30
0.0
  0
SPLINE
  5
17C
330
70
100
AcDbEntity
  8
Camada 1
 62
    18
420
        0
370
    35
100
AcDbSpline
210
0.0
220
0.0
230
1.0
 70
     8
 71
     3
 72
     8
 73
     4
 74
     0
 42
0.0000000001
 43
0.0000000001
 40
0.0
 40
0.0
 40
0.0
 40
0.0
 40
1.0
 40
1.0
 40
1.0
 40
1.0
 10
1092.30167290735
 20
1005.47474877869
 30
0.0
 10
1093.26400501615
 20
1005.47474877869
 30
0.0
 10
1094.04414585083
 20
1006.25488961337
 30
0.0
 10
1094.04414585083
 20
1007.21722172217
 30
0.0
  0
SPLINE
  5
17D
330
70
100
AcDbEntity
  8
Camada 1
 62
    18
420
        0
370
    35
100
AcDbSpline
210
0.0
220
0.0
230
1.0
 70
     8
 71
     3
 72
     8
 73
     4
 74
     0
 42
0.0000000001
 43
0.0000000001
 40
0.0
 40
0.0
 40
0.0
 40
0.0
 40
1.0
 40
1.0
 40
1.0
 40
1.0
 10
1105.660665490741
 20
1007.21722172217
 30
0.0
 10
1105.660665490741
 20
1006.25488961337
 30
0.0
 10
1106.440806325419
 20
1005.47474877869
 30
0.0
 10
1107.40313843423
 20
1005.47474877869
 30
0.0
  0
SPLINE
  5
17E
330
70
100
AcDbEntity
  8
Camada 1
 62
    18
420
        0
370
    35
100
AcDbSpline
210
0.0
220
0.0
230
1.0
 70
     8
 71
     3
 72
     8
 73
     4
 74
     0
 42
0.0000000001
 43
0.0000000001
 40
0.0
 40
0.0
 40
0.0
 40
0.0
 40
1.0
 40
1.0
 40
1.0
 40
1.0
 10
1107.40313843423
 20
1005.47474877869
 30
0.0
 10
1108.365470543031
 20
1005.47474877869
 30
0.0
 10
1109.145611377709
 20
1006.25488961337
 30
0.0
 10
1109.145611377709
 20
1007.21722172217
 30
0.0
  0
SPLINE
  5
17F
330
70
100
AcDbEntity
  8
Camada 1
 62
    18
420
        0
370
    35
100
AcDbSpline
210
0.0
220
0.0
230
1.0
 70
     8
 71
     3
 72
     8
 73
     4
 74
     0
 42
0.0000000001
 43
0.0000000001
 40
0.0
 40
0.0
 40
0.0
 40
0.0
 40
1.0
 40
1.0
 40
1.0
 40
1.0
 10
1120.76213101762
 20
1007.21722172217
 30
0.0
 10
1120.76213101762
 20
1006.25488961337
 30
0.0
 10
1121.5422718523
 20
1005.47474877869
 30
0.0
 10
1122.5046039611
 20
1005.47474877869
 30
0.0
  0
SPLINE
  5
180
330
70
100
AcDbEntity
  8
Camada 1
 62
    18
420
        0
370
    35
100
AcDbSpline
210
0.0
220
0.0
230
1.0
 70
     8
 71
     3
 72
     8
 73
     4
 74
     0
 42
0.0000000001
 43
0.0000000001
 40
0.0
 40
0.0
 40
0.0
 40
0.0
 40
1.0
 40
1.0
 40
1.0
 40
1.0
 10
1122.5046039611
 20
1005.47474877869
 30
0.0
 10
1123.466986094959
 20
1005.47474877869
 30
0.0
 10
1124.247126929649
 20
1006.25488961337
 30
0.0
 10
1124.247126929649
 20
1007.21722172217
 30
0.0
  0
SPLINE
  5
181
330
70
100
AcDbEntity
  8
Camada 1
 62
    18
420
        0
370
    35
100
AcDbSpline
210
0.0
220
0.0
230
1.0
 70
     8
 71
     3
 72
     8
 73
     4
 74
     0
 42
0.0000000001
 43
0.0000000001
 40
0.0
 40
0.0
 40
0.0
 40
0.0
 40
1.0
 40
1.0
 40
1.0
 40
1.0
 10
640.4484786532957
 20
1044.73661817619
 30
0.0
 10
645.4731709218576
 20
1038.15432057906
 30
0.0
 10
644.9680428629817
 20
1028.89608239015
 30
0.0
 10
639.2570567751836
 20
1022.89952823857
 30
0.0
  0
SPLINE
  5
182
330
70
100
AcDbEntity
  8
Camada 1
 62
    18
420
        0
370
    35
100
AcDbSpline
210
0.0
220
0.0
230
1.0
 70
     8
 71
     3
 72
     8
 73
     4
 74
     0
 42
0.0000000001
 43
0.0000000001
 40
0.0
 40
0.0
 40
0.0
 40
0.0
 40
1.0
 40
1.0
 40
1.0
 40
1.0
 10
639.2570567751836
 20
1048.26093378658
 30
0.0
 10
639.2570567751836
 20
1046.987295719829
 30
0.0
 10
639.6756664901322
 20
1045.74897534653
 30
0.0
 10
640.4484786532957
 20
1044.73661817619
 30
0.0
  0
SPLINE
  5
183
330
70
100
AcDbEntity
  8
Camada 1
 62
    18
420
        0
370
    35
100
AcDbSpline
210
0.0
220
0.0
230
1.0
 70
     8
 71
     3
 72
     8
 73
     4
 74
     0
 42
0.0000000001
 43
0.0000000001
 40
0.0
 40
0.0
 40
0.0
 40
0.0
 40
1.0
 40
1.0
 40
1.0
 40
1.0
 10
656.1010202580737
 20
1061.81492405985
 30
0.0
 10
656.1010202580737
 20
1062.777256168649
 30
0.0
 10
655.3208794233942
 20
1063.55739700333
 30
0.0
 10
654.3585473145922
 20
1063.55739700333
 30
0.0
  0
SPLINE
  5
184
330
70
100
AcDbEntity
  8
Camada 1
 62
    18
420
        0
370
    35
100
AcDbSpline
210
0.0
220
0.0
230
1.0
 70
     8
 71
     3
 72
     8
 73
     4
 74
     0
 42
0.0000000001
 43
0.0000000001
 40
0.0
 40
0.0
 40
0.0
 40
0.0
 40
1.0
 40
1.0
 40
1.0
 40
1.0
 10
654.3585473145922
 20
1063.55739700333
 30
0.0
 10
653.3961901932616
 20
1063.55739700333
 30
0.0
 10
652.6160493585812
 20
1062.777256168649
 30
0.0
 10
652.6160493585812
 20
1061.81492405985
 30
0.0
  0
SPLINE
  5
185
330
70
100
AcDbEntity
  8
Camada 1
 62
    18
420
        0
370
    35
100
AcDbSpline
210
0.0
220
0.0
230
1.0
 70
     8
 71
     3
 72
     8
 73
     4
 74
     0
 42
0.0000000001
 43
0.0000000001
 40
0.0
 40
0.0
 40
0.0
 40
0.0
 40
1.0
 40
1.0
 40
1.0
 40
1.0
 10
671.2025107974832
 20
1061.81492405985
 30
0.0
 10
671.2025107974832
 20
1062.777256168649
 30
0.0
 10
670.4223699628037
 20
1063.55739700333
 30
0.0
 10
669.4600128414722
 20
1063.55739700333
 30
0.0
  0
SPLINE
  5
186
330
70
100
AcDbEntity
  8
Camada 1
 62
    18
420
        0
370
    35
100
AcDbSpline
210
0.0
220
0.0
230
1.0
 70
     8
 71
     3
 72
     8
 73
     4
 74
     0
 42
0.0000000001
 43
0.0000000001
 40
0.0
 40
0.0
 40
0.0
 40
0.0
 40
1.0
 40
1.0
 40
1.0
 40
1.0
 10
669.4600128414722
 20
1063.55739700333
 30
0.0
 10
668.4976807326702
 20
1063.55739700333
 30
0.0
 10
667.7175398979906
 20
1062.777256168649
 30
0.0
 10
667.7175398979906
 20
1061.81492405985
 30
0.0
  0
SPLINE
  5
187
330
70
100
AcDbEntity
  8
Camada 1
 62
    18
420
        0
370
    35
100
AcDbSpline
210
0.0
220
0.0
230
1.0
 70
     8
 71
     3
 72
     8
 73
     4
 74
     0
 42
0.0000000001
 43
0.0000000001
 40
0.0
 40
0.0
 40
0.0
 40
0.0
 40
1.0
 40
1.0
 40
1.0
 40
1.0
 10
686.3039763243632
 20
1061.81492405985
 30
0.0
 10
686.3039763243632
 20
1062.777256168649
 30
0.0
 10
685.5238605022131
 20
1063.55739700333
 30
0.0
 10
684.5615033808808
 20
1063.55739700333
 30
0.0
  0
SPLINE
  5
188
330
70
100
AcDbEntity
  8
Camada 1
 62
    18
420
        0
370
    35
100
AcDbSpline
210
0.0
220
0.0
230
1.0
 70
     8
 71
     3
 72
     8
 73
     4
 74
     0
 42
0.0000000001
 43
0.0000000001
 40
0.0
 40
0.0
 40
0.0
 40
0.0
 40
1.0
 40
1.0
 40
1.0
 40
1.0
 10
684.5615033808808
 20
1063.55739700333
 30
0.0
 10
683.5991712720806
 20
1063.55739700333
 30
0.0
 10
682.8190304374002
 20
1062.777256168649
 30
0.0
 10
682.8190304374002
 20
1061.81492405985
 30
0.0
  0
SPLINE
  5
189
330
70
100
AcDbEntity
  8
Camada 1
 62
    18
420
        0
370
    35
100
AcDbSpline
210
0.0
220
0.0
230
1.0
 70
     8
 71
     3
 72
     8
 73
     4
 74
     0
 42
0.0000000001
 43
0.0000000001
 40
0.0
 40
0.0
 40
0.0
 40
0.0
 40
1.0
 40
1.0
 40
1.0
 40
1.0
 10
701.4054668637718
 20
1061.81492405985
 30
0.0
 10
701.4054668637718
 20
1062.777256168649
 30
0.0
 10
700.6253510416227
 20
1063.55739700333
 30
0.0
 10
699.6629939202912
 20
1063.55739700333
 30
0.0
  0
SPLINE
  5
18A
330
70
100
AcDbEntity
  8
Camada 1
 62
    18
420
        0
370
    35
100
AcDbSpline
210
0.0
220
0.0
230
1.0
 70
     8
 71
     3
 72
     8
 73
     4
 74
     0
 42
0.0000000001
 43
0.0000000001
 40
0.0
 40
0.0
 40
0.0
 40
0.0
 40
1.0
 40
1.0
 40
1.0
 40
1.0
 10
699.6629939202912
 20
1063.55739700333
 30
0.0
 10
698.7006618114901
 20
1063.55739700333
 30
0.0
 10
697.9205209768088
 20
1062.777256168649
 30
0.0
 10
697.9205209768088
 20
1061.81492405985
 30
0.0
  0
SPLINE
  5
18B
330
70
100
AcDbEntity
  8
Camada 1
 62
    18
420
        0
370
    35
100
AcDbSpline
210
0.0
220
0.0
230
1.0
 70
     8
 71
     3
 72
     8
 73
     4
 74
     0
 42
0.0000000001
 43
0.0000000001
 40
0.0
 40
0.0
 40
0.0
 40
0.0
 40
1.0
 40
1.0
 40
1.0
 40
1.0
 10
716.5069574031822
 20
1061.81492405985
 30
0.0
 10
716.5069574031822
 20
1062.777256168649
 30
0.0
 10
715.7268165685
 20
1063.55739700333
 30
0.0
 10
714.7644844596998
 20
1063.55739700333
 30
0.0
  0
SPLINE
  5
18C
330
70
100
AcDbEntity
  8
Camada 1
 62
    18
420
        0
370
    35
100
AcDbSpline
210
0.0
220
0.0
230
1.0
 70
     8
 71
     3
 72
     8
 73
     4
 74
     0
 42
0.0000000001
 43
0.0000000001
 40
0.0
 40
0.0
 40
0.0
 40
0.0
 40
1.0
 40
1.0
 40
1.0
 40
1.0
 10
714.7644844596998
 20
1063.55739700333
 30
0.0
 10
713.8021273383692
 20
1063.55739700333
 30
0.0
 10
713.0220115162192
 20
1062.777256168649
 30
0.0
 10
713.0220115162192
 20
1061.81492405985
 30
0.0
  0
SPLINE
  5
18D
330
70
100
AcDbEntity
  8
Camada 1
 62
    18
420
        0
370
    35
100
AcDbSpline
210
0.0
220
0.0
230
1.0
 70
     8
 71
     3
 72
     8
 73
     4
 74
     0
 42
0.0000000001
 43
0.0000000001
 40
0.0
 40
0.0
 40
0.0
 40
0.0
 40
1.0
 40
1.0
 40
1.0
 40
1.0
 10
731.6084479425908
 20
1061.81492405985
 30
0.0
 10
731.6084479425908
 20
1062.777256168649
 30
0.0
 10
730.8283071079122
 20
1063.55739700333
 30
0.0
 10
729.8659749991102
 20
1063.55739700333
 30
0.0
  0
SPLINE
  5
18E
330
70
100
AcDbEntity
  8
Camada 1
 62
    18
420
        0
370
    35
100
AcDbSpline
210
0.0
220
0.0
230
1.0
 70
     8
 71
     3
 72
     8
 73
     4
 74
     0
 42
0.0000000001
 43
0.0000000001
 40
0.0
 40
0.0
 40
0.0
 40
0.0
 40
1.0
 40
1.0
 40
1.0
 40
1.0
 10
729.8659749991102
 20
1063.55739700333
 30
0.0
 10
728.9036178777769
 20
1063.55739700333
 30
0.0
 10
728.1235020556278
 20
1062.777256168649
 30
0.0
 10
728.1235020556278
 20
1061.81492405985
 30
0.0
  0
SPLINE
  5
18F
330
70
100
AcDbEntity
  8
Camada 1
 62
    18
420
        0
370
    35
100
AcDbSpline
210
0.0
220
0.0
230
1.0
 70
     8
 71
     3
 72
     8
 73
     4
 74
     0
 42
0.0000000001
 43
0.0000000001
 40
0.0
 40
0.0
 40
0.0
 40
0.0
 40
1.0
 40
1.0
 40
1.0
 40
1.0
 10
746.7099384820012
 20
1061.81492405985
 30
0.0
 10
746.7099384820012
 20
1062.777256168649
 30
0.0
 10
745.9297976473189
 20
1063.55739700333
 30
0.0
 10
744.9674655385187
 20
1063.55739700333
 30
0.0
  0
SPLINE
  5
190
330
70
100
AcDbEntity
  8
Camada 1
 62
    18
420
        0
370
    35
100
AcDbSpline
210
0.0
220
0.0
230
1.0
 70
     8
 71
     3
 72
     8
 73
     4
 74
     0
 42
0.0000000001
 43
0.0000000001
 40
0.0
 40
0.0
 40
0.0
 40
0.0
 40
1.0
 40
1.0
 40
1.0
 40
1.0
 10
744.9674655385187
 20
1063.55739700333
 30
0.0
 10
744.0051084171882
 20
1063.55739700333
 30
0.0
 10
743.2249675825069
 20
1062.777256168649
 30
0.0
 10
743.2249675825069
 20
1061.81492405985
 30
0.0
  0
SPLINE
  5
191
330
70
100
AcDbEntity
  8
Camada 1
 62
    18
420
        0
370
    35
100
AcDbSpline
210
0.0
220
0.0
230
1.0
 70
     8
 71
     3
 72
     8
 73
     4
 74
     0
 42
0.0000000001
 43
0.0000000001
 40
0.0
 40
0.0
 40
0.0
 40
0.0
 40
1.0
 40
1.0
 40
1.0
 40
1.0
 10
761.8114290214107
 20
1061.81492405985
 30
0.0
 10
761.8114290214107
 20
1062.777256168649
 30
0.0
 10
761.0312881867285
 20
1063.55739700333
 30
0.0
 10
760.0689310653979
 20
1063.55739700333
 30
0.0
  0
SPLINE
  5
192
330
70
100
AcDbEntity
  8
Camada 1
 62
    18
420
        0
370
    35
100
AcDbSpline
210
0.0
220
0.0
230
1.0
 70
     8
 71
     3
 72
     8
 73
     4
 74
     0
 42
0.0000000001
 43
0.0000000001
 40
0.0
 40
0.0
 40
0.0
 40
0.0
 40
1.0
 40
1.0
 40
1.0
 40
1.0
 10
760.0689310653979
 20
1063.55739700333
 30
0.0
 10
759.1065989565959
 20
1063.55739700333
 30
0.0
 10
758.3264581219155
 20
1062.777256168649
 30
0.0
 10
758.3264581219155
 20
1061.81492405985
 30
0.0
  0
SPLINE
  5
193
330
70
100
AcDbEntity
  8
Camada 1
 62
    18
420
        0
370
    35
100
AcDbSpline
210
0.0
220
0.0
230
1.0
 70
     8
 71
     3
 72
     8
 73
     4
 74
     0
 42
0.0000000001
 43
0.0000000001
 40
0.0
 40
0.0
 40
0.0
 40
0.0
 40
1.0
 40
1.0
 40
1.0
 40
1.0
 10
776.9129195608184
 20
1061.81492405985
 30
0.0
 10
776.9129195608184
 20
1062.777256168649
 30
0.0
 10
776.1327787261389
 20
1063.55739700333
 30
0.0
 10
775.1704216048092
 20
1063.55739700333
 30
0.0
  0
SPLINE
  5
194
330
70
100
AcDbEntity
  8
Camada 1
 62
    18
420
        0
370
    35
100
AcDbSpline
210
0.0
220
0.0
230
1.0
 70
     8
 71
     3
 72
     8
 73
     4
 74
     0
 42
0.0000000001
 43
0.0000000001
 40
0.0
 40
0.0
 40
0.0
 40
0.0
 40
1.0
 40
1.0
 40
1.0
 40
1.0
 10
775.1704216048092
 20
1063.55739700333
 30
0.0
 10
774.2080894960072
 20
1063.55739700333
 30
0.0
 10
773.4279486613258
 20
1062.777256168649
 30
0.0
 10
773.4279486613258
 20
1061.81492405985
 30
0.0
  0
SPLINE
  5
195
330
70
100
AcDbEntity
  8
Camada 1
 62
    18
420
        0
370
    35
100
AcDbSpline
210
0.0
220
0.0
230
1.0
 70
     8
 71
     3
 72
     8
 73
     4
 74
     0
 42
0.0000000001
 43
0.0000000001
 40
0.0
 40
0.0
 40
0.0
 40
0.0
 40
1.0
 40
1.0
 40
1.0
 40
1.0
 10
792.0143850876975
 20
1061.81492405985
 30
0.0
 10
792.0143850876975
 20
1062.777256168649
 30
0.0
 10
791.2342692655483
 20
1063.55739700333
 30
0.0
 10
790.2719121442169
 20
1063.55739700333
 30
0.0
  0
SPLINE
  5
196
330
70
100
AcDbEntity
  8
Camada 1
 62
    18
420
        0
370
    35
100
AcDbSpline
210
0.0
220
0.0
230
1.0
 70
     8
 71
     3
 72
     8
 73
     4
 74
     0
 42
0.0000000001
 43
0.0000000001
 40
0.0
 40
0.0
 40
0.0
 40
0.0
 40
1.0
 40
1.0
 40
1.0
 40
1.0
 10
790.2719121442169
 20
1063.55739700333
 30
0.0
 10
789.3095800354158
 20
1063.55739700333
 30
0.0
 10
788.5294392007353
 20
1062.777256168649
 30
0.0
 10
788.5294392007353
 20
1061.81492405985
 30
0.0
  0
SPLINE
  5
197
330
70
100
AcDbEntity
  8
Camada 1
 62
    18
420
        0
370
    35
100
AcDbSpline
210
0.0
220
0.0
230
1.0
 70
     8
 71
     3
 72
     8
 73
     4
 74
     0
 42
0.0000000001
 43
0.0000000001
 40
0.0
 40
0.0
 40
0.0
 40
0.0
 40
1.0
 40
1.0
 40
1.0
 40
1.0
 10
807.1158756271071
 20
1061.81492405985
 30
0.0
 10
807.1158756271071
 20
1062.777256168649
 30
0.0
 10
806.3357598049579
 20
1063.55739700333
 30
0.0
 10
805.3734026836282
 20
1063.55739700333
 30
0.0
  0
SPLINE
  5
198
330
70
100
AcDbEntity
  8
Camada 1
 62
    18
420
        0
370
    35
100
AcDbSpline
210
0.0
220
0.0
230
1.0
 70
     8
 71
     3
 72
     8
 73
     4
 74
     0
 42
0.0000000001
 43
0.0000000001
 40
0.0
 40
0.0
 40
0.0
 40
0.0
 40
1.0
 40
1.0
 40
1.0
 40
1.0
 10
805.3734026836282
 20
1063.55739700333
 30
0.0
 10
804.4110705748263
 20
1063.55739700333
 30
0.0
 10
803.6309297401457
 20
1062.777256168649
 30
0.0
 10
803.6309297401457
 20
1061.81492405985
 30
0.0
  0
SPLINE
  5
199
330
70
100
AcDbEntity
  8
Camada 1
 62
    18
420
        0
370
    35
100
AcDbSpline
210
0.0
220
0.0
230
1.0
 70
     8
 71
     3
 72
     8
 73
     4
 74
     0
 42
0.0000000001
 43
0.0000000001
 40
0.0
 40
0.0
 40
0.0
 40
0.0
 40
1.0
 40
1.0
 40
1.0
 40
1.0
 10
822.2173661665165
 20
1061.81492405985
 30
0.0
 10
822.2173661665165
 20
1062.777256168649
 30
0.0
 10
821.4372253318369
 20
1063.55739700333
 30
0.0
 10
820.474893223035
 20
1063.55739700333
 30
0.0
  0
SPLINE
  5
19A
330
70
100
AcDbEntity
  8
Camada 1
 62
    18
420
        0
370
    35
100
AcDbSpline
210
0.0
220
0.0
230
1.0
 70
     8
 71
     3
 72
     8
 73
     4
 74
     0
 42
0.0000000001
 43
0.0000000001
 40
0.0
 40
0.0
 40
0.0
 40
0.0
 40
1.0
 40
1.0
 40
1.0
 40
1.0
 10
820.474893223035
 20
1063.55739700333
 30
0.0
 10
819.5125361017035
 20
1063.55739700333
 30
0.0
 10
818.7324202795544
 20
1062.777256168649
 30
0.0
 10
818.7324202795544
 20
1061.81492405985
 30
0.0
  0
SPLINE
  5
19B
330
70
100
AcDbEntity
  8
Camada 1
 62
    18
420
        0
370
    35
100
AcDbSpline
210
0.0
220
0.0
230
1.0
 70
     8
 71
     3
 72
     8
 73
     4
 74
     0
 42
0.0000000001
 43
0.0000000001
 40
0.0
 40
0.0
 40
0.0
 40
0.0
 40
1.0
 40
1.0
 40
1.0
 40
1.0
 10
837.3188316933974
 20
1061.81492405985
 30
0.0
 10
837.3188316933974
 20
1062.777256168649
 30
0.0
 10
836.5387408837769
 20
1063.55739700333
 30
0.0
 10
835.576358749914
 20
1063.55739700333
 30
0.0
  0
SPLINE
  5
19C
330
70
100
AcDbEntity
  8
Camada 1
 62
    18
420
        0
370
    35
100
AcDbSpline
210
0.0
220
0.0
230
1.0
 70
     8
 71
     3
 72
     8
 73
     4
 74
     0
 42
0.0000000001
 43
0.0000000001
 40
0.0
 40
0.0
 40
0.0
 40
0.0
 40
1.0
 40
1.0
 40
1.0
 40
1.0
 10
835.576358749914
 20
1063.55739700333
 30
0.0
 10
834.6140266411138
 20
1063.55739700333
 30
0.0
 10
833.8338858064325
 20
1062.777256168649
 30
0.0
 10
833.8338858064325
 20
1061.81492405985
 30
0.0
  0
SPLINE
  5
19D
330
70
100
AcDbEntity
  8
Camada 1
 62
    18
420
        0
370
    35
100
AcDbSpline
210
0.0
220
0.0
230
1.0
 70
     8
 71
     3
 72
     8
 73
     4
 74
     0
 42
0.0000000001
 43
0.0000000001
 40
0.0
 40
0.0
 40
0.0
 40
0.0
 40
1.0
 40
1.0
 40
1.0
 40
1.0
 10
852.4203472453354
 20
1061.81492405985
 30
0.0
 10
852.4203472453354
 20
1062.777256168649
 30
0.0
 10
851.6402064106559
 20
1063.55739700333
 30
0.0
 10
850.6778743018548
 20
1063.55739700333
 30
0.0
  0
SPLINE
  5
19E
330
70
100
AcDbEntity
  8
Camada 1
 62
    18
420
        0
370
    35
100
AcDbSpline
210
0.0
220
0.0
230
1.0
 70
     8
 71
     3
 72
     8
 73
     4
 74
     0
 42
0.0000000001
 43
0.0000000001
 40
0.0
 40
0.0
 40
0.0
 40
0.0
 40
1.0
 40
1.0
 40
1.0
 40
1.0
 10
850.6778743018548
 20
1063.55739700333
 30
0.0
 10
849.7155421930537
 20
1063.55739700333
 30
0.0
 10
848.9354013583733
 20
1062.777256168649
 30
0.0
 10
848.9354013583733
 20
1061.81492405985
 30
0.0
  0
SPLINE
  5
19F
330
70
100
AcDbEntity
  8
Camada 1
 62
    18
420
        0
370
    35
100
AcDbSpline
210
0.0
220
0.0
230
1.0
 70
     8
 71
     3
 72
     8
 73
     4
 74
     0
 42
0.0000000001
 43
0.0000000001
 40
0.0
 40
0.0
 40
0.0
 40
0.0
 40
1.0
 40
1.0
 40
1.0
 40
1.0
 10
867.5218127722146
 20
1061.81492405985
 30
0.0
 10
867.5218127722146
 20
1062.777256168649
 30
0.0
 10
866.7416719375323
 20
1063.55739700333
 30
0.0
 10
865.779339828734
 20
1063.55739700333
 30
0.0
  0
SPLINE
  5
1A0
330
70
100
AcDbEntity
  8
Camada 1
 62
    18
420
        0
370
    35
100
AcDbSpline
210
0.0
220
0.0
230
1.0
 70
     8
 71
     3
 72
     8
 73
     4
 74
     0
 42
0.0000000001
 43
0.0000000001
 40
0.0
 40
0.0
 40
0.0
 40
0.0
 40
1.0
 40
1.0
 40
1.0
 40
1.0
 10
865.779339828734
 20
1063.55739700333
 30
0.0
 10
864.8170077199329
 20
1063.55739700333
 30
0.0
 10
864.0368668852515
 20
1062.777256168649
 30
0.0
 10
864.0368668852515
 20
1061.81492405985
 30
0.0
  0
SPLINE
  5
1A1
330
70
100
AcDbEntity
  8
Camada 1
 62
    18
420
        0
370
    35
100
AcDbSpline
210
0.0
220
0.0
230
1.0
 70
     8
 71
     3
 72
     8
 73
     4
 74
     0
 42
0.0000000001
 43
0.0000000001
 40
0.0
 40
0.0
 40
0.0
 40
0.0
 40
1.0
 40
1.0
 40
1.0
 40
1.0
 10
882.6233283241545
 20
1061.81492405985
 30
0.0
 10
882.6233283241545
 20
1062.777256168649
 30
0.0
 10
881.843187489474
 20
1063.55739700333
 30
0.0
 10
880.8808553806739
 20
1063.55739700333
 30
0.0
  0
SPLINE
  5
1A2
330
70
100
AcDbEntity
  8
Camada 1
 62
    18
420
        0
370
    35
100
AcDbSpline
210
0.0
220
0.0
230
1.0
 70
     8
 71
     3
 72
     8
 73
     4
 74
     0
 42
0.0000000001
 43
0.0000000001
 40
0.0
 40
0.0
 40
0.0
 40
0.0
 40
1.0
 40
1.0
 40
1.0
 40
1.0
 10
880.8808553806739
 20
1063.55739700333
 30
0.0
 10
879.9184732468102
 20
1063.55739700333
 30
0.0
 10
879.1383824371932
 20
1062.777256168649
 30
0.0
 10
879.1383824371932
 20
1061.81492405985
 30
0.0
  0
SPLINE
  5
1A3
330
70
100
AcDbEntity
  8
Camada 1
 62
    18
420
        0
370
    35
100
AcDbSpline
210
0.0
220
0.0
230
1.0
 70
     8
 71
     3
 72
     8
 73
     4
 74
     0
 42
0.0000000001
 43
0.0000000001
 40
0.0
 40
0.0
 40
0.0
 40
0.0
 40
1.0
 40
1.0
 40
1.0
 40
1.0
 10
897.7247938510336
 20
1061.81492405985
 30
0.0
 10
897.7247938510336
 20
1062.777256168649
 30
0.0
 10
896.9446530163514
 20
1063.55739700333
 30
0.0
 10
895.9823209075512
 20
1063.55739700333
 30
0.0
  0
SPLINE
  5
1A4
330
70
100
AcDbEntity
  8
Camada 1
 62
    18
420
        0
370
    35
100
AcDbSpline
210
0.0
220
0.0
230
1.0
 70
     8
 71
     3
 72
     8
 73
     4
 74
     0
 42
0.0000000001
 43
0.0000000001
 40
0.0
 40
0.0
 40
0.0
 40
0.0
 40
1.0
 40
1.0
 40
1.0
 40
1.0
 10
895.9823209075512
 20
1063.55739700333
 30
0.0
 10
895.0199887987528
 20
1063.55739700333
 30
0.0
 10
894.2398479640724
 20
1062.777256168649
 30
0.0
 10
894.2398479640724
 20
1061.81492405985
 30
0.0
  0
SPLINE
  5
1A5
330
70
100
AcDbEntity
  8
Camada 1
 62
    18
420
        0
370
    35
100
AcDbSpline
210
0.0
220
0.0
230
1.0
 70
     8
 71
     3
 72
     8
 73
     4
 74
     0
 42
0.0000000001
 43
0.0000000001
 40
0.0
 40
0.0
 40
0.0
 40
0.0
 40
1.0
 40
1.0
 40
1.0
 40
1.0
 10
912.8263094029753
 20
1061.81492405985
 30
0.0
 10
912.8263094029753
 20
1062.777256168649
 30
0.0
 10
912.0461685682931
 20
1063.55739700333
 30
0.0
 10
911.083786434432
 20
1063.55739700333
 30
0.0
  0
SPLINE
  5
1A6
330
70
100
AcDbEntity
  8
Camada 1
 62
    18
420
        0
370
    35
100
AcDbSpline
210
0.0
220
0.0
230
1.0
 70
     8
 71
     3
 72
     8
 73
     4
 74
     0
 42
0.0000000001
 43
0.0000000001
 40
0.0
 40
0.0
 40
0.0
 40
0.0
 40
1.0
 40
1.0
 40
1.0
 40
1.0
 10
911.083786434432
 20
1063.55739700333
 30
0.0
 10
910.1214543256283
 20
1063.55739700333
 30
0.0
 10
909.3413134909496
 20
1062.777256168649
 30
0.0
 10
909.3413134909496
 20
1061.81492405985
 30
0.0
  0
SPLINE
  5
1A7
330
70
100
AcDbEntity
  8
Camada 1
 62
    18
420
        0
370
    35
100
AcDbSpline
210
0.0
220
0.0
230
1.0
 70
     8
 71
     3
 72
     8
 73
     4
 74
     0
 42
0.0000000001
 43
0.0000000001
 40
0.0
 40
0.0
 40
0.0
 40
0.0
 40
1.0
 40
1.0
 40
1.0
 40
1.0
 10
927.9277749298525
 20
1061.81492405985
 30
0.0
 10
927.9277749298525
 20
1062.777256168649
 30
0.0
 10
927.1476340951721
 20
1063.55739700333
 30
0.0
 10
926.1853019863702
 20
1063.55739700333
 30
0.0
  0
SPLINE
  5
1A8
330
70
100
AcDbEntity
  8
Camada 1
 62
    18
420
        0
370
    35
100
AcDbSpline
210
0.0
220
0.0
230
1.0
 70
     8
 71
     3
 72
     8
 73
     4
 74
     0
 42
0.0000000001
 43
0.0000000001
 40
0.0
 40
0.0
 40
0.0
 40
0.0
 40
1.0
 40
1.0
 40
1.0
 40
1.0
 10
926.1853019863702
 20
1063.55739700333
 30
0.0
 10
925.22296987757
 20
1063.55739700333
 30
0.0
 10
924.4428290428913
 20
1062.777256168649
 30
0.0
 10
924.4428290428913
 20
1061.81492405985
 30
0.0
  0
SPLINE
  5
1A9
330
70
100
AcDbEntity
  8
Camada 1
 62
    18
420
        0
370
    35
100
AcDbSpline
210
0.0
220
0.0
230
1.0
 70
     8
 71
     3
 72
     8
 73
     4
 74
     0
 42
0.0000000001
 43
0.0000000001
 40
0.0
 40
0.0
 40
0.0
 40
0.0
 40
1.0
 40
1.0
 40
1.0
 40
1.0
 10
943.0292404567298
 20
1061.81492405985
 30
0.0
 10
943.0292404567298
 20
1062.777256168649
 30
0.0
 10
942.2491496471121
 20
1063.55739700333
 30
0.0
 10
941.2867675132511
 20
1063.55739700333
 30
0.0
  0
SPLINE
  5
1AA
330
70
100
AcDbEntity
  8
Camada 1
 62
    18
420
        0
370
    35
100
AcDbSpline
210
0.0
220
0.0
230
1.0
 70
     8
 71
     3
 72
     8
 73
     4
 74
     0
 42
0.0000000001
 43
0.0000000001
 40
0.0
 40
0.0
 40
0.0
 40
0.0
 40
1.0
 40
1.0
 40
1.0
 40
1.0
 10
941.2867675132511
 20
1063.55739700333
 30
0.0
 10
940.324435404451
 20
1063.55739700333
 30
0.0
 10
939.5442945697686
 20
1062.777256168649
 30
0.0
 10
939.5442945697686
 20
1061.81492405985
 30
0.0
  0
SPLINE
  5
1AB
330
70
100
AcDbEntity
  8
Camada 1
 62
    18
420
        0
370
    35
100
AcDbSpline
210
0.0
220
0.0
230
1.0
 70
     8
 71
     3
 72
     8
 73
     4
 74
     0
 42
0.0000000001
 43
0.0000000001
 40
0.0
 40
0.0
 40
0.0
 40
0.0
 40
1.0
 40
1.0
 40
1.0
 40
1.0
 10
958.1307560086715
 20
1061.81492405985
 30
0.0
 10
958.1307560086715
 20
1062.777256168649
 30
0.0
 10
957.350615173993
 20
1063.55739700333
 30
0.0
 10
956.3882830651891
 20
1063.55739700333
 30
0.0
  0
SPLINE
  5
1AC
330
70
100
AcDbEntity
  8
Camada 1
 62
    18
420
        0
370
    35
100
AcDbSpline
210
0.0
220
0.0
230
1.0
 70
     8
 71
     3
 72
     8
 73
     4
 74
     0
 42
0.0000000001
 43
0.0000000001
 40
0.0
 40
0.0
 40
0.0
 40
0.0
 40
1.0
 40
1.0
 40
1.0
 40
1.0
 10
956.3882830651891
 20
1063.55739700333
 30
0.0
 10
955.4259509563907
 20
1063.55739700333
 30
0.0
 10
954.6458101217103
 20
1062.777256168649
 30
0.0
 10
954.6458101217103
 20
1061.81492405985
 30
0.0
  0
SPLINE
  5
1AD
330
70
100
AcDbEntity
  8
Camada 1
 62
    18
420
        0
370
    35
100
AcDbSpline
210
0.0
220
0.0
230
1.0
 70
     8
 71
     3
 72
     8
 73
     4
 74
     0
 42
0.0000000001
 43
0.0000000001
 40
0.0
 40
0.0
 40
0.0
 40
0.0
 40
1.0
 40
1.0
 40
1.0
 40
1.0
 10
973.2322215355489
 20
1061.81492405985
 30
0.0
 10
973.2322215355489
 20
1062.777256168649
 30
0.0
 10
972.4520807008703
 20
1063.55739700333
 30
0.0
 10
971.4897485920701
 20
1063.55739700333
 30
0.0
  0
SPLINE
  5
1AE
330
70
100
AcDbEntity
  8
Camada 1
 62
    18
420
        0
370
    35
100
AcDbSpline
210
0.0
220
0.0
230
1.0
 70
     8
 71
     3
 72
     8
 73
     4
 74
     0
 42
0.0000000001
 43
0.0000000001
 40
0.0
 40
0.0
 40
0.0
 40
0.0
 40
1.0
 40
1.0
 40
1.0
 40
1.0
 10
971.4897485920701
 20
1063.55739700333
 30
0.0
 10
970.5274164832699
 20
1063.55739700333
 30
0.0
 10
969.7472756485877
 20
1062.777256168649
 30
0.0
 10
969.7472756485877
 20
1061.81492405985
 30
0.0
  0
SPLINE
  5
1AF
330
70
100
AcDbEntity
  8
Camada 1
 62
    18
420
        0
370
    35
100
AcDbSpline
210
0.0
220
0.0
230
1.0
 70
     8
 71
     3
 72
     8
 73
     4
 74
     0
 42
0.0000000001
 43
0.0000000001
 40
0.0
 40
0.0
 40
0.0
 40
0.0
 40
1.0
 40
1.0
 40
1.0
 40
1.0
 10
988.3337370874906
 20
1061.81492405985
 30
0.0
 10
988.3337370874906
 20
1062.777256168649
 30
0.0
 10
987.553596252812
 20
1063.55739700333
 30
0.0
 10
986.59126414401
 20
1063.55739700333
 30
0.0
  0
SPLINE
  5
1B0
330
70
100
AcDbEntity
  8
Camada 1
 62
    18
420
        0
370
    35
100
AcDbSpline
210
0.0
220
0.0
230
1.0
 70
     8
 71
     3
 72
     8
 73
     4
 74
     0
 42
0.0000000001
 43
0.0000000001
 40
0.0
 40
0.0
 40
0.0
 40
0.0
 40
1.0
 40
1.0
 40
1.0
 40
1.0
 10
986.59126414401
 20
1063.55739700333
 30
0.0
 10
985.6288820101472
 20
1063.55739700333
 30
0.0
 10
984.8487411754685
 20
1062.777256168649
 30
0.0
 10
984.8487411754685
 20
1061.81492405985
 30
0.0
  0
SPLINE
  5
1B1
330
70
100
AcDbEntity
  8
Camada 1
 62
    18
420
        0
370
    35
100
AcDbSpline
210
0.0
220
0.0
230
1.0
 70
     8
 71
     3
 72
     8
 73
     4
 74
     0
 42
0.0000000001
 43
0.0000000001
 40
0.0
 40
0.0
 40
0.0
 40
0.0
 40
1.0
 40
1.0
 40
1.0
 40
1.0
 10
1003.43520261437
 20
1061.81492405985
 30
0.0
 10
1003.43520261437
 20
1062.777256168649
 30
0.0
 10
1002.655061779689
 20
1063.55739700333
 30
0.0
 10
1001.692729670889
 20
1063.55739700333
 30
0.0
  0
SPLINE
  5
1B2
330
70
100
AcDbEntity
  8
Camada 1
 62
    18
420
        0
370
    35
100
AcDbSpline
210
0.0
220
0.0
230
1.0
 70
     8
 71
     3
 72
     8
 73
     4
 74
     0
 42
0.0000000001
 43
0.0000000001
 40
0.0
 40
0.0
 40
0.0
 40
0.0
 40
1.0
 40
1.0
 40
1.0
 40
1.0
 10
1001.692729670889
 20
1063.55739700333
 30
0.0
 10
1000.73039756209
 20
1063.55739700333
 30
0.0
 10
999.9502567274067
 20
1062.777256168649
 30
0.0
 10
999.9502567274067
 20
1061.81492405985
 30
0.0
  0
SPLINE
  5
1B3
330
70
100
AcDbEntity
  8
Camada 1
 62
    18
420
        0
370
    35
100
AcDbSpline
210
0.0
220
0.0
230
1.0
 70
     8
 71
     3
 72
     8
 73
     4
 74
     0
 42
0.0000000001
 43
0.0000000001
 40
0.0
 40
0.0
 40
0.0
 40
0.0
 40
1.0
 40
1.0
 40
1.0
 40
1.0
 10
1018.536718166309
 20
1061.81492405985
 30
0.0
 10
1018.536718166309
 20
1062.777256168649
 30
0.0
 10
1017.756577331629
 20
1063.55739700333
 30
0.0
 10
1016.79419519777
 20
1063.55739700333
 30
0.0
  0
SPLINE
  5
1B4
330
70
100
AcDbEntity
  8
Camada 1
 62
    18
420
        0
370
    35
100
AcDbSpline
210
0.0
220
0.0
230
1.0
 70
     8
 71
     3
 72
     8
 73
     4
 74
     0
 42
0.0000000001
 43
0.0000000001
 40
0.0
 40
0.0
 40
0.0
 40
0.0
 40
1.0
 40
1.0
 40
1.0
 40
1.0
 10
1016.79419519777
 20
1063.55739700333
 30
0.0
 10
1015.83186308897
 20
1063.55739700333
 30
0.0
 10
1015.051722254289
 20
1062.777256168649
 30
0.0
 10
1015.051722254289
 20
1061.81492405985
 30
0.0
  0
SPLINE
  5
1B5
330
70
100
AcDbEntity
  8
Camada 1
 62
    18
420
        0
370
    35
100
AcDbSpline
210
0.0
220
0.0
230
1.0
 70
     8
 71
     3
 72
     8
 73
     4
 74
     0
 42
0.0000000001
 43
0.0000000001
 40
0.0
 40
0.0
 40
0.0
 40
0.0
 40
1.0
 40
1.0
 40
1.0
 40
1.0
 10
1033.63818369319
 20
1061.81492405985
 30
0.0
 10
1033.63818369319
 20
1062.777256168649
 30
0.0
 10
1032.85804285851
 20
1063.55739700333
 30
0.0
 10
1031.89571074971
 20
1063.55739700333
 30
0.0
  0
SPLINE
  5
1B6
330
70
100
AcDbEntity
  8
Camada 1
 62
    18
420
        0
370
    35
100
AcDbSpline
210
0.0
220
0.0
230
1.0
 70
     8
 71
     3
 72
     8
 73
     4
 74
     0
 42
0.0000000001
 43
0.0000000001
 40
0.0
 40
0.0
 40
0.0
 40
0.0
 40
1.0
 40
1.0
 40
1.0
 40
1.0
 10
1031.89571074971
 20
1063.55739700333
 30
0.0
 10
1030.933378640909
 20
1063.55739700333
 30
0.0
 10
1030.153237806229
 20
1062.777256168649
 30
0.0
 10
1030.153237806229
 20
1061.81492405985
 30
0.0
  0
SPLINE
  5
1B7
330
70
100
AcDbEntity
  8
Camada 1
 62
    18
420
        0
370
    35
100
AcDbSpline
210
0.0
220
0.0
230
1.0
 70
     8
 71
     3
 72
     8
 73
     4
 74
     0
 42
0.0000000001
 43
0.0000000001
 40
0.0
 40
0.0
 40
0.0
 40
0.0
 40
1.0
 40
1.0
 40
1.0
 40
1.0
 10
1048.73964922007
 20
1061.81492405985
 30
0.0
 10
1048.73964922007
 20
1062.777256168649
 30
0.0
 10
1047.95955841045
 20
1063.55739700333
 30
0.0
 10
1046.997176276589
 20
1063.55739700333
 30
0.0
  0
SPLINE
  5
1B8
330
70
100
AcDbEntity
  8
Camada 1
 62
    18
420
        0
370
    35
100
AcDbSpline
210
0.0
220
0.0
230
1.0
 70
     8
 71
     3
 72
     8
 73
     4
 74
     0
 42
0.0000000001
 43
0.0000000001
 40
0.0
 40
0.0
 40
0.0
 40
0.0
 40
1.0
 40
1.0
 40
1.0
 40
1.0
 10
1046.997176276589
 20
1063.55739700333
 30
0.0
 10
1046.03484416779
 20
1063.55739700333
 30
0.0
 10
1045.254703333099
 20
1062.777256168649
 30
0.0
 10
1045.254703333099
 20
1061.81492405985
 30
0.0
  0
SPLINE
  5
1B9
330
70
100
AcDbEntity
  8
Camada 1
 62
    18
420
        0
370
    35
100
AcDbSpline
210
0.0
220
0.0
230
1.0
 70
     8
 71
     3
 72
     8
 73
     4
 74
     0
 42
0.0000000001
 43
0.0000000001
 40
0.0
 40
0.0
 40
0.0
 40
0.0
 40
1.0
 40
1.0
 40
1.0
 40
1.0
 10
1063.841164772009
 20
1061.81492405985
 30
0.0
 10
1063.841164772009
 20
1062.777256168649
 30
0.0
 10
1063.061023937331
 20
1063.55739700333
 30
0.0
 10
1062.098691828531
 20
1063.55739700333
 30
0.0
  0
SPLINE
  5
1BA
330
70
100
AcDbEntity
  8
Camada 1
 62
    18
420
        0
370
    35
100
AcDbSpline
210
0.0
220
0.0
230
1.0
 70
     8
 71
     3
 72
     8
 73
     4
 74
     0
 42
0.0000000001
 43
0.0000000001
 40
0.0
 40
0.0
 40
0.0
 40
0.0
 40
1.0
 40
1.0
 40
1.0
 40
1.0
 10
1062.098691828531
 20
1063.55739700333
 30
0.0
 10
1061.13630969466
 20
1063.55739700333
 30
0.0
 10
1060.356218885041
 20
1062.777256168649
 30
0.0
 10
1060.356218885041
 20
1061.81492405985
 30
0.0
  0
SPLINE
  5
1BB
330
70
100
AcDbEntity
  8
Camada 1
 62
    18
420
        0
370
    35
100
AcDbSpline
210
0.0
220
0.0
230
1.0
 70
     8
 71
     3
 72
     8
 73
     4
 74
     0
 42
0.0000000001
 43
0.0000000001
 40
0.0
 40
0.0
 40
0.0
 40
0.0
 40
1.0
 40
1.0
 40
1.0
 40
1.0
 10
1078.94263029889
 20
1061.81492405985
 30
0.0
 10
1078.94263029889
 20
1062.777256168649
 30
0.0
 10
1078.162489464201
 20
1063.55739700333
 30
0.0
 10
1077.200157355401
 20
1063.55739700333
 30
0.0
  0
SPLINE
  5
1BC
330
70
100
AcDbEntity
  8
Camada 1
 62
    18
420
        0
370
    35
100
AcDbSpline
210
0.0
220
0.0
230
1.0
 70
     8
 71
     3
 72
     8
 73
     4
 74
     0
 42
0.0000000001
 43
0.0000000001
 40
0.0
 40
0.0
 40
0.0
 40
0.0
 40
1.0
 40
1.0
 40
1.0
 40
1.0
 10
1077.200157355401
 20
1063.55739700333
 30
0.0
 10
1076.2378252466
 20
1063.55739700333
 30
0.0
 10
1075.45768441192
 20
1062.777256168649
 30
0.0
 10
1075.45768441192
 20
1061.81492405985
 30
0.0
  0
SPLINE
  5
1BD
330
70
100
AcDbEntity
  8
Camada 1
 62
    18
420
        0
370
    35
100
AcDbSpline
210
0.0
220
0.0
230
1.0
 70
     8
 71
     3
 72
     8
 73
     4
 74
     0
 42
0.0000000001
 43
0.0000000001
 40
0.0
 40
0.0
 40
0.0
 40
0.0
 40
1.0
 40
1.0
 40
1.0
 40
1.0
 10
1094.04414585083
 20
1061.81492405985
 30
0.0
 10
1094.04414585083
 20
1062.777256168649
 30
0.0
 10
1093.26400501615
 20
1063.55739700333
 30
0.0
 10
1092.30167290735
 20
1063.55739700333
 30
0.0
  0
SPLINE
  5
1BE
330
70
100
AcDbEntity
  8
Camada 1
 62
    18
420
        0
370
    35
100
AcDbSpline
210
0.0
220
0.0
230
1.0
 70
     8
 71
     3
 72
     8
 73
     4
 74
     0
 42
0.0000000001
 43
0.0000000001
 40
0.0
 40
0.0
 40
0.0
 40
0.0
 40
1.0
 40
1.0
 40
1.0
 40
1.0
 10
1092.30167290735
 20
1063.55739700333
 30
0.0
 10
1091.33929077348
 20
1063.55739700333
 30
0.0
 10
1090.559149938799
 20
1062.777256168649
 30
0.0
 10
1090.559149938799
 20
1061.81492405985
 30
0.0
  0
SPLINE
  5
1BF
330
70
100
AcDbEntity
  8
Camada 1
 62
    18
420
        0
370
    35
100
AcDbSpline
210
0.0
220
0.0
230
1.0
 70
     8
 71
     3
 72
     8
 73
     4
 74
     0
 42
0.0000000001
 43
0.0000000001
 40
0.0
 40
0.0
 40
0.0
 40
0.0
 40
1.0
 40
1.0
 40
1.0
 40
1.0
 10
1109.145611377709
 20
1061.81492405985
 30
0.0
 10
1109.145611377709
 20
1062.777256168649
 30
0.0
 10
1108.365470543031
 20
1063.55739700333
 30
0.0
 10
1107.40313843423
 20
1063.55739700333
 30
0.0
  0
SPLINE
  5
1C0
330
70
100
AcDbEntity
  8
Camada 1
 62
    18
420
        0
370
    35
100
AcDbSpline
210
0.0
220
0.0
230
1.0
 70
     8
 71
     3
 72
     8
 73
     4
 74
     0
 42
0.0000000001
 43
0.0000000001
 40
0.0
 40
0.0
 40
0.0
 40
0.0
 40
1.0
 40
1.0
 40
1.0
 40
1.0
 10
1107.40313843423
 20
1063.55739700333
 30
0.0
 10
1106.440806325419
 20
1063.55739700333
 30
0.0
 10
1105.660665490741
 20
1062.777256168649
 30
0.0
 10
1105.660665490741
 20
1061.81492405985
 30
0.0
  0
SPLINE
  5
1C1
330
70
100
AcDbEntity
  8
Camada 1
 62
    18
420
        0
370
    35
100
AcDbSpline
210
0.0
220
0.0
230
1.0
 70
     8
 71
     3
 72
     8
 73
     4
 74
     0
 42
0.0000000001
 43
0.0000000001
 40
0.0
 40
0.0
 40
0.0
 40
0.0
 40
1.0
 40
1.0
 40
1.0
 40
1.0
 10
1124.247126929649
 20
1061.81492405985
 30
0.0
 10
1124.247126929649
 20
1062.777256168649
 30
0.0
 10
1123.466986094959
 20
1063.55739700333
 30
0.0
 10
1122.5046039611
 20
1063.55739700333
 30
0.0
  0
SPLINE
  5
1C2
330
70
100
AcDbEntity
  8
Camada 1
 62
    18
420
        0
370
    35
100
AcDbSpline
210
0.0
220
0.0
230
1.0
 70
     8
 71
     3
 72
     8
 73
     4
 74
     0
 42
0.0000000001
 43
0.0000000001
 40
0.0
 40
0.0
 40
0.0
 40
0.0
 40
1.0
 40
1.0
 40
1.0
 40
1.0
 10
1122.5046039611
 20
1063.55739700333
 30
0.0
 10
1121.5422718523
 20
1063.55739700333
 30
0.0
 10
1120.76213101762
 20
1062.777256168649
 30
0.0
 10
1120.76213101762
 20
1061.81492405985
 30
0.0
  0
SPLINE
  5
1C3
330
70
100
AcDbEntity
  8
Camada 1
 62
    18
420
        0
370
    35
100
AcDbSpline
210
0.0
220
0.0
230
1.0
 70
     8
 71
     3
 72
     8
 73
     4
 74
     0
 42
0.0000000001
 43
0.0000000001
 40
0.0
 40
0.0
 40
0.0
 40
0.0
 40
1.0
 40
1.0
 40
1.0
 40
1.0
 10
639.2572068503686
 20
1071.151351419939
 30
0.0
 10
639.2571068002462
 20
1071.14714931477
 30
0.0
 10
639.2570567751836
 20
1071.142947209599
 30
0.0
 10
639.2570567751836
 20
1071.13874510443
 30
0.0
  0
SPLINE
  5
1C4
330
70
100
AcDbEntity
  8
Camada 1
 62
    18
420
        0
370
    35
100
AcDbSpline
210
0.0
220
0.0
230
1.0
 70
     8
 71
     3
 72
     8
 73
     4
 74
     0
 42
0.0000000001
 43
0.0000000001
 40
0.0
 40
0.0
 40
0.0
 40
0.0
 40
1.0
 40
1.0
 40
1.0
 40
1.0
 10
1681.25967888167
 20
1020.77121199544
 30
0.0
 10
1681.25967888167
 20
1022.044850062199
 30
0.0
 10
1680.8409691166
 20
1023.2831704355
 30
0.0
 10
1680.06818196596
 20
1024.29552760584
 30
0.0
  0
SPLINE
  5
1C5
330
70
100
AcDbEntity
  8
Camada 1
 62
    18
420
        0
370
    35
100
AcDbSpline
210
0.0
220
0.0
230
1.0
 70
     8
 71
     3
 72
     8
 73
     4
 74
     0
 42
0.0000000001
 43
0.0000000001
 40
0.0
 40
0.0
 40
0.0
 40
0.0
 40
1.0
 40
1.0
 40
1.0
 40
1.0
 10
1196.269558702141
 20
1007.21722172217
 30
0.0
 10
1196.269558702141
 20
1006.25488961337
 30
0.0
 10
1197.049699536819
 20
1005.47474877869
 30
0.0
 10
1198.01208167068
 20
1005.47474877869
 30
0.0
  0
SPLINE
  5
1C6
330
70
100
AcDbEntity
  8
Camada 1
 62
    18
420
        0
370
    35
100
AcDbSpline
210
0.0
220
0.0
230
1.0
 70
     8
 71
     3
 72
     8
 73
     4
 74
     0
 42
0.0000000001
 43
0.0000000001
 40
0.0
 40
0.0
 40
0.0
 40
0.0
 40
1.0
 40
1.0
 40
1.0
 40
1.0
 10
1198.01208167068
 20
1005.47474877869
 30
0.0
 10
1198.97441377948
 20
1005.47474877869
 30
0.0
 10
1199.754554614159
 20
1006.25488961337
 30
0.0
 10
1199.754554614159
 20
1007.21722172217
 30
0.0
  0
SPLINE
  5
1C7
330
70
100
AcDbEntity
  8
Camada 1
 62
    18
420
        0
370
    35
100
AcDbSpline
210
0.0
220
0.0
230
1.0
 70
     8
 71
     3
 72
     8
 73
     4
 74
     0
 42
0.0000000001
 43
0.0000000001
 40
0.0
 40
0.0
 40
0.0
 40
0.0
 40
1.0
 40
1.0
 40
1.0
 40
1.0
 10
1211.371074254081
 20
1007.21722172217
 30
0.0
 10
1211.371074254081
 20
1006.25488961337
 30
0.0
 10
1212.151215088759
 20
1005.47474877869
 30
0.0
 10
1213.113547197559
 20
1005.47474877869
 30
0.0
  0
SPLINE
  5
1C8
330
70
100
AcDbEntity
  8
Camada 1
 62
    18
420
        0
370
    35
100
AcDbSpline
210
0.0
220
0.0
230
1.0
 70
     8
 71
     3
 72
     8
 73
     4
 74
     0
 42
0.0000000001
 43
0.0000000001
 40
0.0
 40
0.0
 40
0.0
 40
0.0
 40
1.0
 40
1.0
 40
1.0
 40
1.0
 10
1213.113547197559
 20
1005.47474877869
 30
0.0
 10
1214.075879306359
 20
1005.47474877869
 30
0.0
 10
1214.85602014104
 20
1006.25488961337
 30
0.0
 10
1214.85602014104
 20
1007.21722172217
 30
0.0
  0
SPLINE
  5
1C9
330
70
100
AcDbEntity
  8
Camada 1
 62
    18
420
        0
370
    35
100
AcDbSpline
210
0.0
220
0.0
230
1.0
 70
     8
 71
     3
 72
     8
 73
     4
 74
     0
 42
0.0000000001
 43
0.0000000001
 40
0.0
 40
0.0
 40
0.0
 40
0.0
 40
1.0
 40
1.0
 40
1.0
 40
1.0
 10
1226.47253978096
 20
1007.21722172217
 30
0.0
 10
1226.47253978096
 20
1006.25488961337
 30
0.0
 10
1227.25268061564
 20
1005.47474877869
 30
0.0
 10
1228.21501272444
 20
1005.47474877869
 30
0.0
  0
SPLINE
  5
1CA
330
70
100
AcDbEntity
  8
Camada 1
 62
    18
420
        0
370
    35
100
AcDbSpline
210
0.0
220
0.0
230
1.0
 70
     8
 71
     3
 72
     8
 73
     4
 74
     0
 42
0.0000000001
 43
0.0000000001
 40
0.0
 40
0.0
 40
0.0
 40
0.0
 40
1.0
 40
1.0
 40
1.0
 40
1.0
 10
1228.21501272444
 20
1005.47474877869
 30
0.0
 10
1229.1773948583
 20
1005.47474877869
 30
0.0
 10
1229.95753569298
 20
1006.25488961337
 30
0.0
 10
1229.95753569298
 20
1007.21722172217
 30
0.0
  0
SPLINE
  5
1CB
330
70
100
AcDbEntity
  8
Camada 1
 62
    18
420
        0
370
    35
100
AcDbSpline
210
0.0
220
0.0
230
1.0
 70
     8
 71
     3
 72
     8
 73
     4
 74
     0
 42
0.0000000001
 43
0.0000000001
 40
0.0
 40
0.0
 40
0.0
 40
0.0
 40
1.0
 40
1.0
 40
1.0
 40
1.0
 10
1241.574055332899
 20
1007.21722172217
 30
0.0
 10
1241.574055332899
 20
1006.25488961337
 30
0.0
 10
1242.35419616758
 20
1005.47474877869
 30
0.0
 10
1243.31652827638
 20
1005.47474877869
 30
0.0
  0
SPLINE
  5
1CC
330
70
100
AcDbEntity
  8
Camada 1
 62
    18
420
        0
370
    35
100
AcDbSpline
210
0.0
220
0.0
230
1.0
 70
     8
 71
     3
 72
     8
 73
     4
 74
     0
 42
0.0000000001
 43
0.0000000001
 40
0.0
 40
0.0
 40
0.0
 40
0.0
 40
1.0
 40
1.0
 40
1.0
 40
1.0
 10
1243.31652827638
 20
1005.47474877869
 30
0.0
 10
1244.27886038518
 20
1005.47474877869
 30
0.0
 10
1245.059001219859
 20
1006.25488961337
 30
0.0
 10
1245.059001219859
 20
1007.21722172217
 30
0.0
  0
SPLINE
  5
1CD
330
70
100
AcDbEntity
  8
Camada 1
 62
    18
420
        0
370
    35
100
AcDbSpline
210
0.0
220
0.0
230
1.0
 70
     8
 71
     3
 72
     8
 73
     4
 74
     0
 42
0.0000000001
 43
0.0000000001
 40
0.0
 40
0.0
 40
0.0
 40
0.0
 40
1.0
 40
1.0
 40
1.0
 40
1.0
 10
1256.675570884839
 20
1007.21722172217
 30
0.0
 10
1256.675570884839
 20
1006.25488961337
 30
0.0
 10
1257.455661694461
 20
1005.47474877869
 30
0.0
 10
1258.41804382832
 20
1005.47474877869
 30
0.0
  0
SPLINE
  5
1CE
330
70
100
AcDbEntity
  8
Camada 1
 62
    18
420
        0
370
    35
100
AcDbSpline
210
0.0
220
0.0
230
1.0
 70
     8
 71
     3
 72
     8
 73
     4
 74
     0
 42
0.0000000001
 43
0.0000000001
 40
0.0
 40
0.0
 40
0.0
 40
0.0
 40
1.0
 40
1.0
 40
1.0
 40
1.0
 10
1258.41804382832
 20
1005.47474877869
 30
0.0
 10
1259.380325912059
 20
1005.47474877869
 30
0.0
 10
1260.160516771801
 20
1006.25488961337
 30
0.0
 10
1260.160516771801
 20
1007.21722172217
 30
0.0
  0
SPLINE
  5
1CF
330
70
100
AcDbEntity
  8
Camada 1
 62
    18
420
        0
370
    35
100
AcDbSpline
210
0.0
220
0.0
230
1.0
 70
     8
 71
     3
 72
     8
 73
     4
 74
     0
 42
0.0000000001
 43
0.0000000001
 40
0.0
 40
0.0
 40
0.0
 40
0.0
 40
1.0
 40
1.0
 40
1.0
 40
1.0
 10
1271.77703641172
 20
1007.21722172217
 30
0.0
 10
1271.77703641172
 20
1006.25488961337
 30
0.0
 10
1272.557127221329
 20
1005.47474877869
 30
0.0
 10
1273.519509355199
 20
1005.47474877869
 30
0.0
  0
SPLINE
  5
1D0
330
70
100
AcDbEntity
  8
Camada 1
 62
    18
420
        0
370
    35
100
AcDbSpline
210
0.0
220
0.0
230
1.0
 70
     8
 71
     3
 72
     8
 73
     4
 74
     0
 42
0.0000000001
 43
0.0000000001
 40
0.0
 40
0.0
 40
0.0
 40
0.0
 40
1.0
 40
1.0
 40
1.0
 40
1.0
 10
1273.519509355199
 20
1005.47474877869
 30
0.0
 10
1274.48179143894
 20
1005.47474877869
 30
0.0
 10
1275.26198229868
 20
1006.25488961337
 30
0.0
 10
1275.26198229868
 20
1007.21722172217
 30
0.0
  0
SPLINE
  5
1D1
330
70
100
AcDbEntity
  8
Camada 1
 62
    18
420
        0
370
    35
100
AcDbSpline
210
0.0
220
0.0
230
1.0
 70
     8
 71
     3
 72
     8
 73
     4
 74
     0
 42
0.0000000001
 43
0.0000000001
 40
0.0
 40
0.0
 40
0.0
 40
0.0
 40
1.0
 40
1.0
 40
1.0
 40
1.0
 10
1286.87850193859
 20
1007.21722172217
 30
0.0
 10
1286.87850193859
 20
1006.25488961337
 30
0.0
 10
1287.65859274821
 20
1005.47474877869
 30
0.0
 10
1288.62097488208
 20
1005.47474877869
 30
0.0
  0
SPLINE
  5
1D2
330
70
100
AcDbEntity
  8
Camada 1
 62
    18
420
        0
370
    35
100
AcDbSpline
210
0.0
220
0.0
230
1.0
 70
     8
 71
     3
 72
     8
 73
     4
 74
     0
 42
0.0000000001
 43
0.0000000001
 40
0.0
 40
0.0
 40
0.0
 40
0.0
 40
1.0
 40
1.0
 40
1.0
 40
1.0
 10
1288.62097488208
 20
1005.47474877869
 30
0.0
 10
1289.583357015939
 20
1005.47474877869
 30
0.0
 10
1290.363447825559
 20
1006.25488961337
 30
0.0
 10
1290.363447825559
 20
1007.21722172217
 30
0.0
  0
SPLINE
  5
1D3
330
70
100
AcDbEntity
  8
Camada 1
 62
    18
420
        0
370
    35
100
AcDbSpline
210
0.0
220
0.0
230
1.0
 70
     8
 71
     3
 72
     8
 73
     4
 74
     0
 42
0.0000000001
 43
0.0000000001
 40
0.0
 40
0.0
 40
0.0
 40
0.0
 40
1.0
 40
1.0
 40
1.0
 40
1.0
 10
1301.97996746548
 20
1007.21722172217
 30
0.0
 10
1301.97996746548
 20
1006.25488961337
 30
0.0
 10
1302.76015832522
 20
1005.47474877869
 30
0.0
 10
1303.722440408959
 20
1005.47474877869
 30
0.0
  0
SPLINE
  5
1D4
330
70
100
AcDbEntity
  8
Camada 1
 62
    18
420
        0
370
    35
100
AcDbSpline
210
0.0
220
0.0
230
1.0
 70
     8
 71
     3
 72
     8
 73
     4
 74
     0
 42
0.0000000001
 43
0.0000000001
 40
0.0
 40
0.0
 40
0.0
 40
0.0
 40
1.0
 40
1.0
 40
1.0
 40
1.0
 10
1303.722440408959
 20
1005.47474877869
 30
0.0
 10
1304.68482254282
 20
1005.47474877869
 30
0.0
 10
1305.46491335244
 20
1006.25488961337
 30
0.0
 10
1305.46491335244
 20
1007.21722172217
 30
0.0
  0
SPLINE
  5
1D5
330
70
100
AcDbEntity
  8
Camada 1
 62
    18
420
        0
370
    35
100
AcDbSpline
210
0.0
220
0.0
230
1.0
 70
     8
 71
     3
 72
     8
 73
     4
 74
     0
 42
0.0000000001
 43
0.0000000001
 40
0.0
 40
0.0
 40
0.0
 40
0.0
 40
1.0
 40
1.0
 40
1.0
 40
1.0
 10
1317.08143299235
 20
1007.21722172217
 30
0.0
 10
1317.08143299235
 20
1006.25488961337
 30
0.0
 10
1317.86162385209
 20
1005.47474877869
 30
0.0
 10
1318.823905935829
 20
1005.47474877869
 30
0.0
  0
SPLINE
  5
1D6
330
70
100
AcDbEntity
  8
Camada 1
 62
    18
420
        0
370
    35
100
AcDbSpline
210
0.0
220
0.0
230
1.0
 70
     8
 71
     3
 72
     8
 73
     4
 74
     0
 42
0.0000000001
 43
0.0000000001
 40
0.0
 40
0.0
 40
0.0
 40
0.0
 40
1.0
 40
1.0
 40
1.0
 40
1.0
 10
1318.823905935829
 20
1005.47474877869
 30
0.0
 10
1319.786288069699
 20
1005.47474877869
 30
0.0
 10
1320.56647892944
 20
1006.25488961337
 30
0.0
 10
1320.56647892944
 20
1007.21722172217
 30
0.0
  0
SPLINE
  5
1D7
330
70
100
AcDbEntity
  8
Camada 1
 62
    18
420
        0
370
    35
100
AcDbSpline
210
0.0
220
0.0
230
1.0
 70
     8
 71
     3
 72
     8
 73
     4
 74
     0
 42
0.0000000001
 43
0.0000000001
 40
0.0
 40
0.0
 40
0.0
 40
0.0
 40
1.0
 40
1.0
 40
1.0
 40
1.0
 10
1332.182998569349
 20
1007.21722172217
 30
0.0
 10
1332.182998569349
 20
1006.25488961337
 30
0.0
 10
1332.963089378969
 20
1005.47474877869
 30
0.0
 10
1333.925471512841
 20
1005.47474877869
 30
0.0
  0
SPLINE
  5
1D8
330
70
100
AcDbEntity
  8
Camada 1
 62
    18
420
        0
370
    35
100
AcDbSpline
210
0.0
220
0.0
230
1.0
 70
     8
 71
     3
 72
     8
 73
     4
 74
     0
 42
0.0000000001
 43
0.0000000001
 40
0.0
 40
0.0
 40
0.0
 40
0.0
 40
1.0
 40
1.0
 40
1.0
 40
1.0
 10
1333.925471512841
 20
1005.47474877869
 30
0.0
 10
1334.887753596569
 20
1005.47474877869
 30
0.0
 10
1335.667944456319
 20
1006.25488961337
 30
0.0
 10
1335.667944456319
 20
1007.21722172217
 30
0.0
  0
SPLINE
  5
1D9
330
70
100
AcDbEntity
  8
Camada 1
 62
    18
420
        0
370
    35
100
AcDbSpline
210
0.0
220
0.0
230
1.0
 70
     8
 71
     3
 72
     8
 73
     4
 74
     0
 42
0.0000000001
 43
0.0000000001
 40
0.0
 40
0.0
 40
0.0
 40
0.0
 40
1.0
 40
1.0
 40
1.0
 40
1.0
 10
1347.28446409623
 20
1007.21722172217
 30
0.0
 10
1347.28446409623
 20
1006.25488961337
 30
0.0
 10
1348.06455490585
 20
1005.47474877869
 30
0.0
 10
1349.026937039711
 20
1005.47474877869
 30
0.0
  0
SPLINE
  5
1DA
330
70
100
AcDbEntity
  8
Camada 1
 62
    18
420
        0
370
    35
100
AcDbSpline
210
0.0
220
0.0
230
1.0
 70
     8
 71
     3
 72
     8
 73
     4
 74
     0
 42
0.0000000001
 43
0.0000000001
 40
0.0
 40
0.0
 40
0.0
 40
0.0
 40
1.0
 40
1.0
 40
1.0
 40
1.0
 10
1349.026937039711
 20
1005.47474877869
 30
0.0
 10
1349.989319173579
 20
1005.47474877869
 30
0.0
 10
1350.769409983201
 20
1006.25488961337
 30
0.0
 10
1350.769409983201
 20
1007.21722172217
 30
0.0
  0
SPLINE
  5
1DB
330
70
100
AcDbEntity
  8
Camada 1
 62
    18
420
        0
370
    35
100
AcDbSpline
210
0.0
220
0.0
230
1.0
 70
     8
 71
     3
 72
     8
 73
     4
 74
     0
 42
0.0000000001
 43
0.0000000001
 40
0.0
 40
0.0
 40
0.0
 40
0.0
 40
1.0
 40
1.0
 40
1.0
 40
1.0
 10
1362.385929623109
 20
1007.21722172217
 30
0.0
 10
1362.385929623109
 20
1006.25488961337
 30
0.0
 10
1363.166020432731
 20
1005.47474877869
 30
0.0
 10
1364.12840256659
 20
1005.47474877869
 30
0.0
  0
SPLINE
  5
1DC
330
70
100
AcDbEntity
  8
Camada 1
 62
    18
420
        0
370
    35
100
AcDbSpline
210
0.0
220
0.0
230
1.0
 70
     8
 71
     3
 72
     8
 73
     4
 74
     0
 42
0.0000000001
 43
0.0000000001
 40
0.0
 40
0.0
 40
0.0
 40
0.0
 40
1.0
 40
1.0
 40
1.0
 40
1.0
 10
1364.12840256659
 20
1005.47474877869
 30
0.0
 10
1365.090784700449
 20
1005.47474877869
 30
0.0
 10
1365.870875510071
 20
1006.25488961337
 30
0.0
 10
1365.870875510071
 20
1007.21722172217
 30
0.0
  0
SPLINE
  5
1DD
330
70
100
AcDbEntity
  8
Camada 1
 62
    18
420
        0
370
    35
100
AcDbSpline
210
0.0
220
0.0
230
1.0
 70
     8
 71
     3
 72
     8
 73
     4
 74
     0
 42
0.0000000001
 43
0.0000000001
 40
0.0
 40
0.0
 40
0.0
 40
0.0
 40
1.0
 40
1.0
 40
1.0
 40
1.0
 10
1377.48739514999
 20
1007.21722172217
 30
0.0
 10
1377.48739514999
 20
1006.25488961337
 30
0.0
 10
1378.267586009729
 20
1005.47474877869
 30
0.0
 10
1379.229868093469
 20
1005.47474877869
 30
0.0
  0
SPLINE
  5
1DE
330
70
100
AcDbEntity
  8
Camada 1
 62
    18
420
        0
370
    35
100
AcDbSpline
210
0.0
220
0.0
230
1.0
 70
     8
 71
     3
 72
     8
 73
     4
 74
     0
 42
0.0000000001
 43
0.0000000001
 40
0.0
 40
0.0
 40
0.0
 40
0.0
 40
1.0
 40
1.0
 40
1.0
 40
1.0
 10
1379.229868093469
 20
1005.47474877869
 30
0.0
 10
1380.19225022733
 20
1005.47474877869
 30
0.0
 10
1380.97234103695
 20
1006.25488961337
 30
0.0
 10
1380.97234103695
 20
1007.21722172217
 30
0.0
  0
SPLINE
  5
1DF
330
70
100
AcDbEntity
  8
Camada 1
 62
    18
420
        0
370
    35
100
AcDbSpline
210
0.0
220
0.0
230
1.0
 70
     8
 71
     3
 72
     8
 73
     4
 74
     0
 42
0.0000000001
 43
0.0000000001
 40
0.0
 40
0.0
 40
0.0
 40
0.0
 40
1.0
 40
1.0
 40
1.0
 40
1.0
 10
1392.588860676869
 20
1007.21722172217
 30
0.0
 10
1392.588860676869
 20
1006.25488961337
 30
0.0
 10
1393.369051536611
 20
1005.47474877869
 30
0.0
 10
1394.33143367047
 20
1005.47474877869
 30
0.0
  0
SPLINE
  5
1E0
330
70
100
AcDbEntity
  8
Camada 1
 62
    18
420
        0
370
    35
100
AcDbSpline
210
0.0
220
0.0
230
1.0
 70
     8
 71
     3
 72
     8
 73
     4
 74
     0
 42
0.0000000001
 43
0.0000000001
 40
0.0
 40
0.0
 40
0.0
 40
0.0
 40
1.0
 40
1.0
 40
1.0
 40
1.0
 10
1394.33143367047
 20
1005.47474877869
 30
0.0
 10
1395.293715754211
 20
1005.47474877869
 30
0.0
 10
1396.073906613959
 20
1006.25488961337
 30
0.0
 10
1396.073906613959
 20
1007.21722172217
 30
0.0
  0
SPLINE
  5
1E1
330
70
100
AcDbEntity
  8
Camada 1
 62
    18
420
        0
370
    35
100
AcDbSpline
210
0.0
220
0.0
230
1.0
 70
     8
 71
     3
 72
     8
 73
     4
 74
     0
 42
0.0000000001
 43
0.0000000001
 40
0.0
 40
0.0
 40
0.0
 40
0.0
 40
1.0
 40
1.0
 40
1.0
 40
1.0
 10
1407.69042625387
 20
1007.21722172217
 30
0.0
 10
1407.69042625387
 20
1006.25488961337
 30
0.0
 10
1408.47051706349
 20
1005.47474877869
 30
0.0
 10
1409.432899197351
 20
1005.47474877869
 30
0.0
  0
SPLINE
  5
1E2
330
70
100
AcDbEntity
  8
Camada 1
 62
    18
420
        0
370
    35
100
AcDbSpline
210
0.0
220
0.0
230
1.0
 70
     8
 71
     3
 72
     8
 73
     4
 74
     0
 42
0.0000000001
 43
0.0000000001
 40
0.0
 40
0.0
 40
0.0
 40
0.0
 40
1.0
 40
1.0
 40
1.0
 40
1.0
 10
1409.432899197351
 20
1005.47474877869
 30
0.0
 10
1410.39518128109
 20
1005.47474877869
 30
0.0
 10
1411.17537214084
 20
1006.25488961337
 30
0.0
 10
1411.17537214084
 20
1007.21722172217
 30
0.0
  0
SPLINE
  5
1E3
330
70
100
AcDbEntity
  8
Camada 1
 62
    18
420
        0
370
    35
100
AcDbSpline
210
0.0
220
0.0
230
1.0
 70
     8
 71
     3
 72
     8
 73
     4
 74
     0
 42
0.0000000001
 43
0.0000000001
 40
0.0
 40
0.0
 40
0.0
 40
0.0
 40
1.0
 40
1.0
 40
1.0
 40
1.0
 10
1422.791891780749
 20
1007.21722172217
 30
0.0
 10
1422.791891780749
 20
1006.25488961337
 30
0.0
 10
1423.57198259037
 20
1005.47474877869
 30
0.0
 10
1424.53436472423
 20
1005.47474877869
 30
0.0
  0
SPLINE
  5
1E4
330
70
100
AcDbEntity
  8
Camada 1
 62
    18
420
        0
370
    35
100
AcDbSpline
210
0.0
220
0.0
230
1.0
 70
     8
 71
     3
 72
     8
 73
     4
 74
     0
 42
0.0000000001
 43
0.0000000001
 40
0.0
 40
0.0
 40
0.0
 40
0.0
 40
1.0
 40
1.0
 40
1.0
 40
1.0
 10
1424.53436472423
 20
1005.47474877869
 30
0.0
 10
1425.49674685809
 20
1005.47474877869
 30
0.0
 10
1426.27683766771
 20
1006.25488961337
 30
0.0
 10
1426.27683766771
 20
1007.21722172217
 30
0.0
  0
SPLINE
  5
1E5
330
70
100
AcDbEntity
  8
Camada 1
 62
    18
420
        0
370
    35
100
AcDbSpline
210
0.0
220
0.0
230
1.0
 70
     8
 71
     3
 72
     8
 73
     4
 74
     0
 42
0.0000000001
 43
0.0000000001
 40
0.0
 40
0.0
 40
0.0
 40
0.0
 40
1.0
 40
1.0
 40
1.0
 40
1.0
 10
1437.89335730763
 20
1007.21722172217
 30
0.0
 10
1437.89335730763
 20
1006.25488961337
 30
0.0
 10
1438.673548167369
 20
1005.47474877869
 30
0.0
 10
1439.63583025111
 20
1005.47474877869
 30
0.0
  0
SPLINE
  5
1E6
330
70
100
AcDbEntity
  8
Camada 1
 62
    18
420
        0
370
    35
100
AcDbSpline
210
0.0
220
0.0
230
1.0
 70
     8
 71
     3
 72
     8
 73
     4
 74
     0
 42
0.0000000001
 43
0.0000000001
 40
0.0
 40
0.0
 40
0.0
 40
0.0
 40
1.0
 40
1.0
 40
1.0
 40
1.0
 10
1439.63583025111
 20
1005.47474877869
 30
0.0
 10
1440.59821238497
 20
1005.47474877869
 30
0.0
 10
1441.378303194589
 20
1006.25488961337
 30
0.0
 10
1441.378303194589
 20
1007.21722172217
 30
0.0
  0
SPLINE
  5
1E7
330
70
100
AcDbEntity
  8
Camada 1
 62
    18
420
        0
370
    35
100
AcDbSpline
210
0.0
220
0.0
230
1.0
 70
     8
 71
     3
 72
     8
 73
     4
 74
     0
 42
0.0000000001
 43
0.0000000001
 40
0.0
 40
0.0
 40
0.0
 40
0.0
 40
1.0
 40
1.0
 40
1.0
 40
1.0
 10
1452.994822834509
 20
1007.21722172217
 30
0.0
 10
1452.994822834509
 20
1006.25488961337
 30
0.0
 10
1453.77501369425
 20
1005.47474877869
 30
0.0
 10
1454.73729577799
 20
1005.47474877869
 30
0.0
  0
SPLINE
  5
1E8
330
70
100
AcDbEntity
  8
Camada 1
 62
    18
420
        0
370
    35
100
AcDbSpline
210
0.0
220
0.0
230
1.0
 70
     8
 71
     3
 72
     8
 73
     4
 74
     0
 42
0.0000000001
 43
0.0000000001
 40
0.0
 40
0.0
 40
0.0
 40
0.0
 40
1.0
 40
1.0
 40
1.0
 40
1.0
 10
1454.73729577799
 20
1005.47474877869
 30
0.0
 10
1455.699677911849
 20
1005.47474877869
 30
0.0
 10
1456.47976872147
 20
1006.25488961337
 30
0.0
 10
1456.47976872147
 20
1007.21722172217
 30
0.0
  0
SPLINE
  5
1E9
330
70
100
AcDbEntity
  8
Camada 1
 62
    18
420
        0
370
    35
100
AcDbSpline
210
0.0
220
0.0
230
1.0
 70
     8
 71
     3
 72
     8
 73
     4
 74
     0
 42
0.0000000001
 43
0.0000000001
 40
0.0
 40
0.0
 40
0.0
 40
0.0
 40
1.0
 40
1.0
 40
1.0
 40
1.0
 10
1468.09638841151
 20
1007.21722172217
 30
0.0
 10
1468.09638841151
 20
1006.25488961337
 30
0.0
 10
1468.87647922113
 20
1005.47474877869
 30
0.0
 10
1469.838861354999
 20
1005.47474877869
 30
0.0
  0
SPLINE
  5
1EA
330
70
100
AcDbEntity
  8
Camada 1
 62
    18
420
        0
370
    35
100
AcDbSpline
210
0.0
220
0.0
230
1.0
 70
     8
 71
     3
 72
     8
 73
     4
 74
     0
 42
0.0000000001
 43
0.0000000001
 40
0.0
 40
0.0
 40
0.0
 40
0.0
 40
1.0
 40
1.0
 40
1.0
 40
1.0
 10
1469.838861354999
 20
1005.47474877869
 30
0.0
 10
1470.80114343873
 20
1005.47474877869
 30
0.0
 10
1471.581334298469
 20
1006.25488961337
 30
0.0
 10
1471.581334298469
 20
1007.21722172217
 30
0.0
  0
SPLINE
  5
1EB
330
70
100
AcDbEntity
  8
Camada 1
 62
    18
420
        0
370
    35
100
AcDbSpline
210
0.0
220
0.0
230
1.0
 70
     8
 71
     3
 72
     8
 73
     4
 74
     0
 42
0.0000000001
 43
0.0000000001
 40
0.0
 40
0.0
 40
0.0
 40
0.0
 40
1.0
 40
1.0
 40
1.0
 40
1.0
 10
1483.197853938389
 20
1007.21722172217
 30
0.0
 10
1483.197853938389
 20
1006.25488961337
 30
0.0
 10
1483.97794474801
 20
1005.47474877869
 30
0.0
 10
1484.940326881869
 20
1005.47474877869
 30
0.0
  0
SPLINE
  5
1EC
330
70
100
AcDbEntity
  8
Camada 1
 62
    18
420
        0
370
    35
100
AcDbSpline
210
0.0
220
0.0
230
1.0
 70
     8
 71
     3
 72
     8
 73
     4
 74
     0
 42
0.0000000001
 43
0.0000000001
 40
0.0
 40
0.0
 40
0.0
 40
0.0
 40
1.0
 40
1.0
 40
1.0
 40
1.0
 10
1484.940326881869
 20
1005.47474877869
 30
0.0
 10
1485.902608965611
 20
1005.47474877869
 30
0.0
 10
1486.68279982535
 20
1006.25488961337
 30
0.0
 10
1486.68279982535
 20
1007.21722172217
 30
0.0
  0
SPLINE
  5
1ED
330
70
100
AcDbEntity
  8
Camada 1
 62
    18
420
        0
370
    35
100
AcDbSpline
210
0.0
220
0.0
230
1.0
 70
     8
 71
     3
 72
     8
 73
     4
 74
     0
 42
0.0000000001
 43
0.0000000001
 40
0.0
 40
0.0
 40
0.0
 40
0.0
 40
1.0
 40
1.0
 40
1.0
 40
1.0
 10
1498.29931946527
 20
1007.21722172217
 30
0.0
 10
1498.29931946527
 20
1006.25488961337
 30
0.0
 10
1499.079410274889
 20
1005.47474877869
 30
0.0
 10
1500.04179240875
 20
1005.47474877869
 30
0.0
  0
SPLINE
  5
1EE
330
70
100
AcDbEntity
  8
Camada 1
 62
    18
420
        0
370
    35
100
AcDbSpline
210
0.0
220
0.0
230
1.0
 70
     8
 71
     3
 72
     8
 73
     4
 74
     0
 42
0.0000000001
 43
0.0000000001
 40
0.0
 40
0.0
 40
0.0
 40
0.0
 40
1.0
 40
1.0
 40
1.0
 40
1.0
 10
1500.04179240875
 20
1005.47474877869
 30
0.0
 10
1501.004174542609
 20
1005.47474877869
 30
0.0
 10
1501.784265352229
 20
1006.25488961337
 30
0.0
 10
1501.784265352229
 20
1007.21722172217
 30
0.0
  0
SPLINE
  5
1EF
330
70
100
AcDbEntity
  8
Camada 1
 62
    18
420
        0
370
    35
100
AcDbSpline
210
0.0
220
0.0
230
1.0
 70
     8
 71
     3
 72
     8
 73
     4
 74
     0
 42
0.0000000001
 43
0.0000000001
 40
0.0
 40
0.0
 40
0.0
 40
0.0
 40
1.0
 40
1.0
 40
1.0
 40
1.0
 10
1513.400784992151
 20
1007.21722172217
 30
0.0
 10
1513.400784992151
 20
1006.25488961337
 30
0.0
 10
1514.180975851879
 20
1005.47474877869
 30
0.0
 10
1515.143257935629
 20
1005.47474877869
 30
0.0
  0
SPLINE
  5
1F0
330
70
100
AcDbEntity
  8
Camada 1
 62
    18
420
        0
370
    35
100
AcDbSpline
210
0.0
220
0.0
230
1.0
 70
     8
 71
     3
 72
     8
 73
     4
 74
     0
 42
0.0000000001
 43
0.0000000001
 40
0.0
 40
0.0
 40
0.0
 40
0.0
 40
1.0
 40
1.0
 40
1.0
 40
1.0
 10
1515.143257935629
 20
1005.47474877869
 30
0.0
 10
1516.105640069491
 20
1005.47474877869
 30
0.0
 10
1516.88573087911
 20
1006.25488961337
 30
0.0
 10
1516.88573087911
 20
1007.21722172217
 30
0.0
  0
SPLINE
  5
1F1
330
70
100
AcDbEntity
  8
Camada 1
 62
    18
420
        0
370
    35
100
AcDbSpline
210
0.0
220
0.0
230
1.0
 70
     8
 71
     3
 72
     8
 73
     4
 74
     0
 42
0.0000000001
 43
0.0000000001
 40
0.0
 40
0.0
 40
0.0
 40
0.0
 40
1.0
 40
1.0
 40
1.0
 40
1.0
 10
1528.50225051903
 20
1007.21722172217
 30
0.0
 10
1528.50225051903
 20
1006.25488961337
 30
0.0
 10
1529.282441378769
 20
1005.47474877869
 30
0.0
 10
1530.24472346251
 20
1005.47474877869
 30
0.0
  0
SPLINE
  5
1F2
330
70
100
AcDbEntity
  8
Camada 1
 62
    18
420
        0
370
    35
100
AcDbSpline
210
0.0
220
0.0
230
1.0
 70
     8
 71
     3
 72
     8
 73
     4
 74
     0
 42
0.0000000001
 43
0.0000000001
 40
0.0
 40
0.0
 40
0.0
 40
0.0
 40
1.0
 40
1.0
 40
1.0
 40
1.0
 10
1530.24472346251
 20
1005.47474877869
 30
0.0
 10
1531.20710559637
 20
1005.47474877869
 30
0.0
 10
1531.987296456111
 20
1006.25488961337
 30
0.0
 10
1531.987296456111
 20
1007.21722172217
 30
0.0
  0
SPLINE
  5
1F3
330
70
100
AcDbEntity
  8
Camada 1
 62
    18
420
        0
370
    35
100
AcDbSpline
210
0.0
220
0.0
230
1.0
 70
     8
 71
     3
 72
     8
 73
     4
 74
     0
 42
0.0000000001
 43
0.0000000001
 40
0.0
 40
0.0
 40
0.0
 40
0.0
 40
1.0
 40
1.0
 40
1.0
 40
1.0
 10
1543.60381609603
 20
1007.21722172217
 30
0.0
 10
1543.60381609603
 20
1006.25488961337
 30
0.0
 10
1544.38390690565
 20
1005.47474877869
 30
0.0
 10
1545.346289039509
 20
1005.47474877869
 30
0.0
  0
SPLINE
  5
1F4
330
70
100
AcDbEntity
  8
Camada 1
 62
    18
420
        0
370
    35
100
AcDbSpline
210
0.0
220
0.0
230
1.0
 70
     8
 71
     3
 72
     8
 73
     4
 74
     0
 42
0.0000000001
 43
0.0000000001
 40
0.0
 40
0.0
 40
0.0
 40
0.0
 40
1.0
 40
1.0
 40
1.0
 40
1.0
 10
1545.346289039509
 20
1005.47474877869
 30
0.0
 10
1546.30857112325
 20
1005.47474877869
 30
0.0
 10
1547.08876198299
 20
1006.25488961337
 30
0.0
 10
1547.08876198299
 20
1007.21722172217
 30
0.0
  0
SPLINE
  5
1F5
330
70
100
AcDbEntity
  8
Camada 1
 62
    18
420
        0
370
    35
100
AcDbSpline
210
0.0
220
0.0
230
1.0
 70
     8
 71
     3
 72
     8
 73
     4
 74
     0
 42
0.0000000001
 43
0.0000000001
 40
0.0
 40
0.0
 40
0.0
 40
0.0
 40
1.0
 40
1.0
 40
1.0
 40
1.0
 10
1558.70528162291
 20
1007.21722172217
 30
0.0
 10
1558.70528162291
 20
1006.25488961337
 30
0.0
 10
1559.485372432529
 20
1005.47474877869
 30
0.0
 10
1560.44775456639
 20
1005.47474877869
 30
0.0
  0
SPLINE
  5
1F6
330
70
100
AcDbEntity
  8
Camada 1
 62
    18
420
        0
370
    35
100
AcDbSpline
210
0.0
220
0.0
230
1.0
 70
     8
 71
     3
 72
     8
 73
     4
 74
     0
 42
0.0000000001
 43
0.0000000001
 40
0.0
 40
0.0
 40
0.0
 40
0.0
 40
1.0
 40
1.0
 40
1.0
 40
1.0
 10
1560.44775456639
 20
1005.47474877869
 30
0.0
 10
1561.410136700249
 20
1005.47474877869
 30
0.0
 10
1562.190227509869
 20
1006.25488961337
 30
0.0
 10
1562.190227509869
 20
1007.21722172217
 30
0.0
  0
SPLINE
  5
1F7
330
70
100
AcDbEntity
  8
Camada 1
 62
    18
420
        0
370
    35
100
AcDbSpline
210
0.0
220
0.0
230
1.0
 70
     8
 71
     3
 72
     8
 73
     4
 74
     0
 42
0.0000000001
 43
0.0000000001
 40
0.0
 40
0.0
 40
0.0
 40
0.0
 40
1.0
 40
1.0
 40
1.0
 40
1.0
 10
1573.806747149791
 20
1007.21722172217
 30
0.0
 10
1573.806747149791
 20
1006.25488961337
 30
0.0
 10
1574.58683795941
 20
1005.47474877869
 30
0.0
 10
1575.549220093269
 20
1005.47474877869
 30
0.0
  0
SPLINE
  5
1F8
330
70
100
AcDbEntity
  8
Camada 1
 62
    18
420
        0
370
    35
100
AcDbSpline
210
0.0
220
0.0
230
1.0
 70
     8
 71
     3
 72
     8
 73
     4
 74
     0
 42
0.0000000001
 43
0.0000000001
 40
0.0
 40
0.0
 40
0.0
 40
0.0
 40
1.0
 40
1.0
 40
1.0
 40
1.0
 10
1575.549220093269
 20
1005.47474877869
 30
0.0
 10
1576.51160222713
 20
1005.47474877869
 30
0.0
 10
1577.29169303675
 20
1006.25488961337
 30
0.0
 10
1577.29169303675
 20
1007.21722172217
 30
0.0
  0
SPLINE
  5
1F9
330
70
100
AcDbEntity
  8
Camada 1
 62
    18
420
        0
370
    35
100
AcDbSpline
210
0.0
220
0.0
230
1.0
 70
     8
 71
     3
 72
     8
 73
     4
 74
     0
 42
0.0000000001
 43
0.0000000001
 40
0.0
 40
0.0
 40
0.0
 40
0.0
 40
1.0
 40
1.0
 40
1.0
 40
1.0
 10
1588.908212676661
 20
1007.21722172217
 30
0.0
 10
1588.908212676661
 20
1006.25488961337
 30
0.0
 10
1589.688403536409
 20
1005.47474877869
 30
0.0
 10
1590.65068562015
 20
1005.47474877869
 30
0.0
  0
SPLINE
  5
1FA
330
70
100
AcDbEntity
  8
Camada 1
 62
    18
420
        0
370
    35
100
AcDbSpline
210
0.0
220
0.0
230
1.0
 70
     8
 71
     3
 72
     8
 73
     4
 74
     0
 42
0.0000000001
 43
0.0000000001
 40
0.0
 40
0.0
 40
0.0
 40
0.0
 40
1.0
 40
1.0
 40
1.0
 40
1.0
 10
1590.65068562015
 20
1005.47474877869
 30
0.0
 10
1591.613067754009
 20
1005.47474877869
 30
0.0
 10
1592.393158563631
 20
1006.25488961337
 30
0.0
 10
1592.393158563631
 20
1007.21722172217
 30
0.0
  0
SPLINE
  5
1FB
330
70
100
AcDbEntity
  8
Camada 1
 62
    18
420
        0
370
    35
100
AcDbSpline
210
0.0
220
0.0
230
1.0
 70
     8
 71
     3
 72
     8
 73
     4
 74
     0
 42
0.0000000001
 43
0.0000000001
 40
0.0
 40
0.0
 40
0.0
 40
0.0
 40
1.0
 40
1.0
 40
1.0
 40
1.0
 10
1604.009678203551
 20
1007.21722172217
 30
0.0
 10
1604.009678203551
 20
1006.25488961337
 30
0.0
 10
1604.78986906329
 20
1005.47474877869
 30
0.0
 10
1605.752251197149
 20
1005.47474877869
 30
0.0
  0
SPLINE
  5
1FC
330
70
100
AcDbEntity
  8
Camada 1
 62
    18
420
        0
370
    35
100
AcDbSpline
210
0.0
220
0.0
230
1.0
 70
     8
 71
     3
 72
     8
 73
     4
 74
     0
 42
0.0000000001
 43
0.0000000001
 40
0.0
 40
0.0
 40
0.0
 40
0.0
 40
1.0
 40
1.0
 40
1.0
 40
1.0
 10
1605.752251197149
 20
1005.47474877869
 30
0.0
 10
1606.71453328089
 20
1005.47474877869
 30
0.0
 10
1607.49472414063
 20
1006.25488961337
 30
0.0
 10
1607.49472414063
 20
1007.21722172217
 30
0.0
  0
SPLINE
  5
1FD
330
70
100
AcDbEntity
  8
Camada 1
 62
    18
420
        0
370
    35
100
AcDbSpline
210
0.0
220
0.0
230
1.0
 70
     8
 71
     3
 72
     8
 73
     4
 74
     0
 42
0.0000000001
 43
0.0000000001
 40
0.0
 40
0.0
 40
0.0
 40
0.0
 40
1.0
 40
1.0
 40
1.0
 40
1.0
 10
1619.111243780549
 20
1007.21722172217
 30
0.0
 10
1619.111243780549
 20
1006.25488961337
 30
0.0
 10
1619.891334590169
 20
1005.47474877869
 30
0.0
 10
1620.85371672403
 20
1005.47474877869
 30
0.0
  0
SPLINE
  5
1FE
330
70
100
AcDbEntity
  8
Camada 1
 62
    18
420
        0
370
    35
100
AcDbSpline
210
0.0
220
0.0
230
1.0
 70
     8
 71
     3
 72
     8
 73
     4
 74
     0
 42
0.0000000001
 43
0.0000000001
 40
0.0
 40
0.0
 40
0.0
 40
0.0
 40
1.0
 40
1.0
 40
1.0
 40
1.0
 10
1620.85371672403
 20
1005.47474877869
 30
0.0
 10
1621.815998807769
 20
1005.47474877869
 30
0.0
 10
1622.596189667511
 20
1006.25488961337
 30
0.0
 10
1622.596189667511
 20
1007.21722172217
 30
0.0
  0
SPLINE
  5
1FF
330
70
100
AcDbEntity
  8
Camada 1
 62
    18
420
        0
370
    35
100
AcDbSpline
210
0.0
220
0.0
230
1.0
 70
     8
 71
     3
 72
     8
 73
     4
 74
     0
 42
0.0000000001
 43
0.0000000001
 40
0.0
 40
0.0
 40
0.0
 40
0.0
 40
1.0
 40
1.0
 40
1.0
 40
1.0
 10
1634.212709307419
 20
1007.21722172217
 30
0.0
 10
1634.212709307419
 20
1006.25488961337
 30
0.0
 10
1634.992800117039
 20
1005.47474877869
 30
0.0
 10
1635.9551822509
 20
1005.47474877869
 30
0.0
  0
SPLINE
  5
200
330
70
100
AcDbEntity
  8
Camada 1
 62
    18
420
        0
370
    35
100
AcDbSpline
210
0.0
220
0.0
230
1.0
 70
     8
 71
     3
 72
     8
 73
     4
 74
     0
 42
0.0000000001
 43
0.0000000001
 40
0.0
 40
0.0
 40
0.0
 40
0.0
 40
1.0
 40
1.0
 40
1.0
 40
1.0
 10
1635.9551822509
 20
1005.47474877869
 30
0.0
 10
1636.91756438477
 20
1005.47474877869
 30
0.0
 10
1637.69765519439
 20
1006.25488961337
 30
0.0
 10
1637.69765519439
 20
1007.21722172217
 30
0.0
  0
SPLINE
  5
201
330
70
100
AcDbEntity
  8
Camada 1
 62
    18
420
        0
370
    35
100
AcDbSpline
210
0.0
220
0.0
230
1.0
 70
     8
 71
     3
 72
     8
 73
     4
 74
     0
 42
0.0000000001
 43
0.0000000001
 40
0.0
 40
0.0
 40
0.0
 40
0.0
 40
1.0
 40
1.0
 40
1.0
 40
1.0
 10
1649.314174834301
 20
1007.21722172217
 30
0.0
 10
1649.314174834301
 20
1006.25488961337
 30
0.0
 10
1650.094365694051
 20
1005.47474877869
 30
0.0
 10
1651.05664777779
 20
1005.47474877869
 30
0.0
  0
SPLINE
  5
202
330
70
100
AcDbEntity
  8
Camada 1
 62
    18
420
        0
370
    35
100
AcDbSpline
210
0.0
220
0.0
230
1.0
 70
     8
 71
     3
 72
     8
 73
     4
 74
     0
 42
0.0000000001
 43
0.0000000001
 40
0.0
 40
0.0
 40
0.0
 40
0.0
 40
1.0
 40
1.0
 40
1.0
 40
1.0
 10
1651.05664777779
 20
1005.47474877869
 30
0.0
 10
1652.019029911649
 20
1005.47474877869
 30
0.0
 10
1652.799120721269
 20
1006.25488961337
 30
0.0
 10
1652.799120721269
 20
1007.21722172217
 30
0.0
  0
SPLINE
  5
203
330
70
100
AcDbEntity
  8
Camada 1
 62
    18
420
        0
370
    35
100
AcDbSpline
210
0.0
220
0.0
230
1.0
 70
     8
 71
     3
 72
     8
 73
     4
 74
     0
 42
0.0000000001
 43
0.0000000001
 40
0.0
 40
0.0
 40
0.0
 40
0.0
 40
1.0
 40
1.0
 40
1.0
 40
1.0
 10
1664.415640361179
 20
1007.21722172217
 30
0.0
 10
1664.415640361179
 20
1006.25488961337
 30
0.0
 10
1665.19583122093
 20
1005.47474877869
 30
0.0
 10
1666.158113304669
 20
1005.47474877869
 30
0.0
  0
SPLINE
  5
204
330
70
100
AcDbEntity
  8
Camada 1
 62
    18
420
        0
370
    35
100
AcDbSpline
210
0.0
220
0.0
230
1.0
 70
     8
 71
     3
 72
     8
 73
     4
 74
     0
 42
0.0000000001
 43
0.0000000001
 40
0.0
 40
0.0
 40
0.0
 40
0.0
 40
1.0
 40
1.0
 40
1.0
 40
1.0
 10
1666.158113304669
 20
1005.47474877869
 30
0.0
 10
1667.12049543853
 20
1005.47474877869
 30
0.0
 10
1667.90058624815
 20
1006.25488961337
 30
0.0
 10
1667.90058624815
 20
1007.21722172217
 30
0.0
  0
SPLINE
  5
205
330
70
100
AcDbEntity
  8
Camada 1
 62
    18
420
        0
370
    35
100
AcDbSpline
210
0.0
220
0.0
230
1.0
 70
     8
 71
     3
 72
     8
 73
     4
 74
     0
 42
0.0000000001
 43
0.0000000001
 40
0.0
 40
0.0
 40
0.0
 40
0.0
 40
1.0
 40
1.0
 40
1.0
 40
1.0
 10
1681.25967888167
 20
997.8934006775908
 30
0.0
 10
1681.25967888167
 20
997.8891985724203
 30
0.0
 10
1681.259578831539
 20
997.8849964672518
 30
0.0
 10
1681.259478781419
 20
997.880794362085
 30
0.0
  0
SPLINE
  5
206
330
70
100
AcDbEntity
  8
Camada 1
 62
    18
420
        0
370
    35
100
AcDbSpline
210
0.0
220
0.0
230
1.0
 70
     8
 71
     3
 72
     8
 73
     4
 74
     0
 42
0.0000000001
 43
0.0000000001
 40
0.0
 40
0.0
 40
0.0
 40
0.0
 40
1.0
 40
1.0
 40
1.0
 40
1.0
 10
1680.06818196596
 20
1044.73661817619
 30
0.0
 10
1675.461273998829
 20
1038.70164477734
 30
0.0
 10
1675.461273998829
 20
1030.330501004679
 30
0.0
 10
1680.06818196596
 20
1024.29552760584
 30
0.0
  0
SPLINE
  5
207
330
70
100
AcDbEntity
  8
Camada 1
 62
    18
420
        0
370
    35
100
AcDbSpline
210
0.0
220
0.0
230
1.0
 70
     8
 71
     3
 72
     8
 73
     4
 74
     0
 42
0.0000000001
 43
0.0000000001
 40
0.0
 40
0.0
 40
0.0
 40
0.0
 40
1.0
 40
1.0
 40
1.0
 40
1.0
 10
1680.06818196596
 20
1044.73661817619
 30
0.0
 10
1680.8409691166
 20
1045.74897534653
 30
0.0
 10
1681.25967888167
 20
1046.987295719829
 30
0.0
 10
1681.25967888167
 20
1048.26093378658
 30
0.0
  0
SPLINE
  5
208
330
70
100
AcDbEntity
  8
Camada 1
 62
    18
420
        0
370
    35
100
AcDbSpline
210
0.0
220
0.0
230
1.0
 70
     8
 71
     3
 72
     8
 73
     4
 74
     0
 42
0.0000000001
 43
0.0000000001
 40
0.0
 40
0.0
 40
0.0
 40
0.0
 40
1.0
 40
1.0
 40
1.0
 40
1.0
 10
1199.754554614159
 20
1061.81492405985
 30
0.0
 10
1199.754554614159
 20
1062.777256168649
 30
0.0
 10
1198.97441377948
 20
1063.55739700333
 30
0.0
 10
1198.01208167068
 20
1063.55739700333
 30
0.0
  0
SPLINE
  5
209
330
70
100
AcDbEntity
  8
Camada 1
 62
    18
420
        0
370
    35
100
AcDbSpline
210
0.0
220
0.0
230
1.0
 70
     8
 71
     3
 72
     8
 73
     4
 74
     0
 42
0.0000000001
 43
0.0000000001
 40
0.0
 40
0.0
 40
0.0
 40
0.0
 40
1.0
 40
1.0
 40
1.0
 40
1.0
 10
1198.01208167068
 20
1063.55739700333
 30
0.0
 10
1197.049699536819
 20
1063.55739700333
 30
0.0
 10
1196.269558702141
 20
1062.777256168649
 30
0.0
 10
1196.269558702141
 20
1061.81492405985
 30
0.0
  0
SPLINE
  5
20A
330
70
100
AcDbEntity
  8
Camada 1
 62
    18
420
        0
370
    35
100
AcDbSpline
210
0.0
220
0.0
230
1.0
 70
     8
 71
     3
 72
     8
 73
     4
 74
     0
 42
0.0000000001
 43
0.0000000001
 40
0.0
 40
0.0
 40
0.0
 40
0.0
 40
1.0
 40
1.0
 40
1.0
 40
1.0
 10
1214.85602014104
 20
1061.81492405985
 30
0.0
 10
1214.85602014104
 20
1062.777256168649
 30
0.0
 10
1214.075879306359
 20
1063.55739700333
 30
0.0
 10
1213.113547197559
 20
1063.55739700333
 30
0.0
  0
SPLINE
  5
20B
330
70
100
AcDbEntity
  8
Camada 1
 62
    18
420
        0
370
    35
100
AcDbSpline
210
0.0
220
0.0
230
1.0
 70
     8
 71
     3
 72
     8
 73
     4
 74
     0
 42
0.0000000001
 43
0.0000000001
 40
0.0
 40
0.0
 40
0.0
 40
0.0
 40
1.0
 40
1.0
 40
1.0
 40
1.0
 10
1213.113547197559
 20
1063.55739700333
 30
0.0
 10
1212.151215088759
 20
1063.55739700333
 30
0.0
 10
1211.371074254081
 20
1062.777256168649
 30
0.0
 10
1211.371074254081
 20
1061.81492405985
 30
0.0
  0
SPLINE
  5
20C
330
70
100
AcDbEntity
  8
Camada 1
 62
    18
420
        0
370
    35
100
AcDbSpline
210
0.0
220
0.0
230
1.0
 70
     8
 71
     3
 72
     8
 73
     4
 74
     0
 42
0.0000000001
 43
0.0000000001
 40
0.0
 40
0.0
 40
0.0
 40
0.0
 40
1.0
 40
1.0
 40
1.0
 40
1.0
 10
1229.95753569298
 20
1061.81492405985
 30
0.0
 10
1229.95753569298
 20
1062.777256168649
 30
0.0
 10
1229.1773948583
 20
1063.55739700333
 30
0.0
 10
1228.21501272444
 20
1063.55739700333
 30
0.0
  0
SPLINE
  5
20D
330
70
100
AcDbEntity
  8
Camada 1
 62
    18
420
        0
370
    35
100
AcDbSpline
210
0.0
220
0.0
230
1.0
 70
     8
 71
     3
 72
     8
 73
     4
 74
     0
 42
0.0000000001
 43
0.0000000001
 40
0.0
 40
0.0
 40
0.0
 40
0.0
 40
1.0
 40
1.0
 40
1.0
 40
1.0
 10
1228.21501272444
 20
1063.55739700333
 30
0.0
 10
1227.25268061564
 20
1063.55739700333
 30
0.0
 10
1226.47253978096
 20
1062.777256168649
 30
0.0
 10
1226.47253978096
 20
1061.81492405985
 30
0.0
  0
SPLINE
  5
20E
330
70
100
AcDbEntity
  8
Camada 1
 62
    18
420
        0
370
    35
100
AcDbSpline
210
0.0
220
0.0
230
1.0
 70
     8
 71
     3
 72
     8
 73
     4
 74
     0
 42
0.0000000001
 43
0.0000000001
 40
0.0
 40
0.0
 40
0.0
 40
0.0
 40
1.0
 40
1.0
 40
1.0
 40
1.0
 10
1245.059001219859
 20
1061.81492405985
 30
0.0
 10
1245.059001219859
 20
1062.777256168649
 30
0.0
 10
1244.27886038518
 20
1063.55739700333
 30
0.0
 10
1243.31652827638
 20
1063.55739700333
 30
0.0
  0
SPLINE
  5
20F
330
70
100
AcDbEntity
  8
Camada 1
 62
    18
420
        0
370
    35
100
AcDbSpline
210
0.0
220
0.0
230
1.0
 70
     8
 71
     3
 72
     8
 73
     4
 74
     0
 42
0.0000000001
 43
0.0000000001
 40
0.0
 40
0.0
 40
0.0
 40
0.0
 40
1.0
 40
1.0
 40
1.0
 40
1.0
 10
1243.31652827638
 20
1063.55739700333
 30
0.0
 10
1242.35419616758
 20
1063.55739700333
 30
0.0
 10
1241.574055332899
 20
1062.777256168649
 30
0.0
 10
1241.574055332899
 20
1061.81492405985
 30
0.0
  0
SPLINE
  5
210
330
70
100
AcDbEntity
  8
Camada 1
 62
    18
420
        0
370
    35
100
AcDbSpline
210
0.0
220
0.0
230
1.0
 70
     8
 71
     3
 72
     8
 73
     4
 74
     0
 42
0.0000000001
 43
0.0000000001
 40
0.0
 40
0.0
 40
0.0
 40
0.0
 40
1.0
 40
1.0
 40
1.0
 40
1.0
 10
1260.160516771801
 20
1061.81492405985
 30
0.0
 10
1260.160516771801
 20
1062.777256168649
 30
0.0
 10
1259.380325912059
 20
1063.55739700333
 30
0.0
 10
1258.41804382832
 20
1063.55739700333
 30
0.0
  0
SPLINE
  5
211
330
70
100
AcDbEntity
  8
Camada 1
 62
    18
420
        0
370
    35
100
AcDbSpline
210
0.0
220
0.0
230
1.0
 70
     8
 71
     3
 72
     8
 73
     4
 74
     0
 42
0.0000000001
 43
0.0000000001
 40
0.0
 40
0.0
 40
0.0
 40
0.0
 40
1.0
 40
1.0
 40
1.0
 40
1.0
 10
1258.41804382832
 20
1063.55739700333
 30
0.0
 10
1257.455661694461
 20
1063.55739700333
 30
0.0
 10
1256.675570884839
 20
1062.777256168649
 30
0.0
 10
1256.675570884839
 20
1061.81492405985
 30
0.0
  0
SPLINE
  5
212
330
70
100
AcDbEntity
  8
Camada 1
 62
    18
420
        0
370
    35
100
AcDbSpline
210
0.0
220
0.0
230
1.0
 70
     8
 71
     3
 72
     8
 73
     4
 74
     0
 42
0.0000000001
 43
0.0000000001
 40
0.0
 40
0.0
 40
0.0
 40
0.0
 40
1.0
 40
1.0
 40
1.0
 40
1.0
 10
1275.26198229868
 20
1061.81492405985
 30
0.0
 10
1275.26198229868
 20
1062.777256168649
 30
0.0
 10
1274.48179143894
 20
1063.55739700333
 30
0.0
 10
1273.519509355199
 20
1063.55739700333
 30
0.0
  0
SPLINE
  5
213
330
70
100
AcDbEntity
  8
Camada 1
 62
    18
420
        0
370
    35
100
AcDbSpline
210
0.0
220
0.0
230
1.0
 70
     8
 71
     3
 72
     8
 73
     4
 74
     0
 42
0.0000000001
 43
0.0000000001
 40
0.0
 40
0.0
 40
0.0
 40
0.0
 40
1.0
 40
1.0
 40
1.0
 40
1.0
 10
1273.519509355199
 20
1063.55739700333
 30
0.0
 10
1272.557127221329
 20
1063.55739700333
 30
0.0
 10
1271.77703641172
 20
1062.777256168649
 30
0.0
 10
1271.77703641172
 20
1061.81492405985
 30
0.0
  0
SPLINE
  5
214
330
70
100
AcDbEntity
  8
Camada 1
 62
    18
420
        0
370
    35
100
AcDbSpline
210
0.0
220
0.0
230
1.0
 70
     8
 71
     3
 72
     8
 73
     4
 74
     0
 42
0.0000000001
 43
0.0000000001
 40
0.0
 40
0.0
 40
0.0
 40
0.0
 40
1.0
 40
1.0
 40
1.0
 40
1.0
 10
1290.363447825559
 20
1061.81492405985
 30
0.0
 10
1290.363447825559
 20
1062.777256168649
 30
0.0
 10
1289.583357015939
 20
1063.55739700333
 30
0.0
 10
1288.62097488208
 20
1063.55739700333
 30
0.0
  0
SPLINE
  5
215
330
70
100
AcDbEntity
  8
Camada 1
 62
    18
420
        0
370
    35
100
AcDbSpline
210
0.0
220
0.0
230
1.0
 70
     8
 71
     3
 72
     8
 73
     4
 74
     0
 42
0.0000000001
 43
0.0000000001
 40
0.0
 40
0.0
 40
0.0
 40
0.0
 40
1.0
 40
1.0
 40
1.0
 40
1.0
 10
1288.62097488208
 20
1063.55739700333
 30
0.0
 10
1287.65859274821
 20
1063.55739700333
 30
0.0
 10
1286.87850193859
 20
1062.777256168649
 30
0.0
 10
1286.87850193859
 20
1061.81492405985
 30
0.0
  0
SPLINE
  5
216
330
70
100
AcDbEntity
  8
Camada 1
 62
    18
420
        0
370
    35
100
AcDbSpline
210
0.0
220
0.0
230
1.0
 70
     8
 71
     3
 72
     8
 73
     4
 74
     0
 42
0.0000000001
 43
0.0000000001
 40
0.0
 40
0.0
 40
0.0
 40
0.0
 40
1.0
 40
1.0
 40
1.0
 40
1.0
 10
1305.46491335244
 20
1061.81492405985
 30
0.0
 10
1305.46491335244
 20
1062.777256168649
 30
0.0
 10
1304.68482254282
 20
1063.55739700333
 30
0.0
 10
1303.722440408959
 20
1063.55739700333
 30
0.0
  0
SPLINE
  5
217
330
70
100
AcDbEntity
  8
Camada 1
 62
    18
420
        0
370
    35
100
AcDbSpline
210
0.0
220
0.0
230
1.0
 70
     8
 71
     3
 72
     8
 73
     4
 74
     0
 42
0.0000000001
 43
0.0000000001
 40
0.0
 40
0.0
 40
0.0
 40
0.0
 40
1.0
 40
1.0
 40
1.0
 40
1.0
 10
1303.722440408959
 20
1063.55739700333
 30
0.0
 10
1302.76015832522
 20
1063.55739700333
 30
0.0
 10
1301.97996746548
 20
1062.777256168649
 30
0.0
 10
1301.97996746548
 20
1061.81492405985
 30
0.0
  0
SPLINE
  5
218
330
70
100
AcDbEntity
  8
Camada 1
 62
    18
420
        0
370
    35
100
AcDbSpline
210
0.0
220
0.0
230
1.0
 70
     8
 71
     3
 72
     8
 73
     4
 74
     0
 42
0.0000000001
 43
0.0000000001
 40
0.0
 40
0.0
 40
0.0
 40
0.0
 40
1.0
 40
1.0
 40
1.0
 40
1.0
 10
1320.56647892944
 20
1061.81492405985
 30
0.0
 10
1320.56647892944
 20
1062.777256168649
 30
0.0
 10
1319.786288069699
 20
1063.55739700333
 30
0.0
 10
1318.823905935829
 20
1063.55739700333
 30
0.0
  0
SPLINE
  5
219
330
70
100
AcDbEntity
  8
Camada 1
 62
    18
420
        0
370
    35
100
AcDbSpline
210
0.0
220
0.0
230
1.0
 70
     8
 71
     3
 72
     8
 73
     4
 74
     0
 42
0.0000000001
 43
0.0000000001
 40
0.0
 40
0.0
 40
0.0
 40
0.0
 40
1.0
 40
1.0
 40
1.0
 40
1.0
 10
1318.823905935829
 20
1063.55739700333
 30
0.0
 10
1317.86162385209
 20
1063.55739700333
 30
0.0
 10
1317.08143299235
 20
1062.777256168649
 30
0.0
 10
1317.08143299235
 20
1061.81492405985
 30
0.0
  0
SPLINE
  5
21A
330
70
100
AcDbEntity
  8
Camada 1
 62
    18
420
        0
370
    35
100
AcDbSpline
210
0.0
220
0.0
230
1.0
 70
     8
 71
     3
 72
     8
 73
     4
 74
     0
 42
0.0000000001
 43
0.0000000001
 40
0.0
 40
0.0
 40
0.0
 40
0.0
 40
1.0
 40
1.0
 40
1.0
 40
1.0
 10
1335.667944456319
 20
1061.81492405985
 30
0.0
 10
1335.667944456319
 20
1062.777256168649
 30
0.0
 10
1334.887753596569
 20
1063.55739700333
 30
0.0
 10
1333.925471512841
 20
1063.55739700333
 30
0.0
  0
SPLINE
  5
21B
330
70
100
AcDbEntity
  8
Camada 1
 62
    18
420
        0
370
    35
100
AcDbSpline
210
0.0
220
0.0
230
1.0
 70
     8
 71
     3
 72
     8
 73
     4
 74
     0
 42
0.0000000001
 43
0.0000000001
 40
0.0
 40
0.0
 40
0.0
 40
0.0
 40
1.0
 40
1.0
 40
1.0
 40
1.0
 10
1333.925471512841
 20
1063.55739700333
 30
0.0
 10
1332.963089378969
 20
1063.55739700333
 30
0.0
 10
1332.182998569349
 20
1062.777256168649
 30
0.0
 10
1332.182998569349
 20
1061.81492405985
 30
0.0
  0
SPLINE
  5
21C
330
70
100
AcDbEntity
  8
Camada 1
 62
    18
420
        0
370
    35
100
AcDbSpline
210
0.0
220
0.0
230
1.0
 70
     8
 71
     3
 72
     8
 73
     4
 74
     0
 42
0.0000000001
 43
0.0000000001
 40
0.0
 40
0.0
 40
0.0
 40
0.0
 40
1.0
 40
1.0
 40
1.0
 40
1.0
 10
1350.769409983201
 20
1061.81492405985
 30
0.0
 10
1350.769409983201
 20
1062.777256168649
 30
0.0
 10
1349.989319173579
 20
1063.55739700333
 30
0.0
 10
1349.026937039711
 20
1063.55739700333
 30
0.0
  0
SPLINE
  5
21D
330
70
100
AcDbEntity
  8
Camada 1
 62
    18
420
        0
370
    35
100
AcDbSpline
210
0.0
220
0.0
230
1.0
 70
     8
 71
     3
 72
     8
 73
     4
 74
     0
 42
0.0000000001
 43
0.0000000001
 40
0.0
 40
0.0
 40
0.0
 40
0.0
 40
1.0
 40
1.0
 40
1.0
 40
1.0
 10
1349.026937039711
 20
1063.55739700333
 30
0.0
 10
1348.06455490585
 20
1063.55739700333
 30
0.0
 10
1347.28446409623
 20
1062.777256168649
 30
0.0
 10
1347.28446409623
 20
1061.81492405985
 30
0.0
  0
SPLINE
  5
21E
330
70
100
AcDbEntity
  8
Camada 1
 62
    18
420
        0
370
    35
100
AcDbSpline
210
0.0
220
0.0
230
1.0
 70
     8
 71
     3
 72
     8
 73
     4
 74
     0
 42
0.0000000001
 43
0.0000000001
 40
0.0
 40
0.0
 40
0.0
 40
0.0
 40
1.0
 40
1.0
 40
1.0
 40
1.0
 10
1365.870875510071
 20
1061.81492405985
 30
0.0
 10
1365.870875510071
 20
1062.777256168649
 30
0.0
 10
1365.090784700449
 20
1063.55739700333
 30
0.0
 10
1364.12840256659
 20
1063.55739700333
 30
0.0
  0
SPLINE
  5
21F
330
70
100
AcDbEntity
  8
Camada 1
 62
    18
420
        0
370
    35
100
AcDbSpline
210
0.0
220
0.0
230
1.0
 70
     8
 71
     3
 72
     8
 73
     4
 74
     0
 42
0.0000000001
 43
0.0000000001
 40
0.0
 40
0.0
 40
0.0
 40
0.0
 40
1.0
 40
1.0
 40
1.0
 40
1.0
 10
1364.12840256659
 20
1063.55739700333
 30
0.0
 10
1363.166020432731
 20
1063.55739700333
 30
0.0
 10
1362.385929623109
 20
1062.777256168649
 30
0.0
 10
1362.385929623109
 20
1061.81492405985
 30
0.0
  0
SPLINE
  5
220
330
70
100
AcDbEntity
  8
Camada 1
 62
    18
420
        0
370
    35
100
AcDbSpline
210
0.0
220
0.0
230
1.0
 70
     8
 71
     3
 72
     8
 73
     4
 74
     0
 42
0.0000000001
 43
0.0000000001
 40
0.0
 40
0.0
 40
0.0
 40
0.0
 40
1.0
 40
1.0
 40
1.0
 40
1.0
 10
1380.97234103695
 20
1061.81492405985
 30
0.0
 10
1380.97234103695
 20
1062.777256168649
 30
0.0
 10
1380.19225022733
 20
1063.55739700333
 30
0.0
 10
1379.229868093469
 20
1063.55739700333
 30
0.0
  0
SPLINE
  5
221
330
70
100
AcDbEntity
  8
Camada 1
 62
    18
420
        0
370
    35
100
AcDbSpline
210
0.0
220
0.0
230
1.0
 70
     8
 71
     3
 72
     8
 73
     4
 74
     0
 42
0.0000000001
 43
0.0000000001
 40
0.0
 40
0.0
 40
0.0
 40
0.0
 40
1.0
 40
1.0
 40
1.0
 40
1.0
 10
1379.229868093469
 20
1063.55739700333
 30
0.0
 10
1378.267586009729
 20
1063.55739700333
 30
0.0
 10
1377.48739514999
 20
1062.777256168649
 30
0.0
 10
1377.48739514999
 20
1061.81492405985
 30
0.0
  0
SPLINE
  5
222
330
70
100
AcDbEntity
  8
Camada 1
 62
    18
420
        0
370
    35
100
AcDbSpline
210
0.0
220
0.0
230
1.0
 70
     8
 71
     3
 72
     8
 73
     4
 74
     0
 42
0.0000000001
 43
0.0000000001
 40
0.0
 40
0.0
 40
0.0
 40
0.0
 40
1.0
 40
1.0
 40
1.0
 40
1.0
 10
1396.073906613959
 20
1061.81492405985
 30
0.0
 10
1396.073906613959
 20
1062.777256168649
 30
0.0
 10
1395.293715754211
 20
1063.55739700333
 30
0.0
 10
1394.33143367047
 20
1063.55739700333
 30
0.0
  0
SPLINE
  5
223
330
70
100
AcDbEntity
  8
Camada 1
 62
    18
420
        0
370
    35
100
AcDbSpline
210
0.0
220
0.0
230
1.0
 70
     8
 71
     3
 72
     8
 73
     4
 74
     0
 42
0.0000000001
 43
0.0000000001
 40
0.0
 40
0.0
 40
0.0
 40
0.0
 40
1.0
 40
1.0
 40
1.0
 40
1.0
 10
1394.33143367047
 20
1063.55739700333
 30
0.0
 10
1393.369051536611
 20
1063.55739700333
 30
0.0
 10
1392.588860676869
 20
1062.777256168649
 30
0.0
 10
1392.588860676869
 20
1061.81492405985
 30
0.0
  0
SPLINE
  5
224
330
70
100
AcDbEntity
  8
Camada 1
 62
    18
420
        0
370
    35
100
AcDbSpline
210
0.0
220
0.0
230
1.0
 70
     8
 71
     3
 72
     8
 73
     4
 74
     0
 42
0.0000000001
 43
0.0000000001
 40
0.0
 40
0.0
 40
0.0
 40
0.0
 40
1.0
 40
1.0
 40
1.0
 40
1.0
 10
1411.17537214084
 20
1061.81492405985
 30
0.0
 10
1411.17537214084
 20
1062.777256168649
 30
0.0
 10
1410.39518128109
 20
1063.55739700333
 30
0.0
 10
1409.432899197351
 20
1063.55739700333
 30
0.0
  0
SPLINE
  5
225
330
70
100
AcDbEntity
  8
Camada 1
 62
    18
420
        0
370
    35
100
AcDbSpline
210
0.0
220
0.0
230
1.0
 70
     8
 71
     3
 72
     8
 73
     4
 74
     0
 42
0.0000000001
 43
0.0000000001
 40
0.0
 40
0.0
 40
0.0
 40
0.0
 40
1.0
 40
1.0
 40
1.0
 40
1.0
 10
1409.432899197351
 20
1063.55739700333
 30
0.0
 10
1408.47051706349
 20
1063.55739700333
 30
0.0
 10
1407.69042625387
 20
1062.777256168649
 30
0.0
 10
1407.69042625387
 20
1061.81492405985
 30
0.0
  0
SPLINE
  5
226
330
70
100
AcDbEntity
  8
Camada 1
 62
    18
420
        0
370
    35
100
AcDbSpline
210
0.0
220
0.0
230
1.0
 70
     8
 71
     3
 72
     8
 73
     4
 74
     0
 42
0.0000000001
 43
0.0000000001
 40
0.0
 40
0.0
 40
0.0
 40
0.0
 40
1.0
 40
1.0
 40
1.0
 40
1.0
 10
1426.27683766771
 20
1061.81492405985
 30
0.0
 10
1426.27683766771
 20
1062.777256168649
 30
0.0
 10
1425.49674685809
 20
1063.55739700333
 30
0.0
 10
1424.53436472423
 20
1063.55739700333
 30
0.0
  0
SPLINE
  5
227
330
70
100
AcDbEntity
  8
Camada 1
 62
    18
420
        0
370
    35
100
AcDbSpline
210
0.0
220
0.0
230
1.0
 70
     8
 71
     3
 72
     8
 73
     4
 74
     0
 42
0.0000000001
 43
0.0000000001
 40
0.0
 40
0.0
 40
0.0
 40
0.0
 40
1.0
 40
1.0
 40
1.0
 40
1.0
 10
1424.53436472423
 20
1063.55739700333
 30
0.0
 10
1423.57198259037
 20
1063.55739700333
 30
0.0
 10
1422.791891780749
 20
1062.777256168649
 30
0.0
 10
1422.791891780749
 20
1061.81492405985
 30
0.0
  0
SPLINE
  5
228
330
70
100
AcDbEntity
  8
Camada 1
 62
    18
420
        0
370
    35
100
AcDbSpline
210
0.0
220
0.0
230
1.0
 70
     8
 71
     3
 72
     8
 73
     4
 74
     0
 42
0.0000000001
 43
0.0000000001
 40
0.0
 40
0.0
 40
0.0
 40
0.0
 40
1.0
 40
1.0
 40
1.0
 40
1.0
 10
1441.378303194589
 20
1061.81492405985
 30
0.0
 10
1441.378303194589
 20
1062.777256168649
 30
0.0
 10
1440.59821238497
 20
1063.55739700333
 30
0.0
 10
1439.63583025111
 20
1063.55739700333
 30
0.0
  0
SPLINE
  5
229
330
70
100
AcDbEntity
  8
Camada 1
 62
    18
420
        0
370
    35
100
AcDbSpline
210
0.0
220
0.0
230
1.0
 70
     8
 71
     3
 72
     8
 73
     4
 74
     0
 42
0.0000000001
 43
0.0000000001
 40
0.0
 40
0.0
 40
0.0
 40
0.0
 40
1.0
 40
1.0
 40
1.0
 40
1.0
 10
1439.63583025111
 20
1063.55739700333
 30
0.0
 10
1438.673548167369
 20
1063.55739700333
 30
0.0
 10
1437.89335730763
 20
1062.777256168649
 30
0.0
 10
1437.89335730763
 20
1061.81492405985
 30
0.0
  0
SPLINE
  5
22A
330
70
100
AcDbEntity
  8
Camada 1
 62
    18
420
        0
370
    35
100
AcDbSpline
210
0.0
220
0.0
230
1.0
 70
     8
 71
     3
 72
     8
 73
     4
 74
     0
 42
0.0000000001
 43
0.0000000001
 40
0.0
 40
0.0
 40
0.0
 40
0.0
 40
1.0
 40
1.0
 40
1.0
 40
1.0
 10
1456.47976872147
 20
1061.81492405985
 30
0.0
 10
1456.47976872147
 20
1062.777256168649
 30
0.0
 10
1455.699677911849
 20
1063.55739700333
 30
0.0
 10
1454.73729577799
 20
1063.55739700333
 30
0.0
  0
SPLINE
  5
22B
330
70
100
AcDbEntity
  8
Camada 1
 62
    18
420
        0
370
    35
100
AcDbSpline
210
0.0
220
0.0
230
1.0
 70
     8
 71
     3
 72
     8
 73
     4
 74
     0
 42
0.0000000001
 43
0.0000000001
 40
0.0
 40
0.0
 40
0.0
 40
0.0
 40
1.0
 40
1.0
 40
1.0
 40
1.0
 10
1454.73729577799
 20
1063.55739700333
 30
0.0
 10
1453.77501369425
 20
1063.55739700333
 30
0.0
 10
1452.994822834509
 20
1062.777256168649
 30
0.0
 10
1452.994822834509
 20
1061.81492405985
 30
0.0
  0
SPLINE
  5
22C
330
70
100
AcDbEntity
  8
Camada 1
 62
    18
420
        0
370
    35
100
AcDbSpline
210
0.0
220
0.0
230
1.0
 70
     8
 71
     3
 72
     8
 73
     4
 74
     0
 42
0.0000000001
 43
0.0000000001
 40
0.0
 40
0.0
 40
0.0
 40
0.0
 40
1.0
 40
1.0
 40
1.0
 40
1.0
 10
1471.581334298469
 20
1061.81492405985
 30
0.0
 10
1471.581334298469
 20
1062.777256168649
 30
0.0
 10
1470.80114343873
 20
1063.55739700333
 30
0.0
 10
1469.838861354999
 20
1063.55739700333
 30
0.0
  0
SPLINE
  5
22D
330
70
100
AcDbEntity
  8
Camada 1
 62
    18
420
        0
370
    35
100
AcDbSpline
210
0.0
220
0.0
230
1.0
 70
     8
 71
     3
 72
     8
 73
     4
 74
     0
 42
0.0000000001
 43
0.0000000001
 40
0.0
 40
0.0
 40
0.0
 40
0.0
 40
1.0
 40
1.0
 40
1.0
 40
1.0
 10
1469.838861354999
 20
1063.55739700333
 30
0.0
 10
1468.87647922113
 20
1063.55739700333
 30
0.0
 10
1468.09638841151
 20
1062.777256168649
 30
0.0
 10
1468.09638841151
 20
1061.81492405985
 30
0.0
  0
SPLINE
  5
22E
330
70
100
AcDbEntity
  8
Camada 1
 62
    18
420
        0
370
    35
100
AcDbSpline
210
0.0
220
0.0
230
1.0
 70
     8
 71
     3
 72
     8
 73
     4
 74
     0
 42
0.0000000001
 43
0.0000000001
 40
0.0
 40
0.0
 40
0.0
 40
0.0
 40
1.0
 40
1.0
 40
1.0
 40
1.0
 10
1486.68279982535
 20
1061.81492405985
 30
0.0
 10
1486.68279982535
 20
1062.777256168649
 30
0.0
 10
1485.902608965611
 20
1063.55739700333
 30
0.0
 10
1484.940326881869
 20
1063.55739700333
 30
0.0
  0
SPLINE
  5
22F
330
70
100
AcDbEntity
  8
Camada 1
 62
    18
420
        0
370
    35
100
AcDbSpline
210
0.0
220
0.0
230
1.0
 70
     8
 71
     3
 72
     8
 73
     4
 74
     0
 42
0.0000000001
 43
0.0000000001
 40
0.0
 40
0.0
 40
0.0
 40
0.0
 40
1.0
 40
1.0
 40
1.0
 40
1.0
 10
1484.940326881869
 20
1063.55739700333
 30
0.0
 10
1483.97794474801
 20
1063.55739700333
 30
0.0
 10
1483.197853938389
 20
1062.777256168649
 30
0.0
 10
1483.197853938389
 20
1061.81492405985
 30
0.0
  0
SPLINE
  5
230
330
70
100
AcDbEntity
  8
Camada 1
 62
    18
420
        0
370
    35
100
AcDbSpline
210
0.0
220
0.0
230
1.0
 70
     8
 71
     3
 72
     8
 73
     4
 74
     0
 42
0.0000000001
 43
0.0000000001
 40
0.0
 40
0.0
 40
0.0
 40
0.0
 40
1.0
 40
1.0
 40
1.0
 40
1.0
 10
1501.784265352229
 20
1061.81492405985
 30
0.0
 10
1501.784265352229
 20
1062.777256168649
 30
0.0
 10
1501.004174542609
 20
1063.55739700333
 30
0.0
 10
1500.04179240875
 20
1063.55739700333
 30
0.0
  0
SPLINE
  5
231
330
70
100
AcDbEntity
  8
Camada 1
 62
    18
420
        0
370
    35
100
AcDbSpline
210
0.0
220
0.0
230
1.0
 70
     8
 71
     3
 72
     8
 73
     4
 74
     0
 42
0.0000000001
 43
0.0000000001
 40
0.0
 40
0.0
 40
0.0
 40
0.0
 40
1.0
 40
1.0
 40
1.0
 40
1.0
 10
1500.04179240875
 20
1063.55739700333
 30
0.0
 10
1499.079410274889
 20
1063.55739700333
 30
0.0
 10
1498.29931946527
 20
1062.777256168649
 30
0.0
 10
1498.29931946527
 20
1061.81492405985
 30
0.0
  0
SPLINE
  5
232
330
70
100
AcDbEntity
  8
Camada 1
 62
    18
420
        0
370
    35
100
AcDbSpline
210
0.0
220
0.0
230
1.0
 70
     8
 71
     3
 72
     8
 73
     4
 74
     0
 42
0.0000000001
 43
0.0000000001
 40
0.0
 40
0.0
 40
0.0
 40
0.0
 40
1.0
 40
1.0
 40
1.0
 40
1.0
 10
1516.88573087911
 20
1061.81492405985
 30
0.0
 10
1516.88573087911
 20
1062.777256168649
 30
0.0
 10
1516.105640069491
 20
1063.55739700333
 30
0.0
 10
1515.143257935629
 20
1063.55739700333
 30
0.0
  0
SPLINE
  5
233
330
70
100
AcDbEntity
  8
Camada 1
 62
    18
420
        0
370
    35
100
AcDbSpline
210
0.0
220
0.0
230
1.0
 70
     8
 71
     3
 72
     8
 73
     4
 74
     0
 42
0.0000000001
 43
0.0000000001
 40
0.0
 40
0.0
 40
0.0
 40
0.0
 40
1.0
 40
1.0
 40
1.0
 40
1.0
 10
1515.143257935629
 20
1063.55739700333
 30
0.0
 10
1514.180975851879
 20
1063.55739700333
 30
0.0
 10
1513.400784992151
 20
1062.777256168649
 30
0.0
 10
1513.400784992151
 20
1061.81492405985
 30
0.0
  0
SPLINE
  5
234
330
70
100
AcDbEntity
  8
Camada 1
 62
    18
420
        0
370
    35
100
AcDbSpline
210
0.0
220
0.0
230
1.0
 70
     8
 71
     3
 72
     8
 73
     4
 74
     0
 42
0.0000000001
 43
0.0000000001
 40
0.0
 40
0.0
 40
0.0
 40
0.0
 40
1.0
 40
1.0
 40
1.0
 40
1.0
 10
1531.987296456111
 20
1061.81492405985
 30
0.0
 10
1531.987296456111
 20
1062.777256168649
 30
0.0
 10
1531.20710559637
 20
1063.55739700333
 30
0.0
 10
1530.24472346251
 20
1063.55739700333
 30
0.0
  0
SPLINE
  5
235
330
70
100
AcDbEntity
  8
Camada 1
 62
    18
420
        0
370
    35
100
AcDbSpline
210
0.0
220
0.0
230
1.0
 70
     8
 71
     3
 72
     8
 73
     4
 74
     0
 42
0.0000000001
 43
0.0000000001
 40
0.0
 40
0.0
 40
0.0
 40
0.0
 40
1.0
 40
1.0
 40
1.0
 40
1.0
 10
1530.24472346251
 20
1063.55739700333
 30
0.0
 10
1529.282441378769
 20
1063.55739700333
 30
0.0
 10
1528.50225051903
 20
1062.777256168649
 30
0.0
 10
1528.50225051903
 20
1061.81492405985
 30
0.0
  0
SPLINE
  5
236
330
70
100
AcDbEntity
  8
Camada 1
 62
    18
420
        0
370
    35
100
AcDbSpline
210
0.0
220
0.0
230
1.0
 70
     8
 71
     3
 72
     8
 73
     4
 74
     0
 42
0.0000000001
 43
0.0000000001
 40
0.0
 40
0.0
 40
0.0
 40
0.0
 40
1.0
 40
1.0
 40
1.0
 40
1.0
 10
1547.08876198299
 20
1061.81492405985
 30
0.0
 10
1547.08876198299
 20
1062.777256168649
 30
0.0
 10
1546.30857112325
 20
1063.55739700333
 30
0.0
 10
1545.346289039509
 20
1063.55739700333
 30
0.0
  0
SPLINE
  5
237
330
70
100
AcDbEntity
  8
Camada 1
 62
    18
420
        0
370
    35
100
AcDbSpline
210
0.0
220
0.0
230
1.0
 70
     8
 71
     3
 72
     8
 73
     4
 74
     0
 42
0.0000000001
 43
0.0000000001
 40
0.0
 40
0.0
 40
0.0
 40
0.0
 40
1.0
 40
1.0
 40
1.0
 40
1.0
 10
1545.346289039509
 20
1063.55739700333
 30
0.0
 10
1544.38390690565
 20
1063.55739700333
 30
0.0
 10
1543.60381609603
 20
1062.777256168649
 30
0.0
 10
1543.60381609603
 20
1061.81492405985
 30
0.0
  0
SPLINE
  5
238
330
70
100
AcDbEntity
  8
Camada 1
 62
    18
420
        0
370
    35
100
AcDbSpline
210
0.0
220
0.0
230
1.0
 70
     8
 71
     3
 72
     8
 73
     4
 74
     0
 42
0.0000000001
 43
0.0000000001
 40
0.0
 40
0.0
 40
0.0
 40
0.0
 40
1.0
 40
1.0
 40
1.0
 40
1.0
 10
1562.190227509869
 20
1061.81492405985
 30
0.0
 10
1562.190227509869
 20
1062.777256168649
 30
0.0
 10
1561.410136700249
 20
1063.55739700333
 30
0.0
 10
1560.44775456639
 20
1063.55739700333
 30
0.0
  0
SPLINE
  5
239
330
70
100
AcDbEntity
  8
Camada 1
 62
    18
420
        0
370
    35
100
AcDbSpline
210
0.0
220
0.0
230
1.0
 70
     8
 71
     3
 72
     8
 73
     4
 74
     0
 42
0.0000000001
 43
0.0000000001
 40
0.0
 40
0.0
 40
0.0
 40
0.0
 40
1.0
 40
1.0
 40
1.0
 40
1.0
 10
1560.44775456639
 20
1063.55739700333
 30
0.0
 10
1559.485372432529
 20
1063.55739700333
 30
0.0
 10
1558.70528162291
 20
1062.777256168649
 30
0.0
 10
1558.70528162291
 20
1061.81492405985
 30
0.0
  0
SPLINE
  5
23A
330
70
100
AcDbEntity
  8
Camada 1
 62
    18
420
        0
370
    35
100
AcDbSpline
210
0.0
220
0.0
230
1.0
 70
     8
 71
     3
 72
     8
 73
     4
 74
     0
 42
0.0000000001
 43
0.0000000001
 40
0.0
 40
0.0
 40
0.0
 40
0.0
 40
1.0
 40
1.0
 40
1.0
 40
1.0
 10
1577.29169303675
 20
1061.81492405985
 30
0.0
 10
1577.29169303675
 20
1062.777256168649
 30
0.0
 10
1576.51160222713
 20
1063.55739700333
 30
0.0
 10
1575.549220093269
 20
1063.55739700333
 30
0.0
  0
SPLINE
  5
23B
330
70
100
AcDbEntity
  8
Camada 1
 62
    18
420
        0
370
    35
100
AcDbSpline
210
0.0
220
0.0
230
1.0
 70
     8
 71
     3
 72
     8
 73
     4
 74
     0
 42
0.0000000001
 43
0.0000000001
 40
0.0
 40
0.0
 40
0.0
 40
0.0
 40
1.0
 40
1.0
 40
1.0
 40
1.0
 10
1575.549220093269
 20
1063.55739700333
 30
0.0
 10
1574.58683795941
 20
1063.55739700333
 30
0.0
 10
1573.806747149791
 20
1062.777256168649
 30
0.0
 10
1573.806747149791
 20
1061.81492405985
 30
0.0
  0
SPLINE
  5
23C
330
70
100
AcDbEntity
  8
Camada 1
 62
    18
420
        0
370
    35
100
AcDbSpline
210
0.0
220
0.0
230
1.0
 70
     8
 71
     3
 72
     8
 73
     4
 74
     0
 42
0.0000000001
 43
0.0000000001
 40
0.0
 40
0.0
 40
0.0
 40
0.0
 40
1.0
 40
1.0
 40
1.0
 40
1.0
 10
1592.393158563631
 20
1061.81492405985
 30
0.0
 10
1592.393158563631
 20
1062.777256168649
 30
0.0
 10
1591.613067754009
 20
1063.55739700333
 30
0.0
 10
1590.65068562015
 20
1063.55739700333
 30
0.0
  0
SPLINE
  5
23D
330
70
100
AcDbEntity
  8
Camada 1
 62
    18
420
        0
370
    35
100
AcDbSpline
210
0.0
220
0.0
230
1.0
 70
     8
 71
     3
 72
     8
 73
     4
 74
     0
 42
0.0000000001
 43
0.0000000001
 40
0.0
 40
0.0
 40
0.0
 40
0.0
 40
1.0
 40
1.0
 40
1.0
 40
1.0
 10
1590.65068562015
 20
1063.55739700333
 30
0.0
 10
1589.688403536409
 20
1063.55739700333
 30
0.0
 10
1588.908212676661
 20
1062.777256168649
 30
0.0
 10
1588.908212676661
 20
1061.81492405985
 30
0.0
  0
SPLINE
  5
23E
330
70
100
AcDbEntity
  8
Camada 1
 62
    18
420
        0
370
    35
100
AcDbSpline
210
0.0
220
0.0
230
1.0
 70
     8
 71
     3
 72
     8
 73
     4
 74
     0
 42
0.0000000001
 43
0.0000000001
 40
0.0
 40
0.0
 40
0.0
 40
0.0
 40
1.0
 40
1.0
 40
1.0
 40
1.0
 10
1607.49472414063
 20
1061.81492405985
 30
0.0
 10
1607.49472414063
 20
1062.777256168649
 30
0.0
 10
1606.71453328089
 20
1063.55739700333
 30
0.0
 10
1605.752251197149
 20
1063.55739700333
 30
0.0
  0
SPLINE
  5
23F
330
70
100
AcDbEntity
  8
Camada 1
 62
    18
420
        0
370
    35
100
AcDbSpline
210
0.0
220
0.0
230
1.0
 70
     8
 71
     3
 72
     8
 73
     4
 74
     0
 42
0.0000000001
 43
0.0000000001
 40
0.0
 40
0.0
 40
0.0
 40
0.0
 40
1.0
 40
1.0
 40
1.0
 40
1.0
 10
1605.752251197149
 20
1063.55739700333
 30
0.0
 10
1604.78986906329
 20
1063.55739700333
 30
0.0
 10
1604.009678203551
 20
1062.777256168649
 30
0.0
 10
1604.009678203551
 20
1061.81492405985
 30
0.0
  0
SPLINE
  5
240
330
70
100
AcDbEntity
  8
Camada 1
 62
    18
420
        0
370
    35
100
AcDbSpline
210
0.0
220
0.0
230
1.0
 70
     8
 71
     3
 72
     8
 73
     4
 74
     0
 42
0.0000000001
 43
0.0000000001
 40
0.0
 40
0.0
 40
0.0
 40
0.0
 40
1.0
 40
1.0
 40
1.0
 40
1.0
 10
1622.596189667511
 20
1061.81492405985
 30
0.0
 10
1622.596189667511
 20
1062.777256168649
 30
0.0
 10
1621.815998807769
 20
1063.55739700333
 30
0.0
 10
1620.85371672403
 20
1063.55739700333
 30
0.0
  0
SPLINE
  5
241
330
70
100
AcDbEntity
  8
Camada 1
 62
    18
420
        0
370
    35
100
AcDbSpline
210
0.0
220
0.0
230
1.0
 70
     8
 71
     3
 72
     8
 73
     4
 74
     0
 42
0.0000000001
 43
0.0000000001
 40
0.0
 40
0.0
 40
0.0
 40
0.0
 40
1.0
 40
1.0
 40
1.0
 40
1.0
 10
1620.85371672403
 20
1063.55739700333
 30
0.0
 10
1619.891334590169
 20
1063.55739700333
 30
0.0
 10
1619.111243780549
 20
1062.777256168649
 30
0.0
 10
1619.111243780549
 20
1061.81492405985
 30
0.0
  0
SPLINE
  5
242
330
70
100
AcDbEntity
  8
Camada 1
 62
    18
420
        0
370
    35
100
AcDbSpline
210
0.0
220
0.0
230
1.0
 70
     8
 71
     3
 72
     8
 73
     4
 74
     0
 42
0.0000000001
 43
0.0000000001
 40
0.0
 40
0.0
 40
0.0
 40
0.0
 40
1.0
 40
1.0
 40
1.0
 40
1.0
 10
1637.69765519439
 20
1061.81492405985
 30
0.0
 10
1637.69765519439
 20
1062.777256168649
 30
0.0
 10
1636.91756438477
 20
1063.55739700333
 30
0.0
 10
1635.9551822509
 20
1063.55739700333
 30
0.0
  0
SPLINE
  5
243
330
70
100
AcDbEntity
  8
Camada 1
 62
    18
420
        0
370
    35
100
AcDbSpline
210
0.0
220
0.0
230
1.0
 70
     8
 71
     3
 72
     8
 73
     4
 74
     0
 42
0.0000000001
 43
0.0000000001
 40
0.0
 40
0.0
 40
0.0
 40
0.0
 40
1.0
 40
1.0
 40
1.0
 40
1.0
 10
1635.9551822509
 20
1063.55739700333
 30
0.0
 10
1634.992800117039
 20
1063.55739700333
 30
0.0
 10
1634.212709307419
 20
1062.777256168649
 30
0.0
 10
1634.212709307419
 20
1061.81492405985
 30
0.0
  0
SPLINE
  5
244
330
70
100
AcDbEntity
  8
Camada 1
 62
    18
420
        0
370
    35
100
AcDbSpline
210
0.0
220
0.0
230
1.0
 70
     8
 71
     3
 72
     8
 73
     4
 74
     0
 42
0.0000000001
 43
0.0000000001
 40
0.0
 40
0.0
 40
0.0
 40
0.0
 40
1.0
 40
1.0
 40
1.0
 40
1.0
 10
1652.799120721269
 20
1061.81492405985
 30
0.0
 10
1652.799120721269
 20
1062.777256168649
 30
0.0
 10
1652.019029911649
 20
1063.55739700333
 30
0.0
 10
1651.05664777779
 20
1063.55739700333
 30
0.0
  0
SPLINE
  5
245
330
70
100
AcDbEntity
  8
Camada 1
 62
    18
420
        0
370
    35
100
AcDbSpline
210
0.0
220
0.0
230
1.0
 70
     8
 71
     3
 72
     8
 73
     4
 74
     0
 42
0.0000000001
 43
0.0000000001
 40
0.0
 40
0.0
 40
0.0
 40
0.0
 40
1.0
 40
1.0
 40
1.0
 40
1.0
 10
1651.05664777779
 20
1063.55739700333
 30
0.0
 10
1650.094365694051
 20
1063.55739700333
 30
0.0
 10
1649.314174834301
 20
1062.777256168649
 30
0.0
 10
1649.314174834301
 20
1061.81492405985
 30
0.0
  0
SPLINE
  5
246
330
70
100
AcDbEntity
  8
Camada 1
 62
    18
420
        0
370
    35
100
AcDbSpline
210
0.0
220
0.0
230
1.0
 70
     8
 71
     3
 72
     8
 73
     4
 74
     0
 42
0.0000000001
 43
0.0000000001
 40
0.0
 40
0.0
 40
0.0
 40
0.0
 40
1.0
 40
1.0
 40
1.0
 40
1.0
 10
1667.90058624815
 20
1061.81492405985
 30
0.0
 10
1667.90058624815
 20
1062.777256168649
 30
0.0
 10
1667.12049543853
 20
1063.55739700333
 30
0.0
 10
1666.158113304669
 20
1063.55739700333
 30
0.0
  0
SPLINE
  5
247
330
70
100
AcDbEntity
  8
Camada 1
 62
    18
420
        0
370
    35
100
AcDbSpline
210
0.0
220
0.0
230
1.0
 70
     8
 71
     3
 72
     8
 73
     4
 74
     0
 42
0.0000000001
 43
0.0000000001
 40
0.0
 40
0.0
 40
0.0
 40
0.0
 40
1.0
 40
1.0
 40
1.0
 40
1.0
 10
1666.158113304669
 20
1063.55739700333
 30
0.0
 10
1665.19583122093
 20
1063.55739700333
 30
0.0
 10
1664.415640361179
 20
1062.777256168649
 30
0.0
 10
1664.415640361179
 20
1061.81492405985
 30
0.0
  0
SPLINE
  5
248
330
70
100
AcDbEntity
  8
Camada 1
 62
    18
420
        0
370
    35
100
AcDbSpline
210
0.0
220
0.0
230
1.0
 70
     8
 71
     3
 72
     8
 73
     4
 74
     0
 42
0.0000000001
 43
0.0000000001
 40
0.0
 40
0.0
 40
0.0
 40
0.0
 40
1.0
 40
1.0
 40
1.0
 40
1.0
 10
1680.911104252869
 20
1163.931251854719
 30
0.0
 10
1682.065982823529
 20
1163.931251854719
 30
0.0
 10
1683.00215182515
 20
1164.86737083128
 30
0.0
 10
1683.00215182515
 20
1166.02219937688
 30
0.0
  0
SPLINE
  5
249
330
70
100
AcDbEntity
  8
Camada 1
 62
    18
420
        0
370
    35
100
AcDbSpline
210
0.0
220
0.0
230
1.0
 70
     8
 71
     3
 72
     8
 73
     4
 74
     0
 42
0.0000000001
 43
0.0000000001
 40
0.0
 40
0.0
 40
0.0
 40
0.0
 40
1.0
 40
1.0
 40
1.0
 40
1.0
 10
637.5145588191708
 20
1166.02219937688
 30
0.0
 10
637.5145588191708
 20
1164.86737083128
 30
0.0
 10
638.4507278207875
 20
1163.931251854719
 30
0.0
 10
639.6055563663849
 20
1163.931251854719
 30
0.0
  0
LWPOLYLINE
  5
24A
330
70
100
AcDbEntity
  8
Camada 1
 62
    18
420
        0
370
    35
100
AcDbPolyline
 90
       12
 70
     0
 43
0.0
 10
639.6055563663849
 20
1073.0829691211
 10
639.5349209794949
 20
1073.194925208819
 10
639.4641105048877
 20
1073.30698134666
 10
639.3914741155349
 20
1073.41783688303
 10
639.3148607337907
 20
1073.52719166755
 10
639.2320692569446
 20
1073.6346955248
 10
639.1408735697632
 20
1073.74009832946
 10
639.0783672553707
 20
1073.80473070896
 10
638.9706632978814
 20
1073.89827757404
 10
638.8674615959289
 20
1073.96331015404
 10
638.770387964013
 20
1074.00022864945
 10
638.6762157856701
 20
1074.01228468928
  0
LWPOLYLINE
  5
24B
330
70
100
AcDbEntity
  8
Camada 1
 62
    18
420
        0
370
    35
100
AcDbPolyline
 90
       12
 70
     0
 43
0.0
 10
1680.911104252869
 20
1073.0829691211
 10
1680.981739639759
 20
1073.194925208819
 10
1681.0525751269
 20
1073.30698134666
 10
1681.125211516249
 20
1073.41783688303
 10
1681.201849910531
 20
1073.52719166755
 10
1681.28459136231
 20
1073.6346955248
 10
1681.37583707456
 20
1073.74009832946
 10
1681.43826835135
 20
1073.80473070896
 10
1681.54602233391
 20
1073.89827757404
 10
1681.649274060921
 20
1073.96331015404
 10
1681.746322680299
 20
1074.00022864945
 10
1681.84046984612
 20
1074.01228468928
  0
LWPOLYLINE
  5
24C
330
70
100
AcDbEntity
  8
Camada 1
 62
    18
420
        0
370
    35
100
AcDbPolyline
 90
       12
 70
     0
 43
0.0
 10
1680.911104252869
 20
995.949176660928
 10
1681.023160390719
 20
995.878591299097
 10
1681.135216528561
 20
995.8077558119603
 10
1681.24607206493
 20
995.7351194226093
 10
1681.35542684945
 20
995.6585310533919
 10
1681.462880681629
 20
995.5757395765486
 10
1681.56833351135
 20
995.4845438893643
 10
1681.63296589086
 20
995.4220125624432
 10
1681.72641270581
 20
995.3143086049513
 10
1681.791545335931
 20
995.2111069029998
 10
1681.82846383135
 20
995.1140582836178
 10
1681.84046984612
 20
995.0198610927436
  0
LWPOLYLINE
  5
24D
330
70
100
AcDbEntity
  8
Camada 1
 62
    18
420
        0
370
    35
100
AcDbPolyline
 90
       12
 70
     0
 43
0.0
 10
1680.911104252869
 20
1073.0829691211
 10
1681.023160390719
 20
1073.15355448293
 10
1681.135216528561
 20
1073.224389970059
 10
1681.24607206493
 20
1073.297026359419
 10
1681.35542684945
 20
1073.37361472863
 10
1681.462880681629
 20
1073.45640620548
 10
1681.56833351135
 20
1073.54760189266
 10
1681.63296589086
 20
1073.610133219579
 10
1681.72641270581
 20
1073.717837177069
 10
1681.791545335931
 20
1073.82103887902
 10
1681.82846383135
 20
1073.91808749841
 10
1681.84046984612
 20
1074.01228468928
  0
LWPOLYLINE
  5
24E
330
70
100
AcDbEntity
  8
Camada 1
 62
    18
420
        0
370
    35
100
AcDbPolyline
 90
       12
 70
     0
 43
0.0
 10
639.6055563663849
 20
995.949176660928
 10
639.5349209794949
 20
995.8372205732066
 10
639.4641105048877
 20
995.7251644353636
 10
639.3914741155349
 20
995.6143088989938
 10
639.3148607337907
 20
995.5049541144726
 10
639.2320692569446
 20
995.3974502572274
 10
639.1408735697632
 20
995.2919974275083
 10
639.0783672553707
 20
995.2274150730627
 10
638.9706632978814
 20
995.1338682079876
 10
638.8674615959289
 20
995.0688356279879
 10
638.770387964013
 20
995.0319171325718
 10
638.6762157856701
 20
995.0198610927436
  0
LWPOLYLINE
  5
24F
330
70
100
AcDbEntity
  8
Camada 1
 62
    18
420
        0
370
    35
100
AcDbPolyline
 90
       12
 70
     0
 43
0.0
 10
1680.911104252869
 20
995.949176660928
 10
1680.981739639759
 20
995.8372205732066
 10
1681.0525751269
 20
995.7251644353636
 10
1681.125211516249
 20
995.6143088989938
 10
1681.201849910531
 20
995.5049541144726
 10
1681.28459136231
 20
995.3974502572274
 10
1681.37583707456
 20
995.2919974275083
 10
1681.43826835135
 20
995.2274150730627
 10
1681.54602233391
 20
995.1338682079876
 10
1681.649274060921
 20
995.0688356279879
 10
1681.746322680299
 20
995.0319171325718
 10
1681.84046984612
 20
995.0198610927436
  0
LWPOLYLINE
  5
250
330
70
100
AcDbEntity
  8
Camada 1
 62
    18
420
        0
370
    35
100
AcDbPolyline
 90
       12
 70
     0
 43
0.0
 10
639.6055563663849
 20
1073.0829691211
 10
639.4935502536027
 20
1073.15355448293
 10
639.3814941157579
 20
1073.224389970059
 10
639.2706385793908
 20
1073.297026359419
 10
639.1613088074
 20
1073.37361472863
 10
639.0537799376252
 20
1073.45640620548
 10
638.9483771329642
 20
1073.54760189266
 10
638.8837697659873
 20
1073.610133219579
 10
638.7902229009141
 20
1073.717837177069
 10
638.7251903209143
 20
1073.82103887902
 10
638.6882718254992
 20
1073.91808749841
 10
638.6762157856701
 20
1074.01228468928
  0
LWPOLYLINE
  5
251
330
70
100
AcDbEntity
  8
Camada 1
 62
    18
420
        0
370
    35
100
AcDbPolyline
 90
       12
 70
     0
 43
0.0
 10
639.6055563663849
 20
995.949176660928
 10
639.4935502536027
 20
995.878591299097
 10
639.3814941157579
 20
995.8077558119603
 10
639.2706385793908
 20
995.7351194226093
 10
639.1613088074
 20
995.6585310533919
 10
639.0537799376252
 20
995.5757395765486
 10
638.9483771329642
 20
995.4845438893643
 10
638.8837697659873
 20
995.4220125624432
 10
638.7902229009141
 20
995.3143086049513
 10
638.7251903209143
 20
995.2111069029998
 10
638.6882718254992
 20
995.1140582836178
 10
638.6762157856701
 20
995.0198610927436
  0
LWPOLYLINE
  5
252
330
70
100
AcDbEntity
  8
Camada 1
 62
    18
420
        0
370
    35
100
AcDbPolyline
 90
       11
 70
     0
 43
0.0
 10
1681.23756780447
 20
997.8368723580533
 10
1681.239268656559
 20
997.8375727089151
 10
1681.24106955877
 20
997.8383230848375
 10
1681.24277041087
 20
997.839073460762
 10
1681.24447126296
 20
997.8398738617434
 10
1681.246172115039
 20
997.840724287793
 10
1681.24787296714
 20
997.8415747138368
 10
1681.24947376911
 20
997.842525190008
 10
1681.25107457108
 20
997.8435256912362
 10
1681.252575322929
 20
997.8445762175306
 10
1681.25407607477
 20
997.8457267939447
  0
LWPOLYLINE
  5
253
330
70
100
AcDbEntity
  8
Camada 1
 62
    18
420
        0
370
    35
100
AcDbPolyline
 90
       15
 70
     0
 43
0.0
 10
1678.23496356085
 20
997.2501784363375
 10
1678.39694471011
 20
997.2555811429865
 10
1678.58373828989
 20
997.2623345262928
 10
1678.77053186967
 20
997.2697882604625
 10
1678.95722539933
 20
997.2779923705529
 10
1678.96042700327
 20
997.2781424457389
 10
1679.147120532931
 20
997.2872970320004
 10
1679.33371401246
 20
997.2977522698602
 10
1679.520207441879
 20
997.309958384878
 10
1679.549422077809
 20
997.3120594374595
 10
1679.73561535686
 20
997.3271670060457
 10
1679.904499964599
 20
997.3450259530126
 10
1680.02536051328
 20
997.3633351255376
 10
1680.026461064641
 20
997.3635352257833
 10
1680.097096451529
 20
997.3819444484288
  0
LWPOLYLINE
  5
254
330
70
100
AcDbEntity
  8
Camada 1
 62
    18
420
        0
370
    35
100
AcDbPolyline
 90
       12
 70
     0
 43
0.0
 10
1660.28307002755
 20
996.7483270189914
 10
1660.569113329429
 20
996.7485771443007
 10
1660.961509912129
 20
996.7497277207167
 10
1661.35400654495
 20
996.7517787482384
 10
1661.46035982578
 20
996.7524790990992
 10
1661.852756408479
 20
996.7556807030378
 10
1662.24525304131
 20
996.7598828082081
 10
1662.63764962401
 20
996.7652354897927
 10
1663.03004620671
 20
996.7719388480382
 10
1663.42244278941
 20
996.7801429581323
 10
1663.814739321989
 20
996.7899478701911
 10
1664.20703585457
 20
996.8015536844687
  0
LWPOLYLINE
  5
255
330
70
100
AcDbEntity
  8
Camada 1
 62
    18
420
        0
370
    35
100
AcDbPolyline
 90
       12
 70
     0
 43
0.0
 10
1605.53794383352
 20
996.8077067670401
 10
1605.779564880749
 20
996.7997027571927
 10
1606.190170585851
 20
996.7878968426703
 10
1606.60087634107
 20
996.7781919807311
 10
1607.01148204618
 20
996.7702379959446
 10
1607.422287851519
 20
996.763734737946
 10
1607.59117245927
 20
996.7614335851157
 10
1608.00197826462
 20
996.7566311792088
 10
1608.41268401985
 20
996.7529293246553
 10
1608.823489825199
 20
996.7503280214533
 10
1609.23419558042
 20
996.7488272696082
 10
1609.64500138577
 20
996.7483270189914
  0
LWPOLYLINE
  5
256
330
70
100
AcDbEntity
  8
Camada 1
 62
    18
420
        0
370
    35
100
AcDbPolyline
 90
       12
 70
     0
 43
0.0
 10
1471.24316488248
 20
996.7483270189914
 10
1471.41214954036
 20
996.7483770440539
 10
1471.8229553457
 20
996.7493275202231
 10
1472.23366110093
 20
996.7512784976243
 10
1472.64446690628
 20
996.7543300263768
 10
1473.055172661499
 20
996.7584821064846
 10
1473.46587841672
 20
996.763734737946
 10
1473.7076995642
 20
996.7673865674386
 10
1474.118405319419
 20
996.774740251485
 10
1474.529111074649
 20
996.7836947374999
 10
1474.93971677975
 20
996.7945501758531
 10
1475.35022243473
 20
996.8077067670401
  0
LWPOLYLINE
  5
257
330
70
100
AcDbEntity
  8
Camada 1
 62
    18
420
        0
370
    35
100
AcDbPolyline
 90
       12
 70
     0
 43
0.0
 10
1415.44501114308
 20
996.8077067670401
 10
1415.68673224043
 20
996.7997027571927
 10
1416.09733794553
 20
996.7878968426703
 10
1416.507943650629
 20
996.7781919807311
 10
1416.91864940585
 20
996.7702379959446
 10
1417.32935516108
 20
996.763734737946
 10
1417.498339818951
 20
996.7614335851157
 10
1417.90904557418
 20
996.7566311792088
 10
1418.31985137953
 20
996.7529293246553
 10
1418.73055713475
 20
996.7503280214533
 10
1419.141362940099
 20
996.7488272696082
 10
1419.55206869532
 20
996.7483270189914
  0
LWPOLYLINE
  5
258
330
70
100
AcDbEntity
  8
Camada 1
 62
    18
420
        0
370
    35
100
AcDbPolyline
 90
       12
 70
     0
 43
0.0
 10
1281.150332242159
 20
996.7483270189914
 10
1281.319316900029
 20
996.7483770440539
 10
1281.73002265526
 20
996.7493275202231
 10
1282.1408284606
 20
996.7512784976243
 10
1282.55153421583
 20
996.7543300263768
 10
1282.96234002118
 20
996.7584821064846
 10
1283.373045776399
 20
996.763734737946
 10
1283.61476687375
 20
996.7673865674386
 10
1284.0255726791
 20
996.774740251485
 10
1284.436178384199
 20
996.7836947374999
 10
1284.846784089299
 20
996.7945501758531
 10
1285.2573897944
 20
996.8077067670401
  0
LWPOLYLINE
  5
259
330
70
100
AcDbEntity
  8
Camada 1
 62
    18
420
        0
370
    35
100
AcDbPolyline
 90
       12
 70
     0
 43
0.0
 10
1225.352178502761
 20
996.8077067670401
 10
1225.59384957505
 20
996.7997027571927
 10
1226.00445528015
 20
996.7878968426703
 10
1226.41511101031
 20
996.7781919807311
 10
1226.825816765529
 20
996.7702379959446
 10
1227.236522520759
 20
996.763734737946
 10
1227.405457153571
 20
996.7614335851157
 10
1227.81621293386
 20
996.7566311792088
 10
1228.22696871414
 20
996.7529293246553
 10
1228.63772449443
 20
996.7503280214533
 10
1229.048480274719
 20
996.7488272696082
 10
1229.45923605501
 20
996.7483270189914
  0
LWPOLYLINE
  5
25A
330
70
100
AcDbEntity
  8
Camada 1
 62
    18
420
        0
370
    35
100
AcDbPolyline
 90
       12
 70
     0
 43
0.0
 10
1091.057449576779
 20
996.7483270189914
 10
1091.226384209589
 20
996.7483770440539
 10
1091.637190014941
 20
996.7493275202231
 10
1092.047945795229
 20
996.7512784976243
 10
1092.458701575509
 20
996.7543300263768
 10
1092.86940733074
 20
996.7584821064846
 10
1093.280163111019
 20
996.763734737946
 10
1093.521934233429
 20
996.7673865674386
 10
1093.932639988659
 20
996.774740251485
 10
1094.34334574388
 20
996.7836947374999
 10
1094.75395144898
 20
996.7945501758531
 10
1095.16450712902
 20
996.8077067670401
  0
LWPOLYLINE
  5
25B
330
70
100
AcDbEntity
  8
Camada 1
 62
    18
420
        0
370
    35
100
AcDbPolyline
 90
       12
 70
     0
 43
0.0
 10
1035.25929583738
 20
996.8077067670401
 10
1035.500966909671
 20
996.7997027571927
 10
1035.91157261477
 20
996.7878968426703
 10
1036.32222834493
 20
996.7781919807311
 10
1036.73293410016
 20
996.7702379959446
 10
1037.143639855379
 20
996.763734737946
 10
1037.312624513261
 20
996.7614335851157
 10
1037.72333026848
 20
996.7566311792088
 10
1038.134086048771
 20
996.7529293246553
 10
1038.54484182905
 20
996.7503280214533
 10
1038.95559760934
 20
996.7488272696082
 10
1039.36635338962
 20
996.7483270189914
  0
LWPOLYLINE
  5
25C
330
70
100
AcDbEntity
  8
Camada 1
 62
    18
420
        0
370
    35
100
AcDbPolyline
 90
       12
 70
     0
 43
0.0
 10
900.9645669113997
 20
996.7483270189914
 10
901.1335515692735
 20
996.7483770440539
 10
901.5443073495607
 20
996.7493275202231
 10
901.955063129848
 20
996.7512784976243
 10
902.3658189101334
 20
996.7543300263768
 10
902.7765746904188
 20
996.7584821064846
 10
903.1872804456416
 20
996.763734737946
 10
903.4291015931158
 20
996.7673865674386
 10
903.8398073483422
 20
996.774740251485
 10
904.2504630785042
 20
996.7836947374999
 10
904.6610687836055
 20
996.7945501758531
 10
905.0716244636459
 20
996.8077067670401
  0
LWPOLYLINE
  5
25D
330
70
100
AcDbEntity
  8
Camada 1
 62
    18
420
        0
370
    35
100
AcDbPolyline
 90
       12
 70
     0
 43
0.0
 10
845.1664631970615
 20
996.8077067670401
 10
845.4080842442889
 20
996.7997027571927
 10
845.8186899493911
 20
996.7878968426703
 10
846.2293456795523
 20
996.7781919807311
 10
846.6400514347769
 20
996.7702379959446
 10
847.0507571900016
 20
996.763734737946
 10
847.2197418478772
 20
996.7614335851157
 10
847.6304976281626
 20
996.7566311792088
 10
848.0412033833871
 20
996.7529293246553
 10
848.4519591636745
 20
996.7503280214533
 10
848.8627649690224
 20
996.7488272696082
 10
849.2735207493078
 20
996.7483270189914
  0
LWPOLYLINE
  5
25E
330
70
100
AcDbEntity
  8
Camada 1
 62
    18
420
        0
370
    35
100
AcDbPolyline
 90
       12
 70
     0
 43
0.0
 10
710.871709258552
 20
996.7483270189914
 10
711.0406689038955
 20
996.7483770440539
 10
711.4514246841808
 20
996.7493275202231
 10
711.8621804644671
 20
996.7512784976243
 10
712.2729362447535
 20
996.7543300263768
 10
712.6836920250398
 20
996.7584821064846
 10
713.0944227927957
 20
996.763734737946
 10
713.3362189277377
 20
996.7673865674386
 10
713.7469246829632
 20
996.774740251485
 10
714.1576054256557
 20
996.7836947374999
 10
714.5682111307569
 20
996.7945501758531
 10
714.9787668107965
 20
996.8077067670401
  0
LWPOLYLINE
  5
25F
330
70
100
AcDbEntity
  8
Camada 1
 62
    18
420
        0
370
    35
100
AcDbPolyline
 90
       12
 70
     0
 43
0.0
 10
656.3096497772185
 20
996.8015536844687
 10
656.3818859660768
 20
996.7993025566993
 10
656.774182498656
 20
996.7881969930367
 10
657.1665040437656
 20
996.7788923315911
 10
657.4866394250766
 20
996.7723390485316
 10
657.8790360077782
 20
996.7655356401611
 10
658.2714325904799
 20
996.7599828583315
 10
658.6638791982432
 20
996.7555806529144
 10
659.0563007934751
 20
996.7522789988525
 10
659.4487724137707
 20
996.7500278710868
 10
659.8412190215322
 20
996.7487272194848
 10
660.2336656292955
 20
996.7483270189914
  0
LWPOLYLINE
  5
260
330
70
100
AcDbEntity
  8
Camada 1
 62
    18
420
        0
370
    35
100
AcDbPolyline
 90
       15
 70
     0
 43
0.0
 10
640.4196141927886
 20
997.3819444484288
 10
640.4902495796796
 20
997.3635352257833
 10
640.4913251185043
 20
997.3633351255376
 10
640.6121606546475
 20
997.3450259530126
 10
640.7810202498694
 20
997.3271670060457
 10
640.8101848607438
 20
997.3246157279081
 10
640.9965032024411
 20
997.309958384878
 10
640.9996797938492
 20
997.3097582846312
 10
641.1861482107324
 20
997.2975521696143
 10
641.3727667027979
 20
997.2870969317536
 10
641.5594602324572
 20
997.2779923705529
 10
641.7214413817146
 20
997.2708387867532
 10
641.908209948966
 20
997.2632850024602
 10
642.0949785162183
 20
997.2564315690306
 10
642.2817720959992
 20
997.2501784363375
  0
LWPOLYLINE
  5
261
330
70
100
AcDbEntity
  8
Camada 1
 62
    18
420
        0
370
    35
100
AcDbPolyline
 90
       11
 70
     0
 43
0.0
 10
639.2625845444836
 20
997.8457267939447
 10
639.2636350707761
 20
997.8449263929615
 10
639.2647106095973
 20
997.8441259919764
 10
639.2658111609526
 20
997.8434256411146
 10
639.2669367248372
 20
997.8427252902529
 10
639.2680622887219
 20
997.842074964452
 10
639.2692378776683
 20
997.8414246386547
 10
639.2704134666146
 20
997.8408243379153
 10
639.2715890555591
 20
997.8402240371742
 10
639.2727896570367
 20
997.8396237364394
 10
639.2739652459831
 20
997.839073460762
  0
LWPOLYLINE
  5
262
330
70
100
AcDbEntity
  8
Camada 1
 62
    18
420
        0
370
    35
100
AcDbPolyline
 90
       12
 70
     0
 43
0.0
 10
639.2739652459831
 20
997.839073460762
 10
639.2744154715374
 20
997.8388733605152
 10
639.2749407346827
 20
997.8386732602693
 10
639.2754409852978
 20
997.8384231349592
 10
639.275966248445
 20
997.8382230347142
 10
639.27646649906
 20
997.8379729094067
 10
639.276541536652
 20
997.8379729094067
 10
639.2770667997983
 20
997.8377227840974
 10
639.2775920629446
 20
997.8375226838506
 10
639.2781173260901
 20
997.8373225836076
 10
639.2786175767059
 20
997.8371224833608
 10
639.2791428398513
 20
997.8368723580533
  0
LWPOLYLINE
  5
263
330
70
100
AcDbEntity
  8
Camada 1
 62
    18
420
        0
370
    35
100
AcDbPolyline
 90
       11
 70
     0
 43
0.0
 10
639.2791428398513
 20
1071.19527342397
 10
639.2774169752292
 20
1071.19452304805
 10
639.2756660980758
 20
1071.193822697189
 10
639.2739402334519
 20
1071.19307232126
 10
639.2722143688288
 20
1071.19227192028
 10
639.270513516737
 20
1071.19142149423
 10
639.2688626897069
 20
1071.190571068189
 10
639.267211862676
 20
1071.18962059202
 10
639.2656360732371
 20
1071.18862009079
 10
639.2640852963304
 20
1071.18756956449
 10
639.2625845444836
 20
1071.186418988079
  0
LWPOLYLINE
  5
264
330
70
100
AcDbEntity
  8
Camada 1
 62
    18
420
        0
370
    35
100
AcDbPolyline
 90
       15
 70
     0
 43
0.0
 10
642.2817720959992
 20
1071.78196734569
 10
642.1197159091479
 20
1071.77656463904
 10
641.9329473418984
 20
1071.76981125573
 10
641.7461787746461
 20
1071.76235752156
 10
641.5594602324572
 20
1071.75415341147
 10
641.5562836410481
 20
1071.75400333629
 10
641.3695901113896
 20
1071.74484875002
 10
641.1829716193242
 20
1071.73439351216
 10
640.9965032024411
 20
1071.72218739715
 10
640.9673135790353
 20
1071.720086344559
 10
640.7810202498694
 20
1071.70492875092
 10
640.6121606546475
 20
1071.68711982901
 10
640.4913251185043
 20
1071.66881065649
 10
640.4902495796796
 20
1071.66861055624
 10
640.4196141927886
 20
1071.6502013336
  0
LWPOLYLINE
  5
265
330
70
100
AcDbEntity
  8
Camada 1
 62
    18
420
        0
370
    35
100
AcDbPolyline
 90
       12
 70
     0
 43
0.0
 10
660.2336656292955
 20
1072.283818763029
 10
659.9476223274232
 20
1072.28356863772
 10
659.5551757196608
 20
1072.282418061309
 10
659.1627291118966
 20
1072.28036703379
 10
659.0563258060065
 20
1072.27966668292
 10
658.6638791982432
 20
1072.27646507899
 10
658.2714576030102
 20
1072.27226297381
 10
657.8790109952469
 20
1072.26691029223
 10
657.4866144125462
 20
1072.26020693399
 10
657.094242842375
 20
1072.25200282389
 10
656.7019212972645
 20
1072.24219791183
 10
656.3096497772185
 20
1072.23059209755
  0
LWPOLYLINE
  5
266
330
70
100
AcDbEntity
  8
Camada 1
 62
    18
420
        0
370
    35
100
AcDbPolyline
 90
       12
 70
     0
 43
0.0
 10
714.9787668107965
 20
1072.22443901499
 10
714.7370957385073
 20
1072.23244302483
 10
714.3265150459374
 20
1072.24424893936
 10
713.9158593157754
 20
1072.25395380129
 10
713.5051535605507
 20
1072.26190778608
 10
713.0944227927957
 20
1072.26841104408
 10
712.9254881599818
 20
1072.270712196909
 10
712.5147323796964
 20
1072.27551460282
 10
712.10397659941
 20
1072.27921645737
 10
711.6932208191228
 20
1072.28176773551
 10
711.2824650388374
 20
1072.28331851242
 10
710.871709258552
 20
1072.283818763029
  0
LWPOLYLINE
  5
267
330
70
100
AcDbEntity
  8
Camada 1
 62
    18
420
        0
370
    35
100
AcDbPolyline
 90
       12
 70
     0
 43
0.0
 10
849.2735207493078
 20
1072.283818763029
 10
849.1045360914322
 20
1072.28371871291
 10
848.6937803111459
 20
1072.282818261799
 10
848.2830245308614
 20
1072.2808672844
 10
847.8722687505742
 20
1072.277815755649
 10
847.4615129702879
 20
1072.27366367554
 10
847.0507571900016
 20
1072.26841104408
 10
846.8089860675899
 20
1072.264759214589
 10
846.3982803123654
 20
1072.257405530539
 10
845.9876245822034
 20
1072.24845104452
 10
845.5770188771012
 20
1072.23759560617
 10
845.1664631970615
 20
1072.22443901499
  0
LWPOLYLINE
  5
268
330
70
100
AcDbEntity
  8
Camada 1
 62
    18
420
        0
370
    35
100
AcDbPolyline
 90
       12
 70
     0
 43
0.0
 10
905.0716244636459
 20
1072.22443901499
 10
904.829953391356
 20
1072.23244302483
 10
904.4193977113172
 20
1072.24424893936
 10
904.0087419811552
 20
1072.25395380129
 10
903.5980362259287
 20
1072.26190778608
 10
903.1872804456416
 20
1072.26841104408
 10
903.0183458128304
 20
1072.270712196909
 10
902.607590032545
 20
1072.27551460282
 10
902.1968342522578
 20
1072.27921645737
 10
901.7860784719724
 20
1072.28176773551
 10
901.375322691685
 20
1072.28331851242
 10
900.9645669113997
 20
1072.283818763029
  0
LWPOLYLINE
  5
269
330
70
100
AcDbEntity
  8
Camada 1
 62
    18
420
        0
370
    35
100
AcDbPolyline
 90
       12
 70
     0
 43
0.0
 10
1039.36635338962
 20
1072.283818763029
 10
1039.19741875681
 20
1072.28371871291
 10
1038.78666297653
 20
1072.282818261799
 10
1038.375907196239
 20
1072.2808672844
 10
1037.96515141595
 20
1072.277815755649
 10
1037.55439563567
 20
1072.27366367554
 10
1037.143639855379
 20
1072.26841104408
 10
1036.90186873297
 20
1072.264759214589
 10
1036.491162977751
 20
1072.257405530539
 10
1036.08050724758
 20
1072.24845104452
 10
1035.669851517419
 20
1072.23759560617
 10
1035.25929583738
 20
1072.22443901499
  0
LWPOLYLINE
  5
26A
330
70
100
AcDbEntity
  8
Camada 1
 62
    18
420
        0
370
    35
100
AcDbPolyline
 90
       12
 70
     0
 43
0.0
 10
1095.16450712902
 20
1072.22443901499
 10
1094.922836056739
 20
1072.23244302483
 10
1094.512230351629
 20
1072.24424893936
 10
1094.101574621471
 20
1072.25395380129
 10
1093.69091889131
 20
1072.26190778608
 10
1093.280163111019
 20
1072.26841104408
 10
1093.11122847821
 20
1072.270712196909
 10
1092.700472697919
 20
1072.27551460282
 10
1092.289716917639
 20
1072.27921645737
 10
1091.87896113735
 20
1072.28176773551
 10
1091.46820535707
 20
1072.28331851242
 10
1091.057449576779
 20
1072.283818763029
  0
LWPOLYLINE
  5
26B
330
70
100
AcDbEntity
  8
Camada 1
 62
    18
420
        0
370
    35
100
AcDbPolyline
 90
       12
 70
     0
 43
0.0
 10
1229.45923605501
 20
1072.283818763029
 10
1229.29030142219
 20
1072.28371871291
 10
1228.87949561684
 20
1072.282818261799
 10
1228.46873983656
 20
1072.2808672844
 10
1228.057984056269
 20
1072.277815755649
 10
1227.64727830105
 20
1072.27366367554
 10
1227.236522520759
 20
1072.26841104408
 10
1226.99475139835
 20
1072.264759214589
 10
1226.58404564313
 20
1072.257405530539
 10
1226.1733398879
 20
1072.24845104452
 10
1225.762734182799
 20
1072.23759560617
 10
1225.352178502761
 20
1072.22443901499
  0
LWPOLYLINE
  5
26C
330
70
100
AcDbEntity
  8
Camada 1
 62
    18
420
        0
370
    35
100
AcDbPolyline
 90
       12
 70
     0
 43
0.0
 10
1285.2573897944
 20
1072.22443901499
 10
1285.01566869706
 20
1072.23244302483
 10
1284.60516304208
 20
1072.24424893936
 10
1284.19445728685
 20
1072.25395380129
 10
1283.783751531629
 20
1072.26190778608
 10
1283.373045776399
 20
1072.26841104408
 10
1283.204061118529
 20
1072.270712196909
 10
1282.793355363299
 20
1072.27551460282
 10
1282.382549557949
 20
1072.27921645737
 10
1281.97184380273
 20
1072.28176773551
 10
1281.56103799738
 20
1072.28331851242
 10
1281.150332242159
 20
1072.283818763029
  0
LWPOLYLINE
  5
26D
330
70
100
AcDbEntity
  8
Camada 1
 62
    18
420
        0
370
    35
100
AcDbPolyline
 90
       12
 70
     0
 43
0.0
 10
1419.55206869532
 20
1072.283818763029
 10
1419.38318408757
 20
1072.28371871291
 10
1418.97237828222
 20
1072.282818261799
 10
1418.561672526999
 20
1072.2808672844
 10
1418.150866721649
 20
1072.277815755649
 10
1417.740160966419
 20
1072.27366367554
 10
1417.32935516108
 20
1072.26841104408
 10
1417.087634063729
 20
1072.264759214589
 10
1416.676928308499
 20
1072.257405530539
 10
1416.26622255328
 20
1072.24845104452
 10
1415.855616848181
 20
1072.23759560617
 10
1415.44501114308
 20
1072.22443901499
  0
LWPOLYLINE
  5
26E
330
70
100
AcDbEntity
  8
Camada 1
 62
    18
420
        0
370
    35
100
AcDbPolyline
 90
       12
 70
     0
 43
0.0
 10
1475.35022243473
 20
1072.22443901499
 10
1475.108601387499
 20
1072.23244302483
 10
1474.6979956824
 20
1072.24424893936
 10
1474.287289927169
 20
1072.25395380129
 10
1473.87658417195
 20
1072.26190778608
 10
1473.46587841672
 20
1072.26841104408
 10
1473.29699380897
 20
1072.270712196909
 10
1472.886188003629
 20
1072.27551460282
 10
1472.475482248399
 20
1072.27921645737
 10
1472.064676443049
 20
1072.28176773551
 10
1471.65397068783
 20
1072.28331851242
 10
1471.24316488248
 20
1072.283818763029
  0
LWPOLYLINE
  5
26F
330
70
100
AcDbEntity
  8
Camada 1
 62
    18
420
        0
370
    35
100
AcDbPolyline
 90
       12
 70
     0
 43
0.0
 10
1609.64500138577
 20
1072.283818763029
 10
1609.476016727891
 20
1072.28371871291
 10
1609.06521092255
 20
1072.282818261799
 10
1608.65450516732
 20
1072.2808672844
 10
1608.24369936197
 20
1072.277815755649
 10
1607.832993606749
 20
1072.27366367554
 10
1607.422287851519
 20
1072.26841104408
 10
1607.180466704051
 20
1072.264759214589
 10
1606.769760948821
 20
1072.257405530539
 10
1606.359055193599
 20
1072.24845104452
 10
1605.9484494885
 20
1072.23759560617
 10
1605.53794383352
 20
1072.22443901499
  0
LWPOLYLINE
  5
270
330
70
100
AcDbEntity
  8
Camada 1
 62
    18
420
        0
370
    35
100
AcDbPolyline
 90
       12
 70
     0
 43
0.0
 10
1664.20703585457
 20
1072.23059209755
 10
1664.134799665709
 20
1072.23284322533
 10
1663.74250313313
 20
1072.243948788989
 10
1663.350206600549
 20
1072.25325345043
 10
1663.03004620671
 20
1072.25980673349
 10
1662.63764962401
 20
1072.26661014186
 10
1662.24525304131
 20
1072.27216292369
 10
1661.85285645861
 20
1072.27656512911
 10
1661.46035982578
 20
1072.27986678317
 10
1661.06796324308
 20
1072.28211791094
 10
1660.675466610249
 20
1072.28341856254
 10
1660.28307002755
 20
1072.283818763029
  0
LWPOLYLINE
  5
271
330
70
100
AcDbEntity
  8
Camada 1
 62
    18
420
        0
370
    35
100
AcDbPolyline
 90
       15
 70
     0
 43
0.0
 10
1680.097096451529
 20
1071.6502013336
 10
1680.026461064641
 20
1071.66861055624
 10
1680.02536051328
 20
1071.66881065649
 10
1679.904499964599
 20
1071.68711982901
 10
1679.73561535686
 20
1071.70492875092
 10
1679.706500771041
 20
1071.70753005412
 10
1679.520207441879
 20
1071.72218739715
 10
1679.517005837941
 20
1071.7223874974
 10
1679.330512408531
 20
1071.73459361241
 10
1679.14391892899
 20
1071.74504885027
 10
1678.95722539933
 20
1071.75415341147
 10
1678.79524425007
 20
1071.761306995269
 10
1678.60845067029
 20
1071.76886077956
 10
1678.42175714063
 20
1071.77571421299
 10
1678.23496356085
 20
1071.78196734569
  0
LWPOLYLINE
  5
272
330
70
100
AcDbEntity
  8
Camada 1
 62
    18
420
        0
370
    35
100
AcDbPolyline
 90
       11
 70
     0
 43
0.0
 10
1681.25407607477
 20
1071.186418988079
 10
1681.25307557354
 20
1071.187219389059
 10
1681.251975022191
 20
1071.18801979005
 10
1681.25087447083
 20
1071.18872014091
 10
1681.24977391948
 20
1071.18942049177
 10
1681.248573318
 20
1071.19007081757
 10
1681.24747276665
 20
1071.19072114337
 10
1681.24627216517
 20
1071.19132144411
 10
1681.2450715637
 20
1071.19192174485
 10
1681.24387096222
 20
1071.19247202052
 10
1681.242670360739
 20
1071.19307232126
  0
LWPOLYLINE
  5
273
330
70
100
AcDbEntity
  8
Camada 1
 62
    18
420
        0
370
    35
100
AcDbPolyline
 90
       11
 70
     0
 43
0.0
 10
1681.242670360739
 20
1071.19307232126
 10
1681.24227016025
 20
1071.19327242151
 10
1681.24176990964
 20
1071.19347252176
 10
1681.24126965902
 20
1071.19372264706
 10
1681.240769408399
 20
1071.19392274731
 10
1681.24016910767
 20
1071.194172872619
 10
1681.23956880693
 20
1071.19442299793
 10
1681.239068556309
 20
1071.19462309817
 10
1681.2385683057
 20
1071.194823198419
 10
1681.238068055079
 20
1071.19502329866
 10
1681.23756780447
 20
1071.19527342397
  0
LWPOLYLINE
  5
274
330
70
100
AcDbEntity
  8
Camada 1
 62
    18
420
        0
370
    35
100
AcDbPolyline
 90
       12
 70
     0
 43
0.0
 10
639.2625845444836
 20
1071.186418988079
 10
639.2618841936219
 20
1071.18541848685
 10
639.2605085044297
 20
1071.18206680773
 10
639.2598581786314
 20
1071.179815679959
 10
639.2590577776445
 20
1071.17631392565
 10
639.2584324643749
 20
1071.17281217134
 10
639.2580072513529
 20
1071.16926039197
 10
639.2577071009837
 20
1071.16565858754
 10
639.2575070007369
 20
1071.162106808169
 10
639.2573819380832
 20
1071.15850500374
 10
639.2572818879598
 20
1071.15495322437
 10
639.2572068503686
 20
1071.151351419939
  0
LWPOLYLINE
  5
275
330
70
100
AcDbEntity
  8
Camada 1
 62
    18
420
        0
370
    35
100
AcDbPolyline
 90
       12
 70
     0
 43
0.0
 10
1681.25967888167
 20
1071.13874510443
 10
1681.259578831539
 20
1071.1420467585
 10
1681.259578831539
 20
1071.1468491644
 10
1681.2593787313
 20
1071.15160154525
 10
1681.259178631049
 20
1071.1563539261
 10
1681.258878480679
 20
1071.16120635706
 10
1681.258578330309
 20
1071.16605878803
 10
1681.258278179939
 20
1071.17101126913
 10
1681.258178129819
 20
1071.17256204603
 10
1681.257577829079
 20
1071.17756455219
 10
1681.256377227601
 20
1071.18226690797
 10
1681.25407607477
 20
1071.186418988079
  0
LWPOLYLINE
  5
276
330
70
100
AcDbEntity
  8
Camada 1
 62
    18
420
        0
370
    35
100
AcDbPolyline
 90
       12
 70
     0
 43
0.0
 10
1681.25407607477
 20
997.8457267939447
 10
1681.25477642564
 20
997.8467272951748
 10
1681.25617712736
 20
997.8500789742993
 10
1681.256777428091
 20
997.8523301020713
 10
1681.257677879199
 20
997.8558318563736
 10
1681.258278179939
 20
997.8593336106841
 10
1681.25867838044
 20
997.8628853900536
 10
1681.258978530801
 20
997.8664871944838
 10
1681.259178631049
 20
997.8700389738532
 10
1681.259278681169
 20
997.8736407782834
 10
1681.2593787313
 20
997.8771925576529
 10
1681.259478781419
 20
997.880794362085
  0
LWPOLYLINE
  5
277
330
70
100
AcDbEntity
  8
Camada 1
 62
    18
420
        0
370
    35
100
AcDbPolyline
 90
       12
 70
     0
 43
0.0
 10
639.2570567751836
 20
997.8934006775908
 10
639.2570567751836
 20
997.890099023527
 10
639.2571568253069
 20
997.8852966176217
 10
639.257306900492
 20
997.8805442367756
 10
639.2575320132682
 20
997.8757418308669
 10
639.2577821385757
 20
997.87093942496
 10
639.258082288944
 20
997.8660869939922
 10
639.2584324643749
 20
997.8611345128992
 10
639.2585575270295
 20
997.8595837359934
 10
639.2591078027071
 20
997.8545812298362
 10
639.2602833916535
 20
997.8498788740525
 10
639.2625845444836
 20
997.8457267939447
  0
LWPOLYLINE
  5
278
330
70
100
AcDbEntity
  8
Camada 1
 62
    18
420
        0
370
    35
100
AcDbPolyline
 90
       12
 70
     0
 43
0.0
 10
1299.279814743921
 20
997.2970519190003
 10
1299.521435791139
 20
997.3050559288457
 10
1299.93204149624
 20
997.3168118183075
 10
1300.342647201351
 20
997.3265667053055
 10
1300.75335295657
 20
997.3345206900921
 10
1301.164058711791
 20
997.3410239480909
 10
1301.33304336967
 20
997.3433251009227
 10
1301.743749124889
 20
997.3481275068278
 10
1302.154554930239
 20
997.3517793363207
 10
1302.565260685471
 20
997.3543806395209
 10
1302.97606649081
 20
997.3559314164285
 10
1303.38687229616
 20
997.3564316670454
  0
LWPOLYLINE
  5
279
330
70
100
AcDbEntity
  8
Camada 1
 62
    18
420
        0
370
    35
100
AcDbPolyline
 90
       12
 70
     0
 43
0.0
 10
1397.31562869144
 20
997.3564316670454
 10
1397.48451329919
 20
997.356331616922
 10
1397.89531910454
 20
997.3554311658153
 10
1398.30612490989
 20
997.3534801884161
 10
1398.716830665109
 20
997.3504286596599
 10
1399.127536420339
 20
997.3462765795503
 10
1399.538342225689
 20
997.3410239480909
 10
1399.78006332304
 20
997.3373220935391
 10
1400.190769078261
 20
997.3300184345516
 10
1400.601474833489
 20
997.3210639485369
 10
1401.01208053859
 20
997.3101584851248
 10
1401.42268624369
 20
997.2970519190003
  0
LWPOLYLINE
  5
27A
330
70
100
AcDbEntity
  8
Camada 1
 62
    18
420
        0
370
    35
100
AcDbPolyline
 90
       12
 70
     0
 43
0.0
 10
1489.37264738424
 20
997.2970519190003
 10
1489.61426843146
 20
997.3050559288457
 10
1490.024874136559
 20
997.3168118183075
 10
1490.435579891789
 20
997.3265667053055
 10
1490.846285647019
 20
997.3345206900921
 10
1491.25699140224
 20
997.3410239480909
 10
1491.425876009989
 20
997.3433251009227
 10
1491.836681815341
 20
997.3481275068278
 10
1492.24738757056
 20
997.3517793363207
 10
1492.65819337591
 20
997.3543806395209
 10
1493.06889913114
 20
997.3559314164285
 10
1493.47970493648
 20
997.3564316670454
  0
LWPOLYLINE
  5
27B
330
70
100
AcDbEntity
  8
Camada 1
 62
    18
420
        0
370
    35
100
AcDbPolyline
 90
       12
 70
     0
 43
0.0
 10
1587.40846133177
 20
997.3564316670454
 10
1587.57744598964
 20
997.356331616922
 10
1587.988151744859
 20
997.3554311658153
 10
1588.398957550209
 20
997.3534801884161
 10
1588.809663305439
 20
997.3504286596599
 10
1589.22046911078
 20
997.3462765795503
 10
1589.63117486601
 20
997.3410239480909
 10
1589.872996013481
 20
997.3373220935391
 10
1590.283701768711
 20
997.3300184345516
 10
1590.69430747381
 20
997.3210639485369
 10
1591.10501322904
 20
997.3101584851248
 10
1591.515518884011
 20
997.2970519190003
  0
LWPOLYLINE
  5
27C
330
70
100
AcDbEntity
  8
Camada 1
 62
    18
420
        0
370
    35
100
AcDbPolyline
 90
       12
 70
     0
 43
0.0
 10
1207.22274602606
 20
997.3564316670454
 10
1207.39168065888
 20
997.356331616922
 10
1207.80243643916
 20
997.3554311658153
 10
1208.213192219449
 20
997.3534801884161
 10
1208.623947999729
 20
997.3504286596599
 10
1209.03470378002
 20
997.3462765795503
 10
1209.445459560309
 20
997.3410239480909
 10
1209.687230682721
 20
997.3373220935391
 10
1210.09793643794
 20
997.3300184345516
 10
1210.5085921681
 20
997.3210639485369
 10
1210.919247898269
 20
997.3101584851248
 10
1211.32980357831
 20
997.2970519190003
  0
LWPOLYLINE
  5
27D
330
70
100
AcDbEntity
  8
Camada 1
 62
    18
420
        0
370
    35
100
AcDbPolyline
 90
       12
 70
     0
 43
0.0
 10
729.0011667477775
 20
997.2970519190003
 10
729.2428128075362
 20
997.3050559288457
 10
729.6534185126347
 20
997.3168118183075
 10
730.0640742428003
 20
997.3265667053055
 10
730.4747799980232
 20
997.3345206900921
 10
730.8854857532478
 20
997.3410239480909
 10
731.0544453985921
 20
997.3433251009227
 10
731.4652011788784
 20
997.3481275068278
 10
731.8759319466335
 20
997.3517793363207
 10
732.2866877269189
 20
997.3543806395209
 10
732.6974685197365
 20
997.3559314164285
 10
733.1082243000219
 20
997.3564316670454
  0
LWPOLYLINE
  5
27E
330
70
100
AcDbEntity
  8
Camada 1
 62
    18
420
        0
370
    35
100
AcDbPolyline
 90
       12
 70
     0
 43
0.0
 10
827.0369806953057
 20
997.3564316670454
 10
827.2059653531796
 20
997.356331616922
 10
827.6167211334659
 20
997.3554311658153
 10
828.0274769137522
 20
997.3534801884161
 10
828.4382326940395
 20
997.3504286596599
 10
828.8489884743249
 20
997.3462765795503
 10
829.2596942295494
 20
997.3410239480909
 10
829.5015153770227
 20
997.3373220935391
 10
829.9122211322474
 20
997.3300184345516
 10
830.3228768624103
 20
997.3210639485369
 10
830.7334825675097
 20
997.3101584851248
 10
831.1440382475511
 20
997.2970519190003
  0
LWPOLYLINE
  5
27F
330
70
100
AcDbEntity
  8
Camada 1
 62
    18
420
        0
370
    35
100
AcDbPolyline
 90
       12
 70
     0
 43
0.0
 10
919.0940494131554
 20
997.2970519190003
 10
919.3356704603829
 20
997.3050559288457
 10
919.7462761654842
 20
997.3168118183075
 10
920.1569318956462
 20
997.3265667053055
 10
920.5676376508726
 20
997.3345206900921
 10
920.9783434060973
 20
997.3410239480909
 10
921.1473280639692
 20
997.3433251009227
 10
921.5580838442566
 20
997.3481275068278
 10
921.9687895994811
 20
997.3517793363207
 10
922.3795453797684
 20
997.3543806395209
 10
922.7903511851145
 20
997.3559314164285
 10
923.2011069654017
 20
997.3564316670454
  0
LWPOLYLINE
  5
280
330
70
100
AcDbEntity
  8
Camada 1
 62
    18
420
        0
370
    35
100
AcDbPolyline
 90
       12
 70
     0
 43
0.0
 10
1017.129863360689
 20
997.3564316670454
 10
1017.2987979935
 20
997.356331616922
 10
1017.709603798839
 20
997.3554311658153
 10
1018.12035957913
 20
997.3534801884161
 10
1018.531115359419
 20
997.3504286596599
 10
1018.94182111464
 20
997.3462765795503
 10
1019.352576894929
 20
997.3410239480909
 10
1019.594348017341
 20
997.3373220935391
 10
1020.00505377256
 20
997.3300184345516
 10
1020.41575952779
 20
997.3210639485369
 10
1020.826365232889
 20
997.3101584851248
 10
1021.23692091293
 20
997.2970519190003
  0
LWPOLYLINE
  5
281
330
70
100
AcDbEntity
  8
Camada 1
 62
    18
420
        0
370
    35
100
AcDbPolyline
 90
       12
 70
     0
 43
0.0
 10
1109.186882053469
 20
997.2970519190003
 10
1109.428553125759
 20
997.3050559288457
 10
1109.83915883086
 20
997.3168118183075
 10
1110.24981456103
 20
997.3265667053055
 10
1110.66052031625
 20
997.3345206900921
 10
1111.07122607147
 20
997.3410239480909
 10
1111.240210729349
 20
997.3433251009227
 10
1111.650916484579
 20
997.3481275068278
 10
1112.061672264859
 20
997.3517793363207
 10
1112.47242804515
 20
997.3543806395209
 10
1112.88318382543
 20
997.3559314164285
 10
1113.293939605719
 20
997.3564316670454
  0
LWPOLYLINE
  5
282
330
70
100
AcDbEntity
  8
Camada 1
 62
    18
420
        0
370
    35
100
AcDbPolyline
 90
       12
 70
     0
 43
0.0
 10
1021.23692091293
 20
1071.73509386303
 10
1020.99524984064
 20
1071.72708985318
 10
1020.58464413554
 20
1071.71528393866
 10
1020.17398840538
 20
1071.70557907672
 10
1019.763332675209
 20
1071.697625091929
 10
1019.352576894929
 20
1071.69112183393
 10
1019.183642262109
 20
1071.6888206811
 10
1018.772886481831
 20
1071.68401827519
 10
1018.36213070154
 20
1071.68031642064
 10
1017.95137492126
 20
1071.6777651425
 10
1017.540619140969
 20
1071.67621436559
 10
1017.129863360689
 20
1071.67571411498
  0
LWPOLYLINE
  5
283
330
70
100
AcDbEntity
  8
Camada 1
 62
    18
420
        0
370
    35
100
AcDbPolyline
 90
       12
 70
     0
 43
0.0
 10
923.2011069654017
 20
1071.67571411498
 10
923.0321223075261
 20
1071.6758141651
 10
922.6213665272407
 20
1071.67671461621
 10
922.2106107469553
 20
1071.67866559361
 10
921.7998549666681
 20
1071.68171712236
 10
921.3890991863827
 20
1071.68586920247
 10
920.9783434060973
 20
1071.69112183393
 10
920.7365722836858
 20
1071.69482368849
 10
920.3258665284593
 20
1071.70212734747
 10
919.9152107982973
 20
1071.711081833489
 10
919.504605093196
 20
1071.7219872969
 10
919.0940494131554
 20
1071.73509386303
  0
LWPOLYLINE
  5
284
330
70
100
AcDbEntity
  8
Camada 1
 62
    18
420
        0
370
    35
100
AcDbPolyline
 90
       12
 70
     0
 43
0.0
 10
831.1440382475511
 20
1071.73509386303
 10
830.9023671752621
 20
1071.72708985318
 10
830.4918114952233
 20
1071.71528393866
 10
830.0811557650586
 20
1071.70557907672
 10
829.6704500098348
 20
1071.697625091929
 10
829.2596942295494
 20
1071.69112183393
 10
829.0907595967373
 20
1071.6888206811
 10
828.6800038164502
 20
1071.68401827519
 10
828.2692480361639
 20
1071.68031642064
 10
827.8584922558785
 20
1071.6777651425
 10
827.4477614881234
 20
1071.67621436559
 10
827.0369806953057
 20
1071.67571411498
  0
LWPOLYLINE
  5
285
330
70
100
AcDbEntity
  8
Camada 1
 62
    18
420
        0
370
    35
100
AcDbPolyline
 90
       12
 70
     0
 43
0.0
 10
733.1082243000219
 20
1071.67571411498
 10
732.9392646546794
 20
1071.6758141651
 10
732.5284838618618
 20
1071.67671461621
 10
732.1177280815755
 20
1071.67866559361
 10
731.7069723012892
 20
1071.68171712236
 10
731.2962415335341
 20
1071.68586920247
 10
730.8854857532478
 20
1071.69112183393
 10
730.6437146308362
 20
1071.69482368849
 10
730.2330088756116
 20
1071.70212734747
 10
729.8223281329192
 20
1071.711081833489
 10
729.4117224278161
 20
1071.7219872969
 10
729.0011667477775
 20
1071.73509386303
  0
LWPOLYLINE
  5
286
330
70
100
AcDbEntity
  8
Camada 1
 62
    18
420
        0
370
    35
100
AcDbPolyline
 90
       12
 70
     0
 43
0.0
 10
1591.515518884011
 20
1071.73509386303
 10
1591.27389783678
 20
1071.72708985318
 10
1590.86329213168
 20
1071.71528393866
 10
1590.452586376459
 20
1071.70557907672
 10
1590.041880621229
 20
1071.697625091929
 10
1589.63117486601
 20
1071.69112183393
 10
1589.462190208131
 20
1071.6888206811
 10
1589.05148445291
 20
1071.68401827519
 10
1588.640778697691
 20
1071.68031642064
 10
1588.229972892339
 20
1071.6777651425
 10
1587.819267137111
 20
1071.67621436559
 10
1587.40846133177
 20
1071.67571411498
  0
LWPOLYLINE
  5
287
330
70
100
AcDbEntity
  8
Camada 1
 62
    18
420
        0
370
    35
100
AcDbPolyline
 90
       12
 70
     0
 43
0.0
 10
1493.47970493648
 20
1071.67571411498
 10
1493.31072027861
 20
1071.6758141651
 10
1492.90001452338
 20
1071.67671461621
 10
1492.48920871803
 20
1071.67866559361
 10
1492.078502962809
 20
1071.68171712236
 10
1491.66769715746
 20
1071.68586920247
 10
1491.25699140224
 20
1071.69112183393
 10
1491.01517025477
 20
1071.69482368849
 10
1490.60446449954
 20
1071.70212734747
 10
1490.19385879444
 20
1071.711081833489
 10
1489.78315303921
 20
1071.7219872969
 10
1489.37264738424
 20
1071.73509386303
  0
LWPOLYLINE
  5
288
330
70
100
AcDbEntity
  8
Camada 1
 62
    18
420
        0
370
    35
100
AcDbPolyline
 90
       12
 70
     0
 43
0.0
 10
1401.42268624369
 20
1071.73509386303
 10
1401.180965146341
 20
1071.72708985318
 10
1400.770359441239
 20
1071.71528393866
 10
1400.359753736129
 20
1071.70557907672
 10
1399.94904798091
 20
1071.697625091929
 10
1399.538342225689
 20
1071.69112183393
 10
1399.36935756781
 20
1071.6888206811
 10
1398.958651812591
 20
1071.68401827519
 10
1398.547846007241
 20
1071.68031642064
 10
1398.137140252011
 20
1071.6777651425
 10
1397.72633444667
 20
1071.67621436559
 10
1397.31562869144
 20
1071.67571411498
  0
LWPOLYLINE
  5
289
330
70
100
AcDbEntity
  8
Camada 1
 62
    18
420
        0
370
    35
100
AcDbPolyline
 90
       12
 70
     0
 43
0.0
 10
1303.38687229616
 20
1071.67571411498
 10
1303.217887638289
 20
1071.6758141651
 10
1302.80708183294
 20
1071.67671461621
 10
1302.396376077709
 20
1071.67866559361
 10
1301.985570272371
 20
1071.68171712236
 10
1301.57486451714
 20
1071.68586920247
 10
1301.164058711791
 20
1071.69112183393
 10
1300.92233761444
 20
1071.69482368849
 10
1300.511631859219
 20
1071.70212734747
 10
1300.100926103991
 20
1071.711081833489
 10
1299.690320398889
 20
1071.7219872969
 10
1299.279814743921
 20
1071.73509386303
  0
LWPOLYLINE
  5
28A
330
70
100
AcDbEntity
  8
Camada 1
 62
    18
420
        0
370
    35
100
AcDbPolyline
 90
       12
 70
     0
 43
0.0
 10
1211.32980357831
 20
1071.73509386303
 10
1211.08813250602
 20
1071.72708985318
 10
1210.67752680092
 20
1071.71528393866
 10
1210.26687107076
 20
1071.70557907672
 10
1209.85616531553
 20
1071.697625091929
 10
1209.445459560309
 20
1071.69112183393
 10
1209.27647490243
 20
1071.6888206811
 10
1208.865769147211
 20
1071.68401827519
 10
1208.45501336692
 20
1071.68031642064
 10
1208.04425758664
 20
1071.6777651425
 10
1207.633501806351
 20
1071.67621436559
 10
1207.22274602606
 20
1071.67571411498
  0
LWPOLYLINE
  5
28B
330
70
100
AcDbEntity
  8
Camada 1
 62
    18
420
        0
370
    35
100
AcDbPolyline
 90
       12
 70
     0
 43
0.0
 10
1113.293939605719
 20
1071.67571411498
 10
1113.12500497291
 20
1071.6758141651
 10
1112.71424919262
 20
1071.67671461621
 10
1112.303493412341
 20
1071.67866559361
 10
1111.892737632049
 20
1071.68171712236
 10
1111.481981851761
 20
1071.68586920247
 10
1111.07122607147
 20
1071.69112183393
 10
1110.82945494906
 20
1071.69482368849
 10
1110.418749193839
 20
1071.70212734747
 10
1110.00809346368
 20
1071.711081833489
 10
1109.59743773352
 20
1071.7219872969
 10
1109.186882053469
 20
1071.73509386303
  0
LWPOLYLINE
  5
28C
330
70
100
AcDbEntity
  8
Camada 1
 62
    18
420
        0
370
    35
100
AcDbPolyline
 90
       14
 70
     0
 43
0.0
 10
1680.911104252869
 20
1163.931251854719
 10
1680.985741644679
 20
1163.94335791962
 10
1681.05447607924
 20
1163.97917586368
 10
1681.121309561449
 20
1164.04165716554
 10
1681.189243595019
 20
1164.13815550924
 10
1681.26238023499
 20
1164.281277210299
 10
1681.2979980788
 20
1164.36261796036
 10
1681.352225245509
 20
1164.4926330953
 10
1681.42045942945
 20
1164.66606998365
 10
1681.481189854159
 20
1164.83205313783
 10
1681.53621742185
 20
1164.99353403648
 10
1681.58744308486
 20
1165.15346415821
 10
1681.63666774541
 20
1165.31494505686
 10
1681.6855922556
 20
1165.48087818598
  0
LWPOLYLINE
  5
28D
330
70
100
AcDbEntity
  8
Camada 1
 62
    18
420
        0
370
    35
100
AcDbPolyline
 90
       11
 70
     0
 43
0.0
 10
1681.6855922556
 20
1165.48087818598
 10
1681.701400175039
 20
1165.5349552775
 10
1681.71710804436
 20
1165.58903236902
 10
1681.73261581344
 20
1165.643109460539
 10
1681.748223632639
 20
1165.69723657713
 10
1681.7636313516
 20
1165.75136369371
 10
1681.77903907055
 20
1165.80554083536
 10
1681.794446789499
 20
1165.859667951939
 10
1681.80975445833
 20
1165.913845093579
 10
1681.82516217729
 20
1165.96802223523
 10
1681.84046984612
 20
1166.02219937688
  0
LWPOLYLINE
  5
28E
330
70
100
AcDbEntity
  8
Camada 1
 62
    18
420
        0
370
    35
100
AcDbPolyline
 90
       14
 70
     0
 43
0.0
 10
639.6055563663849
 20
1163.931251854719
 10
639.5309189745712
 20
1163.94335791962
 10
639.4621845400197
 20
1163.97917586368
 10
639.395351057804
 20
1164.04165716554
 10
639.327442036767
 20
1164.13815550924
 10
639.2543304093297
 20
1164.281277210299
 10
639.2186875529842
 20
1164.36261796036
 10
639.1644603862778
 20
1164.4926330953
 10
639.0962512148708
 20
1164.66606998365
 10
639.0355207901639
 20
1164.83205313783
 10
638.980468209942
 20
1164.99353403648
 10
638.9292425469266
 20
1165.15346415821
 10
638.8800679114356
 20
1165.31494505686
 10
638.8310683636591
 20
1165.48087818598
  0
LWPOLYLINE
  5
28F
330
70
100
AcDbEntity
  8
Camada 1
 62
    18
420
        0
370
    35
100
AcDbPolyline
 90
       11
 70
     0
 43
0.0
 10
638.8310683636591
 20
1165.48087818598
 10
638.8152854567433
 20
1165.5349552775
 10
638.7996276124822
 20
1165.58903236902
 10
638.7840197932819
 20
1165.643109460539
 10
638.7685120242049
 20
1165.69723657713
 10
638.7530292676601
 20
1165.75136369371
 10
638.7376215487083
 20
1165.80554083536
 10
638.7222388422842
 20
1165.859667951939
 10
638.7068811483932
 20
1165.913845093579
 10
638.6915484670298
 20
1165.96802223523
 10
638.6762157856701
 20
1166.02219937688
  0
LINE
  5
290
330
70
100
AcDbEntity
  8
Camada 1
 62
    18
420
        0
370
    35
100
AcDbLine
 10
1137.03978579137
 20
1032.068571742749
 30
0.0
 11
1137.03978579137
 21
1037.45552049444
 31
0.0
  0
LINE
  5
291
330
70
100
AcDbEntity
  8
Camada 1
 62
    18
420
        0
370
    18
100
AcDbLine
 10
1140.83063492964
 20
1036.65111750491
 30
0.0
 11
1140.83063492964
 21
1036.21349826658
 31
0.0
  0
LINE
  5
292
330
70
100
AcDbEntity
  8
Camada 1
 62
    18
420
        0
370
    18
100
AcDbLine
 10
1142.007724627619
 20
1035.88893566732
 30
0.0
 11
1142.007724627619
 21
1032.71319468572
 31
0.0
  0
LINE
  5
293
330
70
100
AcDbEntity
  8
Camada 1
 62
    18
420
        0
370
    18
100
AcDbLine
 10
1142.84794556121
 20
1032.38748151005
 30
0.0
 11
1142.84794556121
 21
1035.88893566732
 31
0.0
  0
LINE
  5
294
330
70
100
AcDbEntity
  8
Camada 1
 62
    18
420
        0
370
    18
100
AcDbLine
 10
1144.02503525919
 20
1035.88893566732
 30
0.0
 11
1144.02503525919
 21
1036.65111750491
 31
0.0
  0
LINE
  5
295
330
70
100
AcDbEntity
  8
Camada 1
 62
    18
420
        0
370
    18
100
AcDbLine
 10
1144.533439959599
 20
1036.65111750491
 30
0.0
 11
1144.533439959599
 21
1032.71319468572
 31
0.0
  0
LINE
  5
296
330
70
100
AcDbEntity
  8
Camada 1
 62
    18
420
        0
370
    18
100
AcDbLine
 10
1145.331789916679
 20
1032.38748151005
 30
0.0
 11
1145.331789916679
 21
1033.96106984578
 31
0.0
  0
LINE
  5
297
330
70
100
AcDbEntity
  8
Camada 1
 62
    18
420
        0
370
    18
100
AcDbLine
 10
1145.331789916679
 20
1034.68743373931
 30
0.0
 11
1145.331789916679
 21
1035.91830037844
 31
0.0
  0
LINE
  5
298
330
70
100
AcDbEntity
  8
Camada 1
 62
    18
420
        0
370
    18
100
AcDbLine
 10
1162.304042669879
 20
1036.65111750491
 30
0.0
 11
1162.304042669879
 21
1032.71319468572
 31
0.0
  0
LINE
  5
299
330
70
100
AcDbEntity
  8
Camada 1
 62
    18
420
        0
370
    18
100
AcDbLine
 10
1163.079481148779
 20
1032.38748151005
 30
0.0
 11
1163.079481148779
 21
1035.35021577962
 31
0.0
  0
LINE
  5
29A
330
70
100
AcDbEntity
  8
Camada 1
 62
    18
420
        0
370
    18
100
AcDbLine
 10
1165.11905293273
 20
1036.65111750491
 30
0.0
 11
1165.11905293273
 21
1033.63535667011
 31
0.0
  0
LINE
  5
29B
330
70
100
AcDbEntity
  8
Camada 1
 62
    18
420
        0
370
    18
100
AcDbLine
 10
1152.88392338184
 20
1032.38748151005
 30
0.0
 11
1153.267715653959
 21
1035.31459793581
 31
0.0
  0
LINE
  5
29C
330
70
100
AcDbEntity
  8
Camada 1
 62
    18
420
        0
370
    18
100
AcDbLine
 10
1152.742052307319
 20
1036.65111750491
 30
0.0
 11
1152.079470367251
 21
1032.38748151005
 31
0.0
  0
LINE
  5
29D
330
70
100
AcDbEntity
  8
Camada 1
 62
    18
420
        0
370
    18
100
AcDbLine
 10
1148.59582513189
 20
1032.38748151005
 30
0.0
 11
1148.92679093902
 21
1033.32780259178
 31
0.0
  0
LINE
  5
29E
330
70
100
AcDbEntity
  8
Camada 1
 62
    18
420
        0
370
    18
100
AcDbLine
 10
1149.19362461727
 20
1034.07257570795
 30
0.0
 11
1149.79007342598
 21
1035.73480845273
 31
0.0
  0
LINE
  5
29F
330
70
100
AcDbEntity
  8
Camada 1
 62
    18
420
        0
370
    18
100
AcDbLine
 10
1154.935601230691
 20
1032.74230927154
 30
0.0
 11
1155.893581159129
 21
1035.268024603519
 31
0.0
  0
LINE
  5
2A0
330
70
100
AcDbEntity
  8
Camada 1
 62
    18
420
        0
370
    18
100
AcDbLine
 10
1155.70483660195
 20
1036.65111750491
 30
0.0
 11
1154.598732466289
 21
1033.75406614114
 31
0.0
  0
LINE
  5
2A1
330
70
100
AcDbEntity
  8
Camada 1
 62
    18
420
        0
370
    18
100
AcDbLine
 10
1149.394325164159
 20
1036.65111750491
 30
0.0
 11
1147.76160720569
 21
1032.38748151005
 31
0.0
  0
LINE
  5
2A2
330
70
100
AcDbEntity
  8
Camada 1
 62
    18
420
        0
370
    35
100
AcDbLine
 10
1181.47179532386
 20
1030.0344526905
 30
0.0
 11
1139.074104943869
 21
1030.0344526905
 31
0.0
  0
LINE
  5
2A3
330
70
100
AcDbEntity
  8
Camada 1
 62
    18
420
        0
370
    18
100
AcDbLine
 10
1142.33343780329
 20
1032.38748151005
 30
0.0
 11
1142.84794556121
 21
1032.38748151005
 31
0.0
  0
LINE
  5
2A4
330
70
100
AcDbEntity
  8
Camada 1
 62
    18
420
        0
370
    18
100
AcDbLine
 10
1144.858953035029
 20
1032.38748151005
 30
0.0
 11
1145.331789916679
 21
1032.38748151005
 31
0.0
  0
LINE
  5
2A5
330
70
100
AcDbEntity
  8
Camada 1
 62
    18
420
        0
370
    18
100
AcDbLine
 10
1147.76160720569
 20
1032.38748151005
 30
0.0
 11
1148.59582513189
 21
1032.38748151005
 31
0.0
  0
LINE
  5
2A6
330
70
100
AcDbEntity
  8
Camada 1
 62
    18
420
        0
370
    18
100
AcDbLine
 10
1146.96916020587
 20
1032.38748151005
 30
0.0
 11
1147.60868059257
 21
1032.38748151005
 31
0.0
  0
LINE
  5
2A7
330
70
100
AcDbEntity
  8
Camada 1
 62
    18
420
        0
370
    18
100
AcDbLine
 10
1151.27446707699
 20
1032.38748151005
 30
0.0
 11
1151.849054933809
 21
1032.38748151005
 31
0.0
  0
LINE
  5
2A8
330
70
100
AcDbEntity
  8
Camada 1
 62
    18
420
        0
370
    18
100
AcDbLine
 10
1152.079470367251
 20
1032.38748151005
 30
0.0
 11
1152.88392338184
 21
1032.38748151005
 31
0.0
  0
LINE
  5
2A9
330
70
100
AcDbEntity
  8
Camada 1
 62
    18
420
        0
370
    18
100
AcDbLine
 10
1156.62114565414
 20
1032.38748151005
 30
0.0
 11
1157.11234173338
 21
1032.38748151005
 31
0.0
  0
LINE
  5
2AA
330
70
100
AcDbEntity
  8
Camada 1
 62
    18
420
        0
370
    18
100
AcDbLine
 10
1162.6299559458
 20
1032.38748151005
 30
0.0
 11
1163.079481148779
 21
1032.38748151005
 31
0.0
  0
LINE
  5
2AB
330
70
100
AcDbEntity
  8
Camada 1
 62
    18
420
        0
370
    18
100
AcDbLine
 10
1165.438763101019
 20
1032.38748151005
 30
0.0
 11
1165.8941412362
 21
1032.38748151005
 31
0.0
  0
LINE
  5
2AC
330
70
100
AcDbEntity
  8
Camada 1
 62
    18
420
        0
370
    18
100
AcDbLine
 10
1167.905148710009
 20
1032.38748151005
 30
0.0
 11
1168.419656467929
 21
1032.38748151005
 31
0.0
  0
LINE
  5
2AD
330
70
100
AcDbEntity
  8
Camada 1
 62
    18
420
        0
370
    18
100
AcDbLine
 10
1170.465131209141
 20
1032.38748151005
 30
0.0
 11
1170.979638967059
 21
1032.38748151005
 31
0.0
  0
LINE
  5
2AE
330
70
100
AcDbEntity
  8
Camada 1
 62
    18
420
        0
370
    18
100
AcDbLine
 10
1172.11505778878
 20
1032.38748151005
 30
0.0
 11
1172.564582991759
 21
1032.38748151005
 31
0.0
  0
LINE
  5
2AF
330
70
100
AcDbEntity
  8
Camada 1
 62
    18
420
        0
370
    18
100
AcDbLine
 10
1174.92461531992
 20
1032.38748151005
 30
0.0
 11
1175.38039365559
 21
1032.38748151005
 31
0.0
  0
LINE
  5
2B0
330
70
100
AcDbEntity
  8
Camada 1
 62
    18
420
        0
370
    18
100
AcDbLine
 10
1175.835071439909
 20
1032.38748151005
 30
0.0
 11
1176.669189315989
 21
1032.38748151005
 31
0.0
  0
LINE
  5
2B1
330
70
100
AcDbEntity
  8
Camada 1
 62
    18
420
        0
370
    18
100
AcDbLine
 10
1179.347731210961
 20
1032.38748151005
 30
0.0
 11
1179.92206894248
 21
1032.38748151005
 31
0.0
  0
LINE
  5
2B2
330
70
100
AcDbEntity
  8
Camada 1
 62
    18
420
        0
370
    18
100
AcDbLine
 10
1154.551008557589
 20
1032.74230927154
 30
0.0
 11
1154.935601230691
 21
1032.74230927154
 31
0.0
  0
LINE
  5
2B3
330
70
100
AcDbEntity
  8
Camada 1
 62
    18
420
        0
370
    18
100
AcDbLine
 10
1148.92679093902
 20
1033.32780259178
 30
0.0
 11
1150.653556013179
 21
1033.32780259178
 31
0.0
  0
LINE
  5
2B4
330
70
100
AcDbEntity
  8
Camada 1
 62
    18
420
        0
370
    18
100
AcDbLine
 10
1177.001005549169
 20
1033.32780259178
 30
0.0
 11
1178.726770122101
 21
1033.32780259178
 31
0.0
  0
LINE
  5
2B5
330
70
100
AcDbEntity
  8
Camada 1
 62
    18
420
        0
370
    18
100
AcDbLine
 10
1145.331789916679
 20
1033.96106984578
 30
0.0
 11
1145.881865493349
 21
1033.96106984578
 31
0.0
  0
LINE
  5
2B6
330
70
100
AcDbEntity
  8
Camada 1
 62
    18
420
        0
370
    18
100
AcDbLine
 10
1178.460736844839
 20
1034.07257570795
 30
0.0
 11
1177.26663862593
 21
1034.07257570795
 31
0.0
  0
LINE
  5
2B7
330
70
100
AcDbEntity
  8
Camada 1
 62
    18
420
        0
370
    18
100
AcDbLine
 10
1150.387922936419
 20
1034.07257570795
 30
0.0
 11
1149.19362461727
 21
1034.07257570795
 31
0.0
  0
LINE
  5
2B8
330
70
100
AcDbEntity
  8
Camada 1
 62
    18
420
        0
370
    18
100
AcDbLine
 10
1145.88796855086
 20
1034.68743373931
 30
0.0
 11
1145.331789916679
 21
1034.68743373931
 31
0.0
  0
LINE
  5
2B9
330
70
100
AcDbEntity
  8
Camada 1
 62
    18
420
        0
370
    18
100
AcDbLine
 10
1141.156348105309
 20
1035.88893566732
 30
0.0
 11
1142.007724627619
 21
1035.88893566732
 31
0.0
  0
LINE
  5
2BA
330
70
100
AcDbEntity
  8
Camada 1
 62
    18
420
        0
370
    18
100
AcDbLine
 10
1142.84794556121
 20
1035.88893566732
 30
0.0
 11
1144.02503525919
 21
1035.88893566732
 31
0.0
  0
LINE
  5
2BB
330
70
100
AcDbEntity
  8
Camada 1
 62
    18
420
        0
370
    18
100
AcDbLine
 10
1166.727908936849
 20
1035.88893566732
 30
0.0
 11
1167.57928545916
 21
1035.88893566732
 31
0.0
  0
LINE
  5
2BC
330
70
100
AcDbEntity
  8
Camada 1
 62
    18
420
        0
370
    18
100
AcDbLine
 10
1168.419656467929
 20
1035.88893566732
 30
0.0
 11
1169.59654606567
 21
1035.88893566732
 31
0.0
  0
LINE
  5
2BD
330
70
100
AcDbEntity
  8
Camada 1
 62
    18
420
        0
370
    18
100
AcDbLine
 10
1145.331789916679
 20
1035.91830037844
 30
0.0
 11
1145.88796855086
 21
1035.91830037844
 31
0.0
  0
LINE
  5
2BE
330
70
100
AcDbEntity
  8
Camada 1
 62
    18
420
        0
370
    18
100
AcDbLine
 10
1178.27839549553
 20
1036.65111750491
 30
0.0
 11
1177.46773937332
 21
1036.65111750491
 31
0.0
  0
LINE
  5
2BF
330
70
100
AcDbEntity
  8
Camada 1
 62
    18
420
        0
370
    18
100
AcDbLine
 10
1175.38039365559
 20
1036.65111750491
 30
0.0
 11
1174.604955176699
 21
1036.65111750491
 31
0.0
  0
LINE
  5
2C0
330
70
100
AcDbEntity
  8
Camada 1
 62
    18
420
        0
370
    18
100
AcDbLine
 10
1172.54737437059
 20
1036.65111750491
 30
0.0
 11
1171.79069528977
 21
1036.65111750491
 31
0.0
  0
LINE
  5
2C1
330
70
100
AcDbEntity
  8
Camada 1
 62
    18
420
        0
370
    18
100
AcDbLine
 10
1170.979638967059
 20
1036.65111750491
 30
0.0
 11
1170.140768710131
 21
1036.65111750491
 31
0.0
  0
LINE
  5
2C2
330
70
100
AcDbEntity
  8
Camada 1
 62
    18
420
        0
370
    18
100
AcDbLine
 10
1169.59654606567
 20
1036.65111750491
 30
0.0
 11
1166.40274603685
 21
1036.65111750491
 31
0.0
  0
LINE
  5
2C3
330
70
100
AcDbEntity
  8
Camada 1
 62
    18
420
        0
370
    18
100
AcDbLine
 10
1165.8941412362
 20
1036.65111750491
 30
0.0
 11
1165.11905293273
 21
1036.65111750491
 31
0.0
  0
LINE
  5
2C4
330
70
100
AcDbEntity
  8
Camada 1
 62
    18
420
        0
370
    18
100
AcDbLine
 10
1163.061522151689
 20
1036.65111750491
 30
0.0
 11
1162.304042669879
 21
1036.65111750491
 31
0.0
  0
LINE
  5
2C5
330
70
100
AcDbEntity
  8
Camada 1
 62
    18
420
        0
370
    18
100
AcDbLine
 10
1156.449559693061
 20
1036.65111750491
 30
0.0
 11
1155.70483660195
 21
1036.65111750491
 31
0.0
  0
LINE
  5
2C6
330
70
100
AcDbEntity
  8
Camada 1
 62
    18
420
        0
370
    18
100
AcDbLine
 10
1153.492878455939
 20
1036.65111750491
 30
0.0
 11
1152.742052307319
 21
1036.65111750491
 31
0.0
  0
LINE
  5
2C7
330
70
100
AcDbEntity
  8
Camada 1
 62
    18
420
        0
370
    18
100
AcDbLine
 10
1150.204431010699
 20
1036.65111750491
 30
0.0
 11
1149.394325164159
 21
1036.65111750491
 31
0.0
  0
LINE
  5
2C8
330
70
100
AcDbEntity
  8
Camada 1
 62
    18
420
        0
370
    18
100
AcDbLine
 10
1145.95875401293
 20
1036.65111750491
 30
0.0
 11
1144.533439959599
 21
1036.65111750491
 31
0.0
  0
LINE
  5
2C9
330
70
100
AcDbEntity
  8
Camada 1
 62
    18
420
        0
370
    18
100
AcDbLine
 10
1144.02503525919
 20
1036.65111750491
 30
0.0
 11
1140.83063492964
 21
1036.65111750491
 31
0.0
  0
LINE
  5
2CA
330
70
100
AcDbEntity
  8
Camada 1
 62
    18
420
        0
370
    35
100
AcDbLine
 10
1139.074104943869
 20
1039.49003974717
 30
0.0
 11
1181.47179532386
 21
1039.49003974717
 31
0.0
  0
LINE
  5
2CB
330
70
100
AcDbEntity
  8
Camada 1
 62
    18
420
        0
370
    18
100
AcDbLine
 10
1163.079481148779
 20
1035.35021577962
 30
0.0
 11
1164.9305084758
 21
1032.68342977411
 31
0.0
  0
LINE
  5
2CC
330
70
100
AcDbEntity
  8
Camada 1
 62
    18
420
        0
370
    18
100
AcDbLine
 10
1165.11905293273
 20
1033.63535667011
 30
0.0
 11
1163.061522151689
 21
1036.65111750491
 31
0.0
  0
LINE
  5
2CD
330
70
100
AcDbEntity
  8
Camada 1
 62
    18
420
        0
370
    18
100
AcDbLine
 10
1147.60868059257
 20
1032.38748151005
 30
0.0
 11
1146.63264161691
 21
1034.114246584209
 31
0.0
  0
LINE
  5
2CE
330
70
100
AcDbEntity
  8
Camada 1
 62
    18
420
        0
370
    18
100
AcDbLine
 10
1145.881865493349
 20
1033.96106984578
 30
0.0
 11
1146.561455954339
 21
1032.6298529332
 31
0.0
  0
LINE
  5
2CF
330
70
100
AcDbEntity
  8
Camada 1
 62
    18
420
        0
370
    18
100
AcDbLine
 10
1151.849054933809
 20
1032.38748151005
 30
0.0
 11
1150.204431010699
 21
1036.65111750491
 31
0.0
  0
LINE
  5
2D0
330
70
100
AcDbEntity
  8
Camada 1
 62
    18
420
        0
370
    18
100
AcDbLine
 10
1153.267715653959
 20
1035.31459793581
 30
0.0
 11
1154.13705117336
 21
1033.05006345012
 31
0.0
  0
LINE
  5
2D1
330
70
100
AcDbEntity
  8
Camada 1
 62
    18
420
        0
370
    18
100
AcDbLine
 10
1154.598732466289
 20
1033.75406614114
 30
0.0
 11
1153.492878455939
 21
1036.65111750491
 31
0.0
  0
LINE
  5
2D2
330
70
100
AcDbEntity
  8
Camada 1
 62
    18
420
        0
370
    18
100
AcDbLine
 10
1150.653556013179
 20
1033.32780259178
 30
0.0
 11
1150.89027460438
 21
1032.67757684191
 31
0.0
  0
LINE
  5
2D3
330
70
100
AcDbEntity
  8
Camada 1
 62
    18
420
        0
370
    18
100
AcDbLine
 10
1149.79007342598
 20
1035.73480845273
 30
0.0
 11
1150.387922936419
 21
1034.07257570795
 31
0.0
  0
LINE
  5
2D4
330
70
100
AcDbEntity
  8
Camada 1
 62
    18
420
        0
370
    18
100
AcDbLine
 10
1157.11234173338
 20
1032.38748151005
 30
0.0
 11
1156.449559693061
 21
1036.65111750491
 31
0.0
  0
LINE
  5
2D5
330
70
100
AcDbEntity
  8
Camada 1
 62
    18
420
        0
370
    18
100
AcDbLine
 10
1155.893581159129
 20
1035.268024603519
 30
0.0
 11
1156.23650295597
 21
1032.70063839528
 31
0.0
  0
LINE
  5
2D6
330
70
100
AcDbEntity
  8
Camada 1
 62
    18
420
        0
370
    18
100
AcDbLine
 10
1165.8941412362
 20
1032.38748151005
 30
0.0
 11
1165.8941412362
 21
1036.65111750491
 31
0.0
  0
LINE
  5
2D7
330
70
100
AcDbEntity
  8
Camada 1
 62
    18
420
        0
370
    18
100
AcDbLine
 10
1166.40274603685
 20
1036.65111750491
 30
0.0
 11
1166.40274603685
 21
1036.21349826658
 31
0.0
  0
LINE
  5
2D8
330
70
100
AcDbEntity
  8
Camada 1
 62
    18
420
        0
370
    18
100
AcDbLine
 10
1167.57928545916
 20
1035.88893566732
 30
0.0
 11
1167.57928545916
 21
1032.71319468572
 31
0.0
  0
LINE
  5
2D9
330
70
100
AcDbEntity
  8
Camada 1
 62
    18
420
        0
370
    18
100
AcDbLine
 10
1168.419656467929
 20
1032.38748151005
 30
0.0
 11
1168.419656467929
 21
1035.88893566732
 31
0.0
  0
LINE
  5
2DA
330
70
100
AcDbEntity
  8
Camada 1
 62
    18
420
        0
370
    18
100
AcDbLine
 10
1169.59654606567
 20
1035.88893566732
 30
0.0
 11
1169.59654606567
 21
1036.65111750491
 31
0.0
  0
LINE
  5
2DB
330
70
100
AcDbEntity
  8
Camada 1
 62
    18
420
        0
370
    18
100
AcDbLine
 10
1170.140768710131
 20
1036.65111750491
 30
0.0
 11
1170.140768710131
 21
1032.71319468572
 31
0.0
  0
LINE
  5
2DC
330
70
100
AcDbEntity
  8
Camada 1
 62
    18
420
        0
370
    18
100
AcDbLine
 10
1170.979638967059
 20
1032.38748151005
 30
0.0
 11
1170.979638967059
 21
1036.65111750491
 31
0.0
  0
LINE
  5
2DD
330
70
100
AcDbEntity
  8
Camada 1
 62
    18
420
        0
370
    18
100
AcDbLine
 10
1171.79069528977
 20
1036.65111750491
 30
0.0
 11
1171.79069528977
 21
1032.71319468572
 31
0.0
  0
LINE
  5
2DE
330
70
100
AcDbEntity
  8
Camada 1
 62
    18
420
        0
370
    18
100
AcDbLine
 10
1172.564582991759
 20
1032.38748151005
 30
0.0
 11
1172.564582991759
 21
1035.35021577962
 31
0.0
  0
LINE
  5
2DF
330
70
100
AcDbEntity
  8
Camada 1
 62
    18
420
        0
370
    18
100
AcDbLine
 10
1174.604955176699
 20
1036.65111750491
 30
0.0
 11
1174.604955176699
 21
1033.63535667011
 31
0.0
  0
LINE
  5
2E0
330
70
100
AcDbEntity
  8
Camada 1
 62
    18
420
        0
370
    18
100
AcDbLine
 10
1175.38039365559
 20
1032.38748151005
 30
0.0
 11
1175.38039365559
 21
1036.65111750491
 31
0.0
  0
LINE
  5
2E1
330
70
100
AcDbEntity
  8
Camada 1
 62
    18
420
        0
370
    35
100
AcDbLine
 10
1183.505914376099
 20
1037.45552049444
 30
0.0
 11
1183.505914376099
 21
1032.068571742749
 31
0.0
  0
LINE
  5
2E2
330
70
100
AcDbEntity
  8
Camada 1
 62
    18
420
        0
370
    18
100
AcDbLine
 10
1176.669189315989
 20
1032.38748151005
 30
0.0
 11
1177.001005549169
 21
1033.32780259178
 31
0.0
  0
LINE
  5
2E3
330
70
100
AcDbEntity
  8
Camada 1
 62
    18
420
        0
370
    18
100
AcDbLine
 10
1177.26663862593
 20
1034.07257570795
 30
0.0
 11
1177.864087935879
 21
1035.73480845273
 31
0.0
  0
LINE
  5
2E4
330
70
100
AcDbEntity
  8
Camada 1
 62
    18
420
        0
370
    18
100
AcDbLine
 10
1177.46773937332
 20
1036.65111750491
 30
0.0
 11
1175.835071439909
 21
1032.38748151005
 31
0.0
  0
LINE
  5
2E5
330
70
100
AcDbEntity
  8
Camada 1
 62
    18
420
        0
370
    18
100
AcDbLine
 10
1172.564582991759
 20
1035.35021577962
 30
0.0
 11
1174.4163606947
 21
1032.68342977411
 31
0.0
  0
LINE
  5
2E6
330
70
100
AcDbEntity
  8
Camada 1
 62
    18
420
        0
370
    18
100
AcDbLine
 10
1174.604955176699
 20
1033.63535667011
 30
0.0
 11
1172.54737437059
 21
1036.65111750491
 31
0.0
  0
LINE
  5
2E7
330
70
100
AcDbEntity
  8
Camada 1
 62
    18
420
        0
370
    18
100
AcDbLine
 10
1179.92206894248
 20
1032.38748151005
 30
0.0
 11
1178.27839549553
 21
1036.65111750491
 31
0.0
  0
LINE
  5
2E8
330
70
100
AcDbEntity
  8
Camada 1
 62
    18
420
        0
370
    18
100
AcDbLine
 10
1178.726770122101
 20
1033.32780259178
 30
0.0
 11
1178.964289114279
 21
1032.67757684191
 31
0.0
  0
LINE
  5
2E9
330
70
100
AcDbEntity
  8
Camada 1
 62
    18
420
        0
370
    18
100
AcDbLine
 10
1177.864087935879
 20
1035.73480845273
 30
0.0
 11
1178.460736844839
 21
1034.07257570795
 31
0.0
  0
LWPOLYLINE
  5
2EA
330
70
100
AcDbEntity
  8
Camada 1
 62
    18
420
        0
370
    18
100
AcDbPolyline
 90
       11
 70
     0
 43
0.0
 10
1140.83063492964
 20
1036.21349826658
 10
1140.833686458391
 20
1036.14996643842
 10
1140.84289106972
 20
1036.09373826926
 10
1140.858448863861
 20
1036.044613658829
 10
1140.880409865869
 20
1036.00249255701
 10
1140.90907422613
 20
1035.96722488863
 10
1140.944441944641
 20
1035.93866057849
 10
1140.98671312164
 20
1035.91669957648
 10
1141.03598780725
 20
1035.9011918074
 10
1141.092516126789
 20
1035.891987196079
 10
1141.156348105309
 20
1035.88893566732
  0
LWPOLYLINE
  5
2EB
330
70
100
AcDbEntity
  8
Camada 1
 62
    18
420
        0
370
    18
100
AcDbPolyline
 90
       11
 70
     0
 43
0.0
 10
1142.007724627619
 20
1032.71319468572
 10
1142.010726131309
 20
1032.64926265708
 10
1142.0199807677
 20
1032.59268431248
 10
1142.03548853677
 20
1032.5433596018
 10
1142.057499563849
 20
1032.5010884248
 10
1142.086113899049
 20
1032.4657207063
 10
1142.121481617559
 20
1032.437156396159
 10
1142.16375279456
 20
1032.41519539415
 10
1142.213077505239
 20
1032.39968762507
 10
1142.269605824769
 20
1032.39048301375
 10
1142.33343780329
 20
1032.38748151005
  0
LWPOLYLINE
  5
2EC
330
70
100
AcDbEntity
  8
Camada 1
 62
    18
420
        0
370
    18
100
AcDbPolyline
 90
       11
 70
     0
 43
0.0
 10
1166.40274603685
 20
1036.21349826658
 10
1166.40579756561
 20
1036.14996643842
 10
1166.415002176931
 20
1036.09373826926
 10
1166.430459920939
 20
1036.044613658829
 10
1166.45242092296
 20
1036.00249255701
 10
1166.4809852331
 20
1035.96722488863
 10
1166.516252901479
 20
1035.93866057849
 10
1166.558474053419
 20
1035.91669957648
 10
1166.607698713969
 20
1035.9011918074
 10
1166.664126983389
 20
1035.891987196079
 10
1166.727908936849
 20
1035.88893566732
  0
LWPOLYLINE
  5
2ED
330
70
100
AcDbEntity
  8
Camada 1
 62
    18
420
        0
370
    18
100
AcDbPolyline
 90
       11
 70
     0
 43
0.0
 10
1167.57928545916
 20
1032.71319468572
 10
1167.582336987911
 20
1032.64926265708
 10
1167.591541599229
 20
1032.59268431248
 10
1167.60709939337
 20
1032.5433596018
 10
1167.62911042045
 20
1032.5010884248
 10
1167.65772475565
 20
1032.4657207063
 10
1167.693092474161
 20
1032.437156396159
 10
1167.73541367622
 20
1032.41519539415
 10
1167.78473838689
 20
1032.39968762507
 10
1167.841266706429
 20
1032.39048301375
 10
1167.905148710009
 20
1032.38748151005
  0
LWPOLYLINE
  5
2EE
330
70
100
AcDbEntity
  8
Camada 1
 62
    18
420
        0
370
    18
100
AcDbPolyline
 90
       11
 70
     0
 43
0.0
 10
1178.964289114279
 20
1032.67757684191
 10
1178.98705051728
 20
1032.62209904866
 10
1179.012813423969
 20
1032.57257423774
 10
1179.04172790954
 20
1032.52900240914
 10
1179.073994074229
 20
1032.491283512739
 10
1179.10976199323
 20
1032.4594675736
 10
1179.14923176678
 20
1032.433454541609
 10
1179.192553470069
 20
1032.41329444181
 10
1179.23997722841
 20
1032.39893724914
 10
1179.291653116979
 20
1032.39033293856
 10
1179.347731210961
 20
1032.38748151005
  0
LWPOLYLINE
  5
2EF
330
70
100
AcDbEntity
  8
Camada 1
 62
    18
420
        0
370
    18
100
AcDbPolyline
 90
       11
 70
     0
 43
0.0
 10
1150.89027460438
 20
1032.67757684191
 10
1150.913036007379
 20
1032.62209904866
 10
1150.93879891407
 20
1032.57257423774
 10
1150.9677634247
 20
1032.52895238408
 10
1151.000079614459
 20
1032.491283512739
 10
1151.03599760864
 20
1032.4594675736
 10
1151.075567432319
 20
1032.433454541609
 10
1151.119039210789
 20
1032.41329444181
 10
1151.166563019249
 20
1032.39893724914
 10
1151.21833895794
 20
1032.39033293856
 10
1151.27446707699
 20
1032.38748151005
  0
LWPOLYLINE
  5
2F0
330
70
100
AcDbEntity
  8
Camada 1
 62
    18
420
        0
370
    18
100
AcDbPolyline
 90
       11
 70
     0
 43
0.0
 10
1164.9305084758
 20
1032.68342977411
 10
1164.974730630199
 20
1032.62339970027
 10
1165.01910285978
 20
1032.57092341071
 10
1165.064175440229
 20
1032.52560070496
 10
1165.11034857203
 20
1032.48728150782
 10
1165.15817253086
 20
1032.45561564386
 10
1165.20809754227
 20
1032.43035298779
 10
1165.260623856889
 20
1032.41114336416
 10
1165.31625172532
 20
1032.39778667273
 10
1165.37543137312
 20
1032.38998276313
 10
1165.438763101019
 20
1032.38748151005
  0
LWPOLYLINE
  5
2F1
330
70
100
AcDbEntity
  8
Camada 1
 62
    18
420
        0
370
    18
100
AcDbPolyline
 90
       11
 70
     0
 43
0.0
 10
1162.304042669879
 20
1032.71319468572
 10
1162.307094198641
 20
1032.64926265708
 10
1162.316298809959
 20
1032.59268431248
 10
1162.3318566041
 20
1032.5433596018
 10
1162.353867631169
 20
1032.5010884248
 10
1162.38248196638
 20
1032.4657207063
 10
1162.41784968488
 20
1032.437156396159
 10
1162.460170886939
 20
1032.41519539415
 10
1162.50949559762
 20
1032.39968762507
 10
1162.566023917159
 20
1032.39048301375
 10
1162.6299559458
 20
1032.38748151005
  0
LWPOLYLINE
  5
2F2
330
70
100
AcDbEntity
  8
Camada 1
 62
    18
420
        0
370
    18
100
AcDbPolyline
 90
       11
 70
     0
 43
0.0
 10
1174.4163606947
 20
1032.68342977411
 10
1174.460632874159
 20
1032.62339970027
 10
1174.504955078681
 20
1032.57092341071
 10
1174.54992760901
 20
1032.52565073002
 10
1174.596000690681
 20
1032.48728150782
 10
1174.64377462445
 20
1032.45561564386
 10
1174.693649610799
 20
1032.43035298779
 10
1174.746125900359
 20
1032.41114336416
 10
1174.801803793849
 20
1032.39783669779
 10
1174.86113351683
 20
1032.38998276313
 10
1174.92461531992
 20
1032.38748151005
  0
LWPOLYLINE
  5
2F3
330
70
100
AcDbEntity
  8
Camada 1
 62
    18
420
        0
370
    18
100
AcDbPolyline
 90
       11
 70
     0
 43
0.0
 10
1171.79069528977
 20
1032.71319468572
 10
1171.793746818519
 20
1032.64926265708
 10
1171.80295142985
 20
1032.59268431248
 10
1171.818459198919
 20
1032.5433596018
 10
1171.84042020094
 20
1032.5010884248
 10
1171.86893448601
 20
1032.4657207063
 10
1171.904202154401
 20
1032.437156396159
 10
1171.946323256219
 20
1032.41519539415
 10
1171.99539784159
 20
1032.39968762507
 10
1172.051575985689
 20
1032.39048301375
 10
1172.11505778878
 20
1032.38748151005
  0
LWPOLYLINE
  5
2F4
330
70
100
AcDbEntity
  8
Camada 1
 62
    18
420
        0
370
    18
100
AcDbPolyline
 90
       11
 70
     0
 43
0.0
 10
1146.63264161691
 20
1034.114246584209
 10
1146.75635359409
 20
1034.1826808684
 10
1146.87121113538
 20
1034.26337129265
 10
1146.97621373955
 20
1034.35586763144
 10
1147.070460955479
 20
1034.459619609069
 10
1147.152902256899
 20
1034.574176999989
 10
1147.22258716762
 20
1034.69898952852
 10
1147.278515186419
 20
1034.83360696913
 10
1147.319685812061
 20
1034.977529071169
 10
1147.34509854333
 20
1035.13025558404
 10
1147.353752878969
 20
1035.29128625713
  0
LWPOLYLINE
  5
2F5
330
70
100
AcDbEntity
  8
Camada 1
 62
    18
420
        0
370
    18
100
AcDbPolyline
 90
       11
 70
     0
 43
0.0
 10
1146.561455954339
 20
1032.6298529332
 10
1146.588969738179
 20
1032.57992792179
 10
1146.61853454955
 20
1032.536506168369
 10
1146.650600614
 20
1032.49923749753
 10
1146.685368031769
 20
1032.467871783949
 10
1146.72318697829
 20
1032.442108877249
 10
1146.764407629
 20
1032.42169865214
 10
1146.80928010919
 20
1032.406290933189
 10
1146.85815459432
 20
1032.395635595079
 10
1146.9113812598
 20
1032.38948251251
 10
1146.96916020587
 20
1032.38748151005
  0
LWPOLYLINE
  5
2F6
330
70
100
AcDbEntity
  8
Camada 1
 62
    18
420
        0
370
    18
100
AcDbPolyline
 90
       11
 70
     0
 43
0.0
 10
1144.533439959599
 20
1032.71319468572
 10
1144.536441463289
 20
1032.64926265708
 10
1144.54564607461
 20
1032.59268431248
 10
1144.561153843689
 20
1032.5433596018
 10
1144.583114845711
 20
1032.5010884248
 10
1144.61167915584
 20
1032.4657207063
 10
1144.646996849289
 20
1032.437156396159
 10
1144.68926802629
 20
1032.41519539415
 10
1144.73854271191
 20
1032.39968762507
 10
1144.79507103144
 20
1032.39048301375
 10
1144.858953035029
 20
1032.38748151005
  0
LWPOLYLINE
  5
2F7
330
70
100
AcDbEntity
  8
Camada 1
 62
    18
420
        0
370
    18
100
AcDbPolyline
 90
       13
 70
     0
 43
0.0
 10
1147.353752878969
 20
1035.29128625713
 10
1147.34134666371
 20
1035.4979898114
 10
1147.305228569279
 20
1035.68938569685
 10
1147.24669924728
 20
1035.86547391346
 10
1147.167059349311
 20
1036.02565416051
 10
1147.06750947685
 20
1036.169526237489
 10
1146.94885003088
 20
1036.29658989379
 10
1146.81178136227
 20
1036.4060947535
 10
1146.65695379681
 20
1036.4971403655
 10
1146.484967635249
 20
1036.568526128309
 10
1146.296773353741
 20
1036.618751290099
 10
1146.093371453529
 20
1036.64621504888
 10
1145.95875401293
 20
1036.65111750491
  0
LWPOLYLINE
  5
2F8
330
70
100
AcDbEntity
  8
Camada 1
 62
    18
420
        0
370
    18
100
AcDbPolyline
 90
       11
 70
     0
 43
0.0
 10
1154.13705117336
 20
1033.05006345012
 10
1154.16331433067
 20
1032.991083902569
 10
1154.192278841299
 20
1032.93850756289
 10
1154.224144805499
 20
1032.89218435591
 10
1154.259212373639
 20
1032.85221433174
 10
1154.29773167102
 20
1032.81849744026
 10
1154.33995282296
 20
1032.79098365641
 10
1154.38617597982
 20
1032.76962295514
 10
1154.43655121679
 20
1032.754415336429
 10
1154.49142870929
 20
1032.74531077523
 10
1154.551008557589
 20
1032.74230927154
  0
LWPOLYLINE
  5
2F9
330
70
100
AcDbEntity
  8
Camada 1
 62
    18
420
        0
370
    18
100
AcDbPolyline
 90
       11
 70
     0
 43
0.0
 10
1156.23650295597
 20
1032.70063839528
 10
1156.2492093216
 20
1032.63750676762
 10
1156.26916932116
 20
1032.58212902449
 10
1156.2957826539
 20
1032.53430506566
 10
1156.32854906921
 20
1032.493734740759
 10
1156.36681824128
 20
1032.46011789941
 10
1156.410089919511
 20
1032.43325444136
 10
1156.4577137781
 20
1032.41279419119
 10
1156.50913954136
 20
1032.39853704865
 10
1156.56381693362
 20
1032.39018286337
 10
1156.62114565414
 20
1032.38748151005
  0
LWPOLYLINE
  5
2FA
330
70
100
AcDbEntity
  8
Camada 1
 62
    18
420
        0
370
    35
100
AcDbPolyline
 90
       16
 70
     0
 43
0.0
 10
1137.03978579137
 20
1037.45552049444
 10
1137.052242031699
 20
1037.71490043851
 10
1137.088510201311
 20
1037.95827236289
 10
1137.147389698741
 20
1038.18528609215
 10
1137.227579872389
 20
1038.39569150098
 10
1137.328030195949
 20
1038.58923846407
 10
1137.447940268459
 20
1038.76562683105
 10
1137.586609739039
 20
1038.92460647661
 10
1137.743338256839
 20
1039.06557710003
 10
1137.91757554618
 20
1039.18783835043
 10
1138.10897143162
 20
1039.29078992707
 10
1138.31727578786
 20
1039.37358140392
 10
1138.54218846454
 20
1039.43516225467
 10
1138.783559386449
 20
1039.47433187785
 10
1139.04088830301
 20
1039.48983964693
 10
1139.074104943869
 20
1039.49003974717
  0
LWPOLYLINE
  5
2FB
330
70
100
AcDbEntity
  8
Camada 1
 62
    18
420
        0
370
    35
100
AcDbPolyline
 90
       16
 70
     0
 43
0.0
 10
1139.074104943869
 20
1030.0344526905
 10
1139.04083827794
 20
1030.034652790749
 10
1138.783309261151
 20
1030.05011053476
 10
1138.54188831417
 20
1030.08933018301
 10
1138.31687558737
 20
1030.1508610087
 10
1138.10857123113
 20
1030.23360246048
 10
1137.917225370749
 20
1030.336504012069
 10
1137.743038106469
 20
1030.45871523741
 10
1137.58630958867
 20
1030.59958581069
 10
1137.447740168211
 20
1030.75846540614
 10
1137.327930145829
 20
1030.934803748059
 10
1137.227479822261
 20
1031.12825066102
 10
1137.14733967368
 20
1031.33860604479
 10
1137.088510201311
 20
1031.56561977405
 10
1137.052242031699
 20
1031.80909174855
 10
1137.03978579137
 20
1032.068571742749
  0
LWPOLYLINE
  5
2FC
330
70
100
AcDbEntity
  8
Camada 1
 62
    18
420
        0
370
    35
100
AcDbPolyline
 90
       16
 70
     0
 43
0.0
 10
1183.505914376099
 20
1032.068571742749
 10
1183.49350816084
 20
1031.80909174855
 10
1183.45718996616
 20
1031.56561977405
 10
1183.398360493789
 20
1031.33860604479
 10
1183.318220345211
 20
1031.12825066102
 10
1183.2178200467
 20
1030.934753723
 10
1183.09795999926
 20
1030.75841538108
 10
1182.9593905788
 20
1030.59953578563
 10
1182.80271208606
 20
1030.45866521234
 10
1182.62852482179
 20
1030.33645398701
 10
1182.437128936349
 20
1030.23360246048
 10
1182.228874605171
 20
1030.1508610087
 10
1182.003861878369
 20
1030.08933018301
 10
1181.76244093139
 20
1030.05011053476
 10
1181.50496193965
 20
1030.034652790749
 10
1181.47179532386
 20
1030.0344526905
  0
LWPOLYLINE
  5
2FD
330
70
100
AcDbEntity
  8
Camada 1
 62
    18
420
        0
370
    35
100
AcDbPolyline
 90
       16
 70
     0
 43
0.0
 10
1181.47179532386
 20
1039.49003974717
 10
1181.504911914589
 20
1039.48983964693
 10
1181.76224083114
 20
1039.47438190292
 10
1182.003561728001
 20
1039.43516225467
 10
1182.22847440467
 20
1039.37358140392
 10
1182.436778760921
 20
1039.29078992707
 10
1182.6281246213
 20
1039.18788837549
 10
1182.80236191064
 20
1039.06557710003
 10
1182.959140453489
 20
1038.92465650167
 10
1183.097759899019
 20
1038.76567685611
 10
1183.21766997152
 20
1038.58923846407
 10
1183.318120295091
 20
1038.39569150098
 10
1183.39831046873
 20
1038.18528609215
 10
1183.45718996616
 20
1037.95827236289
 10
1183.49350816084
 20
1037.71490043851
 10
1183.505914376099
 20
1037.45552049444
  0
LWPOLYLINE
  5
2FE
330
70
100
AcDbEntity
  8
Camada 1
 62
    18
420
        0
370
    18
100
AcDbPolyline
 90
       13
 70
     0
 43
0.0
 10
1160.896737638701
 20
1034.51604787848
 10
1160.88423137332
 20
1034.325702519329
 10
1160.8470627526
 20
1034.1400094909
 10
1160.78573202715
 20
1033.96131997109
 10
1160.701239698221
 20
1033.79238533828
 10
1160.594986467509
 20
1033.6364071964
 10
1160.52530155679
 20
1033.55426604536
 10
1160.389933740269
 20
1033.4254515119
 10
1160.240258756141
 20
1033.31759747922
 10
1160.07927810812
 20
1033.23235477436
 10
1159.90984322469
 20
1033.17077392361
 10
1159.734305283749
 20
1033.13355527782
 10
1159.55451521259
 20
1033.121049012439
  0
LWPOLYLINE
  5
2FF
330
70
100
AcDbEntity
  8
Camada 1
 62
    18
420
        0
370
    18
100
AcDbPolyline
 90
       13
 70
     0
 43
0.0
 10
1159.55451521259
 20
1035.91830037844
 10
1159.733454857709
 20
1035.90584413812
 10
1159.908292447781
 20
1035.868575467279
 10
1160.07722708059
 20
1035.80699461653
 10
1160.237857553189
 20
1035.721601836479
 10
1160.387482512249
 20
1035.61349767849
 10
1160.52300040396
 20
1035.48428294454
 10
1160.594686317139
 20
1035.3995404903
 10
1160.70103959797
 20
1035.2425618472
 10
1160.785631977031
 20
1035.07272676327
 10
1160.847012727539
 20
1034.89318681742
 10
1160.88423137332
 20
1034.70684346319
 10
1160.896737638701
 20
1034.51604787848
  0
LWPOLYLINE
  5
300
330
70
100
AcDbEntity
  8
Camada 1
 62
    18
420
        0
370
    18
100
AcDbPolyline
 90
       13
 70
     0
 43
0.0
 10
1158.217995643479
 20
1034.51604787848
 10
1158.230501908871
 20
1034.70774391429
 10
1158.267670529591
 20
1034.89488766951
 10
1158.32900125504
 20
1035.074977891039
 10
1158.41349358397
 20
1035.24511312533
 10
1158.51959673949
 20
1035.40204174337
 10
1158.5894317254
 20
1035.48488324528
 10
1158.724149216119
 20
1035.61394790405
 10
1158.87292374914
 20
1035.72185196179
 10
1159.032853870871
 20
1035.80709466665
 10
1159.201138177879
 20
1035.868625492339
 10
1159.375625592529
 20
1035.90584413812
 10
1159.55451521259
 20
1035.91830037844
  0
LWPOLYLINE
  5
301
330
70
100
AcDbEntity
  8
Camada 1
 62
    18
420
        0
370
    18
100
AcDbPolyline
 90
       13
 70
     0
 43
0.0
 10
1159.55451521259
 20
1033.121049012439
 10
1159.37482519154
 20
1033.13355527782
 10
1159.199587400981
 20
1033.17072389855
 10
1159.030752818289
 20
1033.23220469918
 10
1158.87057257124
 20
1033.31729732885
 10
1158.72169798811
 20
1033.42500128635
 10
1158.587180597629
 20
1033.55361571956
 10
1158.519296589129
 20
1033.63385591826
 10
1158.413293483731
 20
1033.789884085199
 10
1158.32895122998
 20
1033.95906884332
 10
1158.267670529591
 20
1034.13830863881
 10
1158.230501908871
 20
1034.324752043159
 10
1158.217995643479
 20
1034.51604787848
  0
LWPOLYLINE
  5
302
330
70
100
AcDbEntity
  8
Camada 1
 62
    18
420
        0
370
    18
100
AcDbPolyline
 90
       16
 70
     0
 43
0.0
 10
1161.76057040134
 20
1034.52210091093
 10
1161.74801411089
 20
1034.75846932669
 10
1161.71059536486
 20
1034.990885762599
 10
1161.648564288549
 20
1035.21764936655
 10
1161.56252118271
 20
1035.43690921127
 10
1161.453166398191
 20
1035.646364143929
 10
1161.32160048634
 20
1035.84371301169
 10
1161.16927417396
 20
1036.02635451137
 10
1161.05981933932
 20
1036.13625957156
 10
1160.878228365929
 20
1036.28893605938
 10
1160.682280199889
 20
1036.42065204641
 10
1160.4744260692
 20
1036.530006830929
 10
1160.256967126699
 20
1036.61604993677
 10
1160.03200442496
 20
1036.678030988019
 10
1159.80143891634
 20
1036.71544973405
 10
1159.56667130254
 20
1036.7280060245
  0
LWPOLYLINE
  5
303
330
70
100
AcDbEntity
  8
Camada 1
 62
    18
420
        0
370
    18
100
AcDbPolyline
 90
       16
 70
     0
 43
0.0
 10
1159.542209047449
 20
1032.31019278998
 10
1159.779778064691
 20
1032.32274908042
 10
1160.013295051951
 20
1032.36021785152
 10
1160.241009132071
 20
1032.42219890276
 10
1160.461019352709
 20
1032.5082420086
 10
1160.671174636231
 20
1032.617496742999
 10
1160.86902375461
 20
1032.74896260472
 10
1161.052165504899
 20
1032.901088816859
 10
1161.170574825559
 20
1033.019248012209
 10
1161.322701037699
 20
1033.20148931139
 10
1161.45396679917
 20
1033.398187853359
 10
1161.56297140826
 20
1033.60694243516
 10
1161.648764388799
 20
1033.82560197914
 10
1161.710645389919
 20
1034.05211545778
 10
1161.74801411089
 20
1034.28478201899
 10
1161.76057040134
 20
1034.52210091093
  0
LWPOLYLINE
  5
304
330
70
100
AcDbEntity
  8
Camada 1
 62
    18
420
        0
370
    18
100
AcDbPolyline
 90
       16
 70
     0
 43
0.0
 10
1157.35471315653
 20
1034.51119544751
 10
1157.367269446969
 20
1034.2739766057
 10
1157.40473821807
 20
1034.04105991918
 10
1157.466669244249
 20
1033.81404618992
 10
1157.552612299969
 20
1033.59488639533
 10
1157.66171695919
 20
1033.38568158798
 10
1157.7929326956
 20
1033.18893302095
 10
1157.94475875737
 20
1033.00694184707
 10
1158.050611787579
 20
1032.90058856624
 10
1158.231402359979
 20
1032.74836230399
 10
1158.4266001501
 20
1032.61699649239
 10
1158.633853980049
 20
1032.50789183317
 10
1158.850962747119
 20
1032.42204882758
 10
1159.07587542379
 20
1032.360167826449
 10
1159.30679110785
 20
1032.32274908042
 10
1159.542209047449
 20
1032.31019278998
  0
LWPOLYLINE
  5
305
330
70
100
AcDbEntity
  8
Camada 1
 62
    18
420
        0
370
    18
100
AcDbPolyline
 90
       16
 70
     0
 43
0.0
 10
1159.56667130254
 20
1036.7280060245
 10
1159.3297526111
 20
1036.71544973405
 10
1159.097036024819
 20
1036.67798096296
 10
1158.87022239581
 20
1036.61604993677
 10
1158.65106260122
 20
1036.53005685599
 10
1158.441807768801
 20
1036.42080212159
 10
1158.24465900128
 20
1036.289336259869
 10
1158.06216757679
 20
1036.13705997255
 10
1157.944458607
 20
1036.01920092757
 10
1157.79253249511
 20
1035.83650940283
 10
1157.661366783759
 20
1035.63926058519
 10
1157.552362174659
 20
1035.42975562747
 10
1157.46656919413
 20
1035.2102956825
 10
1157.404688193
 20
1034.98288175275
 10
1157.367269446969
 20
1034.74931474043
 10
1157.35471315653
 20
1034.51119544751
  0
LWPOLYLINE
  5
306
330
70
100
AcDbEntity
  8
Camada 1
 62
    18
420
        0
370
    18
100
AcDbPolyline
 90
       11
 70
     0
 43
0.0
 10
1146.53214126828
 20
1035.29738931464
 10
1146.522236306089
 20
1035.16667382884
 10
1146.494072196439
 20
1035.05436756569
 10
1146.44995009217
 20
1034.959369973829
 10
1146.392121121029
 20
1034.88063052697
 10
1146.32303651105
 20
1034.81699864869
 10
1146.244847339869
 20
1034.76742381271
 10
1146.15995481044
 20
1034.730755442599
 10
1146.07061005053
 20
1034.70594301208
 10
1145.979214263099
 20
1034.69188596979
 10
1145.88796855086
 20
1034.68743373931
  0
LWPOLYLINE
  5
307
330
70
100
AcDbEntity
  8
Camada 1
 62
    18
420
        0
370
    18
100
AcDbPolyline
 90
       11
 70
     0
 43
0.0
 10
1145.88796855086
 20
1035.91830037844
 10
1145.979214263099
 20
1035.913848147969
 10
1146.07061005053
 20
1035.89974108062
 10
1146.15995481044
 20
1035.87472854984
 10
1146.244847339869
 20
1035.83771000431
 10
1146.32303651105
 20
1035.78753486758
 10
1146.392121121029
 20
1035.72290248808
 10
1146.44995009217
 20
1035.64281236456
 10
1146.494072196439
 20
1035.545963845419
 10
1146.522236306089
 20
1035.43120635425
 10
1146.53214126828
 20
1035.29738931464
  0
LWPOLYLINE
  5
308
330
70
100
AcDbEntity
  8
Camada 1
 62
    18
420
        0
370
    18
100
AcDbPolyline
 90
       11
 70
     0
 43
0.0
 10
1170.140768710131
 20
1032.71319468572
 10
1170.143820238889
 20
1032.64926265708
 10
1170.153024850209
 20
1032.59268431248
 10
1170.168532619289
 20
1032.5433596018
 10
1170.190493621299
 20
1032.5010884248
 10
1170.219057931439
 20
1032.4657207063
 10
1170.25427557476
 20
1032.437156396159
 10
1170.29639667658
 20
1032.41519539415
 10
1170.345471261949
 20
1032.39968762507
 10
1170.40169943112
 20
1032.39048301375
 10
1170.465131209141
 20
1032.38748151005
  0
LINE
  5
309
330
70
100
AcDbEntity
  8
Camada 1
 62
    18
420
        0
370
    18
100
AcDbLine
 10
629.1733792405393
 20
1075.17391664325
 30
0.0
 11
610.7455346842179
 21
1075.17391664325
 31
0.0
  0
LINE
  5
30A
330
70
100
AcDbEntity
  8
Camada 1
 62
    18
420
        0
370
    18
100
AcDbLine
 10
629.1733792405393
 20
993.8582291387739
 30
0.0
 11
610.7455346842179
 21
993.8582291387739
 31
0.0
  0
LINE
  5
30B
330
70
100
AcDbEntity
  8
Camada 1
 62
    18
420
        0
370
    18
100
AcDbLine
 10
630.5210473884981
 20
1198.780810774469
 30
0.0
 11
612.0932028321767
 21
1198.780810774469
 31
0.0
  0
LINE
  5
30C
330
70
100
AcDbEntity
  8
Camada 1
 62
    18
420
        0
370
    18
100
AcDbLine
 10
630.5210473884981
 20
1163.931251854719
 30
0.0
 11
612.0932028321767
 21
1163.931251854719
 31
0.0
  0
MTEXT
  5
30D
330
70
100
AcDbEntity
  8
Camada 1
100
AcDbMText
 10
612.7981338500985
 20
1173.169433593749
 30
0.0
 40
0.2
 41
0.0
 46
0.0
 71
     7
 72
     1
  1
\C250;\c1776925;\FMyriad Pro|b0|i0|c1;\H12.036000;\W1.000000;33
 11
0.0000000000000001
 21
1.0
 31
0.0
 73
     1
 44
1.0
  0
MTEXT
  5
30E
330
70
100
AcDbEntity
  8
Camada 1
100
AcDbMText
 10
609.745376586915
 20
1026.265136718749
 30
0.0
 40
0.2
 41
0.0
 46
0.0
 71
     7
 72
     1
  1
\C250;\c1776925;\FMyriad Pro|b0|i0|c1;\H12.036000;\W1.000000;70
 11
0.0000000000000001
 21
1.0
 31
0.0
 73
     1
 44
1.0
  0
LINE
  5
30F
330
70
100
AcDbEntity
  8
Camada 1
 62
   250
420
  1974045
370
    18
100
AcDbLine
 10
615.6121242791778
 20
1198.780810774469
 30
0.0
 11
615.6121242791778
 21
1163.931251854719
 31
0.0
  0
LINE
  5
310
330
70
100
AcDbEntity
  8
Camada 1
 62
   250
420
  1974045
370
    18
100
AcDbLine
 10
614.26445613122
 20
1075.17391664325
 30
0.0
 11
614.26445613122
 21
993.8582291387739
 31
0.0
  0
LINE
  5
311
330
70
100
AcDbEntity
  8
Camada 1
 62
    18
420
        0
370
    18
100
AcDbLine
 10
637.5145588191699
 20
986.6950040779947
 30
0.0
 11
637.5145588191699
 21
952.9975124405728
 31
0.0
  0
LINE
  5
312
330
70
100
AcDbEntity
  8
Camada 1
 62
    18
420
        0
370
    18
100
AcDbLine
 10
1683.00215182515
 20
986.6950040779947
 30
0.0
 11
1683.00215182515
 21
952.9975124405728
 31
0.0
  0
MTEXT
  5
313
330
70
100
AcDbEntity
  8
Camada 1
100
AcDbMText
 10
1147.177490234375
 20
961.6054458618163
 30
0.0
 40
0.2
 41
0.0
 46
0.0
 71
     7
 72
     1
  1
\C250;\c1776925;\FMyriad Pro|b0|i0|c1;\H12.036000;\W1.000000;900
 73
     1
 44
1.0
  0
LINE
  5
314
330
70
100
AcDbEntity
  8
Camada 1
 62
   250
420
  1974045
370
    18
100
AcDbLine
 10
1683.00215182515
 20
958.1904228200691
 30
0.0
 11
637.5145588191699
 21
958.1904228200691
 31
0.0
  0
MTEXT
  5
315
330
70
100
AcDbEntity
  8
Camada 1
100
AcDbMText
 10
1798.061050415039
 20
890.9273910522461
 30
0.0
 40
0.2
 41
0.0
 46
0.0
 71
     7
 72
     1
  1
\C8;\c8485235;\FFrutiger Bold|b1|i0|c1;\H11.805467;\W1.000000;mm
 73
     1
 44
1.0
  0
INSERT
  5
317
330
70
100
AcDbEntity
  8
Camada 1
100
AcDbBlockReference
  2
Block_0
 10
0.0
 20
0.0
 30
0.0
  0
LINE
  5
31C
330
70
100
AcDbEntity
  8
Camada 1
 62
     8
420
  7567745
370
    35
100
AcDbLine
 10
1797.806834576959
 20
882.0244092545991
 30
0.0
 11
1824.884471293202
 21
882.0244092545991
 31
0.0
  0
LINE
  5
31D
330
70
100
AcDbEntity
  8
Camada 1
 62
     8
420
  7567745
370
    35
100
AcDbLine
 10
1797.484316117952
 20
885.6620087530737
 30
0.0
 11
1797.484316117952
 21
878.3912801206607
 31
0.0
  0
LINE
  5
31E
330
70
100
AcDbEntity
  8
Camada 1
 62
     8
420
  7567745
370
    35
100
AcDbLine
 10
1825.214653234288
 20
885.6620087530737
 30
0.0
 11
1825.214653234288
 21
878.3912801206607
 31
0.0
  0
ENDSEC
  0
SECTION
  2
OBJECTS
  0
DICTIONARY
  5
C
330
0
100
AcDbDictionary
281
     1
  3
ACAD_COLOR
350
63
  3
ACAD_DETAILVIEWSTYLE
350
6A
  3
ACAD_GROUP
350
D
  3
ACAD_LAYOUT
350
62
  3
ACAD_MATERIAL
350
10
  3
ACAD_MLEADERSTYLE
350
66
  3
ACAD_MLINESTYLE
350
5F
  3
ACAD_PLOTSETTINGS
350
61
  3
ACAD_PLOTSTYLENAME
350
E
  3
ACAD_SCALELIST
350
42
  3
ACAD_SECTIONVIEWSTYLE
350
68
  3
ACAD_TABLESTYLE
350
64
  3
ACAD_VISUALSTYLE
350
29
  3
ACDB_RECOMPOSE_DATA
350
327
  3
AcDbVariableDictionary
350
31F
  0
DICTIONARY
  5
63
102
{ACAD_REACTORS
330
C
102
}
330
C
100
AcDbDictionary
281
     1
  0
DICTIONARY
  5
6A
102
{ACAD_REACTORS
330
C
102
}
330
C
100
AcDbDictionary
281
     1
  3
Imperial24
350
6B
  0
DICTIONARY
  5
D
102
{ACAD_REACTORS
330
C
102
}
330
C
100
AcDbDictionary
281
     1
  0
DICTIONARY
  5
62
102
{ACAD_REACTORS
330
C
102
}
330
C
100
AcDbDictionary
281
     1
  3
Layout1
350
6F
  3
Layout2
350
77
  3
Model
350
73
  0
DICTIONARY
  5
10
102
{ACAD_REACTORS
330
C
102
}
330
C
100
AcDbDictionary
281
     1
  3
ByBlock
350
19
  3
ByLayer
350
11
  3
Global
350
21
  0
DICTIONARY
  5
66
102
{ACAD_REACTORS
330
C
102
}
330
C
100
AcDbDictionary
281
     1
  3
Standard
350
67
  0
DICTIONARY
  5
5F
102
{ACAD_REACTORS
330
C
102
}
330
C
100
AcDbDictionary
281
     1
  3
Standard
350
60
  0
DICTIONARY
  5
61
102
{ACAD_REACTORS
330
C
102
}
330
C
100
AcDbDictionary
281
     1
  0
ACDBDICTIONARYWDFLT
  5
E
102
{ACAD_REACTORS
330
C
102
}
330
C
100
AcDbDictionary
281
     1
  3
Normal
350
F
100
AcDbDictionaryWithDefault
340
F
  0
DICTIONARY
  5
42
102
{ACAD_REACTORS
330
C
102
}
330
C
100
AcDbDictionary
281
     1
  3
A0
350
43
  3
A1
350
44
  3
A2
350
45
  3
A3
350
46
  3
A4
350
47
  3
A5
350
48
  3
A6
350
49
  3
A7
350
4A
  3
A8
350
4B
  3
A9
350
4C
  3
B0
350
4D
  3
B1
350
4E
  3
B2
350
4F
  3
B3
350
50
  3
B4
350
51
  3
B5
350
52
  3
B6
350
53
  0
DICTIONARY
  5
68
102
{ACAD_REACTORS
330
C
102
}
330
C
100
AcDbDictionary
281
     1
  3
Imperial24
350
69
  0
DICTIONARY
  5
64
102
{ACAD_REACTORS
330
C
102
}
330
C
100
AcDbDictionary
281
     1
  3
Standard
350
65
  0
DICTIONARY
  5
29
102
{ACAD_REACTORS
330
C
102
}
330
C
100
AcDbDictionary
281
     1
  3
2dWireframe
350
2F
  3
Basic
350
2E
  3
Brighten
350
35
  3
ColorChange
350
39
  3
Conceptual
350
32
  3
Dim
350
34
  3
EdgeColorOff
350
41
  3
Facepattern
350
38
  3
Flat
350
2A
  3
FlatWithEdges
350
2B
  3
Gouraud
350
2C
  3
GouraudWithEdges
350
2D
  3
Hidden
350
31
  3
JitterOff
350
3F
  3
Linepattern
350
37
  3
OverhangOff
350
40
  3
Realistic
350
33
  3
Shaded
350
3E
  3
Shaded with edges
350
3D
  3
Shades of Gray
350
3A
  3
Sketchy
350
3B
  3
Thicken
350
36
  3
Wireframe
350
30
  3
X-Ray
350
3C
  0
XRECORD
  5
327
102
{ACAD_REACTORS
330
C
102
}
330
C
100
AcDbXrecord
280
     1
 90
        1
330
65
  0
DICTIONARY
  5
31F
102
{ACAD_REACTORS
330
C
102
}
330
C
100
AcDbDictionary
281
     1
  3
CANNOSCALE
350
324
  3
CMLEADERSTYLE
350
321
  3
CTABLESTYLE
350
320
  3
CVIEWDETAILSTYLE
350
322
  3
CVIEWSECTIONSTYLE
350
323
  0
ACDBDETAILVIEWSTYLE
  5
6B
102
{ACAD_REACTORS
330
6A
102
}
330
6A
100
AcDbModelDocViewStyle
 70
     0
  3
Imperial24
290
     1
300
Imperial24
 90
        0
100
AcDbDetailViewStyle
 70
     0
 71
     0
 90
        3
 71
     1
340
55
 62
   256
 40
0.24
340
0
 62
   256
 40
0.24
300

 40
0.36
280
     3
 71
     2
340
5D
 90
       25
 62
   256
 71
     3
340
55
 62
   256
 40
0.24
 90
        1
 40
0.75
 90
        1
300
%<\AcVar ViewType \f "%tc1">% %<\AcVar ViewDetailId>%\PSCALE %<\AcVar ViewScale \f "%sn">%
 71
     4
340
5D
 90
       25
 62
   256
340
5D
 90
       25
 62
   256
280
     0
  0
LAYOUT
  5
6F
102
{ACAD_REACTORS
330
62
102
}
330
62
100
AcDbPlotSettings
  1

  2

  4

  6

 40
0.0
 41
0.0
 42
0.0
 43
0.0
 44
0.0
 45
0.0
 46
0.0
 47
0.0
 48
0.0
 49
0.0
140
0.0
141
0.0
142
1.0
143
1.0
 70
   688
 72
     0
 73
     0
 74
     5
  7

 75
    16
147
1.0
 76
     0
 77
     2
 78
   300
148
0.0
149
0.0
100
AcDbLayout
  1
Layout1
 70
     1
 71
     1
 10
0.0
 20
0.0
 11
12.0
 21
9.0
 12
0.0
 22
0.0
 32
0.0
 14
0.0
 24
0.0
 34
0.0
 15
0.0
 25
0.0
 35
0.0
146
0.0
 13
0.0
 23
0.0
 33
0.0
 16
1.0
 26
0.0
 36
0.0
 17
0.0
 27
1.0
 37
0.0
 76
     0
330
6C
  0
LAYOUT
  5
77
102
{ACAD_REACTORS
330
62
102
}
330
62
100
AcDbPlotSettings
  1

  2

  4

  6

 40
0.0
 41
0.0
 42
0.0
 43
0.0
 44
0.0
 45
0.0
 46
0.0
 47
0.0
 48
0.0
 49
0.0
140
0.0
141
0.0
142
1.0
143
1.0
 70
   688
 72
     0
 73
     0
 74
     5
  7

 75
    16
147
1.0
 76
     0
 77
     2
 78
   300
148
0.0
149
0.0
100
AcDbLayout
  1
Layout2
 70
     1
 71
     2
 10
0.0
 20
0.0
 11
12.0
 21
9.0
 12
0.0
 22
0.0
 32
0.0
 14
0.0
 24
0.0
 34
0.0
 15
0.0
 25
0.0
 35
0.0
146
0.0
 13
0.0
 23
0.0
 33
0.0
 16
1.0
 26
0.0
 36
0.0
 17
0.0
 27
1.0
 37
0.0
 76
     0
330
74
  0
LAYOUT
  5
73
102
{ACAD_REACTORS
330
62
102
}
330
62
100
AcDbPlotSettings
  1

  2

  4

  6

 40
0.0
 41
0.0
 42
0.0
 43
0.0
 44
0.0
 45
0.0
 46
0.0
 47
0.0
 48
0.0
 49
0.0
140
0.0
141
0.0
142
1.0
143
1.0
 70
  1712
 72
     0
 73
     0
 74
     0
  7

 75
     0
147
1.0
 76
     0
 77
     2
 78
   300
148
0.0
149
0.0
100
AcDbLayout
  1
Model
 70
     1
 71
     0
 10
0.0
 20
0.0
 11
12.0
 21
9.0
 12
0.0
 22
0.0
 32
0.0
 14
0.0
 24
0.0
 34
0.0
 15
0.0
 25
0.0
 35
0.0
146
0.0
 13
0.0
 23
0.0
 33
0.0
 16
1.0
 26
0.0
 36
0.0
 17
0.0
 27
1.0
 37
0.0
 76
     0
330
70
  0
MATERIAL
  5
19
102
{ACAD_XDICTIONARY
360
1A
102
}
102
{ACAD_REACTORS
330
10
102
}
330
10
100
AcDbMaterial
  1
ByBlock
 72
     0
 43
0.0208333333333333
 43
0.0
 43
0.0
 43
0.0
 43
0.0
 43
0.0208333333333333
 43
0.0
 43
0.0
 43
0.0
 43
0.0
 43
1.0
 43
0.0
 43
0.0
 43
0.0
 43
0.0
 43
1.0
 77
     0
 47
0.0208333333333333
 47
0.0
 47
0.0
 47
0.0
 47
0.0
 47
0.0208333333333333
 47
0.0
 47
0.0
 47
0.0
 47
0.0
 47
1.0
 47
0.0
 47
0.0
 47
0.0
 47
0.0
 47
1.0
171
     0
 49
0.0208333333333333
 49
0.0
 49
0.0
 49
0.0
 49
0.0
 49
0.0208333333333333
 49
0.0
 49
0.0
 49
0.0
 49
0.0
 49
1.0
 49
0.0
 49
0.0
 49
0.0
 49
0.0
 49
1.0
175
     0
142
0.0208333333333333
142
0.0
142
0.0
142
0.0
142
0.0
142
0.0208333333333333
142
0.0
142
0.0
142
0.0
142
0.0
142
1.0
142
0.0
142
0.0
142
0.0
142
0.0
142
1.0
179
     0
144
0.0208333333333333
144
0.0
144
0.0
144
0.0
144
0.0
144
0.0208333333333333
144
0.0
144
0.0
144
0.0
144
0.0
144
1.0
144
0.0
144
0.0
144
0.0
144
0.0
144
1.0
147
0.0208333333333333
147
0.0
147
0.0
147
0.0
147
0.0
147
0.0208333333333333
147
0.0
147
0.0
147
0.0
147
0.0
147
1.0
147
0.0
147
0.0
147
0.0
147
0.0
147
1.0
  0
MATERIAL
  5
11
102
{ACAD_XDICTIONARY
360
12
102
}
102
{ACAD_REACTORS
330
10
102
}
330
10
100
AcDbMaterial
  1
ByLayer
 72
     0
 43
0.0208333333333333
 43
0.0
 43
0.0
 43
0.0
 43
0.0
 43
0.0208333333333333
 43
0.0
 43
0.0
 43
0.0
 43
0.0
 43
1.0
 43
0.0
 43
0.0
 43
0.0
 43
0.0
 43
1.0
 77
     0
 47
0.0208333333333333
 47
0.0
 47
0.0
 47
0.0
 47
0.0
 47
0.0208333333333333
 47
0.0
 47
0.0
 47
0.0
 47
0.0
 47
1.0
 47
0.0
 47
0.0
 47
0.0
 47
0.0
 47
1.0
171
     0
 49
0.0208333333333333
 49
0.0
 49
0.0
 49
0.0
 49
0.0
 49
0.0208333333333333
 49
0.0
 49
0.0
 49
0.0
 49
0.0
 49
1.0
 49
0.0
 49
0.0
 49
0.0
 49
0.0
 49
1.0
175
     0
142
0.0208333333333333
142
0.0
142
0.0
142
0.0
142
0.0
142
0.0208333333333333
142
0.0
142
0.0
142
0.0
142
0.0
142
1.0
142
0.0
142
0.0
142
0.0
142
0.0
142
1.0
179
     0
144
0.0208333333333333
144
0.0
144
0.0
144
0.0
144
0.0
144
0.0208333333333333
144
0.0
144
0.0
144
0.0
144
0.0
144
1.0
144
0.0
144
0.0
144
0.0
144
0.0
144
1.0
147
0.0208333333333333
147
0.0
147
0.0
147
0.0
147
0.0
147
0.0208333333333333
147
0.0
147
0.0
147
0.0
147
0.0
147
1.0
147
0.0
147
0.0
147
0.0
147
0.0
147
1.0
  0
MATERIAL
  5
21
102
{ACAD_XDICTIONARY
360
22
102
}
102
{ACAD_REACTORS
330
10
102
}
330
10
100
AcDbMaterial
  1
Global
 72
     0
 43
0.0208333333333333
 43
0.0
 43
0.0
 43
0.0
 43
0.0
 43
0.0208333333333333
 43
0.0
 43
0.0
 43
0.0
 43
0.0
 43
1.0
 43
0.0
 43
0.0
 43
0.0
 43
0.0
 43
1.0
 77
     0
 47
0.0208333333333333
 47
0.0
 47
0.0
 47
0.0
 47
0.0
 47
0.0208333333333333
 47
0.0
 47
0.0
 47
0.0
 47
0.0
 47
1.0
 47
0.0
 47
0.0
 47
0.0
 47
0.0
 47
1.0
171
     0
 49
0.0208333333333333
 49
0.0
 49
0.0
 49
0.0
 49
0.0
 49
0.0208333333333333
 49
0.0
 49
0.0
 49
0.0
 49
0.0
 49
1.0
 49
0.0
 49
0.0
 49
0.0
 49
0.0
 49
1.0
175
     0
142
0.0208333333333333
142
0.0
142
0.0
142
0.0
142
0.0
142
0.0208333333333333
142
0.0
142
0.0
142
0.0
142
0.0
142
1.0
142
0.0
142
0.0
142
0.0
142
0.0
142
1.0
179
     0
144
0.0208333333333333
144
0.0
144
0.0
144
0.0
144
0.0
144
0.0208333333333333
144
0.0
144
0.0
144
0.0
144
0.0
144
1.0
144
0.0
144
0.0
144
0.0
144
0.0
144
1.0
147
0.0208333333333333
147
0.0
147
0.0
147
0.0
147
0.0
147
0.0208333333333333
147
0.0
147
0.0
147
0.0
147
0.0
147
1.0
147
0.0
147
0.0
147
0.0
147
0.0
147
1.0
  0
MLEADERSTYLE
  5
67
102
{ACAD_REACTORS
330
66
102
}
330
66
100
AcDbMLeaderStyle
179
     2
170
     2
171
     1
172
     0
 90
        2
 40
0.0
 41
0.0
173
     1
 91
-1056964608
340
5B
 92
       -2
290
     1
 42
0.09
291
     1
 43
0.36
  3
Standard
 44
0.18
300

342
55
174
     1
178
     6
175
     1
176
     0
 93
-1056964608
 45
0.18
292
     0
297
     0
 46
0.18
 94
-1056964608
 47
1.0
 49
1.0
140
1.0
293
     1
141
0.0
294
     1
177
     0
142
1.0
295
     1
296
     0
143
0.125
271
     0
272
     9
273
     9
298
     1
  0
MLINESTYLE
  5
60
102
{ACAD_REACTORS
330
5F
102
}
330
5F
100
AcDbMlineStyle
  2
STANDARD
 70
     0
  3

 62
   256
 51
90.0
 52
90.0
 71
     2
 49
0.5
 62
   256
  6
BYLAYER
 49
-0.5
 62
   256
  6
BYLAYER
  0
ACDBPLACEHOLDER
  5
F
102
{ACAD_REACTORS
330
E
102
}
330
E
  0
SCALE
  5
43
102
{ACAD_REACTORS
330
42
102
}
330
42
100
AcDbScale
 70
     0
300
1:1
140
1.0
141
1.0
290
     1
  0
SCALE
  5
44
102
{ACAD_REACTORS
330
42
102
}
330
42
100
AcDbScale
 70
     0
300
1/128" = 1'-0"
140
0.0078125
141
12.0
290
     0
  0
SCALE
  5
45
102
{ACAD_REACTORS
330
42
102
}
330
42
100
AcDbScale
 70
     0
300
1/64" = 1'-0"
140
0.015625
141
12.0
290
     0
  0
SCALE
  5
46
102
{ACAD_REACTORS
330
42
102
}
330
42
100
AcDbScale
 70
     0
300
1/32" = 1'-0"
140
0.03125
141
12.0
290
     0
  0
SCALE
  5
47
102
{ACAD_REACTORS
330
42
102
}
330
42
100
AcDbScale
 70
     0
300
1/16" = 1'-0"
140
0.0625
141
12.0
290
     0
  0
SCALE
  5
48
102
{ACAD_REACTORS
330
42
102
}
330
42
100
AcDbScale
 70
     0
300
3/32" = 1'-0"
140
0.09375
141
12.0
290
     0
  0
SCALE
  5
49
102
{ACAD_REACTORS
330
42
102
}
330
42
100
AcDbScale
 70
     0
300
1/8" = 1'-0"
140
0.125
141
12.0
290
     0
  0
SCALE
  5
4A
102
{ACAD_REACTORS
330
42
102
}
330
42
100
AcDbScale
 70
     0
300
3/16" = 1'-0"
140
0.1875
141
12.0
290
     0
  0
SCALE
  5
4B
102
{ACAD_REACTORS
330
42
102
}
330
42
100
AcDbScale
 70
     0
300
1/4" = 1'-0"
140
0.25
141
12.0
290
     0
  0
SCALE
  5
4C
102
{ACAD_REACTORS
330
42
102
}
330
42
100
AcDbScale
 70
     0
300
3/8" = 1'-0"
140
0.375
141
12.0
290
     0
  0
SCALE
  5
4D
102
{ACAD_REACTORS
330
42
102
}
330
42
100
AcDbScale
 70
     0
300
1/2" = 1'-0"
140
0.5
141
12.0
290
     0
  0
SCALE
  5
4E
102
{ACAD_REACTORS
330
42
102
}
330
42
100
AcDbScale
 70
     0
300
3/4" = 1'-0"
140
0.75
141
12.0
290
     0
  0
SCALE
  5
4F
102
{ACAD_REACTORS
330
42
102
}
330
42
100
AcDbScale
 70
     0
300
1" = 1'-0"
140
1.0
141
12.0
290
     0
  0
SCALE
  5
50
102
{ACAD_REACTORS
330
42
102
}
330
42
100
AcDbScale
 70
     0
300
1-1/2" = 1'-0"
140
1.5
141
12.0
290
     0
  0
SCALE
  5
51
102
{ACAD_REACTORS
330
42
102
}
330
42
100
AcDbScale
 70
     0
300
3" = 1'-0"
140
3.0
141
12.0
290
     0
  0
SCALE
  5
52
102
{ACAD_REACTORS
330
42
102
}
330
42
100
AcDbScale
 70
     0
300
6" = 1'-0"
140
6.0
141
12.0
290
     0
  0
SCALE
  5
53
102
{ACAD_REACTORS
330
42
102
}
330
42
100
AcDbScale
 70
     0
300
1'-0" = 1'-0"
140
12.0
141
12.0
290
     0
  0
ACDBSECTIONVIEWSTYLE
  5
69
102
{ACAD_REACTORS
330
68
102
}
330
68
100
AcDbModelDocViewStyle
 70
     0
  3
Imperial24
290
     1
300
Imperial24
 90
        0
100
AcDbSectionViewStyle
 70
     0
 71
     0
 90
       78
 71
     1
340
55
 62
   256
 40
0.24
340
0
340
0
 62
   256
 40
0.24
300
I, O, Q, S, X, Z
 40
0.48
 90
        3
 40
0.18
 90
        1
 71
     2
340
5D
 90
       25
 62
   256
340
5D
 90
       50
 62
   256
 40
0.24
 40
0.0
 40
0.24
 71
     3
340
55
 62
   256
 40
0.24
 90
        1
 40
0.75
 90
        1
300
%<\AcVar ViewType \f "%tc1">% %<\AcVar ViewSectionStartId>%-%<\AcVar ViewSectionEndId>%\PSCALE %<\AcVar ViewScale \f "%sn">%
 71
     4
 62
   256
 62
   257
300
ANSI31
 40
1.0
 90
        0
290
     0
290
     0
 90
        6
 40
0.0
 40
1.570796326794896
 40
0.2617993877991494
 40
1.308996938995747
 40
-0.2617993877991494
 40
1.832595714594046
  0
TABLESTYLE
  5
65
102
{ACAD_XDICTIONARY
360
325
102
}
102
{ACAD_REACTORS
330
64
102
}
330
64
100
AcDbTableStyle
280
     0
  3
Standard
 70
     0
 71
     0
 40
0.06
 41
0.06
280
     0
281
     0
  7
Standard
140
0.18
170
     2
 62
     0
 63
     7
283
     0
 90
      512
 91
        0
  1

274
    -2
284
     1
 64
     0
275
    -2
285
     1
 65
     0
276
    -2
286
     1
 66
     0
277
    -2
287
     1
 67
     0
278
    -2
288
     1
 68
     0
279
    -2
289
     1
 69
     0
  7
Standard
140
0.25
170
     5
 62
     0
 63
     7
283
     0
 90
      512
 91
        0
  1

274
    -2
284
     1
 64
     0
275
    -2
285
     1
 65
     0
276
    -2
286
     1
 66
     0
277
    -2
287
     1
 67
     0
278
    -2
288
     1
 68
     0
279
    -2
289
     1
 69
     0
  7
Standard
140
0.18
170
     5
 62
     0
 63
     7
283
     0
 90
      512
 91
        0
  1

274
    -2
284
     1
 64
     0
275
    -2
285
     1
 65
     0
276
    -2
286
     1
 66
     0
277
    -2
287
     1
 67
     0
278
    -2
288
     1
 68
     0
279
    -2
289
     1
 69
     0
  0
VISUALSTYLE
  5
2F
102
{ACAD_REACTORS
330
29
102
}
330
29
100
AcDbVisualStyle
  2
2dWireframe
 70
     4
177
     3
291
     0
 70
    58
 90
        0
176
     1
 90
        2
176
     1
 90
        0
176
     1
 90
        0
176
     1
 40
0.6
176
     1
 40
30.0
176
     1
 62
     7
420
 16777215
176
     1
 90
        1
176
     1
 90
        4
176
     1
 62
     7
176
     1
 62
   257
176
     1
 90
        1
176
     1
 90
        1
176
     1
 40
1.0
176
     1
 90
        0
176
     1
 62
   257
176
     1
 40
1.0
176
     1
 90
        1
176
     1
 90
        6
176
     1
 90
        2
176
     1
 62
     7
176
     1
 90
        5
176
     1
 90
        0
176
     1
 90
        0
176
     1
290
     0
176
     1
 90
        1
176
     1
 40
0.0
176
     1
 90
        0
176
     1
290
     1
176
     1
290
     1
176
     1
290
     0
176
     1
290
     0
176
     1
290
     0
176
     1
290
     0
176
     1
290
     0
176
     1
290
     0
176
     1
290
     0
176
     1
 90
       50
176
     1
 40
0.0
176
     1
 40
1.0
176
     1
 90
        0
176
     1
 62
    18
420
        0
176
     1
 90
       50
176
     1
 90
        3
176
     1
 62
     5
420
      255
176
     1
290
     0
176
     1
 90
       50
176
     1
 90
       50
176
     1
 90
       50
176
     1
290
     0
176
     1
 90
       50
176
     1
 62
   256
176
     0
 40
1.0
176
     0
 90
        2
176
     1
  1
strokes_ogs.tif
176
     1
290
     0
176
     1
 40
1.0
176
     1
 40
1.0
176
     1
  0
VISUALSTYLE
  5
2E
102
{ACAD_REACTORS
330
29
102
}
330
29
100
AcDbVisualStyle
  2
Basic
 70
     7
177
     3
291
     1
 70
    58
 90
        1
176
     1
 90
        0
176
     1
 90
        1
176
     1
 90
        0
176
     1
 40
0.6
176
     1
 40
30.0
176
     1
 62
     7
420
 16777215
176
     1
 90
        0
176
     1
 90
        4
176
     1
 62
     7
176
     1
 62
   257
176
     1
 90
        1
176
     1
 90
        1
176
     1
 40
1.0
176
     1
 90
        8
176
     1
 62
     7
176
     1
 40
1.0
176
     1
 90
        1
176
     1
 90
        6
176
     1
 90
        2
176
     1
 62
     7
176
     1
 90
        5
176
     1
 90
        0
176
     1
 90
        0
176
     1
290
     0
176
     1
 90
        1
176
     1
 40
0.0
176
     1
 90
        0
176
     1
290
     0
176
     1
290
     1
176
     1
290
     1
176
     1
290
     0
176
     1
290
     0
176
     1
290
     0
176
     1
290
     0
176
     1
290
     0
176
     1
290
     0
176
     1
 90
       50
176
     1
 40
0.0
176
     1
 40
1.0
176
     1
 90
        0
176
     1
 62
    18
420
        0
176
     1
 90
       50
176
     1
 90
        3
176
     1
 62
     5
420
      255
176
     1
290
     0
176
     1
 90
       50
176
     1
 90
       50
176
     1
 90
       50
176
     1
290
     0
176
     1
 90
       50
176
     1
 62
   256
176
     0
 40
1.0
176
     0
 90
        2
176
     1
  1
strokes_ogs.tif
176
     1
290
     0
176
     1
 40
1.0
176
     1
 40
1.0
176
     1
  0
VISUALSTYLE
  5
35
102
{ACAD_REACTORS
330
29
102
}
330
29
100
AcDbVisualStyle
  2
Brighten
 70
    12
177
     3
291
     1
 70
    58
 90
        2
176
     1
 90
        2
176
     1
 90
        0
176
     1
 90
        0
176
     1
 40
0.6
176
     1
 40
30.0
176
     1
 62
     7
420
 16777215
176
     1
 90
        1
176
     1
 90
        4
176
     1
 62
     7
176
     1
 62
   257
176
     1
 90
        1
176
     1
 90
        1
176
     1
 40
1.0
176
     1
 90
        8
176
     1
 62
     7
176
     1
 40
1.0
176
     1
 90
        1
176
     1
 90
        6
176
     1
 90
        2
176
     1
 62
     7
176
     1
 90
        5
176
     1
 90
        0
176
     1
 90
        0
176
     1
290
     0
176
     1
 90
        1
176
     1
 40
50.0
176
     1
 90
        0
176
     1
290
     0
176
     1
290
     1
176
     1
290
     1
176
     1
290
     0
176
     1
290
     0
176
     1
290
     0
176
     1
290
     0
176
     1
290
     0
176
     1
290
     0
176
     1
 90
       50
176
     1
 40
0.0
176
     1
 40
1.0
176
     1
 90
        0
176
     1
 62
    18
420
        0
176
     1
 90
       50
176
     1
 90
        3
176
     1
 62
     5
420
      255
176
     1
290
     0
176
     1
 90
       50
176
     1
 90
       50
176
     1
 90
       50
176
     1
290
     0
176
     1
 90
       50
176
     1
 62
   256
176
     0
 40
1.0
176
     0
 90
        2
176
     1
  1
strokes_ogs.tif
176
     1
290
     0
176
     1
 40
1.0
176
     1
 40
1.0
176
     1
  0
VISUALSTYLE
  5
39
102
{ACAD_REACTORS
330
29
102
}
330
29
100
AcDbVisualStyle
  2
ColorChange
 70
    16
177
     3
291
     1
 70
    58
 90
        2
176
     1
 90
        2
176
     1
 90
        3
176
     1
 90
        0
176
     1
 40
0.6
176
     1
 40
30.0
176
     1
 62
     8
420
  8421504
176
     1
 90
        1
176
     1
 90
        4
176
     1
 62
     7
176
     1
 62
   257
176
     1
 90
        1
176
     1
 90
        1
176
     1
 40
1.0
176
     1
 90
        8
176
     1
 62
     8
420
  8421504
176
     1
 40
1.0
176
     1
 90
        1
176
     1
 90
        6
176
     1
 90
        2
176
     1
 62
     7
176
     1
 90
        5
176
     1
 90
        0
176
     1
 90
        0
176
     1
290
     0
176
     1
 90
        1
176
     1
 40
0.0
176
     1
 90
        0
176
     1
290
     0
176
     1
290
     1
176
     1
290
     1
176
     1
290
     0
176
     1
290
     0
176
     1
290
     0
176
     1
290
     0
176
     1
290
     0
176
     1
290
     0
176
     1
 90
       50
176
     1
 40
0.0
176
     1
 40
1.0
176
     1
 90
        0
176
     1
 62
    18
420
        0
176
     1
 90
       50
176
     1
 90
        3
176
     1
 62
     5
420
      255
176
     1
290
     0
176
     1
 90
       50
176
     1
 90
       50
176
     1
 90
       50
176
     1
290
     0
176
     1
 90
       50
176
     1
 62
   256
176
     0
 40
1.0
176
     0
 90
        2
176
     1
  1
strokes_ogs.tif
176
     1
290
     0
176
     1
 40
1.0
176
     1
 40
1.0
176
     1
  0
VISUALSTYLE
  5
32
102
{ACAD_REACTORS
330
29
102
}
330
29
100
AcDbVisualStyle
  2
Conceptual
 70
     9
177
     3
291
     0
 70
    58
 90
        3
176
     1
 90
        2
176
     1
 90
        0
176
     1
 90
        0
176
     1
 40
0.6
176
     1
 40
30.0
176
     1
 62
     7
420
 16777215
176
     1
 90
        2
176
     1
 90
        2
176
     1
 62
     7
176
     1
 62
   257
176
     1
 90
        1
176
     1
 90
        1
176
     1
 40
179.0
176
     1
 90
        8
176
     1
 62
     7
176
     1
 40
1.0
176
     1
 90
        1
176
     1
 90
        6
176
     1
 90
        2
176
     1
 62
     7
176
     1
 90
        3
176
     1
 90
        0
176
     1
 90
        0
176
     1
290
     0
176
     1
 90
        1
176
     1
 40
0.0
176
     1
 90
        0
176
     1
290
     0
176
     1
290
     1
176
     1
290
     1
176
     1
290
     0
176
     1
290
     0
176
     1
290
     0
176
     1
290
     0
176
     1
290
     0
176
     1
290
     0
176
     1
 90
       50
176
     1
 40
0.0
176
     1
 40
1.0
176
     1
 90
        0
176
     1
 62
    18
420
        0
176
     1
 90
       50
176
     1
 90
        3
176
     1
 62
     5
420
      255
176
     1
290
     0
176
     1
 90
       50
176
     1
 90
       50
176
     1
 90
       50
176
     1
290
     0
176
     1
 90
       50
176
     1
 62
   256
176
     0
 40
1.0
176
     0
 90
        2
176
     1
  1
strokes_ogs.tif
176
     1
290
     0
176
     1
 40
1.0
176
     1
 40
1.0
176
     1
  0
VISUALSTYLE
  5
34
102
{ACAD_REACTORS
330
29
102
}
330
29
100
AcDbVisualStyle
  2
Dim
 70
    11
177
     3
291
     1
 70
    58
 90
        2
176
     1
 90
        2
176
     1
 90
        0
176
     1
 90
        0
176
     1
 40
0.6
176
     1
 40
30.0
176
     1
 62
     7
420
 16777215
176
     1
 90
        1
176
     1
 90
        4
176
     1
 62
     7
176
     1
 62
   257
176
     1
 90
        1
176
     1
 90
        1
176
     1
 40
1.0
176
     1
 90
        8
176
     1
 62
     7
176
     1
 40
1.0
176
     1
 90
        1
176
     1
 90
        6
176
     1
 90
        2
176
     1
 62
     7
176
     1
 90
        5
176
     1
 90
        0
176
     1
 90
        0
176
     1
290
     0
176
     1
 90
        1
176
     1
 40
-50.0
176
     1
 90
        0
176
     1
290
     0
176
     1
290
     1
176
     1
290
     1
176
     1
290
     0
176
     1
290
     0
176
     1
290
     0
176
     1
290
     0
176
     1
290
     0
176
     1
290
     0
176
     1
 90
       50
176
     1
 40
0.0
176
     1
 40
1.0
176
     1
 90
        0
176
     1
 62
    18
420
        0
176
     1
 90
       50
176
     1
 90
        3
176
     1
 62
     5
420
      255
176
     1
290
     0
176
     1
 90
       50
176
     1
 90
       50
176
     1
 90
       50
176
     1
290
     0
176
     1
 90
       50
176
     1
 62
   256
176
     0
 40
1.0
176
     0
 90
        2
176
     1
  1
strokes_ogs.tif
176
     1
290
     0
176
     1
 40
1.0
176
     1
 40
1.0
176
     1
  0
VISUALSTYLE
  5
41
102
{ACAD_REACTORS
330
29
102
}
330
29
100
AcDbVisualStyle
  2
EdgeColorOff
 70
    22
177
     3
291
     1
 70
    58
 90
        2
176
     0
 90
        2
176
     0
 90
        0
176
     0
 90
        0
176
     0
 40
0.6
176
     0
 40
30.0
176
     0
 62
     7
420
 16777215
176
     0
 90
        1
176
     0
 90
        4
176
     0
 62
     7
176
     0
 62
   257
176
     0
 90
        1
176
     0
 90
        1
176
     0
 40
1.0
176
     0
 90
        8
176
     2
 62
     7
176
     0
 40
1.0
176
     0
 90
        1
176
     0
 90
        6
176
     0
 90
        2
176
     0
 62
     7
176
     0
 90
        5
176
     0
 90
        0
176
     0
 90
        0
176
     0
290
     0
176
     0
 90
        1
176
     0
 40
0.0
176
     0
 90
        0
176
     0
290
     0
176
     0
290
     1
176
     0
290
     1
176
     0
290
     0
176
     0
290
     0
176
     0
290
     0
176
     0
290
     0
176
     0
290
     0
176
     0
290
     0
176
     0
 90
       50
176
     0
 40
0.0
176
     0
 40
1.0
176
     0
 90
        0
176
     0
 62
    18
420
        0
176
     0
 90
       50
176
     0
 90
        3
176
     0
 62
     5
420
      255
176
     0
290
     0
176
     0
 90
       50
176
     0
 90
       50
176
     0
 90
       50
176
     0
290
     0
176
     0
 90
       50
176
     0
 62
   256
176
     0
 40
1.0
176
     0
 90
        2
176
     0
  1
strokes_ogs.tif
176
     0
290
     0
176
     0
 40
1.0
176
     0
 40
1.0
176
     0
  0
VISUALSTYLE
  5
38
102
{ACAD_REACTORS
330
29
102
}
330
29
100
AcDbVisualStyle
  2
Facepattern
 70
    15
177
     3
291
     1
 70
    58
 90
        2
176
     1
 90
        2
176
     1
 90
        0
176
     1
 90
        0
176
     1
 40
0.6
176
     1
 40
30.0
176
     1
 62
     7
420
 16777215
176
     1
 90
        1
176
     1
 90
        4
176
     1
 62
     7
176
     1
 62
   257
176
     1
 90
        1
176
     1
 90
        1
176
     1
 40
1.0
176
     1
 90
        8
176
     1
 62
     7
176
     1
 40
1.0
176
     1
 90
        1
176
     1
 90
        6
176
     1
 90
        2
176
     1
 62
     7
176
     1
 90
        5
176
     1
 90
        0
176
     1
 90
        0
176
     1
290
     0
176
     1
 90
        1
176
     1
 40
0.0
176
     1
 90
        0
176
     1
290
     0
176
     1
290
     1
176
     1
290
     1
176
     1
290
     0
176
     1
290
     0
176
     1
290
     0
176
     1
290
     0
176
     1
290
     0
176
     1
290
     0
176
     1
 90
       50
176
     1
 40
0.0
176
     1
 40
1.0
176
     1
 90
        0
176
     1
 62
    18
420
        0
176
     1
 90
       50
176
     1
 90
        3
176
     1
 62
     5
420
      255
176
     1
290
     0
176
     1
 90
       50
176
     1
 90
       50
176
     1
 90
       50
176
     1
290
     0
176
     1
 90
       50
176
     1
 62
   256
176
     0
 40
1.0
176
     0
 90
        2
176
     1
  1
strokes_ogs.tif
176
     1
290
     0
176
     1
 40
1.0
176
     1
 40
1.0
176
     1
  0
VISUALSTYLE
  5
2A
102
{ACAD_REACTORS
330
29
102
}
330
29
100
AcDbVisualStyle
  2
Flat
 70
     0
177
     3
291
     1
 70
    58
 90
        2
176
     1
 90
        1
176
     1
 90
        1
176
     1
 90
        2
176
     1
 40
0.6
176
     1
 40
30.0
176
     1
 62
     7
420
 16777215
176
     1
 90
        0
176
     1
 90
        0
176
     1
 62
     7
176
     1
 62
   257
176
     1
 90
        1
176
     1
 90
        1
176
     1
 40
1.0
176
     1
 90
        8
176
     1
 62
     7
176
     1
 40
1.0
176
     1
 90
        1
176
     1
 90
        6
176
     1
 90
        2
176
     1
 62
     7
176
     1
 90
        5
176
     1
 90
        0
176
     1
 90
        0
176
     1
290
     0
176
     1
 90
       13
176
     1
 40
0.0
176
     1
 90
        0
176
     1
290
     0
176
     1
290
     1
176
     1
290
     1
176
     1
290
     0
176
     1
290
     0
176
     1
290
     0
176
     1
290
     0
176
     1
290
     0
176
     1
290
     0
176
     1
 90
       50
176
     1
 40
0.0
176
     1
 40
1.0
176
     1
 90
        0
176
     1
 62
    18
420
        0
176
     1
 90
       50
176
     1
 90
        3
176
     1
 62
     5
420
      255
176
     1
290
     0
176
     1
 90
       50
176
     1
 90
       50
176
     1
 90
       50
176
     1
290
     0
176
     1
 90
       50
176
     1
 62
   256
176
     0
 40
1.0
176
     0
 90
        2
176
     1
  1
strokes_ogs.tif
176
     1
290
     0
176
     1
 40
1.0
176
     1
 40
1.0
176
     1
  0
VISUALSTYLE
  5
2B
102
{ACAD_REACTORS
330
29
102
}
330
29
100
AcDbVisualStyle
  2
FlatWithEdges
 70
     1
177
     3
291
     1
 70
    58
 90
        2
176
     1
 90
        1
176
     1
 90
        1
176
     1
 90
        2
176
     1
 40
0.6
176
     1
 40
30.0
176
     1
 62
     7
420
 16777215
176
     1
 90
        1
176
     1
 90
        0
176
     1
 62
     7
176
     1
 62
   257
176
     1
 90
        1
176
     1
 90
        1
176
     1
 40
1.0
176
     1
 90
        0
176
     1
 62
   257
176
     1
 40
1.0
176
     1
 90
        1
176
     1
 90
        6
176
     1
 90
        2
176
     1
 62
     7
176
     1
 90
        5
176
     1
 90
        0
176
     1
 90
        0
176
     1
290
     0
176
     1
 90
       13
176
     1
 40
0.0
176
     1
 90
        0
176
     1
290
     0
176
     1
290
     1
176
     1
290
     1
176
     1
290
     0
176
     1
290
     0
176
     1
290
     0
176
     1
290
     0
176
     1
290
     0
176
     1
290
     0
176
     1
 90
       50
176
     1
 40
0.0
176
     1
 40
1.0
176
     1
 90
        0
176
     1
 62
    18
420
        0
176
     1
 90
       50
176
     1
 90
        3
176
     1
 62
     5
420
      255
176
     1
290
     0
176
     1
 90
       50
176
     1
 90
       50
176
     1
 90
       50
176
     1
290
     0
176
     1
 90
       50
176
     1
 62
   256
176
     0
 40
1.0
176
     0
 90
        2
176
     1
  1
strokes_ogs.tif
176
     1
290
     0
176
     1
 40
1.0
176
     1
 40
1.0
176
     1
  0
VISUALSTYLE
  5
2C
102
{ACAD_REACTORS
330
29
102
}
330
29
100
AcDbVisualStyle
  2
Gouraud
 70
     2
177
     3
291
     1
 70
    58
 90
        2
176
     1
 90
        2
176
     1
 90
        1
176
     1
 90
        2
176
     1
 40
0.6
176
     1
 40
30.0
176
     1
 62
     7
420
 16777215
176
     1
 90
        0
176
     1
 90
        0
176
     1
 62
     7
176
     1
 62
   257
176
     1
 90
        1
176
     1
 90
        1
176
     1
 40
1.0
176
     1
 90
        0
176
     1
 62
     7
176
     1
 40
1.0
176
     1
 90
        1
176
     1
 90
        6
176
     1
 90
        2
176
     1
 62
     7
176
     1
 90
        5
176
     1
 90
        0
176
     1
 90
        0
176
     1
290
     0
176
     1
 90
       13
176
     1
 40
0.0
176
     1
 90
        0
176
     1
290
     0
176
     1
290
     1
176
     1
290
     1
176
     1
290
     0
176
     1
290
     0
176
     1
290
     0
176
     1
290
     0
176
     1
290
     0
176
     1
290
     0
176
     1
 90
       50
176
     1
 40
0.0
176
     1
 40
1.0
176
     1
 90
        0
176
     1
 62
    18
420
        0
176
     1
 90
       50
176
     1
 90
        3
176
     1
 62
     5
420
      255
176
     1
290
     0
176
     1
 90
       50
176
     1
 90
       50
176
     1
 90
       50
176
     1
290
     0
176
     1
 90
       50
176
     1
 62
   256
176
     0
 40
1.0
176
     0
 90
        2
176
     1
  1
strokes_ogs.tif
176
     1
290
     0
176
     1
 40
1.0
176
     1
 40
1.0
176
     1
  0
VISUALSTYLE
  5
2D
102
{ACAD_REACTORS
330
29
102
}
330
29
100
AcDbVisualStyle
  2
GouraudWithEdges
 70
     3
177
     3
291
     1
 70
    58
 90
        2
176
     1
 90
        2
176
     1
 90
        1
176
     1
 90
        2
176
     1
 40
0.6
176
     1
 40
30.0
176
     1
 62
     7
420
 16777215
176
     1
 90
        1
176
     1
 90
        0
176
     1
 62
     7
176
     1
 62
   257
176
     1
 90
        1
176
     1
 90
        1
176
     1
 40
1.0
176
     1
 90
        0
176
     1
 62
   257
176
     1
 40
1.0
176
     1
 90
        1
176
     1
 90
        6
176
     1
 90
        2
176
     1
 62
     7
176
     1
 90
        5
176
     1
 90
        0
176
     1
 90
        0
176
     1
290
     0
176
     1
 90
       13
176
     1
 40
0.0
176
     1
 90
        0
176
     1
290
     0
176
     1
290
     1
176
     1
290
     1
176
     1
290
     0
176
     1
290
     0
176
     1
290
     0
176
     1
290
     0
176
     1
290
     0
176
     1
290
     0
176
     1
 90
       50
176
     1
 40
0.0
176
     1
 40
1.0
176
     1
 90
        0
176
     1
 62
    18
420
        0
176
     1
 90
       50
176
     1
 90
        3
176
     1
 62
     5
420
      255
176
     1
290
     0
176
     1
 90
       50
176
     1
 90
       50
176
     1
 90
       50
176
     1
290
     0
176
     1
 90
       50
176
     1
 62
   256
176
     0
 40
1.0
176
     0
 90
        2
176
     1
  1
strokes_ogs.tif
176
     1
290
     0
176
     1
 40
1.0
176
     1
 40
1.0
176
     1
  0
VISUALSTYLE
  5
31
102
{ACAD_REACTORS
330
29
102
}
330
29
100
AcDbVisualStyle
  2
Hidden
 70
     6
177
     3
291
     0
 70
    58
 90
        1
176
     1
 90
        2
176
     1
 90
        2
176
     1
 90
        0
176
     1
 40
0.6
176
     1
 40
30.0
176
     1
 62
     7
420
 16777215
176
     1
 90
        2
176
     1
 90
        2
176
     1
 62
     7
176
     1
 62
   257
176
     1
 90
        2
176
     1
 90
        1
176
     1
 40
40.0
176
     1
 90
        0
176
     1
 62
   257
176
     1
 40
1.0
176
     1
 90
        1
176
     1
 90
        6
176
     1
 90
        2
176
     1
 62
     7
176
     1
 90
        3
176
     1
 90
        0
176
     1
 90
        0
176
     1
290
     0
176
     1
 90
        1
176
     1
 40
0.0
176
     1
 90
        0
176
     1
290
     0
176
     1
290
     1
176
     1
290
     1
176
     1
290
     0
176
     1
290
     0
176
     1
290
     0
176
     1
290
     0
176
     1
290
     0
176
     1
290
     0
176
     1
 90
       50
176
     1
 40
0.0
176
     1
 40
1.0
176
     1
 90
        0
176
     1
 62
    18
420
        0
176
     1
 90
       50
176
     1
 90
        3
176
     1
 62
     5
420
      255
176
     1
290
     0
176
     1
 90
       50
176
     1
 90
       50
176
     1
 90
       50
176
     1
290
     0
176
     1
 90
       50
176
     1
 62
   256
176
     0
 40
1.0
176
     0
 90
        2
176
     1
  1
strokes_ogs.tif
176
     1
290
     0
176
     1
 40
1.0
176
     1
 40
1.0
176
     1
  0
VISUALSTYLE
  5
3F
102
{ACAD_REACTORS
330
29
102
}
330
29
100
AcDbVisualStyle
  2
JitterOff
 70
    20
177
     3
291
     1
 70
    58
 90
        2
176
     0
 90
        2
176
     0
 90
        0
176
     0
 90
        0
176
     0
 40
0.6
176
     0
 40
30.0
176
     0
 62
     7
420
 16777215
176
     0
 90
        1
176
     0
 90
        4
176
     0
 62
     7
176
     0
 62
   257
176
     0
 90
        1
176
     0
 90
        1
176
     0
 40
1.0
176
     0
 90
       10
176
     2
 62
     7
176
     0
 40
1.0
176
     0
 90
        1
176
     0
 90
        6
176
     0
 90
        2
176
     0
 62
     7
176
     0
 90
        5
176
     0
 90
        0
176
     0
 90
        0
176
     0
290
     0
176
     0
 90
        1
176
     0
 40
0.0
176
     0
 90
        0
176
     0
290
     0
176
     0
290
     1
176
     0
290
     1
176
     0
290
     0
176
     0
290
     0
176
     0
290
     0
176
     0
290
     0
176
     0
290
     0
176
     0
290
     0
176
     0
 90
       50
176
     0
 40
0.0
176
     0
 40
1.0
176
     0
 90
        0
176
     0
 62
    18
420
        0
176
     0
 90
       50
176
     0
 90
        3
176
     0
 62
     5
420
      255
176
     0
290
     0
176
     0
 90
       50
176
     0
 90
       50
176
     0
 90
       50
176
     0
290
     0
176
     0
 90
       50
176
     0
 62
   256
176
     0
 40
1.0
176
     0
 90
        2
176
     0
  1
strokes_ogs.tif
176
     0
290
     0
176
     0
 40
1.0
176
     0
 40
1.0
176
     0
  0
VISUALSTYLE
  5
37
102
{ACAD_REACTORS
330
29
102
}
330
29
100
AcDbVisualStyle
  2
Linepattern
 70
    14
177
     3
291
     1
 70
    58
 90
        2
176
     1
 90
        2
176
     1
 90
        0
176
     1
 90
        0
176
     1
 40
0.6
176
     1
 40
30.0
176
     1
 62
     7
420
 16777215
176
     1
 90
        1
176
     1
 90
        4
176
     1
 62
     7
176
     1
 62
   257
176
     1
 90
        7
176
     1
 90
        7
176
     1
 40
1.0
176
     1
 90
        8
176
     1
 62
     7
176
     1
 40
1.0
176
     1
 90
        1
176
     1
 90
        6
176
     1
 90
        2
176
     1
 62
     7
176
     1
 90
        5
176
     1
 90
        0
176
     1
 90
        0
176
     1
290
     0
176
     1
 90
        1
176
     1
 40
0.0
176
     1
 90
        0
176
     1
290
     0
176
     1
290
     1
176
     1
290
     1
176
     1
290
     0
176
     1
290
     0
176
     1
290
     0
176
     1
290
     0
176
     1
290
     0
176
     1
290
     0
176
     1
 90
       50
176
     1
 40
0.0
176
     1
 40
1.0
176
     1
 90
        0
176
     1
 62
    18
420
        0
176
     1
 90
       50
176
     1
 90
        3
176
     1
 62
     5
420
      255
176
     1
290
     0
176
     1
 90
       50
176
     1
 90
       50
176
     1
 90
       50
176
     1
290
     0
176
     1
 90
       50
176
     1
 62
   256
176
     0
 40
1.0
176
     0
 90
        2
176
     1
  1
strokes_ogs.tif
176
     1
290
     0
176
     1
 40
1.0
176
     1
 40
1.0
176
     1
  0
VISUALSTYLE
  5
40
102
{ACAD_REACTORS
330
29
102
}
330
29
100
AcDbVisualStyle
  2
OverhangOff
 70
    21
177
     3
291
     1
 70
    58
 90
        2
176
     0
 90
        2
176
     0
 90
        0
176
     0
 90
        0
176
     0
 40
0.6
176
     0
 40
30.0
176
     0
 62
     7
420
 16777215
176
     0
 90
        1
176
     0
 90
        4
176
     0
 62
     7
176
     0
 62
   257
176
     0
 90
        1
176
     0
 90
        1
176
     0
 40
1.0
176
     0
 90
        9
176
     2
 62
     7
176
     0
 40
1.0
176
     0
 90
        1
176
     0
 90
        6
176
     0
 90
        2
176
     0
 62
     7
176
     0
 90
        5
176
     0
 90
        0
176
     0
 90
        0
176
     0
290
     0
176
     0
 90
        1
176
     0
 40
0.0
176
     0
 90
        0
176
     0
290
     0
176
     0
290
     1
176
     0
290
     1
176
     0
290
     0
176
     0
290
     0
176
     0
290
     0
176
     0
290
     0
176
     0
290
     0
176
     0
290
     0
176
     0
 90
       50
176
     0
 40
0.0
176
     0
 40
1.0
176
     0
 90
        0
176
     0
 62
    18
420
        0
176
     0
 90
       50
176
     0
 90
        3
176
     0
 62
     5
420
      255
176
     0
290
     0
176
     0
 90
       50
176
     0
 90
       50
176
     0
 90
       50
176
     0
290
     0
176
     0
 90
       50
176
     0
 62
   256
176
     0
 40
1.0
176
     0
 90
        2
176
     0
  1
strokes_ogs.tif
176
     0
290
     0
176
     0
 40
1.0
176
     0
 40
1.0
176
     0
  0
VISUALSTYLE
  5
33
102
{ACAD_REACTORS
330
29
102
}
330
29
100
AcDbVisualStyle
  2
Realistic
 70
     8
177
     3
291
     0
 70
    58
 90
        2
176
     1
 90
        3
176
     1
 90
        0
176
     1
 90
        2
176
     1
 40
0.6
176
     1
 40
30.0
176
     1
 62
     7
420
 16777215
176
     1
 90
        0
176
     1
 90
        0
176
     1
 62
     7
176
     1
 62
   257
176
     1
 90
        1
176
     1
 90
        1
176
     1
 40
1.0
176
     1
 90
        8
176
     1
 62
   257
176
     1
 40
1.0
176
     1
 90
        1
176
     1
 90
        6
176
     1
 90
        2
176
     1
 62
     7
176
     1
 90
        3
176
     1
 90
        0
176
     1
 90
        0
176
     1
290
     0
176
     1
 90
       13
176
     1
 40
0.0
176
     1
 90
        0
176
     1
290
     0
176
     1
290
     1
176
     1
290
     1
176
     1
290
     0
176
     1
290
     0
176
     1
290
     0
176
     1
290
     0
176
     1
290
     0
176
     1
290
     0
176
     1
 90
       50
176
     1
 40
0.0
176
     1
 40
1.0
176
     1
 90
        0
176
     1
 62
    18
420
        0
176
     1
 90
       50
176
     1
 90
        3
176
     1
 62
     5
420
      255
176
     1
290
     0
176
     1
 90
       50
176
     1
 90
       50
176
     1
 90
       50
176
     1
290
     0
176
     1
 90
       50
176
     1
 62
   256
176
     0
 40
1.0
176
     0
 90
        2
176
     1
  1
strokes_ogs.tif
176
     1
290
     0
176
     1
 40
1.0
176
     1
 40
1.0
176
     1
  0
VISUALSTYLE
  5
3E
102
{ACAD_REACTORS
330
29
102
}
330
29
100
AcDbVisualStyle
  2
Shaded
 70
    27
177
     3
291
     0
 70
    58
 90
        2
176
     1
 90
        2
176
     1
 90
        1
176
     1
 90
        2
176
     1
 40
0.6
176
     1
 40
30.0
176
     1
 62
     7
420
 16777215
176
     1
 90
        0
176
     1
 90
        4
176
     1
 62
     7
176
     1
 62
   257
176
     1
 90
        1
176
     1
 90
        1
176
     1
 40
1.0
176
     1
 90
        8
176
     1
 62
   257
176
     1
 40
1.0
176
     1
 90
        1
176
     1
 90
        6
176
     1
 90
        2
176
     1
 62
     8
420
  7895160
176
     1
 90
        3
176
     1
 90
        0
176
     1
 90
        0
176
     1
290
     0
176
     1
 90
        5
176
     1
 40
0.0
176
     1
 90
        0
176
     1
290
     0
176
     1
290
     1
176
     1
290
     1
176
     1
290
     0
176
     1
290
     0
176
     1
290
     0
176
     1
290
     0
176
     1
290
     0
176
     1
290
     0
176
     1
 90
       50
176
     1
 40
0.0
176
     1
 40
1.0
176
     1
 90
        0
176
     1
 62
    18
420
        0
176
     1
 90
       50
176
     1
 90
        3
176
     1
 62
     5
420
      255
176
     1
290
     0
176
     1
 90
       50
176
     1
 90
       50
176
     1
 90
       50
176
     1
290
     0
176
     1
 90
       50
176
     1
 62
   256
176
     0
 40
1.0
176
     0
 90
        2
176
     1
  1
strokes_ogs.tif
176
     1
290
     0
176
     1
 40
1.0
176
     1
 40
1.0
176
     1
  0
VISUALSTYLE
  5
3D
102
{ACAD_REACTORS
330
29
102
}
330
29
100
AcDbVisualStyle
  2
Shaded with edges
 70
    26
177
     3
291
     0
 70
    58
 90
        2
176
     1
 90
        2
176
     1
 90
        1
176
     1
 90
        2
176
     1
 40
0.6
176
     1
 40
30.0
176
     1
 62
     7
420
 16777215
176
     1
 90
        1
176
     1
 90
        2
176
     1
 62
     7
176
     1
 62
   257
176
     1
 90
        2
176
     1
 90
        1
176
     1
 40
1.0
176
     1
 90
        8
176
     1
 62
   257
176
     1
 40
1.0
176
     1
 90
        1
176
     1
 90
        6
176
     1
 90
        2
176
     1
 62
     7
176
     1
 90
        3
176
     1
 90
        0
176
     1
 90
        0
176
     1
290
     0
176
     1
 90
        5
176
     1
 40
0.0
176
     1
 90
        0
176
     1
290
     0
176
     1
290
     1
176
     1
290
     1
176
     1
290
     0
176
     1
290
     0
176
     1
290
     0
176
     1
290
     0
176
     1
290
     0
176
     1
290
     0
176
     1
 90
       50
176
     1
 40
0.0
176
     1
 40
1.0
176
     1
 90
        0
176
     1
 62
    18
420
        0
176
     1
 90
       50
176
     1
 90
        3
176
     1
 62
     5
420
      255
176
     1
290
     0
176
     1
 90
       50
176
     1
 90
       50
176
     1
 90
       50
176
     1
290
     0
176
     1
 90
       50
176
     1
 62
   256
176
     0
 40
1.0
176
     0
 90
        2
176
     1
  1
strokes_ogs.tif
176
     1
290
     0
176
     1
 40
1.0
176
     1
 40
1.0
176
     1
  0
VISUALSTYLE
  5
3A
102
{ACAD_REACTORS
330
29
102
}
330
29
100
AcDbVisualStyle
  2
Shades of Gray
 70
    23
177
     3
291
     0
 70
    58
 90
        2
176
     1
 90
        2
176
     1
 90
        3
176
     1
 90
        0
176
     1
 40
0.6
176
     1
 40
30.0
176
     1
 62
     7
420
 16777215
176
     1
 90
        2
176
     1
 90
        2
176
     1
 62
     7
176
     1
 62
     7
176
     1
 90
        1
176
     1
 90
        1
176
     1
 40
40.0
176
     1
 90
        8
176
     1
 62
     7
176
     1
 40
1.0
176
     1
 90
        1
176
     1
 90
        6
176
     1
 90
        2
176
     1
 62
     7
176
     1
 90
        3
176
     1
 90
        0
176
     1
 90
        0
176
     1
290
     0
176
     1
 90
        1
176
     1
 40
0.0
176
     1
 90
        0
176
     1
290
     0
176
     1
290
     1
176
     1
290
     1
176
     1
290
     0
176
     1
290
     0
176
     1
290
     0
176
     1
290
     0
176
     1
290
     0
176
     1
290
     0
176
     1
 90
       50
176
     1
 40
0.0
176
     1
 40
1.0
176
     1
 90
        0
176
     1
 62
    18
420
        0
176
     1
 90
       50
176
     1
 90
        3
176
     1
 62
     5
420
      255
176
     1
290
     0
176
     1
 90
       50
176
     1
 90
       50
176
     1
 90
       50
176
     1
290
     0
176
     1
 90
       50
176
     1
 62
   256
176
     0
 40
1.0
176
     0
 90
        2
176
     1
  1
strokes_ogs.tif
176
     1
290
     0
176
     1
 40
1.0
176
     1
 40
1.0
176
     1
  0
VISUALSTYLE
  5
3B
102
{ACAD_REACTORS
330
29
102
}
330
29
100
AcDbVisualStyle
  2
Sketchy
 70
    24
177
     3
291
     0
 70
    58
 90
        1
176
     1
 90
        2
176
     1
 90
        2
176
     1
 90
        0
176
     1
 40
0.6
176
     1
 40
30.0
176
     1
 62
     7
420
 16777215
176
     1
 90
        2
176
     1
 90
        2
176
     1
 62
     7
176
     1
 62
     7
176
     1
 90
        1
176
     1
 90
        1
176
     1
 40
40.0
176
     1
 90
       11
176
     1
 62
     7
176
     1
 40
1.0
176
     1
 90
        1
176
     1
 90
        6
176
     1
 90
        2
176
     1
 62
     7
176
     1
 90
        6
176
     1
 90
        0
176
     1
 90
        0
176
     1
290
     0
176
     1
 90
        1
176
     1
 40
0.0
176
     1
 90
        0
176
     1
290
     0
176
     1
290
     1
176
     1
290
     1
176
     1
290
     0
176
     1
290
     0
176
     1
290
     0
176
     1
290
     0
176
     1
290
     0
176
     1
290
     0
176
     1
 90
       50
176
     1
 40
0.0
176
     1
 40
1.0
176
     1
 90
        0
176
     1
 62
    18
420
        0
176
     1
 90
       50
176
     1
 90
        3
176
     1
 62
     5
420
      255
176
     1
290
     0
176
     1
 90
       50
176
     1
 90
       50
176
     1
 90
       50
176
     1
290
     0
176
     1
 90
       50
176
     1
 62
   256
176
     0
 40
1.0
176
     0
 90
        2
176
     1
  1
strokes_ogs.tif
176
     1
290
     0
176
     1
 40
1.0
176
     1
 40
1.0
176
     1
  0
VISUALSTYLE
  5
36
102
{ACAD_REACTORS
330
29
102
}
330
29
100
AcDbVisualStyle
  2
Thicken
 70
    13
177
     3
291
     1
 70
    58
 90
        2
176
     1
 90
        2
176
     1
 90
        0
176
     1
 90
        0
176
     1
 40
0.6
176
     1
 40
30.0
176
     1
 62
     7
420
 16777215
176
     1
 90
        1
176
     1
 90
        4
176
     1
 62
     7
176
     1
 62
   257
176
     1
 90
        1
176
     1
 90
        1
176
     1
 40
1.0
176
     1
 90
       12
176
     1
 62
     7
176
     1
 40
1.0
176
     1
 90
        1
176
     1
 90
        6
176
     1
 90
        2
176
     1
 62
     7
176
     1
 90
        5
176
     1
 90
        0
176
     1
 90
        0
176
     1
290
     0
176
     1
 90
        1
176
     1
 40
0.0
176
     1
 90
        0
176
     1
290
     0
176
     1
290
     1
176
     1
290
     1
176
     1
290
     0
176
     1
290
     0
176
     1
290
     0
176
     1
290
     0
176
     1
290
     0
176
     1
290
     0
176
     1
 90
       50
176
     1
 40
0.0
176
     1
 40
1.0
176
     1
 90
        0
176
     1
 62
    18
420
        0
176
     1
 90
       50
176
     1
 90
        3
176
     1
 62
     5
420
      255
176
     1
290
     0
176
     1
 90
       50
176
     1
 90
       50
176
     1
 90
       50
176
     1
290
     0
176
     1
 90
       50
176
     1
 62
   256
176
     0
 40
1.0
176
     0
 90
        2
176
     1
  1
strokes_ogs.tif
176
     1
290
     0
176
     1
 40
1.0
176
     1
 40
1.0
176
     1
  0
VISUALSTYLE
  5
30
102
{ACAD_REACTORS
330
29
102
}
330
29
100
AcDbVisualStyle
  2
Wireframe
 70
     5
177
     3
291
     0
 70
    58
 90
        0
176
     1
 90
        2
176
     1
 90
        0
176
     1
 90
        0
176
     1
 40
0.6
176
     1
 40
30.0
176
     1
 62
     7
420
 16777215
176
     1
 90
        1
176
     1
 90
        4
176
     1
 62
     7
176
     1
 62
   257
176
     1
 90
        1
176
     1
 90
        1
176
     1
 40
1.0
176
     1
 90
        0
176
     1
 62
   257
176
     1
 40
1.0
176
     1
 90
        1
176
     1
 90
        6
176
     1
 90
        2
176
     1
 62
     7
176
     1
 90
        3
176
     1
 90
        0
176
     1
 90
        0
176
     1
290
     0
176
     1
 90
        1
176
     1
 40
0.0
176
     1
 90
        0
176
     1
290
     0
176
     1
290
     1
176
     1
290
     1
176
     1
290
     0
176
     1
290
     0
176
     1
290
     0
176
     1
290
     0
176
     1
290
     0
176
     1
290
     0
176
     1
 90
       50
176
     1
 40
0.0
176
     1
 40
1.0
176
     1
 90
        0
176
     1
 62
    18
420
        0
176
     1
 90
       50
176
     1
 90
        3
176
     1
 62
     5
420
      255
176
     1
290
     0
176
     1
 90
       50
176
     1
 90
       50
176
     1
 90
       50
176
     1
290
     0
176
     1
 90
       50
176
     1
 62
   256
176
     0
 40
1.0
176
     0
 90
        2
176
     1
  1
strokes_ogs.tif
176
     1
290
     0
176
     1
 40
1.0
176
     1
 40
1.0
176
     1
  0
VISUALSTYLE
  5
3C
102
{ACAD_REACTORS
330
29
102
}
330
29
100
AcDbVisualStyle
  2
X-Ray
 70
    25
177
     3
291
     0
 70
    58
 90
        2
176
     1
 90
        2
176
     1
 90
        1
176
     1
 90
        1
176
     1
 40
0.5
176
     1
 40
30.0
176
     1
 62
     7
420
 16777215
176
     1
 90
        1
176
     1
 90
        0
176
     1
 62
     7
176
     1
 62
   257
176
     1
 90
        1
176
     1
 90
        1
176
     1
 40
1.0
176
     1
 90
        8
176
     1
 62
     7
176
     1
 40
1.0
176
     1
 90
        1
176
     1
 90
        6
176
     1
 90
        2
176
     1
 62
     7
176
     1
 90
        3
176
     1
 90
        0
176
     1
 90
        0
176
     1
290
     0
176
     1
 90
       13
176
     1
 40
0.0
176
     1
 90
        0
176
     1
290
     0
176
     1
290
     1
176
     1
290
     1
176
     1
290
     0
176
     1
290
     0
176
     1
290
     0
176
     1
290
     0
176
     1
290
     0
176
     1
290
     0
176
     1
 90
       50
176
     1
 40
0.0
176
     1
 40
1.0
176
     1
 90
        0
176
     1
 62
    18
420
        0
176
     1
 90
       50
176
     1
 90
        3
176
     1
 62
     5
420
      255
176
     1
290
     0
176
     1
 90
       50
176
     1
 90
       50
176
     1
 90
       50
176
     1
290
     0
176
     1
 90
       50
176
     1
 62
   256
176
     0
 40
1.0
176
     0
 90
        2
176
     1
  1
strokes_ogs.tif
176
     1
290
     0
176
     1
 40
1.0
176
     1
 40
1.0
176
     1
  0
DICTIONARYVAR
  5
324
102
{ACAD_REACTORS
330
31F
102
}
330
31F
100
DictionaryVariables
280
     0
  1
1:1
  0
DICTIONARYVAR
  5
321
102
{ACAD_REACTORS
330
31F
102
}
330
31F
100
DictionaryVariables
280
     0
  1
STANDARD
  0
DICTIONARYVAR
  5
320
102
{ACAD_REACTORS
330
31F
102
}
330
31F
100
DictionaryVariables
280
     0
  1
STANDARD
  0
DICTIONARYVAR
  5
322
102
{ACAD_REACTORS
330
31F
102
}
330
31F
100
DictionaryVariables
280
     0
  1
Imperial24
  0
DICTIONARYVAR
  5
323
102
{ACAD_REACTORS
330
31F
102
}
330
31F
100
DictionaryVariables
280
     0
  1
Imperial24
  0
DICTIONARY
  5
1A
330
19
100
AcDbDictionary
280
     1
281
     1
  3
BUMPTILE
360
1C
  3
DIFFUSETILE
360
1B
  3
OPACITYTILE
360
1F
  3
REFLECTIONTILE
360
1E
  3
REFRACTIONTILE
360
20
  3
SPECULARTILE
360
1D
  0
DICTIONARY
  5
12
330
11
100
AcDbDictionary
280
     1
281
     1
  3
BUMPTILE
360
14
  3
DIFFUSETILE
360
13
  3
OPACITYTILE
360
17
  3
REFLECTIONTILE
360
16
  3
REFRACTIONTILE
360
18
  3
SPECULARTILE
360
15
  0
DICTIONARY
  5
22
330
21
100
AcDbDictionary
280
     1
281
     1
  3
BUMPTILE
360
24
  3
DIFFUSETILE
360
23
  3
OPACITYTILE
360
27
  3
REFLECTIONTILE
360
26
  3
REFRACTIONTILE
360
28
  3
SPECULARTILE
360
25
  0
DICTIONARY
  5
325
330
65
100
AcDbDictionary
280
     1
281
     1
  3
ACAD_ROUNDTRIP_2008_TABLESTYLE_CELLSTYLEMAP
360
326
  0
XRECORD
  5
1C
102
{ACAD_REACTORS
330
1A
102
}
330
1A
100
AcDbXrecord
280
     1
270
     1
271
     1
  0
XRECORD
  5
1B
102
{ACAD_REACTORS
330
1A
102
}
330
1A
100
AcDbXrecord
280
     1
270
     1
271
     1
  0
XRECORD
  5
1F
102
{ACAD_REACTORS
330
1A
102
}
330
1A
100
AcDbXrecord
280
     1
270
     1
271
     1
  0
XRECORD
  5
1E
102
{ACAD_REACTORS
330
1A
102
}
330
1A
100
AcDbXrecord
280
     1
270
     1
271
     1
  0
XRECORD
  5
20
102
{ACAD_REACTORS
330
1A
102
}
330
1A
100
AcDbXrecord
280
     1
270
     1
271
     1
  0
XRECORD
  5
1D
102
{ACAD_REACTORS
330
1A
102
}
330
1A
100
AcDbXrecord
280
     1
270
     1
271
     1
  0
XRECORD
  5
14
102
{ACAD_REACTORS
330
12
102
}
330
12
100
AcDbXrecord
280
     1
270
     1
271
     1
  0
XRECORD
  5
13
102
{ACAD_REACTORS
330
12
102
}
330
12
100
AcDbXrecord
280
     1
270
     1
271
     1
  0
XRECORD
  5
17
102
{ACAD_REACTORS
330
12
102
}
330
12
100
AcDbXrecord
280
     1
270
     1
271
     1
  0
XRECORD
  5
16
102
{ACAD_REACTORS
330
12
102
}
330
12
100
AcDbXrecord
280
     1
270
     1
271
     1
  0
XRECORD
  5
18
102
{ACAD_REACTORS
330
12
102
}
330
12
100
AcDbXrecord
280
     1
270
     1
271
     1
  0
XRECORD
  5
15
102
{ACAD_REACTORS
330
12
102
}
330
12
100
AcDbXrecord
280
     1
270
     1
271
     1
  0
XRECORD
  5
24
102
{ACAD_REACTORS
330
22
102
}
330
22
100
AcDbXrecord
280
     1
270
     1
271
     1
  0
XRECORD
  5
23
102
{ACAD_REACTORS
330
22
102
}
330
22
100
AcDbXrecord
280
     1
270
     1
271
     1
  0
XRECORD
  5
27
102
{ACAD_REACTORS
330
22
102
}
330
22
100
AcDbXrecord
280
     1
270
     1
271
     1
  0
XRECORD
  5
26
102
{ACAD_REACTORS
330
22
102
}
330
22
100
AcDbXrecord
280
     1
270
     1
271
     1
  0
XRECORD
  5
28
102
{ACAD_REACTORS
330
22
102
}
330
22
100
AcDbXrecord
280
     1
270
     1
271
     1
  0
XRECORD
  5
25
102
{ACAD_REACTORS
330
22
102
}
330
22
100
AcDbXrecord
280
     1
270
     1
271
     1
  0
CELLSTYLEMAP
  5
326
102
{ACAD_REACTORS
330
325
102
}
330
325
100
AcDbCellStyleMap
 90
        3
300
CELLSTYLE
  1
TABLEFORMAT_BEGIN
 90
        5
170
     1
 91
        0
 92
    32768
 62
   257
 93
        1
300
CONTENTFORMAT
  1
CONTENTFORMAT_BEGIN
 90
        0
 91
        0
 92
      512
 93
        0
300

 40
0.0
140
1.0
 94
        5
 62
     0
340
55
144
0.25
309
CONTENTFORMAT_END
171
     0
 94
        0
309
TABLEFORMAT_END
  1
CELLSTYLE_BEGIN
 90
        1
 91
        1
300
_TITLE
309
CELLSTYLE_END
300
CELLSTYLE
  1
TABLEFORMAT_BEGIN
 90
        5
170
     1
 91
        0
 92
        0
 62
   257
 93
        1
300
CONTENTFORMAT
  1
CONTENTFORMAT_BEGIN
 90
        0
 91
        0
 92
      512
 93
        0
300

 40
0.0
140
1.0
 94
        5
 62
     0
340
55
144
0.18
309
CONTENTFORMAT_END
171
     0
 94
        0
309
TABLEFORMAT_END
  1
CELLSTYLE_BEGIN
 90
        2
 91
        1
300
_HEADER
309
CELLSTYLE_END
300
CELLSTYLE
  1
TABLEFORMAT_BEGIN
 90
        5
170
     1
 91
        0
 92
        0
 62
   257
 93
        1
300
CONTENTFORMAT
  1
CONTENTFORMAT_BEGIN
 90
        0
 91
        0
 92
      512
 93
        0
300

 40
0.0
140
1.0
 94
        2
 62
     0
340
55
144
0.18
309
CONTENTFORMAT_END
171
     0
 94
        0
309
TABLEFORMAT_END
  1
CELLSTYLE_BEGIN
 90
        3
 91
        2
300
_DATA
309
CELLSTYLE_END
  0
ENDSEC
  0
EOF
