  0
SECTION
  2
HEADER
  9
$ACADVER
  1
AC1032
  9
$ACADMAINTVER
 90
      251
  9
$DWGCODEPAGE
  3
ANSI_1252
  9
$REQUIREDVERSIONS
160
                 0
  9
$INSBASE
 10
0.0
 20
0.0
 30
0.0
  9
$EXTMIN
 10
1.000000000000000E+20
 20
1.000000000000000E+20
 30
1.000000000000000E+20
  9
$EXTMAX
 10
-1.000000000000000E+20
 20
-1.000000000000000E+20
 30
-1.000000000000000E+20
  9
$LIMMIN
 10
0.0
 20
0.0
  9
$LIMMAX
 10
12.0
 20
9.0
  9
$ORTHOMODE
 70
     0
  9
$REGENMODE
 70
     1
  9
$FILLMODE
 70
     1
  9
$QTEXTMODE
 70
     0
  9
$MIRRTEXT
 70
     0
  9
$LTSCALE
 40
1.0
  9
$ATTMODE
 70
     1
  9
$TEXTSIZE
 40
0.2
  9
$TRACEWID
 40
0.05
  9
$TEXTSTYLE
  7
Standard
  9
$CLAYER
  8
0
  9
$CELTYPE
  6
ByLayer
  9
$CECOLOR
 62
   256
  9
$CELTSCALE
 40
1.0
  9
$DISPSILH
 70
     0
  9
$DIMSCALE
 40
1.0
  9
$DIMASZ
 40
0.18
  9
$DIMEXO
 40
0.0625
  9
$DIMDLI
 40
0.38
  9
$DIMRND
 40
0.0
  9
$DIMDLE
 40
0.0
  9
$DIMEXE
 40
0.18
  9
$DIMTP
 40
0.0
  9
$DIMTM
 40
0.0
  9
$DIMTXT
 40
0.18
  9
$DIMCEN
 40
0.09
  9
$DIMTSZ
 40
0.0
  9
$DIMTOL
 70
     0
  9
$DIMLIM
 70
     0
  9
$DIMTIH
 70
     1
  9
$DIMTOH
 70
     1
  9
$DIMSE1
 70
     0
  9
$DIMSE2
 70
     0
  9
$DIMTAD
 70
     0
  9
$DIMZIN
 70
     0
  9
$DIMBLK
  1

  9
$DIMASO
 70
     1
  9
$DIMSHO
 70
     1
  9
$DIMPOST
  1

  9
$DIMAPOST
  1

  9
$DIMALT
 70
     0
  9
$DIMALTD
 70
     2
  9
$DIMALTF
 40
25.4
  9
$DIMLFAC
 40
1.0
  9
$DIMTOFL
 70
     0
  9
$DIMTVP
 40
0.0
  9
$DIMTIX
 70
     0
  9
$DIMSOXD
 70
     0
  9
$DIMSAH
 70
     0
  9
$DIMBLK1
  1

  9
$DIMBLK2
  1

  9
$DIMSTYLE
  2
Standard
  9
$DIMCLRD
 70
     0
  9
$DIMCLRE
 70
     0
  9
$DIMCLRT
 70
     0
  9
$DIMTFAC
 40
1.0
  9
$DIMGAP
 40
0.09
  9
$DIMJUST
 70
     0
  9
$DIMSD1
 70
     0
  9
$DIMSD2
 70
     0
  9
$DIMTOLJ
 70
     1
  9
$DIMTZIN
 70
     0
  9
$DIMALTZ
 70
     0
  9
$DIMALTTZ
 70
     0
  9
$DIMUPT
 70
     0
  9
$DIMDEC
 70
     4
  9
$DIMTDEC
 70
     4
  9
$DIMALTU
 70
     2
  9
$DIMALTTD
 70
     2
  9
$DIMTXSTY
  7
Standard
  9
$DIMAUNIT
 70
     0
  9
$DIMADEC
 70
     0
  9
$DIMALTRND
 40
0.0
  9
$DIMAZIN
 70
     0
  9
$DIMDSEP
 70
    46
  9
$DIMATFIT
 70
     3
  9
$DIMFRAC
 70
     0
  9
$DIMLDRBLK
  1

  9
$DIMLUNIT
 70
     2
  9
$DIMLWD
 70
    -2
  9
$DIMLWE
 70
    -2
  9
$DIMTMOVE
 70
     0
  9
$DIMFXL
 40
1.0
  9
$DIMFXLON
 70
     0
  9
$DIMJOGANG
 40
0.7853981633974483
  9
$DIMTFILL
 70
     0
  9
$DIMTFILLCLR
 70
     0
  9
$DIMARCSYM
 70
     0
  9
$DIMLTYPE
  6

  9
$DIMLTEX1
  6

  9
$DIMLTEX2
  6

  9
$DIMTXTDIRECTION
 70
     0
  9
$LUNITS
 70
     2
  9
$LUPREC
 70
     4
  9
$SKETCHINC
 40
0.1
  9
$FILLETRAD
 40
0.0
  9
$AUNITS
 70
     0
  9
$AUPREC
 70
     0
  9
$MENU
  1
.
  9
$ELEVATION
 40
0.0
  9
$PELEVATION
 40
0.0
  9
$THICKNESS
 40
0.0
  9
$LIMCHECK
 70
     0
  9
$CHAMFERA
 40
0.0
  9
$CHAMFERB
 40
0.0
  9
$CHAMFERC
 40
0.0
  9
$CHAMFERD
 40
0.0
  9
$SKPOLY
 70
     0
  9
$TDCREATE
 40
2460097.621631945
  9
$TDUCREATE
 40
2460097.746631944
  9
$TDUPDATE
 40
2460097.621631945
  9
$TDUUPDATE
 40
2460097.746631944
  9
$TDINDWG
 40
0.0000000000
  9
$TDUSRTIMER
 40
0.0000000000
  9
$USRTIMER
 70
     1
  9
$ANGBASE
 50
0.0
  9
$ANGDIR
 70
     0
  9
$PDMODE
 70
     0
  9
$PDSIZE
 40
0.0
  9
$PLINEWID
 40
0.0
  9
$SPLFRAME
 70
     0
  9
$SPLINETYPE
 70
     6
  9
$SPLINESEGS
 70
     8
  9
$HANDSEED
  5
2D1
  9
$SURFTAB1
 70
     6
  9
$SURFTAB2
 70
     6
  9
$SURFTYPE
 70
     6
  9
$SURFU
 70
     6
  9
$SURFV
 70
     6
  9
$UCSBASE
  2

  9
$UCSNAME
  2

  9
$UCSORG
 10
0.0
 20
0.0
 30
0.0
  9
$UCSXDIR
 10
1.0
 20
0.0
 30
0.0
  9
$UCSYDIR
 10
0.0
 20
1.0
 30
0.0
  9
$UCSORTHOREF
  2

  9
$UCSORTHOVIEW
 70
     0
  9
$UCSORGTOP
 10
0.0
 20
0.0
 30
0.0
  9
$UCSORGBOTTOM
 10
0.0
 20
0.0
 30
0.0
  9
$UCSORGLEFT
 10
0.0
 20
0.0
 30
0.0
  9
$UCSORGRIGHT
 10
0.0
 20
0.0
 30
0.0
  9
$UCSORGFRONT
 10
0.0
 20
0.0
 30
0.0
  9
$UCSORGBACK
 10
0.0
 20
0.0
 30
0.0
  9
$PUCSBASE
  2

  9
$PUCSNAME
  2

  9
$PUCSORG
 10
0.0
 20
0.0
 30
0.0
  9
$PUCSXDIR
 10
1.0
 20
0.0
 30
0.0
  9
$PUCSYDIR
 10
0.0
 20
1.0
 30
0.0
  9
$PUCSORTHOREF
  2

  9
$PUCSORTHOVIEW
 70
     0
  9
$PUCSORGTOP
 10
0.0
 20
0.0
 30
0.0
  9
$PUCSORGBOTTOM
 10
0.0
 20
0.0
 30
0.0
  9
$PUCSORGLEFT
 10
0.0
 20
0.0
 30
0.0
  9
$PUCSORGRIGHT
 10
0.0
 20
0.0
 30
0.0
  9
$PUCSORGFRONT
 10
0.0
 20
0.0
 30
0.0
  9
$PUCSORGBACK
 10
0.0
 20
0.0
 30
0.0
  9
$USERI1
 70
     0
  9
$USERI2
 70
     0
  9
$USERI3
 70
     0
  9
$USERI4
 70
     0
  9
$USERI5
 70
     0
  9
$USERR1
 40
0.0
  9
$USERR2
 40
0.0
  9
$USERR3
 40
0.0
  9
$USERR4
 40
0.0
  9
$USERR5
 40
0.0
  9
$WORLDVIEW
 70
     1
  9
$SHADEDGE
 70
     3
  9
$SHADEDIF
 70
    70
  9
$TILEMODE
 70
     1
  9
$MAXACTVP
 70
    64
  9
$PINSBASE
 10
0.0
 20
0.0
 30
0.0
  9
$PLIMCHECK
 70
     0
  9
$PEXTMIN
 10
1.000000000000000E+20
 20
1.000000000000000E+20
 30
1.000000000000000E+20
  9
$PEXTMAX
 10
-1.000000000000000E+20
 20
-1.000000000000000E+20
 30
-1.000000000000000E+20
  9
$PLIMMIN
 10
0.0
 20
0.0
  9
$PLIMMAX
 10
12.0
 20
9.0
  9
$UNITMODE
 70
     0
  9
$VISRETAIN
 70
     1
  9
$PLINEGEN
 70
     0
  9
$PSLTSCALE
 70
     1
  9
$TREEDEPTH
 70
  3020
  9
$CMLSTYLE
  2
Standard
  9
$CMLJUST
 70
     0
  9
$CMLSCALE
 40
1.0
  9
$PROXYGRAPHICS
 70
     1
  9
$MEASUREMENT
 70
     0
  9
$CELWEIGHT
370
    -1
  9
$ENDCAPS
280
     0
  9
$JOINSTYLE
280
     0
  9
$LWDISPLAY
290
     1
  9
$INSUNITS
 70
     0
  9
$HYPERLINKBASE
  1

  9
$STYLESHEET
  1

  9
$XEDIT
290
     1
  9
$CEPSNTYPE
380
     0
  9
$PSTYLEMODE
290
     1
  9
$FINGERPRINTGUID
  2
{D84E12F4-BA84-DA4B-A751-5BE1984ADFE8}
  9
$VERSIONGUID
  2
{6B948429-8D50-D04D-9D2C-B0688E275546}
  9
$EXTNAMES
290
     1
  9
$PSVPSCALE
 40
0.0
  9
$OLESTARTUP
290
     0
  9
$SORTENTS
280
   127
  9
$INDEXCTL
280
     0
  9
$HIDETEXT
280
     1
  9
$XCLIPFRAME
280
     2
  9
$HALOGAP
280
     0
  9
$OBSCOLOR
 70
   257
  9
$OBSLTYPE
280
     0
  9
$INTERSECTIONDISPLAY
280
     0
  9
$INTERSECTIONCOLOR
 70
   257
  9
$DIMASSOC
280
     2
  9
$PROJECTNAME
  1

  9
$CAMERADISPLAY
290
     0
  9
$LENSLENGTH
 40
50.0
  9
$CAMERAHEIGHT
 40
0.0
  9
$STEPSPERSEC
 40
2.0
  9
$STEPSIZE
 40
6.0
  9
$3DDWFPREC
 40
2.0
  9
$PSOLWIDTH
 40
0.25
  9
$PSOLHEIGHT
 40
4.0
  9
$LOFTANG1
 40
1.570796326794896
  9
$LOFTANG2
 40
1.570796326794896
  9
$LOFTMAG1
 40
0.0
  9
$LOFTMAG2
 40
0.0
  9
$LOFTPARAM
 70
     7
  9
$LOFTNORMALS
280
     1
  9
$LATITUDE
 40
37.795
  9
$LONGITUDE
 40
-122.394
  9
$NORTHDIRECTION
 40
0.0
  9
$TIMEZONE
 70
 -8000
  9
$LIGHTGLYPHDISPLAY
280
     1
  9
$TILEMODELIGHTSYNCH
280
     1
  9
$CMATERIAL
347
11
  9
$SOLIDHIST
280
     0
  9
$SHOWHIST
280
     1
  9
$DWFFRAME
280
     2
  9
$DGNFRAME
280
     0
  9
$REALWORLDSCALE
290
     1
  9
$INTERFERECOLOR
 62
     1
  9
$INTERFEREOBJVS
345
33
  9
$INTERFEREVPVS
346
30
  9
$CSHADOW
280
     0
  9
$SHADOWPLANELOCATION
 40
0.0
  0
ENDSEC
  0
SECTION
  2
CLASSES
  0
CLASS
  1
ACDBDICTIONARYWDFLT
  2
AcDbDictionaryWithDefault
  3
ObjectDBX Classes
 90
        0
 91
        1
280
     0
281
     0
  0
CLASS
  1
MATERIAL
  2
AcDbMaterial
  3
ObjectDBX Classes
 90
     1153
 91
        3
280
     0
281
     0
  0
CLASS
  1
VISUALSTYLE
  2
AcDbVisualStyle
  3
ObjectDBX Classes
 90
     4095
 91
       24
280
     0
281
     0
  0
CLASS
  1
SCALE
  2
AcDbScale
  3
ObjectDBX Classes
 90
     1153
 91
       17
280
     0
281
     0
  0
CLASS
  1
TABLESTYLE
  2
AcDbTableStyle
  3
ObjectDBX Classes
 90
     4095
 91
        1
280
     0
281
     0
  0
CLASS
  1
MLEADERSTYLE
  2
AcDbMLeaderStyle
  3
ACDB_MLEADERSTYLE_CLASS
 90
     4095
 91
        1
280
     0
281
     0
  0
CLASS
  1
ACDBSECTIONVIEWSTYLE
  2
AcDbSectionViewStyle
  3
ObjectDBX Classes
 90
     1025
 91
        1
280
     0
281
     0
  0
CLASS
  1
ACDBDETAILVIEWSTYLE
  2
AcDbDetailViewStyle
  3
ObjectDBX Classes
 90
     1025
 91
        1
280
     0
281
     0
  0
CLASS
  1
DICTIONARYVAR
  2
AcDbDictionaryVar
  3
ObjectDBX Classes
 90
        0
 91
        5
280
     0
281
     0
  0
CLASS
  1
CELLSTYLEMAP
  2
AcDbCellStyleMap
  3
ObjectDBX Classes
 90
     1152
 91
        1
280
     0
281
     0
  0
ENDSEC
  0
SECTION
  2
TABLES
  0
TABLE
  2
VPORT
  5
8
330
0
100
AcDbSymbolTable
 70
     1
  0
VPORT
  5
57
330
8
100
AcDbSymbolTableRecord
100
AcDbViewportTableRecord
  2
*Active
 70
     0
 10
0.0
 20
0.0
 11
1.0
 21
1.0
 12
0.0
 22
0.0
 13
0.0
 23
0.0
 14
1.0
 24
1.0
 15
0.0
 25
0.0
 16
0.0
 26
0.0
 36
1.0
 17
1273.568233676039
 27
1024.948851748482
 37
0.0
 40
424.652658062775
 41
2.674219304602126
 42
50.0
 43
0.0
 44
0.0
 50
0.0
 51
0.0
 71
     0
 72
   100
 73
     1
 74
     1
 75
     0
 76
     0
 77
     0
 78
     0
281
     0
 65
     1
110
0.0
120
0.0
130
0.0
111
1.0
121
0.0
131
0.0
112
0.0
122
1.0
132
0.0
 79
     0
146
0.0
 60
     3
 61
     5
292
     1
282
     1
141
0.0
142
0.0
 63
   250
421
  3355443
  0
ENDTAB
  0
TABLE
  2
LTYPE
  5
5
330
0
100
AcDbSymbolTable
 70
     1
  0
LTYPE
  5
5B
330
5
100
AcDbSymbolTableRecord
100
AcDbLinetypeTableRecord
  2
ByBlock
 70
     0
  3

 72
    65
 73
     0
 40
0.0
  0
LTYPE
  5
5C
330
5
100
AcDbSymbolTableRecord
100
AcDbLinetypeTableRecord
  2
ByLayer
 70
     0
  3

 72
    65
 73
     0
 40
0.0
  0
LTYPE
  5
5D
330
5
100
AcDbSymbolTableRecord
100
AcDbLinetypeTableRecord
  2
Continuous
 70
     0
  3
Solid line
 72
    65
 73
     0
 40
0.0
  0
ENDTAB
  0
TABLE
  2
LAYER
  5
2
330
0
100
AcDbSymbolTable
 70
     2
  0
LAYER
  5
54
330
2
100
AcDbSymbolTableRecord
100
AcDbLayerTableRecord
  2
0
 70
     0
 62
     7
  6
Continuous
370
    -3
390
F
347
21
348
0
  0
LAYER
  5
78
330
2
100
AcDbSymbolTableRecord
100
AcDbLayerTableRecord
  2
Camada 1
 70
     0
 62
     7
  6
Continuous
370
     0
390
F
347
21
348
0
  0
ENDTAB
  0
TABLE
  2
STYLE
  5
3
330
0
100
AcDbSymbolTable
 70
     2
  0
STYLE
  5
55
330
3
100
AcDbSymbolTableRecord
100
AcDbTextStyleTableRecord
  2
Standard
 70
     0
 40
0.0
 41
1.0
 50
0.0
 71
     0
 42
0.2
  3
txt
  4

  0
STYLE
  5
5A
330
3
100
AcDbSymbolTableRecord
100
AcDbTextStyleTableRecord
  2
Annotative
 70
     0
 40
0.0
 41
1.0
 50
0.0
 71
     0
 42
0.2
  3
txt
  4

1001
AcadAnnotative
1000
AnnotativeData
1002
{
1070
     1
1070
     1
1002
}
  0
ENDTAB
  0
TABLE
  2
VIEW
  5
6
330
0
100
AcDbSymbolTable
 70
     0
  0
ENDTAB
  0
TABLE
  2
UCS
  5
7
330
0
100
AcDbSymbolTable
 70
     0
  0
ENDTAB
  0
TABLE
  2
APPID
  5
9
330
0
100
AcDbSymbolTable
 70
     2
  0
APPID
  5
56
330
9
100
AcDbSymbolTableRecord
100
AcDbRegAppTableRecord
  2
ACAD
 70
     0
  0
APPID
  5
5E
330
9
100
AcDbSymbolTableRecord
100
AcDbRegAppTableRecord
  2
AcadAnnotative
 70
     0
  0
ENDTAB
  0
TABLE
  2
DIMSTYLE
  5
A
330
0
100
AcDbSymbolTable
 70
     2
100
AcDbDimStyleTable
 71
     0
  0
DIMSTYLE
105
58
330
A
100
AcDbSymbolTableRecord
100
AcDbDimStyleTableRecord
  2
Standard
 70
     0
340
55
  0
DIMSTYLE
105
59
330
A
100
AcDbSymbolTableRecord
100
AcDbDimStyleTableRecord
  2
Annotative
 70
     0
340
55
1001
AcadAnnotative
1000
AnnotativeData
1002
{
1070
     1
1070
     1
1002
}
  0
ENDTAB
  0
TABLE
  2
BLOCK_RECORD
  5
1
330
0
100
AcDbSymbolTable
 70
     2
  0
BLOCK_RECORD
  5
70
330
1
100
AcDbSymbolTableRecord
100
AcDbBlockTableRecord
  2
*Model_Space
340
73
 70
     0
280
     1
281
     0
  0
BLOCK_RECORD
  5
6C
330
1
100
AcDbSymbolTableRecord
100
AcDbBlockTableRecord
  2
*Paper_Space
340
6F
 70
     0
280
     1
281
     0
  0
BLOCK_RECORD
  5
74
330
1
100
AcDbSymbolTableRecord
100
AcDbBlockTableRecord
  2
*Paper_Space0
340
77
 70
     0
280
     1
281
     0
  0
BLOCK_RECORD
  5
2BF
330
1
100
AcDbSymbolTableRecord
100
AcDbBlockTableRecord
  2
Block_0
340
0
102
{BLKREFS
331
2C0
102
}
 70
     0
280
     1
281
     0
  0
ENDTAB
  0
ENDSEC
  0
SECTION
  2
BLOCKS
  0
BLOCK
  5
71
330
70
100
AcDbEntity
  8
0
100
AcDbBlockBegin
  2
*Model_Space
 70
     0
 10
0.0
 20
0.0
 30
0.0
  3
*Model_Space
  1

  0
ENDBLK
  5
72
330
70
100
AcDbEntity
  8
0
100
AcDbBlockEnd
  0
BLOCK
  5
6D
330
6C
100
AcDbEntity
 67
     1
  8
0
100
AcDbBlockBegin
  2
*Paper_Space
 70
     0
 10
0.0
 20
0.0
 30
0.0
  3
*Paper_Space
  1

  0
ENDBLK
  5
6E
330
6C
100
AcDbEntity
 67
     1
  8
0
100
AcDbBlockEnd
  0
BLOCK
  5
75
330
74
100
AcDbEntity
 67
     1
  8
0
100
AcDbBlockBegin
  2
*Paper_Space0
 70
     0
 10
0.0
 20
0.0
 30
0.0
  3
*Paper_Space0
  1

  0
ENDBLK
  5
76
330
74
100
AcDbEntity
 67
     1
  8
0
100
AcDbBlockEnd
  0
BLOCK
  5
2C1
330
2BF
100
AcDbEntity
  8
0
100
AcDbBlockBegin
  2
Block_0
 70
     0
 10
0.0
 20
0.0
 30
0.0
  3
Block_0
  1

  0
SPLINE
  5
2C3
330
2BF
100
AcDbEntity
  8
Camada 1
 62
   149
420
  3818319
370
    35
100
AcDbSpline
210
0.0
220
0.0
230
1.0
 70
     9
 71
     3
 72
    29
 73
    25
 74
     0
 42
0.0000000001
 43
0.0000000001
 40
0.0
 40
0.0
 40
0.0
 40
0.0
 40
1.0
 40
1.0
 40
1.0
 40
2.0
 40
2.0
 40
2.0
 40
3.0
 40
3.0
 40
3.0
 40
4.0
 40
4.0
 40
4.0
 40
5.0
 40
5.0
 40
5.0
 40
6.0
 40
6.0
 40
6.0
 40
7.0
 40
7.0
 40
7.0
 40
8.0
 40
8.0
 40
8.0
 40
8.0
 10
1790.493015459033
 20
860.1869336752033
 30
0.0
 10
1790.493015459033
 20
857.1275740864676
 30
0.0
 10
1787.99147219794
 20
854.6260339182673
 30
0.0
 10
1784.929953767165
 20
854.6260339182673
 30
0.0
 10
1784.929953767165
 20
854.6260339182673
 30
0.0
 10
1752.234804541376
 20
854.6260339182673
 30
0.0
 10
1752.234804541376
 20
854.6260339182673
 30
0.0
 10
1749.179768822492
 20
854.6260339182673
 30
0.0
 10
1746.676064657444
 20
857.1275740864676
 30
0.0
 10
1746.676064657444
 20
860.1869336752033
 30
0.0
 10
1746.676064657444
 20
860.1869336752033
 30
0.0
 10
1746.676064657444
 20
892.8864031624788
 30
0.0
 10
1746.676064657444
 20
892.8864031624788
 30
0.0
 10
1746.676064657444
 20
895.9414430052138
 30
0.0
 10
1749.179768822492
 20
898.4451430464078
 30
0.0
 10
1752.234804541376
 20
898.4451430464078
 30
0.0
 10
1752.234804541376
 20
898.4451430464078
 30
0.0
 10
1784.929953767165
 20
898.4451430464078
 30
0.0
 10
1784.929953767165
 20
898.4451430464078
 30
0.0
 10
1787.99147219794
 20
898.4451430464078
 30
0.0
 10
1790.493015459033
 20
895.9414430052138
 30
0.0
 10
1790.493015459033
 20
892.8864031624788
 30
0.0
 10
1790.493015459033
 20
892.8864031624788
 30
0.0
 10
1790.493015459033
 20
860.1869336752033
 30
0.0
 10
1790.493015459033
 20
860.1869336752033
 30
0.0
  0
LWPOLYLINE
  5
2C4
330
2BF
100
AcDbEntity
  8
Camada 1
100
AcDbPolyline
 90
        4
 70
     1
 43
0.0
 10
1745.783339143714
 20
853.7337388327005
 10
1791.565627980364
 20
853.7337388327005
 10
1791.565627980364
 20
899.3365736673004
 10
1745.783339143714
 20
899.3365736673004
  0
ENDBLK
  5
2C2
330
2BF
100
AcDbEntity
  8
0
100
AcDbBlockEnd
  0
ENDSEC
  0
SECTION
  2
ENTITIES
  0
LINE
  5
79
330
70
100
AcDbEntity
  8
Camada 1
 62
    18
420
        0
370
    35
100
AcDbLine
 10
801.7118614262489
 20
982.926997862145
 30
0.0
 11
801.7118614262489
 21
1056.59181868084
 31
0.0
  0
LINE
  5
7A
330
70
100
AcDbEntity
  8
Camada 1
 62
    18
420
        0
370
    35
100
AcDbLine
 10
802.7951717310388
 20
981.8437108829421
 30
0.0
 11
802.7951717310388
 21
1057.675152311229
 31
0.0
  0
LINE
  5
7B
330
70
100
AcDbEntity
  8
Camada 1
 62
    18
420
        0
370
    35
100
AcDbLine
 10
803.3368152206403
 20
985.6067347666394
 30
0.0
 11
803.3368152206403
 21
1006.94157755281
 31
0.0
  0
LINE
  5
7C
330
70
100
AcDbEntity
  8
Camada 1
 62
    18
420
        0
370
    35
100
AcDbLine
 10
803.3368152206403
 20
1032.57728564136
 30
0.0
 11
803.3368152206403
 21
1053.91208177635
 31
0.0
  0
LINE
  5
7D
330
70
100
AcDbEntity
  8
Camada 1
 62
    18
420
        0
370
    35
100
AcDbLine
 10
817.9614460213414
 20
994.3017210740654
 30
0.0
 11
817.9614460213414
 21
1045.21709546893
 31
0.0
  0
LINE
  5
7E
330
70
100
AcDbEntity
  8
Camada 1
 62
    18
420
        0
370
    35
100
AcDbLine
 10
821.2113769357147
 20
1045.21709546893
 30
0.0
 11
821.2113769357147
 21
994.3017210740654
 31
0.0
  0
LINE
  5
7F
330
70
100
AcDbEntity
  8
Camada 1
 62
    18
420
        0
370
    35
100
AcDbLine
 10
832.0444333324431
 20
994.3017210740654
 30
0.0
 11
832.0444333324431
 21
1045.21709546893
 31
0.0
  0
LINE
  5
80
330
70
100
AcDbEntity
  8
Camada 1
 62
    18
420
        0
370
    35
100
AcDbLine
 10
835.2943642468162
 20
1045.21709546893
 30
0.0
 11
835.2943642468162
 21
994.3017210740654
 31
0.0
  0
LINE
  5
81
330
70
100
AcDbEntity
  8
Camada 1
 62
    18
420
        0
370
    35
100
AcDbLine
 10
846.1274206435446
 20
994.3017210740654
 30
0.0
 11
846.1274206435446
 21
1045.21709546893
 31
0.0
  0
LINE
  5
82
330
70
100
AcDbEntity
  8
Camada 1
 62
    18
420
        0
370
    35
100
AcDbLine
 10
849.377328232329
 20
1045.21709546893
 30
0.0
 11
849.377328232329
 21
994.3017210740654
 31
0.0
  0
LINE
  5
83
330
70
100
AcDbEntity
  8
Camada 1
 62
    18
420
        0
370
    35
100
AcDbLine
 10
860.210407954648
 20
994.3017210740654
 30
0.0
 11
860.210407954648
 21
1045.21709546893
 31
0.0
  0
LINE
  5
84
330
70
100
AcDbEntity
  8
Camada 1
 62
    18
420
        0
370
    35
100
AcDbLine
 10
863.4603155434305
 20
1045.21709546893
 30
0.0
 11
863.4603155434305
 21
994.3017210740654
 31
0.0
  0
LINE
  5
85
330
70
100
AcDbEntity
  8
Camada 1
 62
    18
420
        0
370
    35
100
AcDbLine
 10
874.2933952657512
 20
994.3017210740654
 30
0.0
 11
874.2933952657512
 21
1045.21709546893
 31
0.0
  0
LINE
  5
86
330
70
100
AcDbEntity
  8
Camada 1
 62
    18
420
        0
370
    35
100
AcDbLine
 10
877.5433028545322
 20
1045.21709546893
 30
0.0
 11
877.5433028545322
 21
994.3017210740654
 31
0.0
  0
LINE
  5
87
330
70
100
AcDbEntity
  8
Camada 1
 62
    18
420
        0
370
    35
100
AcDbLine
 10
888.3763825768491
 20
994.3017210740654
 30
0.0
 11
888.3763825768491
 21
1045.21709546893
 31
0.0
  0
LINE
  5
88
330
70
100
AcDbEntity
  8
Camada 1
 62
    18
420
        0
370
    35
100
AcDbLine
 10
891.6262901656336
 20
1045.21709546893
 30
0.0
 11
891.6262901656336
 21
994.3017210740654
 31
0.0
  0
LINE
  5
89
330
70
100
AcDbEntity
  8
Camada 1
 62
    18
420
        0
370
    35
100
AcDbLine
 10
902.459346562362
 20
994.3017210740654
 30
0.0
 11
902.459346562362
 21
1045.21709546893
 31
0.0
  0
LINE
  5
8A
330
70
100
AcDbEntity
  8
Camada 1
 62
    18
420
        0
370
    35
100
AcDbLine
 10
905.7092774767333
 20
1045.21709546893
 30
0.0
 11
905.7092774767333
 21
994.3017210740654
 31
0.0
  0
LINE
  5
8B
330
70
100
AcDbEntity
  8
Camada 1
 62
    18
420
        0
370
    35
100
AcDbLine
 10
916.5423338734653
 20
994.3017210740654
 30
0.0
 11
916.5423338734653
 21
1045.21709546893
 31
0.0
  0
LINE
  5
8C
330
70
100
AcDbEntity
  8
Camada 1
 62
    18
420
        0
370
    35
100
AcDbLine
 10
919.7922647878367
 20
1045.21709546893
 30
0.0
 11
919.7922647878367
 21
994.3017210740654
 31
0.0
  0
LINE
  5
8D
330
70
100
AcDbEntity
  8
Camada 1
 62
    18
420
        0
370
    35
100
AcDbLine
 10
930.6253211845652
 20
994.3017210740654
 30
0.0
 11
930.6253211845652
 21
1045.21709546893
 31
0.0
  0
LINE
  5
8E
330
70
100
AcDbEntity
  8
Camada 1
 62
    18
420
        0
370
    35
100
AcDbLine
 10
933.8752520989364
 20
1045.21709546893
 30
0.0
 11
933.8752520989364
 21
994.3017210740654
 31
0.0
  0
LINE
  5
8F
330
70
100
AcDbEntity
  8
Camada 1
 62
    18
420
        0
370
    35
100
AcDbLine
 10
944.7083084956684
 20
994.3017210740654
 30
0.0
 11
944.7083084956684
 21
1045.21709546893
 31
0.0
  0
LINE
  5
90
330
70
100
AcDbEntity
  8
Camada 1
 62
    18
420
        0
370
    35
100
AcDbLine
 10
947.9582160844511
 20
1045.21709546893
 30
0.0
 11
947.9582160844511
 21
994.3017210740654
 31
0.0
  0
LINE
  5
91
330
70
100
AcDbEntity
  8
Camada 1
 62
    18
420
        0
370
    35
100
AcDbLine
 10
958.79129580677
 20
994.3017210740654
 30
0.0
 11
958.79129580677
 21
1045.21709546893
 31
0.0
  0
LINE
  5
92
330
70
100
AcDbEntity
  8
Camada 1
 62
    18
420
        0
370
    35
100
AcDbLine
 10
962.0412033955526
 20
1045.21709546893
 30
0.0
 11
962.0412033955526
 21
994.3017210740654
 31
0.0
  0
LINE
  5
93
330
70
100
AcDbEntity
  8
Camada 1
 62
    18
420
        0
370
    35
100
AcDbLine
 10
972.874259792281
 20
994.3017210740654
 30
0.0
 11
972.874259792281
 21
1045.21709546893
 31
0.0
  0
LINE
  5
94
330
70
100
AcDbEntity
  8
Camada 1
 62
    18
420
        0
370
    35
100
AcDbLine
 10
976.1242140322428
 20
1045.21709546893
 30
0.0
 11
976.1242140322428
 21
994.3017210740654
 31
0.0
  0
LINE
  5
95
330
70
100
AcDbEntity
  8
Camada 1
 62
    18
420
        0
370
    35
100
AcDbLine
 10
986.9572704289712
 20
994.3017210740654
 30
0.0
 11
986.9572704289712
 21
1045.21709546893
 31
0.0
  0
LINE
  5
96
330
70
100
AcDbEntity
  8
Camada 1
 62
    18
420
        0
370
    35
100
AcDbLine
 10
990.2071780177539
 20
1045.21709546893
 30
0.0
 11
990.2071780177539
 21
994.3017210740654
 31
0.0
  0
LINE
  5
97
330
70
100
AcDbEntity
  8
Camada 1
 62
    18
420
        0
370
    35
100
AcDbLine
 10
1001.040234414489
 20
994.3017210740654
 30
0.0
 11
1001.040234414489
 21
1045.21709546893
 31
0.0
  0
LINE
  5
98
330
70
100
AcDbEntity
  8
Camada 1
 62
    18
420
        0
370
    35
100
AcDbLine
 10
1004.29014200327
 20
1045.21709546893
 30
0.0
 11
1004.29014200327
 21
994.3017210740654
 31
0.0
  0
LINE
  5
99
330
70
100
AcDbEntity
  8
Camada 1
 62
    18
420
        0
370
    35
100
AcDbLine
 10
1015.12324505117
 20
994.3017210740654
 30
0.0
 11
1015.12324505117
 21
1045.21709546893
 31
0.0
  0
LINE
  5
9A
330
70
100
AcDbEntity
  8
Camada 1
 62
    18
420
        0
370
    35
100
AcDbLine
 10
1018.37315263996
 20
1045.21709546893
 30
0.0
 11
1018.37315263996
 21
994.3017210740654
 31
0.0
  0
LINE
  5
9B
330
70
100
AcDbEntity
  8
Camada 1
 62
    18
420
        0
370
    35
100
AcDbLine
 10
1029.206209036691
 20
994.3017210740654
 30
0.0
 11
1029.206209036691
 21
1045.21709546893
 31
0.0
  0
LINE
  5
9C
330
70
100
AcDbEntity
  8
Camada 1
 62
    18
420
        0
370
    35
100
AcDbLine
 10
1032.456116625469
 20
1045.21709546893
 30
0.0
 11
1032.456116625469
 21
994.3017210740654
 31
0.0
  0
LINE
  5
9D
330
70
100
AcDbEntity
  8
Camada 1
 62
    18
420
        0
370
    35
100
AcDbLine
 10
1043.2891730222
 20
994.3017210740654
 30
0.0
 11
1043.2891730222
 21
1045.21709546893
 31
0.0
  0
LINE
  5
9E
330
70
100
AcDbEntity
  8
Camada 1
 62
    18
420
        0
370
    35
100
AcDbLine
 10
1046.53912726216
 20
1045.21709546893
 30
0.0
 11
1046.53912726216
 21
994.3017210740654
 31
0.0
  0
LINE
  5
9F
330
70
100
AcDbEntity
  8
Camada 1
 62
    18
420
        0
370
    35
100
AcDbLine
 10
804.4209652466143
 20
1054.38904340916
 30
0.0
 11
803.3574350408381
 21
1053.96479760627
 31
0.0
  0
LINE
  5
A0
330
70
100
AcDbEntity
  8
Camada 1
 62
    18
420
        0
370
    35
100
AcDbLine
 10
803.3574350408381
 20
985.5540189367239
 30
0.0
 11
804.4209652466143
 21
985.1297731338382
 31
0.0
  0
LINE
  5
A1
330
70
100
AcDbEntity
  8
Camada 1
 62
    18
420
        0
370
    35
100
AcDbLine
 10
1057.37218365889
 20
994.3017210740654
 30
0.0
 11
1057.37218365889
 21
1045.21709546893
 31
0.0
  0
LINE
  5
A2
330
70
100
AcDbEntity
  8
Camada 1
 62
    18
420
        0
370
    35
100
AcDbLine
 10
1060.622091247669
 20
1045.21709546893
 30
0.0
 11
1060.622091247669
 21
994.3017210740654
 31
0.0
  0
LINE
  5
A3
330
70
100
AcDbEntity
  8
Camada 1
 62
    18
420
        0
370
    35
100
AcDbLine
 10
1071.455147644399
 20
994.3017210740654
 30
0.0
 11
1071.455147644399
 21
1045.21709546893
 31
0.0
  0
LINE
  5
A4
330
70
100
AcDbEntity
  8
Camada 1
 62
    18
420
        0
370
    35
100
AcDbLine
 10
1074.70510188437
 20
1045.21709546893
 30
0.0
 11
1074.70510188437
 21
994.3017210740654
 31
0.0
  0
LINE
  5
A5
330
70
100
AcDbEntity
  8
Camada 1
 62
    18
420
        0
370
    35
100
AcDbLine
 10
1085.5381582811
 20
994.3017210740654
 30
0.0
 11
1085.5381582811
 21
1045.21709546893
 31
0.0
  0
LINE
  5
A6
330
70
100
AcDbEntity
  8
Camada 1
 62
    18
420
        0
370
    35
100
AcDbLine
 10
1088.788065869879
 20
1045.21709546893
 30
0.0
 11
1088.788065869879
 21
994.3017210740654
 31
0.0
  0
LINE
  5
A7
330
70
100
AcDbEntity
  8
Camada 1
 62
    18
420
        0
370
    35
100
AcDbLine
 10
1099.62112226661
 20
994.3017210740654
 30
0.0
 11
1099.62112226661
 21
1045.21709546893
 31
0.0
  0
LINE
  5
A8
330
70
100
AcDbEntity
  8
Camada 1
 62
    18
420
        0
370
    35
100
AcDbLine
 10
1102.87102985539
 20
1045.21709546893
 30
0.0
 11
1102.87102985539
 21
994.3017210740654
 31
0.0
  0
LINE
  5
A9
330
70
100
AcDbEntity
  8
Camada 1
 62
    18
420
        0
370
    35
100
AcDbLine
 10
1113.7041329033
 20
994.3017210740654
 30
0.0
 11
1113.7041329033
 21
1045.21709546893
 31
0.0
  0
LINE
  5
AA
330
70
100
AcDbEntity
  8
Camada 1
 62
    18
420
        0
370
    35
100
AcDbLine
 10
1116.954040492081
 20
1045.21709546893
 30
0.0
 11
1116.954040492081
 21
994.3017210740654
 31
0.0
  0
LINE
  5
AB
330
70
100
AcDbEntity
  8
Camada 1
 62
    18
420
        0
370
    35
100
AcDbLine
 10
1127.787096888809
 20
994.3017210740654
 30
0.0
 11
1127.787096888809
 21
1045.21709546893
 31
0.0
  0
LINE
  5
AC
330
70
100
AcDbEntity
  8
Camada 1
 62
    18
420
        0
370
    35
100
AcDbLine
 10
1131.03700447759
 20
1045.21709546893
 30
0.0
 11
1131.03700447759
 21
994.3017210740654
 31
0.0
  0
LINE
  5
AD
330
70
100
AcDbEntity
  8
Camada 1
 62
    18
420
        0
370
    35
100
AcDbLine
 10
1141.870060874329
 20
994.3017210740654
 30
0.0
 11
1141.870060874329
 21
1045.21709546893
 31
0.0
  0
LINE
  5
AE
330
70
100
AcDbEntity
  8
Camada 1
 62
    18
420
        0
370
    35
100
AcDbLine
 10
1145.120015114289
 20
1045.21709546893
 30
0.0
 11
1145.120015114289
 21
994.3017210740654
 31
0.0
  0
LINE
  5
AF
330
70
100
AcDbEntity
  8
Camada 1
 62
    18
420
        0
370
    35
100
AcDbLine
 10
1155.95307151101
 20
994.3017210740654
 30
0.0
 11
1155.95307151101
 21
1045.21709546893
 31
0.0
  0
LINE
  5
B0
330
70
100
AcDbEntity
  8
Camada 1
 62
    18
420
        0
370
    35
100
AcDbLine
 10
1159.2029790998
 20
1045.21709546893
 30
0.0
 11
1159.2029790998
 21
994.3017210740654
 31
0.0
  0
LINE
  5
B1
330
70
100
AcDbEntity
  8
Camada 1
 62
    18
420
        0
370
    35
100
AcDbLine
 10
1170.03603549653
 20
994.3017210740654
 30
0.0
 11
1170.03603549653
 21
1045.21709546893
 31
0.0
  0
LINE
  5
B2
330
70
100
AcDbEntity
  8
Camada 1
 62
    18
420
        0
370
    35
100
AcDbLine
 10
1173.28598973649
 20
1045.21709546893
 30
0.0
 11
1173.28598973649
 21
994.3017210740654
 31
0.0
  0
LINE
  5
B3
330
70
100
AcDbEntity
  8
Camada 1
 62
    18
420
        0
370
    35
100
AcDbLine
 10
1184.11904613322
 20
994.3017210740654
 30
0.0
 11
1184.11904613322
 21
1045.21709546893
 31
0.0
  0
LINE
  5
B4
330
70
100
AcDbEntity
  8
Camada 1
 62
    18
420
        0
370
    35
100
AcDbLine
 10
1187.368953722
 20
1045.21709546893
 30
0.0
 11
1187.368953722
 21
994.3017210740654
 31
0.0
  0
LINE
  5
B5
330
70
100
AcDbEntity
  8
Camada 1
 62
    18
420
        0
370
    35
100
AcDbLine
 10
1198.20201011873
 20
994.3017210740654
 30
0.0
 11
1198.20201011873
 21
1045.21709546893
 31
0.0
  0
LINE
  5
B6
330
70
100
AcDbEntity
  8
Camada 1
 62
    18
420
        0
370
    35
100
AcDbLine
 10
1201.451917707509
 20
1045.21709546893
 30
0.0
 11
1201.451917707509
 21
994.3017210740654
 31
0.0
  0
LINE
  5
B7
330
70
100
AcDbEntity
  8
Camada 1
 62
    18
420
        0
370
    35
100
AcDbLine
 10
1413.1998369915
 20
984.5942176228236
 30
0.0
 11
1426.276535090899
 21
985.0506060866065
 31
0.0
  0
LINE
  5
B8
330
70
100
AcDbEntity
  8
Camada 1
 62
    18
420
        0
370
    35
100
AcDbLine
 10
1174.33078949473
 20
984.5942176228236
 30
0.0
 11
1187.407440942959
 21
985.0506060866065
 31
0.0
  0
LINE
  5
B9
330
70
100
AcDbEntity
  8
Camada 1
 62
    18
420
        0
370
    35
100
AcDbLine
 10
1650.829549322279
 20
984.5885261792391
 30
0.0
 11
1663.911379051151
 21
985.0068939338379
 31
0.0
  0
LINE
  5
BA
330
70
100
AcDbEntity
  8
Camada 1
 62
    18
420
        0
370
    35
100
AcDbLine
 10
1667.2737159763
 20
981.8437108829421
 30
0.0
 11
802.7951717310388
 21
981.8437108829421
 31
0.0
  0
LINE
  5
BB
330
70
100
AcDbEntity
  8
Camada 1
 62
    18
420
        0
370
    35
100
AcDbLine
 10
801.7118614262489
 20
982.926997862145
 30
0.0
 11
1668.35704960668
 21
982.926997862145
 31
0.0
  0
LINE
  5
BC
330
70
100
AcDbEntity
  8
Camada 1
 62
    18
420
        0
370
    35
100
AcDbLine
 10
822.8986800280562
 20
984.5388426758217
 30
0.0
 11
931.6316337218559
 21
984.5388426758217
 31
0.0
  0
LINE
  5
BD
330
70
100
AcDbEntity
  8
Camada 1
 62
    18
420
        0
370
    35
100
AcDbLine
 10
1060.69906568959
 20
984.5388426758217
 30
0.0
 11
1170.500727869799
 21
984.5388426758217
 31
0.0
  0
LINE
  5
BE
330
70
100
AcDbEntity
  8
Camada 1
 62
    18
420
        0
370
    35
100
AcDbLine
 10
1299.568159837539
 20
984.5388426758217
 30
0.0
 11
1409.369775366569
 21
984.5388426758217
 31
0.0
  0
LINE
  5
BF
330
70
100
AcDbEntity
  8
Camada 1
 62
    18
420
        0
370
    35
100
AcDbLine
 10
1538.437253985479
 20
984.5388426758217
 30
0.0
 11
1647.170137702509
 21
984.5388426758217
 31
0.0
  0
LINE
  5
C0
330
70
100
AcDbEntity
  8
Camada 1
 62
    18
420
        0
370
    35
100
AcDbLine
 10
952.3684317455263
 20
985.1059810336082
 30
0.0
 11
1039.96229099151
 21
985.1059810336082
 31
0.0
  0
LINE
  5
C1
330
70
100
AcDbEntity
  8
Camada 1
 62
    18
420
        0
370
    35
100
AcDbLine
 10
1191.23750256789
 20
985.1059810336082
 30
0.0
 11
1278.83133848828
 21
985.1059810336082
 31
0.0
  0
LINE
  5
C2
330
70
100
AcDbEntity
  8
Camada 1
 62
    18
420
        0
370
    35
100
AcDbLine
 10
1430.10659671583
 20
985.1059810336082
 30
0.0
 11
1517.70043263622
 21
985.1059810336082
 31
0.0
  0
LINE
  5
C3
330
70
100
AcDbEntity
  8
Camada 1
 62
    18
420
        0
370
    35
100
AcDbLine
 10
806.1575319817821
 20
985.0068939338379
 30
0.0
 11
819.2393383850577
 21
984.5885261792391
 31
0.0
  0
LINE
  5
C4
330
70
100
AcDbEntity
  8
Camada 1
 62
    18
420
        0
370
    35
100
AcDbLine
 10
1043.79235261643
 20
985.0506060866065
 30
0.0
 11
1056.86900406466
 21
984.5942176228236
 31
0.0
  0
LINE
  5
C5
330
70
100
AcDbEntity
  8
Camada 1
 62
    18
420
        0
370
    35
100
AcDbLine
 10
1282.661446764379
 20
985.0506060866065
 30
0.0
 11
1295.73809821261
 21
984.5942176228236
 31
0.0
  0
LINE
  5
C6
330
70
100
AcDbEntity
  8
Camada 1
 62
    18
420
        0
370
    35
100
AcDbLine
 10
935.4617186723736
 20
984.5942176228236
 30
0.0
 11
948.5383701205973
 21
985.0506060866065
 31
0.0
  0
LINE
  5
C7
330
70
100
AcDbEntity
  8
Camada 1
 62
    18
420
        0
370
    35
100
AcDbLine
 10
1521.530494261149
 20
985.0506060866065
 30
0.0
 11
1534.60719236055
 21
984.5942176228236
 31
0.0
  0
LINE
  5
C8
330
70
100
AcDbEntity
  8
Camada 1
 62
    18
420
        0
370
    35
100
AcDbLine
 10
1268.616923348651
 20
994.3017210740654
 30
0.0
 11
1268.616923348651
 21
1045.21709546893
 31
0.0
  0
LINE
  5
C9
330
70
100
AcDbEntity
  8
Camada 1
 62
    18
420
        0
370
    35
100
AcDbLine
 10
1534.60719236055
 20
1054.92459892017
 30
0.0
 11
1521.530494261149
 21
1054.46821045638
 31
0.0
  0
LINE
  5
CA
330
70
100
AcDbEntity
  8
Camada 1
 62
    18
420
        0
370
    35
100
AcDbLine
 10
1295.73809821261
 20
1054.92459892017
 30
0.0
 11
1282.661446764379
 21
1054.46821045638
 31
0.0
  0
LINE
  5
CB
330
70
100
AcDbEntity
  8
Camada 1
 62
    18
420
        0
370
    35
100
AcDbLine
 10
1517.70043263622
 20
1054.41288216056
 30
0.0
 11
1430.10659671583
 21
1054.41288216056
 31
0.0
  0
LINE
  5
CC
330
70
100
AcDbEntity
  8
Camada 1
 62
    18
420
        0
370
    35
100
AcDbLine
 10
1278.83133848828
 20
1054.41288216056
 30
0.0
 11
1191.23750256789
 21
1054.41288216056
 31
0.0
  0
LINE
  5
CD
330
70
100
AcDbEntity
  8
Camada 1
 62
    18
420
        0
370
    35
100
AcDbLine
 10
1039.96229099151
 20
1054.41288216056
 30
0.0
 11
952.3684317455263
 21
1054.41288216056
 31
0.0
  0
LINE
  5
CE
330
70
100
AcDbEntity
  8
Camada 1
 62
    18
420
        0
370
    35
100
AcDbLine
 10
1647.170137702509
 20
1054.97997386717
 30
0.0
 11
1538.437253985479
 21
1054.97997386717
 31
0.0
  0
LINE
  5
CF
330
70
100
AcDbEntity
  8
Camada 1
 62
    18
420
        0
370
    35
100
AcDbLine
 10
1409.369775366569
 20
1054.97997386717
 30
0.0
 11
1299.568159837539
 21
1054.97997386717
 31
0.0
  0
LINE
  5
D0
330
70
100
AcDbEntity
  8
Camada 1
 62
    18
420
        0
370
    35
100
AcDbLine
 10
1170.500727869799
 20
1054.97997386717
 30
0.0
 11
1060.69906568959
 21
1054.97997386717
 31
0.0
  0
LINE
  5
D1
330
70
100
AcDbEntity
  8
Camada 1
 62
    18
420
        0
370
    35
100
AcDbLine
 10
931.6316337218559
 20
1054.97997386717
 30
0.0
 11
822.8986800280562
 21
1054.97997386717
 31
0.0
  0
LINE
  5
D2
330
70
100
AcDbEntity
  8
Camada 1
 62
    18
420
        0
370
    35
100
AcDbLine
 10
948.5383701205973
 20
1054.46821045638
 30
0.0
 11
935.4617186723736
 21
1054.92459892017
 31
0.0
  0
LINE
  5
D3
330
70
100
AcDbEntity
  8
Camada 1
 62
    18
420
        0
370
    35
100
AcDbLine
 10
1187.407440942959
 20
1054.46821045638
 30
0.0
 11
1174.33078949473
 21
1054.92459892017
 31
0.0
  0
LINE
  5
D4
330
70
100
AcDbEntity
  8
Camada 1
 62
    18
420
        0
370
    35
100
AcDbLine
 10
1271.86683093743
 20
1045.21709546893
 30
0.0
 11
1271.86683093743
 21
994.3017210740654
 31
0.0
  0
LINE
  5
D5
330
70
100
AcDbEntity
  8
Camada 1
 62
    18
420
        0
370
    35
100
AcDbLine
 10
1282.699933985339
 20
994.3017210740654
 30
0.0
 11
1282.699933985339
 21
1045.21709546893
 31
0.0
  0
LINE
  5
D6
330
70
100
AcDbEntity
  8
Camada 1
 62
    18
420
        0
370
    35
100
AcDbLine
 10
1285.94984157412
 20
1045.21709546893
 30
0.0
 11
1285.94984157412
 21
994.3017210740654
 31
0.0
  0
LINE
  5
D7
330
70
100
AcDbEntity
  8
Camada 1
 62
    18
420
        0
370
    35
100
AcDbLine
 10
1296.78289797085
 20
994.3017210740654
 30
0.0
 11
1296.78289797085
 21
1045.21709546893
 31
0.0
  0
LINE
  5
D8
330
70
100
AcDbEntity
  8
Camada 1
 62
    18
420
        0
370
    35
100
AcDbLine
 10
1300.032805559629
 20
1045.21709546893
 30
0.0
 11
1300.032805559629
 21
994.3017210740654
 31
0.0
  0
LINE
  5
D9
330
70
100
AcDbEntity
  8
Camada 1
 62
    18
420
        0
370
    35
100
AcDbLine
 10
1056.86900406466
 20
1054.92459892017
 30
0.0
 11
1043.79235261643
 21
1054.46821045638
 31
0.0
  0
LINE
  5
DA
330
70
100
AcDbEntity
  8
Camada 1
 62
    18
420
        0
370
    35
100
AcDbLine
 10
819.2393383850577
 20
1054.93029036375
 30
0.0
 11
806.1575319817821
 21
1054.51196926033
 31
0.0
  0
LINE
  5
DB
330
70
100
AcDbEntity
  8
Camada 1
 62
    18
420
        0
370
    35
100
AcDbLine
 10
801.7118614262489
 20
1056.59181868084
 30
0.0
 11
1668.35704960668
 21
1056.59181868084
 31
0.0
  0
LINE
  5
DC
330
70
100
AcDbEntity
  8
Camada 1
 62
    18
420
        0
370
    35
100
AcDbLine
 10
802.7951717310388
 20
1057.675152311229
 30
0.0
 11
1667.2737159763
 21
1057.675152311229
 31
0.0
  0
LINE
  5
DD
330
70
100
AcDbEntity
  8
Camada 1
 62
    18
420
        0
370
    35
100
AcDbLine
 10
1663.911379051151
 20
1054.51196926033
 30
0.0
 11
1650.829549322279
 21
1054.93029036375
 31
0.0
  0
LINE
  5
DE
330
70
100
AcDbEntity
  8
Camada 1
 62
    18
420
        0
370
    35
100
AcDbLine
 10
1426.276535090899
 20
1054.46821045638
 30
0.0
 11
1413.1998369915
 21
1054.92459892017
 31
0.0
  0
LINE
  5
DF
330
70
100
AcDbEntity
  8
Camada 1
 62
    18
420
        0
370
    35
100
AcDbLine
 10
1310.86590860754
 20
994.3017210740654
 30
0.0
 11
1310.86590860754
 21
1045.21709546893
 31
0.0
  0
LINE
  5
E0
330
70
100
AcDbEntity
  8
Camada 1
 62
    18
420
        0
370
    35
100
AcDbLine
 10
1314.115816196319
 20
1045.21709546893
 30
0.0
 11
1314.115816196319
 21
994.3017210740654
 31
0.0
  0
LINE
  5
E1
330
70
100
AcDbEntity
  8
Camada 1
 62
    18
420
        0
370
    35
100
AcDbLine
 10
1324.94887259306
 20
994.3017210740654
 30
0.0
 11
1324.94887259306
 21
1045.21709546893
 31
0.0
  0
LINE
  5
E2
330
70
100
AcDbEntity
  8
Camada 1
 62
    18
420
        0
370
    35
100
AcDbLine
 10
1328.198780181839
 20
1045.21709546893
 30
0.0
 11
1328.198780181839
 21
994.3017210740654
 31
0.0
  0
LINE
  5
E3
330
70
100
AcDbEntity
  8
Camada 1
 62
    18
420
        0
370
    35
100
AcDbLine
 10
1339.03183657857
 20
994.3017210740654
 30
0.0
 11
1339.03183657857
 21
1045.21709546893
 31
0.0
  0
LINE
  5
E4
330
70
100
AcDbEntity
  8
Camada 1
 62
    18
420
        0
370
    35
100
AcDbLine
 10
1342.28179081853
 20
1045.21709546893
 30
0.0
 11
1342.28179081853
 21
994.3017210740654
 31
0.0
  0
LINE
  5
E5
330
70
100
AcDbEntity
  8
Camada 1
 62
    18
420
        0
370
    35
100
AcDbLine
 10
1353.11480056408
 20
994.3017210740654
 30
0.0
 11
1353.11480056408
 21
1045.21709546893
 31
0.0
  0
LINE
  5
E6
330
70
100
AcDbEntity
  8
Camada 1
 62
    18
420
        0
370
    35
100
AcDbLine
 10
1356.36480145522
 20
1045.21709546893
 30
0.0
 11
1356.36480145522
 21
994.3017210740654
 31
0.0
  0
LINE
  5
E7
330
70
100
AcDbEntity
  8
Camada 1
 62
    18
420
        0
370
    35
100
AcDbLine
 10
1367.197857851939
 20
994.3017210740654
 30
0.0
 11
1367.197857851939
 21
1045.21709546893
 31
0.0
  0
LINE
  5
E8
330
70
100
AcDbEntity
  8
Camada 1
 62
    18
420
        0
370
    35
100
AcDbLine
 10
1370.447765440731
 20
1045.21709546893
 30
0.0
 11
1370.447765440731
 21
994.3017210740654
 31
0.0
  0
LINE
  5
E9
330
70
100
AcDbEntity
  8
Camada 1
 62
    18
420
        0
370
    35
100
AcDbLine
 10
1381.280821837459
 20
994.3017210740654
 30
0.0
 11
1381.280821837459
 21
1045.21709546893
 31
0.0
  0
LINE
  5
EA
330
70
100
AcDbEntity
  8
Camada 1
 62
    18
420
        0
370
    35
100
AcDbLine
 10
1384.53072942624
 20
1045.21709546893
 30
0.0
 11
1384.53072942624
 21
994.3017210740654
 31
0.0
  0
LINE
  5
EB
330
70
100
AcDbEntity
  8
Camada 1
 62
    18
420
        0
370
    35
100
AcDbLine
 10
1395.36378582297
 20
994.3017210740654
 30
0.0
 11
1395.36378582297
 21
1045.21709546893
 31
0.0
  0
LINE
  5
EC
330
70
100
AcDbEntity
  8
Camada 1
 62
    18
420
        0
370
    35
100
AcDbLine
 10
1398.61369341176
 20
1045.21709546893
 30
0.0
 11
1398.61369341176
 21
994.3017210740654
 31
0.0
  0
LINE
  5
ED
330
70
100
AcDbEntity
  8
Camada 1
 62
    18
420
        0
370
    35
100
AcDbLine
 10
1409.44674980849
 20
994.3017210740654
 30
0.0
 11
1409.44674980849
 21
1045.21709546893
 31
0.0
  0
LINE
  5
EE
330
70
100
AcDbEntity
  8
Camada 1
 62
    18
420
        0
370
    35
100
AcDbLine
 10
1412.696657397269
 20
1045.21709546893
 30
0.0
 11
1412.696657397269
 21
994.3017210740654
 31
0.0
  0
LINE
  5
EF
330
70
100
AcDbEntity
  8
Camada 1
 62
    18
420
        0
370
    35
100
AcDbLine
 10
1423.529713793999
 20
994.3017210740654
 30
0.0
 11
1423.529713793999
 21
1045.21709546893
 31
0.0
  0
LINE
  5
F0
330
70
100
AcDbEntity
  8
Camada 1
 62
    18
420
        0
370
    35
100
AcDbLine
 10
1426.779714685141
 20
1045.21709546893
 30
0.0
 11
1426.779714685141
 21
994.3017210740654
 31
0.0
  0
LINE
  5
F1
330
70
100
AcDbEntity
  8
Camada 1
 62
    18
420
        0
370
    35
100
AcDbLine
 10
1437.612771081869
 20
994.3017210740654
 30
0.0
 11
1437.612771081869
 21
1045.21709546893
 31
0.0
  0
LINE
  5
F2
330
70
100
AcDbEntity
  8
Camada 1
 62
    18
420
        0
370
    35
100
AcDbLine
 10
1440.86267867065
 20
1045.21709546893
 30
0.0
 11
1440.86267867065
 21
994.3017210740654
 31
0.0
  0
LINE
  5
F3
330
70
100
AcDbEntity
  8
Camada 1
 62
    18
420
        0
370
    35
100
AcDbLine
 10
1451.69573506738
 20
994.3017210740654
 30
0.0
 11
1451.69573506738
 21
1045.21709546893
 31
0.0
  0
LINE
  5
F4
330
70
100
AcDbEntity
  8
Camada 1
 62
    18
420
        0
370
    35
100
AcDbLine
 10
1454.945642656159
 20
1045.21709546893
 30
0.0
 11
1454.945642656159
 21
994.3017210740654
 31
0.0
  0
LINE
  5
F5
330
70
100
AcDbEntity
  8
Camada 1
 62
    18
420
        0
370
    35
100
AcDbLine
 10
1665.647922460721
 20
985.1297731338382
 30
0.0
 11
1666.711475992089
 21
985.5540189367239
 31
0.0
  0
LINE
  5
F6
330
70
100
AcDbEntity
  8
Camada 1
 62
    18
420
        0
370
    35
100
AcDbLine
 10
1666.711475992089
 20
1053.96479760627
 30
0.0
 11
1665.647922460721
 21
1054.38904340916
 31
0.0
  0
LINE
  5
F7
330
70
100
AcDbEntity
  8
Camada 1
 62
    18
420
        0
370
    35
100
AcDbLine
 10
1465.778699052889
 20
994.3017210740654
 30
0.0
 11
1465.778699052889
 21
1045.21709546893
 31
0.0
  0
LINE
  5
F8
330
70
100
AcDbEntity
  8
Camada 1
 62
    18
420
        0
370
    35
100
AcDbLine
 10
1469.028606641679
 20
1045.21709546893
 30
0.0
 11
1469.028606641679
 21
994.3017210740654
 31
0.0
  0
LINE
  5
F9
330
70
100
AcDbEntity
  8
Camada 1
 62
    18
420
        0
370
    35
100
AcDbLine
 10
1479.861663038409
 20
994.3017210740654
 30
0.0
 11
1479.861663038409
 21
1045.21709546893
 31
0.0
  0
LINE
  5
FA
330
70
100
AcDbEntity
  8
Camada 1
 62
    18
420
        0
370
    35
100
AcDbLine
 10
1483.11157062719
 20
1045.21709546893
 30
0.0
 11
1483.11157062719
 21
994.3017210740654
 31
0.0
  0
LINE
  5
FB
330
70
100
AcDbEntity
  8
Camada 1
 62
    18
420
        0
370
    35
100
AcDbLine
 10
1493.94472032627
 20
994.3017210740654
 30
0.0
 11
1493.94472032627
 21
1045.21709546893
 31
0.0
  0
LINE
  5
FC
330
70
100
AcDbEntity
  8
Camada 1
 62
    18
420
        0
370
    35
100
AcDbLine
 10
1497.19462791505
 20
1045.21709546893
 30
0.0
 11
1497.19462791505
 21
994.3017210740654
 31
0.0
  0
LINE
  5
FD
330
70
100
AcDbEntity
  8
Camada 1
 62
    18
420
        0
370
    35
100
AcDbLine
 10
1508.02768431179
 20
994.3017210740654
 30
0.0
 11
1508.02768431179
 21
1045.21709546893
 31
0.0
  0
LINE
  5
FE
330
70
100
AcDbEntity
  8
Camada 1
 62
    18
420
        0
370
    35
100
AcDbLine
 10
1511.277591900571
 20
1045.21709546893
 30
0.0
 11
1511.277591900571
 21
994.3017210740654
 31
0.0
  0
LINE
  5
FF
330
70
100
AcDbEntity
  8
Camada 1
 62
    18
420
        0
370
    35
100
AcDbLine
 10
1522.110648297301
 20
994.3017210740654
 30
0.0
 11
1522.110648297301
 21
1045.21709546893
 31
0.0
  0
LINE
  5
100
330
70
100
AcDbEntity
  8
Camada 1
 62
    18
420
        0
370
    35
100
AcDbLine
 10
1525.36055588608
 20
1045.21709546893
 30
0.0
 11
1525.36055588608
 21
994.3017210740654
 31
0.0
  0
LINE
  5
101
330
70
100
AcDbEntity
  8
Camada 1
 62
    18
420
        0
370
    35
100
AcDbLine
 10
1536.19361228281
 20
994.3017210740654
 30
0.0
 11
1536.19361228281
 21
1045.21709546893
 31
0.0
  0
LINE
  5
102
330
70
100
AcDbEntity
  8
Camada 1
 62
    18
420
        0
370
    35
100
AcDbLine
 10
1539.443519871591
 20
1045.21709546893
 30
0.0
 11
1539.443519871591
 21
994.3017210740654
 31
0.0
  0
LINE
  5
103
330
70
100
AcDbEntity
  8
Camada 1
 62
    18
420
        0
370
    35
100
AcDbLine
 10
1550.276576268319
 20
994.3017210740654
 30
0.0
 11
1550.276576268319
 21
1045.21709546893
 31
0.0
  0
LINE
  5
104
330
70
100
AcDbEntity
  8
Camada 1
 62
    18
420
        0
370
    35
100
AcDbLine
 10
1553.526483857109
 20
1045.21709546893
 30
0.0
 11
1553.526483857109
 21
994.3017210740654
 31
0.0
  0
LINE
  5
105
330
70
100
AcDbEntity
  8
Camada 1
 62
    18
420
        0
370
    35
100
AcDbLine
 10
1564.35963355619
 20
994.3017210740654
 30
0.0
 11
1564.35963355619
 21
1045.21709546893
 31
0.0
  0
LINE
  5
106
330
70
100
AcDbEntity
  8
Camada 1
 62
    18
420
        0
370
    35
100
AcDbLine
 10
1567.60954114498
 20
1045.21709546893
 30
0.0
 11
1567.60954114498
 21
994.3017210740654
 31
0.0
  0
LINE
  5
107
330
70
100
AcDbEntity
  8
Camada 1
 62
    18
420
        0
370
    35
100
AcDbLine
 10
1578.4425975417
 20
994.3017210740654
 30
0.0
 11
1578.4425975417
 21
1045.21709546893
 31
0.0
  0
LINE
  5
108
330
70
100
AcDbEntity
  8
Camada 1
 62
    18
420
        0
370
    35
100
AcDbLine
 10
1581.692505130489
 20
1045.21709546893
 30
0.0
 11
1581.692505130489
 21
994.3017210740654
 31
0.0
  0
LINE
  5
109
330
70
100
AcDbEntity
  8
Camada 1
 62
    18
420
        0
370
    35
100
AcDbLine
 10
1592.52556152722
 20
994.3017210740654
 30
0.0
 11
1592.52556152722
 21
1045.21709546893
 31
0.0
  0
LINE
  5
10A
330
70
100
AcDbEntity
  8
Camada 1
 62
    18
420
        0
370
    35
100
AcDbLine
 10
1595.775469116001
 20
1045.21709546893
 30
0.0
 11
1595.775469116001
 21
994.3017210740654
 31
0.0
  0
LINE
  5
10B
330
70
100
AcDbEntity
  8
Camada 1
 62
    18
420
        0
370
    35
100
AcDbLine
 10
1606.608525512729
 20
994.3017210740654
 30
0.0
 11
1606.608525512729
 21
1045.21709546893
 31
0.0
  0
LINE
  5
10C
330
70
100
AcDbEntity
  8
Camada 1
 62
    18
420
        0
370
    35
100
AcDbLine
 10
1609.858433101519
 20
1045.21709546893
 30
0.0
 11
1609.858433101519
 21
994.3017210740654
 31
0.0
  0
LINE
  5
10D
330
70
100
AcDbEntity
  8
Camada 1
 62
    18
420
        0
370
    35
100
AcDbLine
 10
1620.69148949824
 20
994.3017210740654
 30
0.0
 11
1620.69148949824
 21
1045.21709546893
 31
0.0
  0
LINE
  5
10E
330
70
100
AcDbEntity
  8
Camada 1
 62
    18
420
        0
370
    35
100
AcDbLine
 10
1623.941490389379
 20
1045.21709546893
 30
0.0
 11
1623.941490389379
 21
994.3017210740654
 31
0.0
  0
LINE
  5
10F
330
70
100
AcDbEntity
  8
Camada 1
 62
    18
420
        0
370
    35
100
AcDbLine
 10
1634.774546786109
 20
994.3017210740654
 30
0.0
 11
1634.774546786109
 21
1045.21709546893
 31
0.0
  0
LINE
  5
110
330
70
100
AcDbEntity
  8
Camada 1
 62
    18
420
        0
370
    35
100
AcDbLine
 10
1638.024454374899
 20
1045.21709546893
 30
0.0
 11
1638.024454374899
 21
994.3017210740654
 31
0.0
  0
LINE
  5
111
330
70
100
AcDbEntity
  8
Camada 1
 62
    18
420
        0
370
    35
100
AcDbLine
 10
1648.85751077162
 20
994.3017210740654
 30
0.0
 11
1648.85751077162
 21
1045.21709546893
 31
0.0
  0
LINE
  5
112
330
70
100
AcDbEntity
  8
Camada 1
 62
    18
420
        0
370
    35
100
AcDbLine
 10
1652.107418360411
 20
1045.21709546893
 30
0.0
 11
1652.107418360411
 21
994.3017210740654
 31
0.0
  0
LINE
  5
113
330
70
100
AcDbEntity
  8
Camada 1
 62
    18
420
        0
370
    35
100
AcDbLine
 10
1666.732095812291
 20
1053.91208177635
 30
0.0
 11
1666.732095812291
 21
1032.57728564136
 31
0.0
  0
LINE
  5
114
330
70
100
AcDbEntity
  8
Camada 1
 62
    18
420
        0
370
    35
100
AcDbLine
 10
1666.732095812291
 20
985.6067347666394
 30
0.0
 11
1666.732095812291
 21
1006.94157755281
 31
0.0
  0
LINE
  5
115
330
70
100
AcDbEntity
  8
Camada 1
 62
    18
420
        0
370
    35
100
AcDbLine
 10
1667.2737159763
 20
981.8437108829421
 30
0.0
 11
1667.2737159763
 21
1057.675152311229
 31
0.0
  0
LINE
  5
116
330
70
100
AcDbEntity
  8
Camada 1
 62
    18
420
        0
370
    35
100
AcDbLine
 10
1668.35704960668
 20
1056.59181868084
 30
0.0
 11
1668.35704960668
 21
982.926997862145
 31
0.0
  0
LINE
  5
117
330
70
100
AcDbEntity
  8
Camada 1
 62
    18
420
        0
370
    35
100
AcDbLine
 10
801.7118614262489
 20
1144.26033554245
 30
0.0
 11
801.7118614262489
 21
1174.80957883984
 31
0.0
  0
LINE
  5
118
330
70
100
AcDbEntity
  8
Camada 1
 62
    18
420
        0
370
    35
100
AcDbLine
 10
802.7951717310388
 20
1144.26033554245
 30
0.0
 11
802.7951717310388
 21
1174.80957883984
 31
0.0
  0
LINE
  5
119
330
70
100
AcDbEntity
  8
Camada 1
 62
    18
420
        0
370
    35
100
AcDbLine
 10
803.6618106446349
 20
1142.31036299848
 30
0.0
 11
1666.407030411519
 21
1142.31036299848
 31
0.0
  0
LINE
  5
11A
330
70
100
AcDbEntity
  8
Camada 1
 62
    18
420
        0
370
    35
100
AcDbLine
 10
802.7951717310388
 20
1144.26033554245
 30
0.0
 11
801.7118614262489
 21
1144.26033554245
 31
0.0
  0
LINE
  5
11B
330
70
100
AcDbEntity
  8
Camada 1
 62
    18
420
        0
370
    35
100
AcDbLine
 10
1667.2737159763
 20
1144.26033554245
 30
0.0
 11
1668.35704960668
 21
1144.26033554245
 31
0.0
  0
LINE
  5
11C
330
70
100
AcDbEntity
  8
Camada 1
 62
    18
420
        0
370
    35
100
AcDbLine
 10
1667.2737159763
 20
1174.80957883984
 30
0.0
 11
802.7951717310388
 21
1174.80957883984
 31
0.0
  0
LINE
  5
11D
330
70
100
AcDbEntity
  8
Camada 1
 62
    18
420
        0
370
    35
100
AcDbLine
 10
802.7951717310388
 20
1174.80957883984
 30
0.0
 11
801.7118614262489
 21
1174.80957883984
 31
0.0
  0
LINE
  5
11E
330
70
100
AcDbEntity
  8
Camada 1
 62
    18
420
        0
370
    35
100
AcDbLine
 10
1667.2737159763
 20
1174.80957883984
 30
0.0
 11
1668.35704960668
 21
1174.80957883984
 31
0.0
  0
LINE
  5
11F
330
70
100
AcDbEntity
  8
Camada 1
 62
    18
420
        0
370
    35
100
AcDbLine
 10
1667.2737159763
 20
1144.26033554245
 30
0.0
 11
1667.2737159763
 21
1174.80957883984
 31
0.0
  0
LINE
  5
120
330
70
100
AcDbEntity
  8
Camada 1
 62
    18
420
        0
370
    35
100
AcDbLine
 10
1668.35704960668
 20
1144.26033554245
 30
0.0
 11
1668.35704960668
 21
1174.80957883984
 31
0.0
  0
SPLINE
  5
121
330
70
100
AcDbEntity
  8
Camada 1
 62
    18
420
        0
370
    35
100
AcDbSpline
210
0.0
220
0.0
230
1.0
 70
     8
 71
     3
 72
     8
 73
     4
 74
     0
 42
0.0000000001
 43
0.0000000001
 40
0.0
 40
0.0
 40
0.0
 40
0.0
 40
1.0
 40
1.0
 40
1.0
 40
1.0
 10
804.447906301284
 20
1010.22819961782
 30
0.0
 10
803.7272155946739
 20
1009.28407309937
 30
0.0
 10
803.3368152206403
 20
1008.12926986595
 30
0.0
 10
803.3368152206403
 20
1006.94157755281
 30
0.0
  0
SPLINE
  5
122
330
70
100
AcDbEntity
  8
Camada 1
 62
    18
420
        0
370
    35
100
AcDbSpline
210
0.0
220
0.0
230
1.0
 70
     8
 71
     3
 72
     8
 73
     4
 74
     0
 42
0.0000000001
 43
0.0000000001
 40
0.0
 40
0.0
 40
0.0
 40
0.0
 40
1.0
 40
1.0
 40
1.0
 40
1.0
 10
817.9614460213414
 20
994.3017210740654
 30
0.0
 10
817.9614460213414
 20
993.4042923837004
 30
0.0
 10
818.6889711253716
 20
992.6767672796714
 30
0.0
 10
819.5864231413215
 20
992.6767672796714
 30
0.0
  0
SPLINE
  5
123
330
70
100
AcDbEntity
  8
Camada 1
 62
    18
420
        0
370
    35
100
AcDbSpline
210
0.0
220
0.0
230
1.0
 70
     8
 71
     3
 72
     8
 73
     4
 74
     0
 42
0.0000000001
 43
0.0000000001
 40
0.0
 40
0.0
 40
0.0
 40
0.0
 40
1.0
 40
1.0
 40
1.0
 40
1.0
 10
819.5864231413215
 20
992.6767672796714
 30
0.0
 10
820.4838518316845
 20
992.6767672796714
 30
0.0
 10
821.2113769357147
 20
993.4042923837004
 30
0.0
 10
821.2113769357147
 20
994.3017210740654
 30
0.0
  0
SPLINE
  5
124
330
70
100
AcDbEntity
  8
Camada 1
 62
    18
420
        0
370
    35
100
AcDbSpline
210
0.0
220
0.0
230
1.0
 70
     8
 71
     3
 72
     8
 73
     4
 74
     0
 42
0.0000000001
 43
0.0000000001
 40
0.0
 40
0.0
 40
0.0
 40
0.0
 40
1.0
 40
1.0
 40
1.0
 40
1.0
 10
832.0444333324431
 20
994.3017210740654
 30
0.0
 10
832.0444333324431
 20
993.4042923837004
 30
0.0
 10
832.771958436473
 20
992.6767672796714
 30
0.0
 10
833.6693871268362
 20
992.6767672796714
 30
0.0
  0
SPLINE
  5
125
330
70
100
AcDbEntity
  8
Camada 1
 62
    18
420
        0
370
    35
100
AcDbSpline
210
0.0
220
0.0
230
1.0
 70
     8
 71
     3
 72
     8
 73
     4
 74
     0
 42
0.0000000001
 43
0.0000000001
 40
0.0
 40
0.0
 40
0.0
 40
0.0
 40
1.0
 40
1.0
 40
1.0
 40
1.0
 10
833.6693871268362
 20
992.6767672796714
 30
0.0
 10
834.5668391427862
 20
992.6767672796714
 30
0.0
 10
835.2943642468162
 20
993.4042923837004
 30
0.0
 10
835.2943642468162
 20
994.3017210740654
 30
0.0
  0
SPLINE
  5
126
330
70
100
AcDbEntity
  8
Camada 1
 62
    18
420
        0
370
    35
100
AcDbSpline
210
0.0
220
0.0
230
1.0
 70
     8
 71
     3
 72
     8
 73
     4
 74
     0
 42
0.0000000001
 43
0.0000000001
 40
0.0
 40
0.0
 40
0.0
 40
0.0
 40
1.0
 40
1.0
 40
1.0
 40
1.0
 10
846.1274206435446
 20
994.3017210740654
 30
0.0
 10
846.1274206435446
 20
993.4042923837004
 30
0.0
 10
846.8549457475747
 20
992.6767672796714
 30
0.0
 10
847.7523744379359
 20
992.6767672796714
 30
0.0
  0
SPLINE
  5
127
330
70
100
AcDbEntity
  8
Camada 1
 62
    18
420
        0
370
    35
100
AcDbSpline
210
0.0
220
0.0
230
1.0
 70
     8
 71
     3
 72
     8
 73
     4
 74
     0
 42
0.0000000001
 43
0.0000000001
 40
0.0
 40
0.0
 40
0.0
 40
0.0
 40
1.0
 40
1.0
 40
1.0
 40
1.0
 10
847.7523744379359
 20
992.6767672796714
 30
0.0
 10
848.6498264538877
 20
992.6767672796714
 30
0.0
 10
849.377328232329
 20
993.4042923837004
 30
0.0
 10
849.377328232329
 20
994.3017210740654
 30
0.0
  0
SPLINE
  5
128
330
70
100
AcDbEntity
  8
Camada 1
 62
    18
420
        0
370
    35
100
AcDbSpline
210
0.0
220
0.0
230
1.0
 70
     8
 71
     3
 72
     8
 73
     4
 74
     0
 42
0.0000000001
 43
0.0000000001
 40
0.0
 40
0.0
 40
0.0
 40
0.0
 40
1.0
 40
1.0
 40
1.0
 40
1.0
 10
860.210407954648
 20
994.3017210740654
 30
0.0
 10
860.210407954648
 20
993.4042923837004
 30
0.0
 10
860.9379330586762
 20
992.6767672796714
 30
0.0
 10
861.8353617490393
 20
992.6767672796714
 30
0.0
  0
SPLINE
  5
129
330
70
100
AcDbEntity
  8
Camada 1
 62
    18
420
        0
370
    35
100
AcDbSpline
210
0.0
220
0.0
230
1.0
 70
     8
 71
     3
 72
     8
 73
     4
 74
     0
 42
0.0000000001
 43
0.0000000001
 40
0.0
 40
0.0
 40
0.0
 40
0.0
 40
1.0
 40
1.0
 40
1.0
 40
1.0
 10
861.8353617490393
 20
992.6767672796714
 30
0.0
 10
862.7328137649893
 20
992.6767672796714
 30
0.0
 10
863.4603155434305
 20
993.4042923837004
 30
0.0
 10
863.4603155434305
 20
994.3017210740654
 30
0.0
  0
SPLINE
  5
12A
330
70
100
AcDbEntity
  8
Camada 1
 62
    18
420
        0
370
    35
100
AcDbSpline
210
0.0
220
0.0
230
1.0
 70
     8
 71
     3
 72
     8
 73
     4
 74
     0
 42
0.0000000001
 43
0.0000000001
 40
0.0
 40
0.0
 40
0.0
 40
0.0
 40
1.0
 40
1.0
 40
1.0
 40
1.0
 10
874.2933952657512
 20
994.3017210740654
 30
0.0
 10
874.2933952657512
 20
993.4042923837004
 30
0.0
 10
875.0208970441891
 20
992.6767672796714
 30
0.0
 10
875.918349060139
 20
992.6767672796714
 30
0.0
  0
SPLINE
  5
12B
330
70
100
AcDbEntity
  8
Camada 1
 62
    18
420
        0
370
    35
100
AcDbSpline
210
0.0
220
0.0
230
1.0
 70
     8
 71
     3
 72
     8
 73
     4
 74
     0
 42
0.0000000001
 43
0.0000000001
 40
0.0
 40
0.0
 40
0.0
 40
0.0
 40
1.0
 40
1.0
 40
1.0
 40
1.0
 10
875.918349060139
 20
992.6767672796714
 30
0.0
 10
876.8157777505038
 20
992.6767672796714
 30
0.0
 10
877.5433028545322
 20
993.4042923837004
 30
0.0
 10
877.5433028545322
 20
994.3017210740654
 30
0.0
  0
SPLINE
  5
12C
330
70
100
AcDbEntity
  8
Camada 1
 62
    18
420
        0
370
    35
100
AcDbSpline
210
0.0
220
0.0
230
1.0
 70
     8
 71
     3
 72
     8
 73
     4
 74
     0
 42
0.0000000001
 43
0.0000000001
 40
0.0
 40
0.0
 40
0.0
 40
0.0
 40
1.0
 40
1.0
 40
1.0
 40
1.0
 10
888.3763825768491
 20
994.3017210740654
 30
0.0
 10
888.3763825768491
 20
993.4042923837004
 30
0.0
 10
889.1038843552905
 20
992.6767672796714
 30
0.0
 10
890.0013363712405
 20
992.6767672796714
 30
0.0
  0
SPLINE
  5
12D
330
70
100
AcDbEntity
  8
Camada 1
 62
    18
420
        0
370
    35
100
AcDbSpline
210
0.0
220
0.0
230
1.0
 70
     8
 71
     3
 72
     8
 73
     4
 74
     0
 42
0.0000000001
 43
0.0000000001
 40
0.0
 40
0.0
 40
0.0
 40
0.0
 40
1.0
 40
1.0
 40
1.0
 40
1.0
 10
890.0013363712405
 20
992.6767672796714
 30
0.0
 10
890.8987650616037
 20
992.6767672796714
 30
0.0
 10
891.6262901656336
 20
993.4042923837004
 30
0.0
 10
891.6262901656336
 20
994.3017210740654
 30
0.0
  0
SPLINE
  5
12E
330
70
100
AcDbEntity
  8
Camada 1
 62
    18
420
        0
370
    35
100
AcDbSpline
210
0.0
220
0.0
230
1.0
 70
     8
 71
     3
 72
     8
 73
     4
 74
     0
 42
0.0000000001
 43
0.0000000001
 40
0.0
 40
0.0
 40
0.0
 40
0.0
 40
1.0
 40
1.0
 40
1.0
 40
1.0
 10
902.459346562362
 20
994.3017210740654
 30
0.0
 10
902.459346562362
 20
993.4042923837004
 30
0.0
 10
903.186871666392
 20
992.6767672796714
 30
0.0
 10
904.084323682342
 20
992.6767672796714
 30
0.0
  0
SPLINE
  5
12F
330
70
100
AcDbEntity
  8
Camada 1
 62
    18
420
        0
370
    35
100
AcDbSpline
210
0.0
220
0.0
230
1.0
 70
     8
 71
     3
 72
     8
 73
     4
 74
     0
 42
0.0000000001
 43
0.0000000001
 40
0.0
 40
0.0
 40
0.0
 40
0.0
 40
1.0
 40
1.0
 40
1.0
 40
1.0
 10
904.084323682342
 20
992.6767672796714
 30
0.0
 10
904.9817523727069
 20
992.6767672796714
 30
0.0
 10
905.7092774767333
 20
993.4042923837004
 30
0.0
 10
905.7092774767333
 20
994.3017210740654
 30
0.0
  0
SPLINE
  5
130
330
70
100
AcDbEntity
  8
Camada 1
 62
    18
420
        0
370
    35
100
AcDbSpline
210
0.0
220
0.0
230
1.0
 70
     8
 71
     3
 72
     8
 73
     4
 74
     0
 42
0.0000000001
 43
0.0000000001
 40
0.0
 40
0.0
 40
0.0
 40
0.0
 40
1.0
 40
1.0
 40
1.0
 40
1.0
 10
916.5423338734653
 20
994.3017210740654
 30
0.0
 10
916.5423338734653
 20
993.4042923837004
 30
0.0
 10
917.2698589774919
 20
992.6767672796714
 30
0.0
 10
918.1672876678566
 20
992.6767672796714
 30
0.0
  0
SPLINE
  5
131
330
70
100
AcDbEntity
  8
Camada 1
 62
    18
420
        0
370
    35
100
AcDbSpline
210
0.0
220
0.0
230
1.0
 70
     8
 71
     3
 72
     8
 73
     4
 74
     0
 42
0.0000000001
 43
0.0000000001
 40
0.0
 40
0.0
 40
0.0
 40
0.0
 40
1.0
 40
1.0
 40
1.0
 40
1.0
 10
918.1672876678566
 20
992.6767672796714
 30
0.0
 10
919.0647396838066
 20
992.6767672796714
 30
0.0
 10
919.7922647878367
 20
993.4042923837004
 30
0.0
 10
919.7922647878367
 20
994.3017210740654
 30
0.0
  0
SPLINE
  5
132
330
70
100
AcDbEntity
  8
Camada 1
 62
    18
420
        0
370
    35
100
AcDbSpline
210
0.0
220
0.0
230
1.0
 70
     8
 71
     3
 72
     8
 73
     4
 74
     0
 42
0.0000000001
 43
0.0000000001
 40
0.0
 40
0.0
 40
0.0
 40
0.0
 40
1.0
 40
1.0
 40
1.0
 40
1.0
 10
930.6253211845652
 20
994.3017210740654
 30
0.0
 10
930.6253211845652
 20
993.4042923837004
 30
0.0
 10
931.3528462885951
 20
992.6767672796714
 30
0.0
 10
932.2502749789563
 20
992.6767672796714
 30
0.0
  0
SPLINE
  5
133
330
70
100
AcDbEntity
  8
Camada 1
 62
    18
420
        0
370
    35
100
AcDbSpline
210
0.0
220
0.0
230
1.0
 70
     8
 71
     3
 72
     8
 73
     4
 74
     0
 42
0.0000000001
 43
0.0000000001
 40
0.0
 40
0.0
 40
0.0
 40
0.0
 40
1.0
 40
1.0
 40
1.0
 40
1.0
 10
932.2502749789563
 20
992.6767672796714
 30
0.0
 10
933.1477269949083
 20
992.6767672796714
 30
0.0
 10
933.8752520989364
 20
993.4042923837004
 30
0.0
 10
933.8752520989364
 20
994.3017210740654
 30
0.0
  0
SPLINE
  5
134
330
70
100
AcDbEntity
  8
Camada 1
 62
    18
420
        0
370
    35
100
AcDbSpline
210
0.0
220
0.0
230
1.0
 70
     8
 71
     3
 72
     8
 73
     4
 74
     0
 42
0.0000000001
 43
0.0000000001
 40
0.0
 40
0.0
 40
0.0
 40
0.0
 40
1.0
 40
1.0
 40
1.0
 40
1.0
 10
944.7083084956684
 20
994.3017210740654
 30
0.0
 10
944.7083084956684
 20
993.4042923837004
 30
0.0
 10
945.4358335996948
 20
992.6767672796714
 30
0.0
 10
946.333262290058
 20
992.6767672796714
 30
0.0
  0
SPLINE
  5
135
330
70
100
AcDbEntity
  8
Camada 1
 62
    18
420
        0
370
    35
100
AcDbSpline
210
0.0
220
0.0
230
1.0
 70
     8
 71
     3
 72
     8
 73
     4
 74
     0
 42
0.0000000001
 43
0.0000000001
 40
0.0
 40
0.0
 40
0.0
 40
0.0
 40
1.0
 40
1.0
 40
1.0
 40
1.0
 10
946.333262290058
 20
992.6767672796714
 30
0.0
 10
947.2307143060115
 20
992.6767672796714
 30
0.0
 10
947.9582160844511
 20
993.4042923837004
 30
0.0
 10
947.9582160844511
 20
994.3017210740654
 30
0.0
  0
SPLINE
  5
136
330
70
100
AcDbEntity
  8
Camada 1
 62
    18
420
        0
370
    35
100
AcDbSpline
210
0.0
220
0.0
230
1.0
 70
     8
 71
     3
 72
     8
 73
     4
 74
     0
 42
0.0000000001
 43
0.0000000001
 40
0.0
 40
0.0
 40
0.0
 40
0.0
 40
1.0
 40
1.0
 40
1.0
 40
1.0
 10
958.79129580677
 20
994.3017210740654
 30
0.0
 10
958.79129580677
 20
993.4042923837004
 30
0.0
 10
959.5188209107982
 20
992.6767672796714
 30
0.0
 10
960.4162496011594
 20
992.6767672796714
 30
0.0
  0
SPLINE
  5
137
330
70
100
AcDbEntity
  8
Camada 1
 62
    18
420
        0
370
    35
100
AcDbSpline
210
0.0
220
0.0
230
1.0
 70
     8
 71
     3
 72
     8
 73
     4
 74
     0
 42
0.0000000001
 43
0.0000000001
 40
0.0
 40
0.0
 40
0.0
 40
0.0
 40
1.0
 40
1.0
 40
1.0
 40
1.0
 10
960.4162496011594
 20
992.6767672796714
 30
0.0
 10
961.3136782915244
 20
992.6767672796714
 30
0.0
 10
962.0412033955526
 20
993.4042923837004
 30
0.0
 10
962.0412033955526
 20
994.3017210740654
 30
0.0
  0
SPLINE
  5
138
330
70
100
AcDbEntity
  8
Camada 1
 62
    18
420
        0
370
    35
100
AcDbSpline
210
0.0
220
0.0
230
1.0
 70
     8
 71
     3
 72
     8
 73
     4
 74
     0
 42
0.0000000001
 43
0.0000000001
 40
0.0
 40
0.0
 40
0.0
 40
0.0
 40
1.0
 40
1.0
 40
1.0
 40
1.0
 10
972.874259792281
 20
994.3017210740654
 30
0.0
 10
972.874259792281
 20
993.4042923837004
 30
0.0
 10
973.6017848963111
 20
992.6767672796714
 30
0.0
 10
974.4992135866741
 20
992.6767672796714
 30
0.0
  0
SPLINE
  5
139
330
70
100
AcDbEntity
  8
Camada 1
 62
    18
420
        0
370
    35
100
AcDbSpline
210
0.0
220
0.0
230
1.0
 70
     8
 71
     3
 72
     8
 73
     4
 74
     0
 42
0.0000000001
 43
0.0000000001
 40
0.0
 40
0.0
 40
0.0
 40
0.0
 40
1.0
 40
1.0
 40
1.0
 40
1.0
 10
974.4992135866741
 20
992.6767672796714
 30
0.0
 10
975.3966889282128
 20
992.6767672796714
 30
0.0
 10
976.1242140322428
 20
993.4042923837004
 30
0.0
 10
976.1242140322428
 20
994.3017210740654
 30
0.0
  0
SPLINE
  5
13A
330
70
100
AcDbEntity
  8
Camada 1
 62
    18
420
        0
370
    35
100
AcDbSpline
210
0.0
220
0.0
230
1.0
 70
     8
 71
     3
 72
     8
 73
     4
 74
     0
 42
0.0000000001
 43
0.0000000001
 40
0.0
 40
0.0
 40
0.0
 40
0.0
 40
1.0
 40
1.0
 40
1.0
 40
1.0
 10
986.9572704289712
 20
994.3017210740654
 30
0.0
 10
986.9572704289712
 20
993.4042923837004
 30
0.0
 10
987.6847955330013
 20
992.6767672796714
 30
0.0
 10
988.5822242233661
 20
992.6767672796714
 30
0.0
  0
SPLINE
  5
13B
330
70
100
AcDbEntity
  8
Camada 1
 62
    18
420
        0
370
    35
100
AcDbSpline
210
0.0
220
0.0
230
1.0
 70
     8
 71
     3
 72
     8
 73
     4
 74
     0
 42
0.0000000001
 43
0.0000000001
 40
0.0
 40
0.0
 40
0.0
 40
0.0
 40
1.0
 40
1.0
 40
1.0
 40
1.0
 10
988.5822242233661
 20
992.6767672796714
 30
0.0
 10
989.4796529137275
 20
992.6767672796714
 30
0.0
 10
990.2071780177539
 20
993.4042923837004
 30
0.0
 10
990.2071780177539
 20
994.3017210740654
 30
0.0
  0
SPLINE
  5
13C
330
70
100
AcDbEntity
  8
Camada 1
 62
    18
420
        0
370
    35
100
AcDbSpline
210
0.0
220
0.0
230
1.0
 70
     8
 71
     3
 72
     8
 73
     4
 74
     0
 42
0.0000000001
 43
0.0000000001
 40
0.0
 40
0.0
 40
0.0
 40
0.0
 40
1.0
 40
1.0
 40
1.0
 40
1.0
 10
1001.040234414489
 20
994.3017210740654
 30
0.0
 10
1001.040234414489
 20
993.4042923837004
 30
0.0
 10
1001.76775951851
 20
992.6767672796714
 30
0.0
 10
1002.665188208881
 20
992.6767672796714
 30
0.0
  0
SPLINE
  5
13D
330
70
100
AcDbEntity
  8
Camada 1
 62
    18
420
        0
370
    35
100
AcDbSpline
210
0.0
220
0.0
230
1.0
 70
     8
 71
     3
 72
     8
 73
     4
 74
     0
 42
0.0000000001
 43
0.0000000001
 40
0.0
 40
0.0
 40
0.0
 40
0.0
 40
1.0
 40
1.0
 40
1.0
 40
1.0
 10
1002.665188208881
 20
992.6767672796714
 30
0.0
 10
1003.562663550419
 20
992.6767672796714
 30
0.0
 10
1004.29014200327
 20
993.4042923837004
 30
0.0
 10
1004.29014200327
 20
994.3017210740654
 30
0.0
  0
SPLINE
  5
13E
330
70
100
AcDbEntity
  8
Camada 1
 62
    18
420
        0
370
    35
100
AcDbSpline
210
0.0
220
0.0
230
1.0
 70
     8
 71
     3
 72
     8
 73
     4
 74
     0
 42
0.0000000001
 43
0.0000000001
 40
0.0
 40
0.0
 40
0.0
 40
0.0
 40
1.0
 40
1.0
 40
1.0
 40
1.0
 10
1015.12324505117
 20
994.3017210740654
 30
0.0
 10
1015.12324505117
 20
993.4042923837004
 30
0.0
 10
1015.85072350403
 20
992.6767672796714
 30
0.0
 10
1016.748198845569
 20
992.6767672796714
 30
0.0
  0
SPLINE
  5
13F
330
70
100
AcDbEntity
  8
Camada 1
 62
    18
420
        0
370
    35
100
AcDbSpline
210
0.0
220
0.0
230
1.0
 70
     8
 71
     3
 72
     8
 73
     4
 74
     0
 42
0.0000000001
 43
0.0000000001
 40
0.0
 40
0.0
 40
0.0
 40
0.0
 40
1.0
 40
1.0
 40
1.0
 40
1.0
 10
1016.748198845569
 20
992.6767672796714
 30
0.0
 10
1017.64562753593
 20
992.6767672796714
 30
0.0
 10
1018.37315263996
 20
993.4042923837004
 30
0.0
 10
1018.37315263996
 20
994.3017210740654
 30
0.0
  0
SPLINE
  5
140
330
70
100
AcDbEntity
  8
Camada 1
 62
    18
420
        0
370
    35
100
AcDbSpline
210
0.0
220
0.0
230
1.0
 70
     8
 71
     3
 72
     8
 73
     4
 74
     0
 42
0.0000000001
 43
0.0000000001
 40
0.0
 40
0.0
 40
0.0
 40
0.0
 40
1.0
 40
1.0
 40
1.0
 40
1.0
 10
1029.206209036691
 20
994.3017210740654
 30
0.0
 10
1029.206209036691
 20
993.4042923837004
 30
0.0
 10
1029.933734140719
 20
992.6767672796714
 30
0.0
 10
1030.83116283108
 20
992.6767672796714
 30
0.0
  0
SPLINE
  5
141
330
70
100
AcDbEntity
  8
Camada 1
 62
    18
420
        0
370
    35
100
AcDbSpline
210
0.0
220
0.0
230
1.0
 70
     8
 71
     3
 72
     8
 73
     4
 74
     0
 42
0.0000000001
 43
0.0000000001
 40
0.0
 40
0.0
 40
0.0
 40
0.0
 40
1.0
 40
1.0
 40
1.0
 40
1.0
 10
1030.83116283108
 20
992.6767672796714
 30
0.0
 10
1031.72859152144
 20
992.6767672796714
 30
0.0
 10
1032.456116625469
 20
993.4042923837004
 30
0.0
 10
1032.456116625469
 20
994.3017210740654
 30
0.0
  0
SPLINE
  5
142
330
70
100
AcDbEntity
  8
Camada 1
 62
    18
420
        0
370
    35
100
AcDbSpline
210
0.0
220
0.0
230
1.0
 70
     8
 71
     3
 72
     8
 73
     4
 74
     0
 42
0.0000000001
 43
0.0000000001
 40
0.0
 40
0.0
 40
0.0
 40
0.0
 40
1.0
 40
1.0
 40
1.0
 40
1.0
 10
1043.2891730222
 20
994.3017210740654
 30
0.0
 10
1043.2891730222
 20
993.4042923837004
 30
0.0
 10
1044.01669812623
 20
992.6767672796714
 30
0.0
 10
1044.91417346777
 20
992.6767672796714
 30
0.0
  0
SPLINE
  5
143
330
70
100
AcDbEntity
  8
Camada 1
 62
    18
420
        0
370
    35
100
AcDbSpline
210
0.0
220
0.0
230
1.0
 70
     8
 71
     3
 72
     8
 73
     4
 74
     0
 42
0.0000000001
 43
0.0000000001
 40
0.0
 40
0.0
 40
0.0
 40
0.0
 40
1.0
 40
1.0
 40
1.0
 40
1.0
 10
1044.91417346777
 20
992.6767672796714
 30
0.0
 10
1045.81160215813
 20
992.6767672796714
 30
0.0
 10
1046.53912726216
 20
993.4042923837004
 30
0.0
 10
1046.53912726216
 20
994.3017210740654
 30
0.0
  0
SPLINE
  5
144
330
70
100
AcDbEntity
  8
Camada 1
 62
    18
420
        0
370
    35
100
AcDbSpline
210
0.0
220
0.0
230
1.0
 70
     8
 71
     3
 72
     8
 73
     4
 74
     0
 42
0.0000000001
 43
0.0000000001
 40
0.0
 40
0.0
 40
0.0
 40
0.0
 40
1.0
 40
1.0
 40
1.0
 40
1.0
 10
1057.37218365889
 20
994.3017210740654
 30
0.0
 10
1057.37218365889
 20
993.4042923837004
 30
0.0
 10
1058.09970876292
 20
992.6767672796714
 30
0.0
 10
1058.99713745328
 20
992.6767672796714
 30
0.0
  0
SPLINE
  5
145
330
70
100
AcDbEntity
  8
Camada 1
 62
    18
420
        0
370
    35
100
AcDbSpline
210
0.0
220
0.0
230
1.0
 70
     8
 71
     3
 72
     8
 73
     4
 74
     0
 42
0.0000000001
 43
0.0000000001
 40
0.0
 40
0.0
 40
0.0
 40
0.0
 40
1.0
 40
1.0
 40
1.0
 40
1.0
 10
1058.99713745328
 20
992.6767672796714
 30
0.0
 10
1059.894566143641
 20
992.6767672796714
 30
0.0
 10
1060.622091247669
 20
993.4042923837004
 30
0.0
 10
1060.622091247669
 20
994.3017210740654
 30
0.0
  0
SPLINE
  5
146
330
70
100
AcDbEntity
  8
Camada 1
 62
    18
420
        0
370
    35
100
AcDbSpline
210
0.0
220
0.0
230
1.0
 70
     8
 71
     3
 72
     8
 73
     4
 74
     0
 42
0.0000000001
 43
0.0000000001
 40
0.0
 40
0.0
 40
0.0
 40
0.0
 40
1.0
 40
1.0
 40
1.0
 40
1.0
 10
1071.455147644399
 20
994.3017210740654
 30
0.0
 10
1071.455147644399
 20
993.4042923837004
 30
0.0
 10
1072.182672748429
 20
992.6767672796714
 30
0.0
 10
1073.08010143879
 20
992.6767672796714
 30
0.0
  0
SPLINE
  5
147
330
70
100
AcDbEntity
  8
Camada 1
 62
    18
420
        0
370
    35
100
AcDbSpline
210
0.0
220
0.0
230
1.0
 70
     8
 71
     3
 72
     8
 73
     4
 74
     0
 42
0.0000000001
 43
0.0000000001
 40
0.0
 40
0.0
 40
0.0
 40
0.0
 40
1.0
 40
1.0
 40
1.0
 40
1.0
 10
1073.08010143879
 20
992.6767672796714
 30
0.0
 10
1073.97757678034
 20
992.6767672796714
 30
0.0
 10
1074.70510188437
 20
993.4042923837004
 30
0.0
 10
1074.70510188437
 20
994.3017210740654
 30
0.0
  0
SPLINE
  5
148
330
70
100
AcDbEntity
  8
Camada 1
 62
    18
420
        0
370
    35
100
AcDbSpline
210
0.0
220
0.0
230
1.0
 70
     8
 71
     3
 72
     8
 73
     4
 74
     0
 42
0.0000000001
 43
0.0000000001
 40
0.0
 40
0.0
 40
0.0
 40
0.0
 40
1.0
 40
1.0
 40
1.0
 40
1.0
 10
1085.5381582811
 20
994.3017210740654
 30
0.0
 10
1085.5381582811
 20
993.4042923837004
 30
0.0
 10
1086.26568338512
 20
992.6767672796714
 30
0.0
 10
1087.163112075479
 20
992.6767672796714
 30
0.0
  0
SPLINE
  5
149
330
70
100
AcDbEntity
  8
Camada 1
 62
    18
420
        0
370
    35
100
AcDbSpline
210
0.0
220
0.0
230
1.0
 70
     8
 71
     3
 72
     8
 73
     4
 74
     0
 42
0.0000000001
 43
0.0000000001
 40
0.0
 40
0.0
 40
0.0
 40
0.0
 40
1.0
 40
1.0
 40
1.0
 40
1.0
 10
1087.163112075479
 20
992.6767672796714
 30
0.0
 10
1088.060540765849
 20
992.6767672796714
 30
0.0
 10
1088.788065869879
 20
993.4042923837004
 30
0.0
 10
1088.788065869879
 20
994.3017210740654
 30
0.0
  0
SPLINE
  5
14A
330
70
100
AcDbEntity
  8
Camada 1
 62
    18
420
        0
370
    35
100
AcDbSpline
210
0.0
220
0.0
230
1.0
 70
     8
 71
     3
 72
     8
 73
     4
 74
     0
 42
0.0000000001
 43
0.0000000001
 40
0.0
 40
0.0
 40
0.0
 40
0.0
 40
1.0
 40
1.0
 40
1.0
 40
1.0
 10
1099.62112226661
 20
994.3017210740654
 30
0.0
 10
1099.62112226661
 20
993.4042923837004
 30
0.0
 10
1100.34864737064
 20
992.6767672796714
 30
0.0
 10
1101.246076060999
 20
992.6767672796714
 30
0.0
  0
SPLINE
  5
14B
330
70
100
AcDbEntity
  8
Camada 1
 62
    18
420
        0
370
    35
100
AcDbSpline
210
0.0
220
0.0
230
1.0
 70
     8
 71
     3
 72
     8
 73
     4
 74
     0
 42
0.0000000001
 43
0.0000000001
 40
0.0
 40
0.0
 40
0.0
 40
0.0
 40
1.0
 40
1.0
 40
1.0
 40
1.0
 10
1101.246076060999
 20
992.6767672796714
 30
0.0
 10
1102.143551402539
 20
992.6767672796714
 30
0.0
 10
1102.87102985539
 20
993.4042923837004
 30
0.0
 10
1102.87102985539
 20
994.3017210740654
 30
0.0
  0
SPLINE
  5
14C
330
70
100
AcDbEntity
  8
Camada 1
 62
    18
420
        0
370
    35
100
AcDbSpline
210
0.0
220
0.0
230
1.0
 70
     8
 71
     3
 72
     8
 73
     4
 74
     0
 42
0.0000000001
 43
0.0000000001
 40
0.0
 40
0.0
 40
0.0
 40
0.0
 40
1.0
 40
1.0
 40
1.0
 40
1.0
 10
1113.7041329033
 20
994.3017210740654
 30
0.0
 10
1113.7041329033
 20
993.4042923837004
 30
0.0
 10
1114.431611356151
 20
992.6767672796714
 30
0.0
 10
1115.329086697689
 20
992.6767672796714
 30
0.0
  0
SPLINE
  5
14D
330
70
100
AcDbEntity
  8
Camada 1
 62
    18
420
        0
370
    35
100
AcDbSpline
210
0.0
220
0.0
230
1.0
 70
     8
 71
     3
 72
     8
 73
     4
 74
     0
 42
0.0000000001
 43
0.0000000001
 40
0.0
 40
0.0
 40
0.0
 40
0.0
 40
1.0
 40
1.0
 40
1.0
 40
1.0
 10
1115.329086697689
 20
992.6767672796714
 30
0.0
 10
1116.226515388051
 20
992.6767672796714
 30
0.0
 10
1116.954040492081
 20
993.4042923837004
 30
0.0
 10
1116.954040492081
 20
994.3017210740654
 30
0.0
  0
SPLINE
  5
14E
330
70
100
AcDbEntity
  8
Camada 1
 62
    18
420
        0
370
    35
100
AcDbSpline
210
0.0
220
0.0
230
1.0
 70
     8
 71
     3
 72
     8
 73
     4
 74
     0
 42
0.0000000001
 43
0.0000000001
 40
0.0
 40
0.0
 40
0.0
 40
0.0
 40
1.0
 40
1.0
 40
1.0
 40
1.0
 10
1127.787096888809
 20
994.3017210740654
 30
0.0
 10
1127.787096888809
 20
993.4042923837004
 30
0.0
 10
1128.514621992839
 20
992.6767672796714
 30
0.0
 10
1129.4120506832
 20
992.6767672796714
 30
0.0
  0
SPLINE
  5
14F
330
70
100
AcDbEntity
  8
Camada 1
 62
    18
420
        0
370
    35
100
AcDbSpline
210
0.0
220
0.0
230
1.0
 70
     8
 71
     3
 72
     8
 73
     4
 74
     0
 42
0.0000000001
 43
0.0000000001
 40
0.0
 40
0.0
 40
0.0
 40
0.0
 40
1.0
 40
1.0
 40
1.0
 40
1.0
 10
1129.4120506832
 20
992.6767672796714
 30
0.0
 10
1130.30947937356
 20
992.6767672796714
 30
0.0
 10
1131.03700447759
 20
993.4042923837004
 30
0.0
 10
1131.03700447759
 20
994.3017210740654
 30
0.0
  0
SPLINE
  5
150
330
70
100
AcDbEntity
  8
Camada 1
 62
    18
420
        0
370
    35
100
AcDbSpline
210
0.0
220
0.0
230
1.0
 70
     8
 71
     3
 72
     8
 73
     4
 74
     0
 42
0.0000000001
 43
0.0000000001
 40
0.0
 40
0.0
 40
0.0
 40
0.0
 40
1.0
 40
1.0
 40
1.0
 40
1.0
 10
1141.870060874329
 20
994.3017210740654
 30
0.0
 10
1141.870060874329
 20
993.4042923837004
 30
0.0
 10
1142.59758597835
 20
992.6767672796714
 30
0.0
 10
1143.495061319891
 20
992.6767672796714
 30
0.0
  0
SPLINE
  5
151
330
70
100
AcDbEntity
  8
Camada 1
 62
    18
420
        0
370
    35
100
AcDbSpline
210
0.0
220
0.0
230
1.0
 70
     8
 71
     3
 72
     8
 73
     4
 74
     0
 42
0.0000000001
 43
0.0000000001
 40
0.0
 40
0.0
 40
0.0
 40
0.0
 40
1.0
 40
1.0
 40
1.0
 40
1.0
 10
1143.495061319891
 20
992.6767672796714
 30
0.0
 10
1144.392490010259
 20
992.6767672796714
 30
0.0
 10
1145.120015114289
 20
993.4042923837004
 30
0.0
 10
1145.120015114289
 20
994.3017210740654
 30
0.0
  0
SPLINE
  5
152
330
70
100
AcDbEntity
  8
Camada 1
 62
    18
420
        0
370
    35
100
AcDbSpline
210
0.0
220
0.0
230
1.0
 70
     8
 71
     3
 72
     8
 73
     4
 74
     0
 42
0.0000000001
 43
0.0000000001
 40
0.0
 40
0.0
 40
0.0
 40
0.0
 40
1.0
 40
1.0
 40
1.0
 40
1.0
 10
1155.95307151101
 20
994.3017210740654
 30
0.0
 10
1155.95307151101
 20
993.4042923837004
 30
0.0
 10
1156.68059661504
 20
992.6767672796714
 30
0.0
 10
1157.5780253054
 20
992.6767672796714
 30
0.0
  0
SPLINE
  5
153
330
70
100
AcDbEntity
  8
Camada 1
 62
    18
420
        0
370
    35
100
AcDbSpline
210
0.0
220
0.0
230
1.0
 70
     8
 71
     3
 72
     8
 73
     4
 74
     0
 42
0.0000000001
 43
0.0000000001
 40
0.0
 40
0.0
 40
0.0
 40
0.0
 40
1.0
 40
1.0
 40
1.0
 40
1.0
 10
1157.5780253054
 20
992.6767672796714
 30
0.0
 10
1158.47545399577
 20
992.6767672796714
 30
0.0
 10
1159.2029790998
 20
993.4042923837004
 30
0.0
 10
1159.2029790998
 20
994.3017210740654
 30
0.0
  0
SPLINE
  5
154
330
70
100
AcDbEntity
  8
Camada 1
 62
    18
420
        0
370
    35
100
AcDbSpline
210
0.0
220
0.0
230
1.0
 70
     8
 71
     3
 72
     8
 73
     4
 74
     0
 42
0.0000000001
 43
0.0000000001
 40
0.0
 40
0.0
 40
0.0
 40
0.0
 40
1.0
 40
1.0
 40
1.0
 40
1.0
 10
1170.03603549653
 20
994.3017210740654
 30
0.0
 10
1170.03603549653
 20
993.4042923837004
 30
0.0
 10
1170.76356060056
 20
992.6767672796714
 30
0.0
 10
1171.66098929092
 20
992.6767672796714
 30
0.0
  0
SPLINE
  5
155
330
70
100
AcDbEntity
  8
Camada 1
 62
    18
420
        0
370
    35
100
AcDbSpline
210
0.0
220
0.0
230
1.0
 70
     8
 71
     3
 72
     8
 73
     4
 74
     0
 42
0.0000000001
 43
0.0000000001
 40
0.0
 40
0.0
 40
0.0
 40
0.0
 40
1.0
 40
1.0
 40
1.0
 40
1.0
 10
1171.66098929092
 20
992.6767672796714
 30
0.0
 10
1172.55846463246
 20
992.6767672796714
 30
0.0
 10
1173.28598973649
 20
993.4042923837004
 30
0.0
 10
1173.28598973649
 20
994.3017210740654
 30
0.0
  0
SPLINE
  5
156
330
70
100
AcDbEntity
  8
Camada 1
 62
    18
420
        0
370
    35
100
AcDbSpline
210
0.0
220
0.0
230
1.0
 70
     8
 71
     3
 72
     8
 73
     4
 74
     0
 42
0.0000000001
 43
0.0000000001
 40
0.0
 40
0.0
 40
0.0
 40
0.0
 40
1.0
 40
1.0
 40
1.0
 40
1.0
 10
1184.11904613322
 20
994.3017210740654
 30
0.0
 10
1184.11904613322
 20
993.4042923837004
 30
0.0
 10
1184.846571237249
 20
992.6767672796714
 30
0.0
 10
1185.74399992761
 20
992.6767672796714
 30
0.0
  0
SPLINE
  5
157
330
70
100
AcDbEntity
  8
Camada 1
 62
    18
420
        0
370
    35
100
AcDbSpline
210
0.0
220
0.0
230
1.0
 70
     8
 71
     3
 72
     8
 73
     4
 74
     0
 42
0.0000000001
 43
0.0000000001
 40
0.0
 40
0.0
 40
0.0
 40
0.0
 40
1.0
 40
1.0
 40
1.0
 40
1.0
 10
1185.74399992761
 20
992.6767672796714
 30
0.0
 10
1186.64142861797
 20
992.6767672796714
 30
0.0
 10
1187.368953722
 20
993.4042923837004
 30
0.0
 10
1187.368953722
 20
994.3017210740654
 30
0.0
  0
SPLINE
  5
158
330
70
100
AcDbEntity
  8
Camada 1
 62
    18
420
        0
370
    35
100
AcDbSpline
210
0.0
220
0.0
230
1.0
 70
     8
 71
     3
 72
     8
 73
     4
 74
     0
 42
0.0000000001
 43
0.0000000001
 40
0.0
 40
0.0
 40
0.0
 40
0.0
 40
1.0
 40
1.0
 40
1.0
 40
1.0
 10
1198.20201011873
 20
994.3017210740654
 30
0.0
 10
1198.20201011873
 20
993.4042923837004
 30
0.0
 10
1198.92953522276
 20
992.6767672796714
 30
0.0
 10
1199.826963913119
 20
992.6767672796714
 30
0.0
  0
SPLINE
  5
159
330
70
100
AcDbEntity
  8
Camada 1
 62
    18
420
        0
370
    35
100
AcDbSpline
210
0.0
220
0.0
230
1.0
 70
     8
 71
     3
 72
     8
 73
     4
 74
     0
 42
0.0000000001
 43
0.0000000001
 40
0.0
 40
0.0
 40
0.0
 40
0.0
 40
1.0
 40
1.0
 40
1.0
 40
1.0
 10
1199.826963913119
 20
992.6767672796714
 30
0.0
 10
1200.72439260348
 20
992.6767672796714
 30
0.0
 10
1201.451917707509
 20
993.4042923837004
 30
0.0
 10
1201.451917707509
 20
994.3017210740654
 30
0.0
  0
SPLINE
  5
15A
330
70
100
AcDbEntity
  8
Camada 1
 62
    18
420
        0
370
    35
100
AcDbSpline
210
0.0
220
0.0
230
1.0
 70
     8
 71
     3
 72
     8
 73
     4
 74
     0
 42
0.0000000001
 43
0.0000000001
 40
0.0
 40
0.0
 40
0.0
 40
0.0
 40
1.0
 40
1.0
 40
1.0
 40
1.0
 10
804.447906301284
 20
1029.29066357634
 30
0.0
 10
808.7440831603853
 20
1023.66266559301
 30
0.0
 10
808.7440831603853
 20
1015.856150949979
 30
0.0
 10
804.447906301284
 20
1010.22819961782
 30
0.0
  0
SPLINE
  5
15B
330
70
100
AcDbEntity
  8
Camada 1
 62
    18
420
        0
370
    35
100
AcDbSpline
210
0.0
220
0.0
230
1.0
 70
     8
 71
     3
 72
     8
 73
     4
 74
     0
 42
0.0000000001
 43
0.0000000001
 40
0.0
 40
0.0
 40
0.0
 40
0.0
 40
1.0
 40
1.0
 40
1.0
 40
1.0
 10
803.3368152206403
 20
1032.57728564136
 30
0.0
 10
803.3368152206403
 20
1031.38954667704
 30
0.0
 10
803.7272155946739
 20
1030.234743443619
 30
0.0
 10
804.447906301284
 20
1029.29066357634
 30
0.0
  0
SPLINE
  5
15C
330
70
100
AcDbEntity
  8
Camada 1
 62
    18
420
        0
370
    35
100
AcDbSpline
210
0.0
220
0.0
230
1.0
 70
     8
 71
     3
 72
     8
 73
     4
 74
     0
 42
0.0000000001
 43
0.0000000001
 40
0.0
 40
0.0
 40
0.0
 40
0.0
 40
1.0
 40
1.0
 40
1.0
 40
1.0
 10
821.2113769357147
 20
1045.21709546893
 30
0.0
 10
821.2113769357147
 20
1046.11457081047
 30
0.0
 10
820.4838518316845
 20
1046.8420959145
 30
0.0
 10
819.5864231413215
 20
1046.8420959145
 30
0.0
  0
SPLINE
  5
15D
330
70
100
AcDbEntity
  8
Camada 1
 62
    18
420
        0
370
    35
100
AcDbSpline
210
0.0
220
0.0
230
1.0
 70
     8
 71
     3
 72
     8
 73
     4
 74
     0
 42
0.0000000001
 43
0.0000000001
 40
0.0
 40
0.0
 40
0.0
 40
0.0
 40
1.0
 40
1.0
 40
1.0
 40
1.0
 10
819.5864231413215
 20
1046.8420959145
 30
0.0
 10
818.6889711253716
 20
1046.8420959145
 30
0.0
 10
817.9614460213414
 20
1046.11457081047
 30
0.0
 10
817.9614460213414
 20
1045.21709546893
 30
0.0
  0
SPLINE
  5
15E
330
70
100
AcDbEntity
  8
Camada 1
 62
    18
420
        0
370
    35
100
AcDbSpline
210
0.0
220
0.0
230
1.0
 70
     8
 71
     3
 72
     8
 73
     4
 74
     0
 42
0.0000000001
 43
0.0000000001
 40
0.0
 40
0.0
 40
0.0
 40
0.0
 40
1.0
 40
1.0
 40
1.0
 40
1.0
 10
835.2943642468162
 20
1045.21709546893
 30
0.0
 10
835.2943642468162
 20
1046.11457081047
 30
0.0
 10
834.5668391427862
 20
1046.8420959145
 30
0.0
 10
833.6693871268362
 20
1046.8420959145
 30
0.0
  0
SPLINE
  5
15F
330
70
100
AcDbEntity
  8
Camada 1
 62
    18
420
        0
370
    35
100
AcDbSpline
210
0.0
220
0.0
230
1.0
 70
     8
 71
     3
 72
     8
 73
     4
 74
     0
 42
0.0000000001
 43
0.0000000001
 40
0.0
 40
0.0
 40
0.0
 40
0.0
 40
1.0
 40
1.0
 40
1.0
 40
1.0
 10
833.6693871268362
 20
1046.8420959145
 30
0.0
 10
832.771958436473
 20
1046.8420959145
 30
0.0
 10
832.0444333324431
 20
1046.11457081047
 30
0.0
 10
832.0444333324431
 20
1045.21709546893
 30
0.0
  0
SPLINE
  5
160
330
70
100
AcDbEntity
  8
Camada 1
 62
    18
420
        0
370
    35
100
AcDbSpline
210
0.0
220
0.0
230
1.0
 70
     8
 71
     3
 72
     8
 73
     4
 74
     0
 42
0.0000000001
 43
0.0000000001
 40
0.0
 40
0.0
 40
0.0
 40
0.0
 40
1.0
 40
1.0
 40
1.0
 40
1.0
 10
849.377328232329
 20
1045.21709546893
 30
0.0
 10
849.377328232329
 20
1046.11457081047
 30
0.0
 10
848.6498264538877
 20
1046.8420959145
 30
0.0
 10
847.7523744379359
 20
1046.8420959145
 30
0.0
  0
SPLINE
  5
161
330
70
100
AcDbEntity
  8
Camada 1
 62
    18
420
        0
370
    35
100
AcDbSpline
210
0.0
220
0.0
230
1.0
 70
     8
 71
     3
 72
     8
 73
     4
 74
     0
 42
0.0000000001
 43
0.0000000001
 40
0.0
 40
0.0
 40
0.0
 40
0.0
 40
1.0
 40
1.0
 40
1.0
 40
1.0
 10
847.7523744379359
 20
1046.8420959145
 30
0.0
 10
846.8549457475747
 20
1046.8420959145
 30
0.0
 10
846.1274206435446
 20
1046.11457081047
 30
0.0
 10
846.1274206435446
 20
1045.21709546893
 30
0.0
  0
SPLINE
  5
162
330
70
100
AcDbEntity
  8
Camada 1
 62
    18
420
        0
370
    35
100
AcDbSpline
210
0.0
220
0.0
230
1.0
 70
     8
 71
     3
 72
     8
 73
     4
 74
     0
 42
0.0000000001
 43
0.0000000001
 40
0.0
 40
0.0
 40
0.0
 40
0.0
 40
1.0
 40
1.0
 40
1.0
 40
1.0
 10
863.4603155434305
 20
1045.21709546893
 30
0.0
 10
863.4603155434305
 20
1046.11457081047
 30
0.0
 10
862.7328137649893
 20
1046.8420959145
 30
0.0
 10
861.8353617490393
 20
1046.8420959145
 30
0.0
  0
SPLINE
  5
163
330
70
100
AcDbEntity
  8
Camada 1
 62
    18
420
        0
370
    35
100
AcDbSpline
210
0.0
220
0.0
230
1.0
 70
     8
 71
     3
 72
     8
 73
     4
 74
     0
 42
0.0000000001
 43
0.0000000001
 40
0.0
 40
0.0
 40
0.0
 40
0.0
 40
1.0
 40
1.0
 40
1.0
 40
1.0
 10
861.8353617490393
 20
1046.8420959145
 30
0.0
 10
860.9379330586762
 20
1046.8420959145
 30
0.0
 10
860.210407954648
 20
1046.11457081047
 30
0.0
 10
860.210407954648
 20
1045.21709546893
 30
0.0
  0
SPLINE
  5
164
330
70
100
AcDbEntity
  8
Camada 1
 62
    18
420
        0
370
    35
100
AcDbSpline
210
0.0
220
0.0
230
1.0
 70
     8
 71
     3
 72
     8
 73
     4
 74
     0
 42
0.0000000001
 43
0.0000000001
 40
0.0
 40
0.0
 40
0.0
 40
0.0
 40
1.0
 40
1.0
 40
1.0
 40
1.0
 10
877.5433028545322
 20
1045.21709546893
 30
0.0
 10
877.5433028545322
 20
1046.11457081047
 30
0.0
 10
876.8157777505038
 20
1046.8420959145
 30
0.0
 10
875.918349060139
 20
1046.8420959145
 30
0.0
  0
SPLINE
  5
165
330
70
100
AcDbEntity
  8
Camada 1
 62
    18
420
        0
370
    35
100
AcDbSpline
210
0.0
220
0.0
230
1.0
 70
     8
 71
     3
 72
     8
 73
     4
 74
     0
 42
0.0000000001
 43
0.0000000001
 40
0.0
 40
0.0
 40
0.0
 40
0.0
 40
1.0
 40
1.0
 40
1.0
 40
1.0
 10
875.918349060139
 20
1046.8420959145
 30
0.0
 10
875.0208970441891
 20
1046.8420959145
 30
0.0
 10
874.2933952657512
 20
1046.11457081047
 30
0.0
 10
874.2933952657512
 20
1045.21709546893
 30
0.0
  0
SPLINE
  5
166
330
70
100
AcDbEntity
  8
Camada 1
 62
    18
420
        0
370
    35
100
AcDbSpline
210
0.0
220
0.0
230
1.0
 70
     8
 71
     3
 72
     8
 73
     4
 74
     0
 42
0.0000000001
 43
0.0000000001
 40
0.0
 40
0.0
 40
0.0
 40
0.0
 40
1.0
 40
1.0
 40
1.0
 40
1.0
 10
891.6262901656336
 20
1045.21709546893
 30
0.0
 10
891.6262901656336
 20
1046.11457081047
 30
0.0
 10
890.8987650616037
 20
1046.8420959145
 30
0.0
 10
890.0013363712405
 20
1046.8420959145
 30
0.0
  0
SPLINE
  5
167
330
70
100
AcDbEntity
  8
Camada 1
 62
    18
420
        0
370
    35
100
AcDbSpline
210
0.0
220
0.0
230
1.0
 70
     8
 71
     3
 72
     8
 73
     4
 74
     0
 42
0.0000000001
 43
0.0000000001
 40
0.0
 40
0.0
 40
0.0
 40
0.0
 40
1.0
 40
1.0
 40
1.0
 40
1.0
 10
890.0013363712405
 20
1046.8420959145
 30
0.0
 10
889.1038843552905
 20
1046.8420959145
 30
0.0
 10
888.3763825768491
 20
1046.11457081047
 30
0.0
 10
888.3763825768491
 20
1045.21709546893
 30
0.0
  0
SPLINE
  5
168
330
70
100
AcDbEntity
  8
Camada 1
 62
    18
420
        0
370
    35
100
AcDbSpline
210
0.0
220
0.0
230
1.0
 70
     8
 71
     3
 72
     8
 73
     4
 74
     0
 42
0.0000000001
 43
0.0000000001
 40
0.0
 40
0.0
 40
0.0
 40
0.0
 40
1.0
 40
1.0
 40
1.0
 40
1.0
 10
905.7092774767333
 20
1045.21709546893
 30
0.0
 10
905.7092774767333
 20
1046.11457081047
 30
0.0
 10
904.9817523727069
 20
1046.8420959145
 30
0.0
 10
904.084323682342
 20
1046.8420959145
 30
0.0
  0
SPLINE
  5
169
330
70
100
AcDbEntity
  8
Camada 1
 62
    18
420
        0
370
    35
100
AcDbSpline
210
0.0
220
0.0
230
1.0
 70
     8
 71
     3
 72
     8
 73
     4
 74
     0
 42
0.0000000001
 43
0.0000000001
 40
0.0
 40
0.0
 40
0.0
 40
0.0
 40
1.0
 40
1.0
 40
1.0
 40
1.0
 10
904.084323682342
 20
1046.8420959145
 30
0.0
 10
903.186871666392
 20
1046.8420959145
 30
0.0
 10
902.459346562362
 20
1046.11457081047
 30
0.0
 10
902.459346562362
 20
1045.21709546893
 30
0.0
  0
SPLINE
  5
16A
330
70
100
AcDbEntity
  8
Camada 1
 62
    18
420
        0
370
    35
100
AcDbSpline
210
0.0
220
0.0
230
1.0
 70
     8
 71
     3
 72
     8
 73
     4
 74
     0
 42
0.0000000001
 43
0.0000000001
 40
0.0
 40
0.0
 40
0.0
 40
0.0
 40
1.0
 40
1.0
 40
1.0
 40
1.0
 10
919.7922647878367
 20
1045.21709546893
 30
0.0
 10
919.7922647878367
 20
1046.11457081047
 30
0.0
 10
919.0647396838066
 20
1046.8420959145
 30
0.0
 10
918.1672876678566
 20
1046.8420959145
 30
0.0
  0
SPLINE
  5
16B
330
70
100
AcDbEntity
  8
Camada 1
 62
    18
420
        0
370
    35
100
AcDbSpline
210
0.0
220
0.0
230
1.0
 70
     8
 71
     3
 72
     8
 73
     4
 74
     0
 42
0.0000000001
 43
0.0000000001
 40
0.0
 40
0.0
 40
0.0
 40
0.0
 40
1.0
 40
1.0
 40
1.0
 40
1.0
 10
918.1672876678566
 20
1046.8420959145
 30
0.0
 10
917.2698589774919
 20
1046.8420959145
 30
0.0
 10
916.5423338734653
 20
1046.11457081047
 30
0.0
 10
916.5423338734653
 20
1045.21709546893
 30
0.0
  0
SPLINE
  5
16C
330
70
100
AcDbEntity
  8
Camada 1
 62
    18
420
        0
370
    35
100
AcDbSpline
210
0.0
220
0.0
230
1.0
 70
     8
 71
     3
 72
     8
 73
     4
 74
     0
 42
0.0000000001
 43
0.0000000001
 40
0.0
 40
0.0
 40
0.0
 40
0.0
 40
1.0
 40
1.0
 40
1.0
 40
1.0
 10
933.8752520989364
 20
1045.21709546893
 30
0.0
 10
933.8752520989364
 20
1046.11457081047
 30
0.0
 10
933.1477269949083
 20
1046.8420959145
 30
0.0
 10
932.2502749789563
 20
1046.8420959145
 30
0.0
  0
SPLINE
  5
16D
330
70
100
AcDbEntity
  8
Camada 1
 62
    18
420
        0
370
    35
100
AcDbSpline
210
0.0
220
0.0
230
1.0
 70
     8
 71
     3
 72
     8
 73
     4
 74
     0
 42
0.0000000001
 43
0.0000000001
 40
0.0
 40
0.0
 40
0.0
 40
0.0
 40
1.0
 40
1.0
 40
1.0
 40
1.0
 10
932.2502749789563
 20
1046.8420959145
 30
0.0
 10
931.3528462885951
 20
1046.8420959145
 30
0.0
 10
930.6253211845652
 20
1046.11457081047
 30
0.0
 10
930.6253211845652
 20
1045.21709546893
 30
0.0
  0
SPLINE
  5
16E
330
70
100
AcDbEntity
  8
Camada 1
 62
    18
420
        0
370
    35
100
AcDbSpline
210
0.0
220
0.0
230
1.0
 70
     8
 71
     3
 72
     8
 73
     4
 74
     0
 42
0.0000000001
 43
0.0000000001
 40
0.0
 40
0.0
 40
0.0
 40
0.0
 40
1.0
 40
1.0
 40
1.0
 40
1.0
 10
947.9582160844511
 20
1045.21709546893
 30
0.0
 10
947.9582160844511
 20
1046.11457081047
 30
0.0
 10
947.2307143060115
 20
1046.8420959145
 30
0.0
 10
946.333262290058
 20
1046.8420959145
 30
0.0
  0
SPLINE
  5
16F
330
70
100
AcDbEntity
  8
Camada 1
 62
    18
420
        0
370
    35
100
AcDbSpline
210
0.0
220
0.0
230
1.0
 70
     8
 71
     3
 72
     8
 73
     4
 74
     0
 42
0.0000000001
 43
0.0000000001
 40
0.0
 40
0.0
 40
0.0
 40
0.0
 40
1.0
 40
1.0
 40
1.0
 40
1.0
 10
946.333262290058
 20
1046.8420959145
 30
0.0
 10
945.4358335996948
 20
1046.8420959145
 30
0.0
 10
944.7083084956684
 20
1046.11457081047
 30
0.0
 10
944.7083084956684
 20
1045.21709546893
 30
0.0
  0
SPLINE
  5
170
330
70
100
AcDbEntity
  8
Camada 1
 62
    18
420
        0
370
    35
100
AcDbSpline
210
0.0
220
0.0
230
1.0
 70
     8
 71
     3
 72
     8
 73
     4
 74
     0
 42
0.0000000001
 43
0.0000000001
 40
0.0
 40
0.0
 40
0.0
 40
0.0
 40
1.0
 40
1.0
 40
1.0
 40
1.0
 10
962.0412033955526
 20
1045.21709546893
 30
0.0
 10
962.0412033955526
 20
1046.11457081047
 30
0.0
 10
961.3136782915244
 20
1046.8420959145
 30
0.0
 10
960.4162496011594
 20
1046.8420959145
 30
0.0
  0
SPLINE
  5
171
330
70
100
AcDbEntity
  8
Camada 1
 62
    18
420
        0
370
    35
100
AcDbSpline
210
0.0
220
0.0
230
1.0
 70
     8
 71
     3
 72
     8
 73
     4
 74
     0
 42
0.0000000001
 43
0.0000000001
 40
0.0
 40
0.0
 40
0.0
 40
0.0
 40
1.0
 40
1.0
 40
1.0
 40
1.0
 10
960.4162496011594
 20
1046.8420959145
 30
0.0
 10
959.5188209107982
 20
1046.8420959145
 30
0.0
 10
958.79129580677
 20
1046.11457081047
 30
0.0
 10
958.79129580677
 20
1045.21709546893
 30
0.0
  0
SPLINE
  5
172
330
70
100
AcDbEntity
  8
Camada 1
 62
    18
420
        0
370
    35
100
AcDbSpline
210
0.0
220
0.0
230
1.0
 70
     8
 71
     3
 72
     8
 73
     4
 74
     0
 42
0.0000000001
 43
0.0000000001
 40
0.0
 40
0.0
 40
0.0
 40
0.0
 40
1.0
 40
1.0
 40
1.0
 40
1.0
 10
976.1242140322428
 20
1045.21709546893
 30
0.0
 10
976.1242140322428
 20
1046.11457081047
 30
0.0
 10
975.3966889282128
 20
1046.8420959145
 30
0.0
 10
974.4992135866741
 20
1046.8420959145
 30
0.0
  0
SPLINE
  5
173
330
70
100
AcDbEntity
  8
Camada 1
 62
    18
420
        0
370
    35
100
AcDbSpline
210
0.0
220
0.0
230
1.0
 70
     8
 71
     3
 72
     8
 73
     4
 74
     0
 42
0.0000000001
 43
0.0000000001
 40
0.0
 40
0.0
 40
0.0
 40
0.0
 40
1.0
 40
1.0
 40
1.0
 40
1.0
 10
974.4992135866741
 20
1046.8420959145
 30
0.0
 10
973.6017848963111
 20
1046.8420959145
 30
0.0
 10
972.874259792281
 20
1046.11457081047
 30
0.0
 10
972.874259792281
 20
1045.21709546893
 30
0.0
  0
SPLINE
  5
174
330
70
100
AcDbEntity
  8
Camada 1
 62
    18
420
        0
370
    35
100
AcDbSpline
210
0.0
220
0.0
230
1.0
 70
     8
 71
     3
 72
     8
 73
     4
 74
     0
 42
0.0000000001
 43
0.0000000001
 40
0.0
 40
0.0
 40
0.0
 40
0.0
 40
1.0
 40
1.0
 40
1.0
 40
1.0
 10
990.2071780177539
 20
1045.21709546893
 30
0.0
 10
990.2071780177539
 20
1046.11457081047
 30
0.0
 10
989.4796529137275
 20
1046.8420959145
 30
0.0
 10
988.5822242233661
 20
1046.8420959145
 30
0.0
  0
SPLINE
  5
175
330
70
100
AcDbEntity
  8
Camada 1
 62
    18
420
        0
370
    35
100
AcDbSpline
210
0.0
220
0.0
230
1.0
 70
     8
 71
     3
 72
     8
 73
     4
 74
     0
 42
0.0000000001
 43
0.0000000001
 40
0.0
 40
0.0
 40
0.0
 40
0.0
 40
1.0
 40
1.0
 40
1.0
 40
1.0
 10
988.5822242233661
 20
1046.8420959145
 30
0.0
 10
987.6847955330013
 20
1046.8420959145
 30
0.0
 10
986.9572704289712
 20
1046.11457081047
 30
0.0
 10
986.9572704289712
 20
1045.21709546893
 30
0.0
  0
SPLINE
  5
176
330
70
100
AcDbEntity
  8
Camada 1
 62
    18
420
        0
370
    35
100
AcDbSpline
210
0.0
220
0.0
230
1.0
 70
     8
 71
     3
 72
     8
 73
     4
 74
     0
 42
0.0000000001
 43
0.0000000001
 40
0.0
 40
0.0
 40
0.0
 40
0.0
 40
1.0
 40
1.0
 40
1.0
 40
1.0
 10
1004.29014200327
 20
1045.21709546893
 30
0.0
 10
1004.29014200327
 20
1046.11457081047
 30
0.0
 10
1003.562663550419
 20
1046.8420959145
 30
0.0
 10
1002.665188208881
 20
1046.8420959145
 30
0.0
  0
SPLINE
  5
177
330
70
100
AcDbEntity
  8
Camada 1
 62
    18
420
        0
370
    35
100
AcDbSpline
210
0.0
220
0.0
230
1.0
 70
     8
 71
     3
 72
     8
 73
     4
 74
     0
 42
0.0000000001
 43
0.0000000001
 40
0.0
 40
0.0
 40
0.0
 40
0.0
 40
1.0
 40
1.0
 40
1.0
 40
1.0
 10
1002.665188208881
 20
1046.8420959145
 30
0.0
 10
1001.76775951851
 20
1046.8420959145
 30
0.0
 10
1001.040234414489
 20
1046.11457081047
 30
0.0
 10
1001.040234414489
 20
1045.21709546893
 30
0.0
  0
SPLINE
  5
178
330
70
100
AcDbEntity
  8
Camada 1
 62
    18
420
        0
370
    35
100
AcDbSpline
210
0.0
220
0.0
230
1.0
 70
     8
 71
     3
 72
     8
 73
     4
 74
     0
 42
0.0000000001
 43
0.0000000001
 40
0.0
 40
0.0
 40
0.0
 40
0.0
 40
1.0
 40
1.0
 40
1.0
 40
1.0
 10
1018.37315263996
 20
1045.21709546893
 30
0.0
 10
1018.37315263996
 20
1046.11457081047
 30
0.0
 10
1017.64562753593
 20
1046.8420959145
 30
0.0
 10
1016.748198845569
 20
1046.8420959145
 30
0.0
  0
SPLINE
  5
179
330
70
100
AcDbEntity
  8
Camada 1
 62
    18
420
        0
370
    35
100
AcDbSpline
210
0.0
220
0.0
230
1.0
 70
     8
 71
     3
 72
     8
 73
     4
 74
     0
 42
0.0000000001
 43
0.0000000001
 40
0.0
 40
0.0
 40
0.0
 40
0.0
 40
1.0
 40
1.0
 40
1.0
 40
1.0
 10
1016.748198845569
 20
1046.8420959145
 30
0.0
 10
1015.85072350403
 20
1046.8420959145
 30
0.0
 10
1015.12324505117
 20
1046.11457081047
 30
0.0
 10
1015.12324505117
 20
1045.21709546893
 30
0.0
  0
SPLINE
  5
17A
330
70
100
AcDbEntity
  8
Camada 1
 62
    18
420
        0
370
    35
100
AcDbSpline
210
0.0
220
0.0
230
1.0
 70
     8
 71
     3
 72
     8
 73
     4
 74
     0
 42
0.0000000001
 43
0.0000000001
 40
0.0
 40
0.0
 40
0.0
 40
0.0
 40
1.0
 40
1.0
 40
1.0
 40
1.0
 10
1032.456116625469
 20
1045.21709546893
 30
0.0
 10
1032.456116625469
 20
1046.11457081047
 30
0.0
 10
1031.72859152144
 20
1046.8420959145
 30
0.0
 10
1030.83116283108
 20
1046.8420959145
 30
0.0
  0
SPLINE
  5
17B
330
70
100
AcDbEntity
  8
Camada 1
 62
    18
420
        0
370
    35
100
AcDbSpline
210
0.0
220
0.0
230
1.0
 70
     8
 71
     3
 72
     8
 73
     4
 74
     0
 42
0.0000000001
 43
0.0000000001
 40
0.0
 40
0.0
 40
0.0
 40
0.0
 40
1.0
 40
1.0
 40
1.0
 40
1.0
 10
1030.83116283108
 20
1046.8420959145
 30
0.0
 10
1029.933734140719
 20
1046.8420959145
 30
0.0
 10
1029.206209036691
 20
1046.11457081047
 30
0.0
 10
1029.206209036691
 20
1045.21709546893
 30
0.0
  0
SPLINE
  5
17C
330
70
100
AcDbEntity
  8
Camada 1
 62
    18
420
        0
370
    35
100
AcDbSpline
210
0.0
220
0.0
230
1.0
 70
     8
 71
     3
 72
     8
 73
     4
 74
     0
 42
0.0000000001
 43
0.0000000001
 40
0.0
 40
0.0
 40
0.0
 40
0.0
 40
1.0
 40
1.0
 40
1.0
 40
1.0
 10
1046.53912726216
 20
1045.21709546893
 30
0.0
 10
1046.53912726216
 20
1046.11457081047
 30
0.0
 10
1045.81160215813
 20
1046.8420959145
 30
0.0
 10
1044.91417346777
 20
1046.8420959145
 30
0.0
  0
SPLINE
  5
17D
330
70
100
AcDbEntity
  8
Camada 1
 62
    18
420
        0
370
    35
100
AcDbSpline
210
0.0
220
0.0
230
1.0
 70
     8
 71
     3
 72
     8
 73
     4
 74
     0
 42
0.0000000001
 43
0.0000000001
 40
0.0
 40
0.0
 40
0.0
 40
0.0
 40
1.0
 40
1.0
 40
1.0
 40
1.0
 10
1044.91417346777
 20
1046.8420959145
 30
0.0
 10
1044.01669812623
 20
1046.8420959145
 30
0.0
 10
1043.2891730222
 20
1046.11457081047
 30
0.0
 10
1043.2891730222
 20
1045.21709546893
 30
0.0
  0
SPLINE
  5
17E
330
70
100
AcDbEntity
  8
Camada 1
 62
    18
420
        0
370
    35
100
AcDbSpline
210
0.0
220
0.0
230
1.0
 70
     8
 71
     3
 72
     8
 73
     4
 74
     0
 42
0.0000000001
 43
0.0000000001
 40
0.0
 40
0.0
 40
0.0
 40
0.0
 40
1.0
 40
1.0
 40
1.0
 40
1.0
 10
1060.622091247669
 20
1045.21709546893
 30
0.0
 10
1060.622091247669
 20
1046.11457081047
 30
0.0
 10
1059.894566143641
 20
1046.8420959145
 30
0.0
 10
1058.99713745328
 20
1046.8420959145
 30
0.0
  0
SPLINE
  5
17F
330
70
100
AcDbEntity
  8
Camada 1
 62
    18
420
        0
370
    35
100
AcDbSpline
210
0.0
220
0.0
230
1.0
 70
     8
 71
     3
 72
     8
 73
     4
 74
     0
 42
0.0000000001
 43
0.0000000001
 40
0.0
 40
0.0
 40
0.0
 40
0.0
 40
1.0
 40
1.0
 40
1.0
 40
1.0
 10
1058.99713745328
 20
1046.8420959145
 30
0.0
 10
1058.09970876292
 20
1046.8420959145
 30
0.0
 10
1057.37218365889
 20
1046.11457081047
 30
0.0
 10
1057.37218365889
 20
1045.21709546893
 30
0.0
  0
SPLINE
  5
180
330
70
100
AcDbEntity
  8
Camada 1
 62
    18
420
        0
370
    35
100
AcDbSpline
210
0.0
220
0.0
230
1.0
 70
     8
 71
     3
 72
     8
 73
     4
 74
     0
 42
0.0000000001
 43
0.0000000001
 40
0.0
 40
0.0
 40
0.0
 40
0.0
 40
1.0
 40
1.0
 40
1.0
 40
1.0
 10
1074.70510188437
 20
1045.21709546893
 30
0.0
 10
1074.70510188437
 20
1046.11457081047
 30
0.0
 10
1073.97757678034
 20
1046.8420959145
 30
0.0
 10
1073.08010143879
 20
1046.8420959145
 30
0.0
  0
SPLINE
  5
181
330
70
100
AcDbEntity
  8
Camada 1
 62
    18
420
        0
370
    35
100
AcDbSpline
210
0.0
220
0.0
230
1.0
 70
     8
 71
     3
 72
     8
 73
     4
 74
     0
 42
0.0000000001
 43
0.0000000001
 40
0.0
 40
0.0
 40
0.0
 40
0.0
 40
1.0
 40
1.0
 40
1.0
 40
1.0
 10
1073.08010143879
 20
1046.8420959145
 30
0.0
 10
1072.182672748429
 20
1046.8420959145
 30
0.0
 10
1071.455147644399
 20
1046.11457081047
 30
0.0
 10
1071.455147644399
 20
1045.21709546893
 30
0.0
  0
SPLINE
  5
182
330
70
100
AcDbEntity
  8
Camada 1
 62
    18
420
        0
370
    35
100
AcDbSpline
210
0.0
220
0.0
230
1.0
 70
     8
 71
     3
 72
     8
 73
     4
 74
     0
 42
0.0000000001
 43
0.0000000001
 40
0.0
 40
0.0
 40
0.0
 40
0.0
 40
1.0
 40
1.0
 40
1.0
 40
1.0
 10
1088.788065869879
 20
1045.21709546893
 30
0.0
 10
1088.788065869879
 20
1046.11457081047
 30
0.0
 10
1088.060540765849
 20
1046.8420959145
 30
0.0
 10
1087.163112075479
 20
1046.8420959145
 30
0.0
  0
SPLINE
  5
183
330
70
100
AcDbEntity
  8
Camada 1
 62
    18
420
        0
370
    35
100
AcDbSpline
210
0.0
220
0.0
230
1.0
 70
     8
 71
     3
 72
     8
 73
     4
 74
     0
 42
0.0000000001
 43
0.0000000001
 40
0.0
 40
0.0
 40
0.0
 40
0.0
 40
1.0
 40
1.0
 40
1.0
 40
1.0
 10
1087.163112075479
 20
1046.8420959145
 30
0.0
 10
1086.26568338512
 20
1046.8420959145
 30
0.0
 10
1085.5381582811
 20
1046.11457081047
 30
0.0
 10
1085.5381582811
 20
1045.21709546893
 30
0.0
  0
SPLINE
  5
184
330
70
100
AcDbEntity
  8
Camada 1
 62
    18
420
        0
370
    35
100
AcDbSpline
210
0.0
220
0.0
230
1.0
 70
     8
 71
     3
 72
     8
 73
     4
 74
     0
 42
0.0000000001
 43
0.0000000001
 40
0.0
 40
0.0
 40
0.0
 40
0.0
 40
1.0
 40
1.0
 40
1.0
 40
1.0
 10
1102.87102985539
 20
1045.21709546893
 30
0.0
 10
1102.87102985539
 20
1046.11457081047
 30
0.0
 10
1102.143551402539
 20
1046.8420959145
 30
0.0
 10
1101.246076060999
 20
1046.8420959145
 30
0.0
  0
SPLINE
  5
185
330
70
100
AcDbEntity
  8
Camada 1
 62
    18
420
        0
370
    35
100
AcDbSpline
210
0.0
220
0.0
230
1.0
 70
     8
 71
     3
 72
     8
 73
     4
 74
     0
 42
0.0000000001
 43
0.0000000001
 40
0.0
 40
0.0
 40
0.0
 40
0.0
 40
1.0
 40
1.0
 40
1.0
 40
1.0
 10
1101.246076060999
 20
1046.8420959145
 30
0.0
 10
1100.34864737064
 20
1046.8420959145
 30
0.0
 10
1099.62112226661
 20
1046.11457081047
 30
0.0
 10
1099.62112226661
 20
1045.21709546893
 30
0.0
  0
SPLINE
  5
186
330
70
100
AcDbEntity
  8
Camada 1
 62
    18
420
        0
370
    35
100
AcDbSpline
210
0.0
220
0.0
230
1.0
 70
     8
 71
     3
 72
     8
 73
     4
 74
     0
 42
0.0000000001
 43
0.0000000001
 40
0.0
 40
0.0
 40
0.0
 40
0.0
 40
1.0
 40
1.0
 40
1.0
 40
1.0
 10
1116.954040492081
 20
1045.21709546893
 30
0.0
 10
1116.954040492081
 20
1046.11457081047
 30
0.0
 10
1116.226515388051
 20
1046.8420959145
 30
0.0
 10
1115.329086697689
 20
1046.8420959145
 30
0.0
  0
SPLINE
  5
187
330
70
100
AcDbEntity
  8
Camada 1
 62
    18
420
        0
370
    35
100
AcDbSpline
210
0.0
220
0.0
230
1.0
 70
     8
 71
     3
 72
     8
 73
     4
 74
     0
 42
0.0000000001
 43
0.0000000001
 40
0.0
 40
0.0
 40
0.0
 40
0.0
 40
1.0
 40
1.0
 40
1.0
 40
1.0
 10
1115.329086697689
 20
1046.8420959145
 30
0.0
 10
1114.431611356151
 20
1046.8420959145
 30
0.0
 10
1113.7041329033
 20
1046.11457081047
 30
0.0
 10
1113.7041329033
 20
1045.21709546893
 30
0.0
  0
SPLINE
  5
188
330
70
100
AcDbEntity
  8
Camada 1
 62
    18
420
        0
370
    35
100
AcDbSpline
210
0.0
220
0.0
230
1.0
 70
     8
 71
     3
 72
     8
 73
     4
 74
     0
 42
0.0000000001
 43
0.0000000001
 40
0.0
 40
0.0
 40
0.0
 40
0.0
 40
1.0
 40
1.0
 40
1.0
 40
1.0
 10
1131.03700447759
 20
1045.21709546893
 30
0.0
 10
1131.03700447759
 20
1046.11457081047
 30
0.0
 10
1130.30947937356
 20
1046.8420959145
 30
0.0
 10
1129.4120506832
 20
1046.8420959145
 30
0.0
  0
SPLINE
  5
189
330
70
100
AcDbEntity
  8
Camada 1
 62
    18
420
        0
370
    35
100
AcDbSpline
210
0.0
220
0.0
230
1.0
 70
     8
 71
     3
 72
     8
 73
     4
 74
     0
 42
0.0000000001
 43
0.0000000001
 40
0.0
 40
0.0
 40
0.0
 40
0.0
 40
1.0
 40
1.0
 40
1.0
 40
1.0
 10
1129.4120506832
 20
1046.8420959145
 30
0.0
 10
1128.514621992839
 20
1046.8420959145
 30
0.0
 10
1127.787096888809
 20
1046.11457081047
 30
0.0
 10
1127.787096888809
 20
1045.21709546893
 30
0.0
  0
SPLINE
  5
18A
330
70
100
AcDbEntity
  8
Camada 1
 62
    18
420
        0
370
    35
100
AcDbSpline
210
0.0
220
0.0
230
1.0
 70
     8
 71
     3
 72
     8
 73
     4
 74
     0
 42
0.0000000001
 43
0.0000000001
 40
0.0
 40
0.0
 40
0.0
 40
0.0
 40
1.0
 40
1.0
 40
1.0
 40
1.0
 10
1145.120015114289
 20
1045.21709546893
 30
0.0
 10
1145.120015114289
 20
1046.11457081047
 30
0.0
 10
1144.392490010259
 20
1046.8420959145
 30
0.0
 10
1143.495061319891
 20
1046.8420959145
 30
0.0
  0
SPLINE
  5
18B
330
70
100
AcDbEntity
  8
Camada 1
 62
    18
420
        0
370
    35
100
AcDbSpline
210
0.0
220
0.0
230
1.0
 70
     8
 71
     3
 72
     8
 73
     4
 74
     0
 42
0.0000000001
 43
0.0000000001
 40
0.0
 40
0.0
 40
0.0
 40
0.0
 40
1.0
 40
1.0
 40
1.0
 40
1.0
 10
1143.495061319891
 20
1046.8420959145
 30
0.0
 10
1142.59758597835
 20
1046.8420959145
 30
0.0
 10
1141.870060874329
 20
1046.11457081047
 30
0.0
 10
1141.870060874329
 20
1045.21709546893
 30
0.0
  0
SPLINE
  5
18C
330
70
100
AcDbEntity
  8
Camada 1
 62
    18
420
        0
370
    35
100
AcDbSpline
210
0.0
220
0.0
230
1.0
 70
     8
 71
     3
 72
     8
 73
     4
 74
     0
 42
0.0000000001
 43
0.0000000001
 40
0.0
 40
0.0
 40
0.0
 40
0.0
 40
1.0
 40
1.0
 40
1.0
 40
1.0
 10
1159.2029790998
 20
1045.21709546893
 30
0.0
 10
1159.2029790998
 20
1046.11457081047
 30
0.0
 10
1158.47545399577
 20
1046.8420959145
 30
0.0
 10
1157.5780253054
 20
1046.8420959145
 30
0.0
  0
SPLINE
  5
18D
330
70
100
AcDbEntity
  8
Camada 1
 62
    18
420
        0
370
    35
100
AcDbSpline
210
0.0
220
0.0
230
1.0
 70
     8
 71
     3
 72
     8
 73
     4
 74
     0
 42
0.0000000001
 43
0.0000000001
 40
0.0
 40
0.0
 40
0.0
 40
0.0
 40
1.0
 40
1.0
 40
1.0
 40
1.0
 10
1157.5780253054
 20
1046.8420959145
 30
0.0
 10
1156.68059661504
 20
1046.8420959145
 30
0.0
 10
1155.95307151101
 20
1046.11457081047
 30
0.0
 10
1155.95307151101
 20
1045.21709546893
 30
0.0
  0
SPLINE
  5
18E
330
70
100
AcDbEntity
  8
Camada 1
 62
    18
420
        0
370
    35
100
AcDbSpline
210
0.0
220
0.0
230
1.0
 70
     8
 71
     3
 72
     8
 73
     4
 74
     0
 42
0.0000000001
 43
0.0000000001
 40
0.0
 40
0.0
 40
0.0
 40
0.0
 40
1.0
 40
1.0
 40
1.0
 40
1.0
 10
1173.28598973649
 20
1045.21709546893
 30
0.0
 10
1173.28598973649
 20
1046.11457081047
 30
0.0
 10
1172.55846463246
 20
1046.8420959145
 30
0.0
 10
1171.66098929092
 20
1046.8420959145
 30
0.0
  0
SPLINE
  5
18F
330
70
100
AcDbEntity
  8
Camada 1
 62
    18
420
        0
370
    35
100
AcDbSpline
210
0.0
220
0.0
230
1.0
 70
     8
 71
     3
 72
     8
 73
     4
 74
     0
 42
0.0000000001
 43
0.0000000001
 40
0.0
 40
0.0
 40
0.0
 40
0.0
 40
1.0
 40
1.0
 40
1.0
 40
1.0
 10
1171.66098929092
 20
1046.8420959145
 30
0.0
 10
1170.76356060056
 20
1046.8420959145
 30
0.0
 10
1170.03603549653
 20
1046.11457081047
 30
0.0
 10
1170.03603549653
 20
1045.21709546893
 30
0.0
  0
SPLINE
  5
190
330
70
100
AcDbEntity
  8
Camada 1
 62
    18
420
        0
370
    35
100
AcDbSpline
210
0.0
220
0.0
230
1.0
 70
     8
 71
     3
 72
     8
 73
     4
 74
     0
 42
0.0000000001
 43
0.0000000001
 40
0.0
 40
0.0
 40
0.0
 40
0.0
 40
1.0
 40
1.0
 40
1.0
 40
1.0
 10
1187.368953722
 20
1045.21709546893
 30
0.0
 10
1187.368953722
 20
1046.11457081047
 30
0.0
 10
1186.64142861797
 20
1046.8420959145
 30
0.0
 10
1185.74399992761
 20
1046.8420959145
 30
0.0
  0
SPLINE
  5
191
330
70
100
AcDbEntity
  8
Camada 1
 62
    18
420
        0
370
    35
100
AcDbSpline
210
0.0
220
0.0
230
1.0
 70
     8
 71
     3
 72
     8
 73
     4
 74
     0
 42
0.0000000001
 43
0.0000000001
 40
0.0
 40
0.0
 40
0.0
 40
0.0
 40
1.0
 40
1.0
 40
1.0
 40
1.0
 10
1185.74399992761
 20
1046.8420959145
 30
0.0
 10
1184.846571237249
 20
1046.8420959145
 30
0.0
 10
1184.11904613322
 20
1046.11457081047
 30
0.0
 10
1184.11904613322
 20
1045.21709546893
 30
0.0
  0
SPLINE
  5
192
330
70
100
AcDbEntity
  8
Camada 1
 62
    18
420
        0
370
    35
100
AcDbSpline
210
0.0
220
0.0
230
1.0
 70
     8
 71
     3
 72
     8
 73
     4
 74
     0
 42
0.0000000001
 43
0.0000000001
 40
0.0
 40
0.0
 40
0.0
 40
0.0
 40
1.0
 40
1.0
 40
1.0
 40
1.0
 10
1201.451917707509
 20
1045.21709546893
 30
0.0
 10
1201.451917707509
 20
1046.11457081047
 30
0.0
 10
1200.72439260348
 20
1046.8420959145
 30
0.0
 10
1199.826963913119
 20
1046.8420959145
 30
0.0
  0
SPLINE
  5
193
330
70
100
AcDbEntity
  8
Camada 1
 62
    18
420
        0
370
    35
100
AcDbSpline
210
0.0
220
0.0
230
1.0
 70
     8
 71
     3
 72
     8
 73
     4
 74
     0
 42
0.0000000001
 43
0.0000000001
 40
0.0
 40
0.0
 40
0.0
 40
0.0
 40
1.0
 40
1.0
 40
1.0
 40
1.0
 10
1199.826963913119
 20
1046.8420959145
 30
0.0
 10
1198.92953522276
 20
1046.8420959145
 30
0.0
 10
1198.20201011873
 20
1046.11457081047
 30
0.0
 10
1198.20201011873
 20
1045.21709546893
 30
0.0
  0
SPLINE
  5
194
330
70
100
AcDbEntity
  8
Camada 1
 62
    18
420
        0
370
    35
100
AcDbSpline
210
0.0
220
0.0
230
1.0
 70
     8
 71
     3
 72
     8
 73
     4
 74
     0
 42
0.0000000001
 43
0.0000000001
 40
0.0
 40
0.0
 40
0.0
 40
0.0
 40
1.0
 40
1.0
 40
1.0
 40
1.0
 10
1666.732095812291
 20
1006.94157755281
 30
0.0
 10
1666.732095812291
 20
1008.12926986595
 30
0.0
 10
1666.341625461489
 20
1009.28407309937
 30
0.0
 10
1665.62095808047
 20
1010.22819961782
 30
0.0
  0
SPLINE
  5
195
330
70
100
AcDbEntity
  8
Camada 1
 62
    18
420
        0
370
    35
100
AcDbSpline
210
0.0
220
0.0
230
1.0
 70
     8
 71
     3
 72
     8
 73
     4
 74
     0
 42
0.0000000001
 43
0.0000000001
 40
0.0
 40
0.0
 40
0.0
 40
0.0
 40
1.0
 40
1.0
 40
1.0
 40
1.0
 10
1268.616923348651
 20
994.3017210740654
 30
0.0
 10
1268.616923348651
 20
993.4042923837004
 30
0.0
 10
1269.344448452681
 20
992.6767672796714
 30
0.0
 10
1270.24187714304
 20
992.6767672796714
 30
0.0
  0
SPLINE
  5
196
330
70
100
AcDbEntity
  8
Camada 1
 62
    18
420
        0
370
    35
100
AcDbSpline
210
0.0
220
0.0
230
1.0
 70
     8
 71
     3
 72
     8
 73
     4
 74
     0
 42
0.0000000001
 43
0.0000000001
 40
0.0
 40
0.0
 40
0.0
 40
0.0
 40
1.0
 40
1.0
 40
1.0
 40
1.0
 10
1270.24187714304
 20
992.6767672796714
 30
0.0
 10
1271.139352484581
 20
992.6767672796714
 30
0.0
 10
1271.86683093743
 20
993.4042923837004
 30
0.0
 10
1271.86683093743
 20
994.3017210740654
 30
0.0
  0
SPLINE
  5
197
330
70
100
AcDbEntity
  8
Camada 1
 62
    18
420
        0
370
    35
100
AcDbSpline
210
0.0
220
0.0
230
1.0
 70
     8
 71
     3
 72
     8
 73
     4
 74
     0
 42
0.0000000001
 43
0.0000000001
 40
0.0
 40
0.0
 40
0.0
 40
0.0
 40
1.0
 40
1.0
 40
1.0
 40
1.0
 10
1282.699933985339
 20
994.3017210740654
 30
0.0
 10
1282.699933985339
 20
993.4042923837004
 30
0.0
 10
1283.427459089369
 20
992.6767672796714
 30
0.0
 10
1284.32488777973
 20
992.6767672796714
 30
0.0
  0
SPLINE
  5
198
330
70
100
AcDbEntity
  8
Camada 1
 62
    18
420
        0
370
    35
100
AcDbSpline
210
0.0
220
0.0
230
1.0
 70
     8
 71
     3
 72
     8
 73
     4
 74
     0
 42
0.0000000001
 43
0.0000000001
 40
0.0
 40
0.0
 40
0.0
 40
0.0
 40
1.0
 40
1.0
 40
1.0
 40
1.0
 10
1284.32488777973
 20
992.6767672796714
 30
0.0
 10
1285.22231647009
 20
992.6767672796714
 30
0.0
 10
1285.94984157412
 20
993.4042923837004
 30
0.0
 10
1285.94984157412
 20
994.3017210740654
 30
0.0
  0
SPLINE
  5
199
330
70
100
AcDbEntity
  8
Camada 1
 62
    18
420
        0
370
    35
100
AcDbSpline
210
0.0
220
0.0
230
1.0
 70
     8
 71
     3
 72
     8
 73
     4
 74
     0
 42
0.0000000001
 43
0.0000000001
 40
0.0
 40
0.0
 40
0.0
 40
0.0
 40
1.0
 40
1.0
 40
1.0
 40
1.0
 10
1296.78289797085
 20
994.3017210740654
 30
0.0
 10
1296.78289797085
 20
993.4042923837004
 30
0.0
 10
1297.51042307488
 20
992.6767672796714
 30
0.0
 10
1298.40785176525
 20
992.6767672796714
 30
0.0
  0
SPLINE
  5
19A
330
70
100
AcDbEntity
  8
Camada 1
 62
    18
420
        0
370
    35
100
AcDbSpline
210
0.0
220
0.0
230
1.0
 70
     8
 71
     3
 72
     8
 73
     4
 74
     0
 42
0.0000000001
 43
0.0000000001
 40
0.0
 40
0.0
 40
0.0
 40
0.0
 40
1.0
 40
1.0
 40
1.0
 40
1.0
 10
1298.40785176525
 20
992.6767672796714
 30
0.0
 10
1299.30528045561
 20
992.6767672796714
 30
0.0
 10
1300.032805559629
 20
993.4042923837004
 30
0.0
 10
1300.032805559629
 20
994.3017210740654
 30
0.0
  0
SPLINE
  5
19B
330
70
100
AcDbEntity
  8
Camada 1
 62
    18
420
        0
370
    35
100
AcDbSpline
210
0.0
220
0.0
230
1.0
 70
     8
 71
     3
 72
     8
 73
     4
 74
     0
 42
0.0000000001
 43
0.0000000001
 40
0.0
 40
0.0
 40
0.0
 40
0.0
 40
1.0
 40
1.0
 40
1.0
 40
1.0
 10
1310.86590860754
 20
994.3017210740654
 30
0.0
 10
1310.86590860754
 20
993.4042923837004
 30
0.0
 10
1311.5933870604
 20
992.6767672796714
 30
0.0
 10
1312.49086240193
 20
992.6767672796714
 30
0.0
  0
SPLINE
  5
19C
330
70
100
AcDbEntity
  8
Camada 1
 62
    18
420
        0
370
    35
100
AcDbSpline
210
0.0
220
0.0
230
1.0
 70
     8
 71
     3
 72
     8
 73
     4
 74
     0
 42
0.0000000001
 43
0.0000000001
 40
0.0
 40
0.0
 40
0.0
 40
0.0
 40
1.0
 40
1.0
 40
1.0
 40
1.0
 10
1312.49086240193
 20
992.6767672796714
 30
0.0
 10
1313.3882910923
 20
992.6767672796714
 30
0.0
 10
1314.115816196319
 20
993.4042923837004
 30
0.0
 10
1314.115816196319
 20
994.3017210740654
 30
0.0
  0
SPLINE
  5
19D
330
70
100
AcDbEntity
  8
Camada 1
 62
    18
420
        0
370
    35
100
AcDbSpline
210
0.0
220
0.0
230
1.0
 70
     8
 71
     3
 72
     8
 73
     4
 74
     0
 42
0.0000000001
 43
0.0000000001
 40
0.0
 40
0.0
 40
0.0
 40
0.0
 40
1.0
 40
1.0
 40
1.0
 40
1.0
 10
1324.94887259306
 20
994.3017210740654
 30
0.0
 10
1324.94887259306
 20
993.4042923837004
 30
0.0
 10
1325.67639769709
 20
992.6767672796714
 30
0.0
 10
1326.573826387441
 20
992.6767672796714
 30
0.0
  0
SPLINE
  5
19E
330
70
100
AcDbEntity
  8
Camada 1
 62
    18
420
        0
370
    35
100
AcDbSpline
210
0.0
220
0.0
230
1.0
 70
     8
 71
     3
 72
     8
 73
     4
 74
     0
 42
0.0000000001
 43
0.0000000001
 40
0.0
 40
0.0
 40
0.0
 40
0.0
 40
1.0
 40
1.0
 40
1.0
 40
1.0
 10
1326.573826387441
 20
992.6767672796714
 30
0.0
 10
1327.471255077809
 20
992.6767672796714
 30
0.0
 10
1328.198780181839
 20
993.4042923837004
 30
0.0
 10
1328.198780181839
 20
994.3017210740654
 30
0.0
  0
SPLINE
  5
19F
330
70
100
AcDbEntity
  8
Camada 1
 62
    18
420
        0
370
    35
100
AcDbSpline
210
0.0
220
0.0
230
1.0
 70
     8
 71
     3
 72
     8
 73
     4
 74
     0
 42
0.0000000001
 43
0.0000000001
 40
0.0
 40
0.0
 40
0.0
 40
0.0
 40
1.0
 40
1.0
 40
1.0
 40
1.0
 10
1339.03183657857
 20
994.3017210740654
 30
0.0
 10
1339.03183657857
 20
993.4042923837004
 30
0.0
 10
1339.7593616826
 20
992.6767672796714
 30
0.0
 10
1340.656790372959
 20
992.6767672796714
 30
0.0
  0
SPLINE
  5
1A0
330
70
100
AcDbEntity
  8
Camada 1
 62
    18
420
        0
370
    35
100
AcDbSpline
210
0.0
220
0.0
230
1.0
 70
     8
 71
     3
 72
     8
 73
     4
 74
     0
 42
0.0000000001
 43
0.0000000001
 40
0.0
 40
0.0
 40
0.0
 40
0.0
 40
1.0
 40
1.0
 40
1.0
 40
1.0
 10
1340.656790372959
 20
992.6767672796714
 30
0.0
 10
1341.554265714499
 20
992.6767672796714
 30
0.0
 10
1342.28179081853
 20
993.4042923837004
 30
0.0
 10
1342.28179081853
 20
994.3017210740654
 30
0.0
  0
SPLINE
  5
1A1
330
70
100
AcDbEntity
  8
Camada 1
 62
    18
420
        0
370
    35
100
AcDbSpline
210
0.0
220
0.0
230
1.0
 70
     8
 71
     3
 72
     8
 73
     4
 74
     0
 42
0.0000000001
 43
0.0000000001
 40
0.0
 40
0.0
 40
0.0
 40
0.0
 40
1.0
 40
1.0
 40
1.0
 40
1.0
 10
1353.11480056408
 20
994.3017210740654
 30
0.0
 10
1353.11480056408
 20
993.4042923837004
 30
0.0
 10
1353.84237231929
 20
992.6767672796714
 30
0.0
 10
1354.73975435847
 20
992.6767672796714
 30
0.0
  0
SPLINE
  5
1A2
330
70
100
AcDbEntity
  8
Camada 1
 62
    18
420
        0
370
    35
100
AcDbSpline
210
0.0
220
0.0
230
1.0
 70
     8
 71
     3
 72
     8
 73
     4
 74
     0
 42
0.0000000001
 43
0.0000000001
 40
0.0
 40
0.0
 40
0.0
 40
0.0
 40
1.0
 40
1.0
 40
1.0
 40
1.0
 10
1354.73975435847
 20
992.6767672796714
 30
0.0
 10
1355.63722970001
 20
992.6767672796714
 30
0.0
 10
1356.36480145522
 20
993.4042923837004
 30
0.0
 10
1356.36480145522
 20
994.3017210740654
 30
0.0
  0
SPLINE
  5
1A3
330
70
100
AcDbEntity
  8
Camada 1
 62
    18
420
        0
370
    35
100
AcDbSpline
210
0.0
220
0.0
230
1.0
 70
     8
 71
     3
 72
     8
 73
     4
 74
     0
 42
0.0000000001
 43
0.0000000001
 40
0.0
 40
0.0
 40
0.0
 40
0.0
 40
1.0
 40
1.0
 40
1.0
 40
1.0
 10
1367.197857851939
 20
994.3017210740654
 30
0.0
 10
1367.197857851939
 20
993.4042923837004
 30
0.0
 10
1367.925336304801
 20
992.6767672796714
 30
0.0
 10
1368.82281164634
 20
992.6767672796714
 30
0.0
  0
SPLINE
  5
1A4
330
70
100
AcDbEntity
  8
Camada 1
 62
    18
420
        0
370
    35
100
AcDbSpline
210
0.0
220
0.0
230
1.0
 70
     8
 71
     3
 72
     8
 73
     4
 74
     0
 42
0.0000000001
 43
0.0000000001
 40
0.0
 40
0.0
 40
0.0
 40
0.0
 40
1.0
 40
1.0
 40
1.0
 40
1.0
 10
1368.82281164634
 20
992.6767672796714
 30
0.0
 10
1369.72019368553
 20
992.6767672796714
 30
0.0
 10
1370.447765440731
 20
993.4042923837004
 30
0.0
 10
1370.447765440731
 20
994.3017210740654
 30
0.0
  0
SPLINE
  5
1A5
330
70
100
AcDbEntity
  8
Camada 1
 62
    18
420
        0
370
    35
100
AcDbSpline
210
0.0
220
0.0
230
1.0
 70
     8
 71
     3
 72
     8
 73
     4
 74
     0
 42
0.0000000001
 43
0.0000000001
 40
0.0
 40
0.0
 40
0.0
 40
0.0
 40
1.0
 40
1.0
 40
1.0
 40
1.0
 10
1381.280821837459
 20
994.3017210740654
 30
0.0
 10
1381.280821837459
 20
993.4042923837004
 30
0.0
 10
1382.00830029031
 20
992.6767672796714
 30
0.0
 10
1382.905775631851
 20
992.6767672796714
 30
0.0
  0
SPLINE
  5
1A6
330
70
100
AcDbEntity
  8
Camada 1
 62
    18
420
        0
370
    35
100
AcDbSpline
210
0.0
220
0.0
230
1.0
 70
     8
 71
     3
 72
     8
 73
     4
 74
     0
 42
0.0000000001
 43
0.0000000001
 40
0.0
 40
0.0
 40
0.0
 40
0.0
 40
1.0
 40
1.0
 40
1.0
 40
1.0
 10
1382.905775631851
 20
992.6767672796714
 30
0.0
 10
1383.803250973389
 20
992.6767672796714
 30
0.0
 10
1384.53072942624
 20
993.4042923837004
 30
0.0
 10
1384.53072942624
 20
994.3017210740654
 30
0.0
  0
SPLINE
  5
1A7
330
70
100
AcDbEntity
  8
Camada 1
 62
    18
420
        0
370
    35
100
AcDbSpline
210
0.0
220
0.0
230
1.0
 70
     8
 71
     3
 72
     8
 73
     4
 74
     0
 42
0.0000000001
 43
0.0000000001
 40
0.0
 40
0.0
 40
0.0
 40
0.0
 40
1.0
 40
1.0
 40
1.0
 40
1.0
 10
1395.36378582297
 20
994.3017210740654
 30
0.0
 10
1395.36378582297
 20
993.4042923837004
 30
0.0
 10
1396.09126427583
 20
992.6767672796714
 30
0.0
 10
1396.988739617369
 20
992.6767672796714
 30
0.0
  0
SPLINE
  5
1A8
330
70
100
AcDbEntity
  8
Camada 1
 62
    18
420
        0
370
    35
100
AcDbSpline
210
0.0
220
0.0
230
1.0
 70
     8
 71
     3
 72
     8
 73
     4
 74
     0
 42
0.0000000001
 43
0.0000000001
 40
0.0
 40
0.0
 40
0.0
 40
0.0
 40
1.0
 40
1.0
 40
1.0
 40
1.0
 10
1396.988739617369
 20
992.6767672796714
 30
0.0
 10
1397.8862149589
 20
992.6767672796714
 30
0.0
 10
1398.61369341176
 20
993.4042923837004
 30
0.0
 10
1398.61369341176
 20
994.3017210740654
 30
0.0
  0
SPLINE
  5
1A9
330
70
100
AcDbEntity
  8
Camada 1
 62
    18
420
        0
370
    35
100
AcDbSpline
210
0.0
220
0.0
230
1.0
 70
     8
 71
     3
 72
     8
 73
     4
 74
     0
 42
0.0000000001
 43
0.0000000001
 40
0.0
 40
0.0
 40
0.0
 40
0.0
 40
1.0
 40
1.0
 40
1.0
 40
1.0
 10
1409.44674980849
 20
994.3017210740654
 30
0.0
 10
1409.44674980849
 20
993.4042923837004
 30
0.0
 10
1410.174321563691
 20
992.6767672796714
 30
0.0
 10
1411.07170360288
 20
992.6767672796714
 30
0.0
  0
SPLINE
  5
1AA
330
70
100
AcDbEntity
  8
Camada 1
 62
    18
420
        0
370
    35
100
AcDbSpline
210
0.0
220
0.0
230
1.0
 70
     8
 71
     3
 72
     8
 73
     4
 74
     0
 42
0.0000000001
 43
0.0000000001
 40
0.0
 40
0.0
 40
0.0
 40
0.0
 40
1.0
 40
1.0
 40
1.0
 40
1.0
 10
1411.07170360288
 20
992.6767672796714
 30
0.0
 10
1411.96917894442
 20
992.6767672796714
 30
0.0
 10
1412.696657397269
 20
993.4042923837004
 30
0.0
 10
1412.696657397269
 20
994.3017210740654
 30
0.0
  0
SPLINE
  5
1AB
330
70
100
AcDbEntity
  8
Camada 1
 62
    18
420
        0
370
    35
100
AcDbSpline
210
0.0
220
0.0
230
1.0
 70
     8
 71
     3
 72
     8
 73
     4
 74
     0
 42
0.0000000001
 43
0.0000000001
 40
0.0
 40
0.0
 40
0.0
 40
0.0
 40
1.0
 40
1.0
 40
1.0
 40
1.0
 10
1423.529713793999
 20
994.3017210740654
 30
0.0
 10
1423.529713793999
 20
993.4042923837004
 30
0.0
 10
1424.257285549211
 20
992.6767672796714
 30
0.0
 10
1425.15476089074
 20
992.6767672796714
 30
0.0
  0
SPLINE
  5
1AC
330
70
100
AcDbEntity
  8
Camada 1
 62
    18
420
        0
370
    35
100
AcDbSpline
210
0.0
220
0.0
230
1.0
 70
     8
 71
     3
 72
     8
 73
     4
 74
     0
 42
0.0000000001
 43
0.0000000001
 40
0.0
 40
0.0
 40
0.0
 40
0.0
 40
1.0
 40
1.0
 40
1.0
 40
1.0
 10
1425.15476089074
 20
992.6767672796714
 30
0.0
 10
1426.052142929929
 20
992.6767672796714
 30
0.0
 10
1426.779714685141
 20
993.4042923837004
 30
0.0
 10
1426.779714685141
 20
994.3017210740654
 30
0.0
  0
SPLINE
  5
1AD
330
70
100
AcDbEntity
  8
Camada 1
 62
    18
420
        0
370
    35
100
AcDbSpline
210
0.0
220
0.0
230
1.0
 70
     8
 71
     3
 72
     8
 73
     4
 74
     0
 42
0.0000000001
 43
0.0000000001
 40
0.0
 40
0.0
 40
0.0
 40
0.0
 40
1.0
 40
1.0
 40
1.0
 40
1.0
 10
1437.612771081869
 20
994.3017210740654
 30
0.0
 10
1437.612771081869
 20
993.4042923837004
 30
0.0
 10
1438.34024953472
 20
992.6767672796714
 30
0.0
 10
1439.23772487626
 20
992.6767672796714
 30
0.0
  0
SPLINE
  5
1AE
330
70
100
AcDbEntity
  8
Camada 1
 62
    18
420
        0
370
    35
100
AcDbSpline
210
0.0
220
0.0
230
1.0
 70
     8
 71
     3
 72
     8
 73
     4
 74
     0
 42
0.0000000001
 43
0.0000000001
 40
0.0
 40
0.0
 40
0.0
 40
0.0
 40
1.0
 40
1.0
 40
1.0
 40
1.0
 10
1439.23772487626
 20
992.6767672796714
 30
0.0
 10
1440.13510691545
 20
992.6767672796714
 30
0.0
 10
1440.86267867065
 20
993.4042923837004
 30
0.0
 10
1440.86267867065
 20
994.3017210740654
 30
0.0
  0
SPLINE
  5
1AF
330
70
100
AcDbEntity
  8
Camada 1
 62
    18
420
        0
370
    35
100
AcDbSpline
210
0.0
220
0.0
230
1.0
 70
     8
 71
     3
 72
     8
 73
     4
 74
     0
 42
0.0000000001
 43
0.0000000001
 40
0.0
 40
0.0
 40
0.0
 40
0.0
 40
1.0
 40
1.0
 40
1.0
 40
1.0
 10
1451.69573506738
 20
994.3017210740654
 30
0.0
 10
1451.69573506738
 20
993.4042923837004
 30
0.0
 10
1452.423213520229
 20
992.6767672796714
 30
0.0
 10
1453.32068886177
 20
992.6767672796714
 30
0.0
  0
SPLINE
  5
1B0
330
70
100
AcDbEntity
  8
Camada 1
 62
    18
420
        0
370
    35
100
AcDbSpline
210
0.0
220
0.0
230
1.0
 70
     8
 71
     3
 72
     8
 73
     4
 74
     0
 42
0.0000000001
 43
0.0000000001
 40
0.0
 40
0.0
 40
0.0
 40
0.0
 40
1.0
 40
1.0
 40
1.0
 40
1.0
 10
1453.32068886177
 20
992.6767672796714
 30
0.0
 10
1454.21816420331
 20
992.6767672796714
 30
0.0
 10
1454.945642656159
 20
993.4042923837004
 30
0.0
 10
1454.945642656159
 20
994.3017210740654
 30
0.0
  0
SPLINE
  5
1B1
330
70
100
AcDbEntity
  8
Camada 1
 62
    18
420
        0
370
    35
100
AcDbSpline
210
0.0
220
0.0
230
1.0
 70
     8
 71
     3
 72
     8
 73
     4
 74
     0
 42
0.0000000001
 43
0.0000000001
 40
0.0
 40
0.0
 40
0.0
 40
0.0
 40
1.0
 40
1.0
 40
1.0
 40
1.0
 10
1465.778699052889
 20
994.3017210740654
 30
0.0
 10
1465.778699052889
 20
993.4042923837004
 30
0.0
 10
1466.5062708081
 20
992.6767672796714
 30
0.0
 10
1467.40365284729
 20
992.6767672796714
 30
0.0
  0
SPLINE
  5
1B2
330
70
100
AcDbEntity
  8
Camada 1
 62
    18
420
        0
370
    35
100
AcDbSpline
210
0.0
220
0.0
230
1.0
 70
     8
 71
     3
 72
     8
 73
     4
 74
     0
 42
0.0000000001
 43
0.0000000001
 40
0.0
 40
0.0
 40
0.0
 40
0.0
 40
1.0
 40
1.0
 40
1.0
 40
1.0
 10
1467.40365284729
 20
992.6767672796714
 30
0.0
 10
1468.301128188819
 20
992.6767672796714
 30
0.0
 10
1469.028606641679
 20
993.4042923837004
 30
0.0
 10
1469.028606641679
 20
994.3017210740654
 30
0.0
  0
SPLINE
  5
1B3
330
70
100
AcDbEntity
  8
Camada 1
 62
    18
420
        0
370
    35
100
AcDbSpline
210
0.0
220
0.0
230
1.0
 70
     8
 71
     3
 72
     8
 73
     4
 74
     0
 42
0.0000000001
 43
0.0000000001
 40
0.0
 40
0.0
 40
0.0
 40
0.0
 40
1.0
 40
1.0
 40
1.0
 40
1.0
 10
1479.861663038409
 20
994.3017210740654
 30
0.0
 10
1479.861663038409
 20
993.4042923837004
 30
0.0
 10
1480.589234793609
 20
992.6767672796714
 30
0.0
 10
1481.486616832801
 20
992.6767672796714
 30
0.0
  0
SPLINE
  5
1B4
330
70
100
AcDbEntity
  8
Camada 1
 62
    18
420
        0
370
    35
100
AcDbSpline
210
0.0
220
0.0
230
1.0
 70
     8
 71
     3
 72
     8
 73
     4
 74
     0
 42
0.0000000001
 43
0.0000000001
 40
0.0
 40
0.0
 40
0.0
 40
0.0
 40
1.0
 40
1.0
 40
1.0
 40
1.0
 10
1481.486616832801
 20
992.6767672796714
 30
0.0
 10
1482.384092174339
 20
992.6767672796714
 30
0.0
 10
1483.11157062719
 20
993.4042923837004
 30
0.0
 10
1483.11157062719
 20
994.3017210740654
 30
0.0
  0
SPLINE
  5
1B5
330
70
100
AcDbEntity
  8
Camada 1
 62
    18
420
        0
370
    35
100
AcDbSpline
210
0.0
220
0.0
230
1.0
 70
     8
 71
     3
 72
     8
 73
     4
 74
     0
 42
0.0000000001
 43
0.0000000001
 40
0.0
 40
0.0
 40
0.0
 40
0.0
 40
1.0
 40
1.0
 40
1.0
 40
1.0
 10
1493.94472032627
 20
994.3017210740654
 30
0.0
 10
1493.94472032627
 20
993.4042923837004
 30
0.0
 10
1494.67219877912
 20
992.6767672796714
 30
0.0
 10
1495.569674120659
 20
992.6767672796714
 30
0.0
  0
SPLINE
  5
1B6
330
70
100
AcDbEntity
  8
Camada 1
 62
    18
420
        0
370
    35
100
AcDbSpline
210
0.0
220
0.0
230
1.0
 70
     8
 71
     3
 72
     8
 73
     4
 74
     0
 42
0.0000000001
 43
0.0000000001
 40
0.0
 40
0.0
 40
0.0
 40
0.0
 40
1.0
 40
1.0
 40
1.0
 40
1.0
 10
1495.569674120659
 20
992.6767672796714
 30
0.0
 10
1496.46705615985
 20
992.6767672796714
 30
0.0
 10
1497.19462791505
 20
993.4042923837004
 30
0.0
 10
1497.19462791505
 20
994.3017210740654
 30
0.0
  0
SPLINE
  5
1B7
330
70
100
AcDbEntity
  8
Camada 1
 62
    18
420
        0
370
    35
100
AcDbSpline
210
0.0
220
0.0
230
1.0
 70
     8
 71
     3
 72
     8
 73
     4
 74
     0
 42
0.0000000001
 43
0.0000000001
 40
0.0
 40
0.0
 40
0.0
 40
0.0
 40
1.0
 40
1.0
 40
1.0
 40
1.0
 10
1508.02768431179
 20
994.3017210740654
 30
0.0
 10
1508.02768431179
 20
993.4042923837004
 30
0.0
 10
1508.75516276464
 20
992.6767672796714
 30
0.0
 10
1509.652638106179
 20
992.6767672796714
 30
0.0
  0
SPLINE
  5
1B8
330
70
100
AcDbEntity
  8
Camada 1
 62
    18
420
        0
370
    35
100
AcDbSpline
210
0.0
220
0.0
230
1.0
 70
     8
 71
     3
 72
     8
 73
     4
 74
     0
 42
0.0000000001
 43
0.0000000001
 40
0.0
 40
0.0
 40
0.0
 40
0.0
 40
1.0
 40
1.0
 40
1.0
 40
1.0
 10
1509.652638106179
 20
992.6767672796714
 30
0.0
 10
1510.55002014537
 20
992.6767672796714
 30
0.0
 10
1511.277591900571
 20
993.4042923837004
 30
0.0
 10
1511.277591900571
 20
994.3017210740654
 30
0.0
  0
SPLINE
  5
1B9
330
70
100
AcDbEntity
  8
Camada 1
 62
    18
420
        0
370
    35
100
AcDbSpline
210
0.0
220
0.0
230
1.0
 70
     8
 71
     3
 72
     8
 73
     4
 74
     0
 42
0.0000000001
 43
0.0000000001
 40
0.0
 40
0.0
 40
0.0
 40
0.0
 40
1.0
 40
1.0
 40
1.0
 40
1.0
 10
1522.110648297301
 20
994.3017210740654
 30
0.0
 10
1522.110648297301
 20
993.4042923837004
 30
0.0
 10
1522.83812675015
 20
992.6767672796714
 30
0.0
 10
1523.73560209169
 20
992.6767672796714
 30
0.0
  0
SPLINE
  5
1BA
330
70
100
AcDbEntity
  8
Camada 1
 62
    18
420
        0
370
    35
100
AcDbSpline
210
0.0
220
0.0
230
1.0
 70
     8
 71
     3
 72
     8
 73
     4
 74
     0
 42
0.0000000001
 43
0.0000000001
 40
0.0
 40
0.0
 40
0.0
 40
0.0
 40
1.0
 40
1.0
 40
1.0
 40
1.0
 10
1523.73560209169
 20
992.6767672796714
 30
0.0
 10
1524.633077433231
 20
992.6767672796714
 30
0.0
 10
1525.36055588608
 20
993.4042923837004
 30
0.0
 10
1525.36055588608
 20
994.3017210740654
 30
0.0
  0
SPLINE
  5
1BB
330
70
100
AcDbEntity
  8
Camada 1
 62
    18
420
        0
370
    35
100
AcDbSpline
210
0.0
220
0.0
230
1.0
 70
     8
 71
     3
 72
     8
 73
     4
 74
     0
 42
0.0000000001
 43
0.0000000001
 40
0.0
 40
0.0
 40
0.0
 40
0.0
 40
1.0
 40
1.0
 40
1.0
 40
1.0
 10
1536.19361228281
 20
994.3017210740654
 30
0.0
 10
1536.19361228281
 20
993.4042923837004
 30
0.0
 10
1536.921184038019
 20
992.6767672796714
 30
0.0
 10
1537.8185660772
 20
992.6767672796714
 30
0.0
  0
SPLINE
  5
1BC
330
70
100
AcDbEntity
  8
Camada 1
 62
    18
420
        0
370
    35
100
AcDbSpline
210
0.0
220
0.0
230
1.0
 70
     8
 71
     3
 72
     8
 73
     4
 74
     0
 42
0.0000000001
 43
0.0000000001
 40
0.0
 40
0.0
 40
0.0
 40
0.0
 40
1.0
 40
1.0
 40
1.0
 40
1.0
 10
1537.8185660772
 20
992.6767672796714
 30
0.0
 10
1538.71604141874
 20
992.6767672796714
 30
0.0
 10
1539.443519871591
 20
993.4042923837004
 30
0.0
 10
1539.443519871591
 20
994.3017210740654
 30
0.0
  0
SPLINE
  5
1BD
330
70
100
AcDbEntity
  8
Camada 1
 62
    18
420
        0
370
    35
100
AcDbSpline
210
0.0
220
0.0
230
1.0
 70
     8
 71
     3
 72
     8
 73
     4
 74
     0
 42
0.0000000001
 43
0.0000000001
 40
0.0
 40
0.0
 40
0.0
 40
0.0
 40
1.0
 40
1.0
 40
1.0
 40
1.0
 10
1550.276576268319
 20
994.3017210740654
 30
0.0
 10
1550.276576268319
 20
993.4042923837004
 30
0.0
 10
1551.00414802353
 20
992.6767672796714
 30
0.0
 10
1551.90153006272
 20
992.6767672796714
 30
0.0
  0
SPLINE
  5
1BE
330
70
100
AcDbEntity
  8
Camada 1
 62
    18
420
        0
370
    35
100
AcDbSpline
210
0.0
220
0.0
230
1.0
 70
     8
 71
     3
 72
     8
 73
     4
 74
     0
 42
0.0000000001
 43
0.0000000001
 40
0.0
 40
0.0
 40
0.0
 40
0.0
 40
1.0
 40
1.0
 40
1.0
 40
1.0
 10
1551.90153006272
 20
992.6767672796714
 30
0.0
 10
1552.79900540426
 20
992.6767672796714
 30
0.0
 10
1553.526483857109
 20
993.4042923837004
 30
0.0
 10
1553.526483857109
 20
994.3017210740654
 30
0.0
  0
SPLINE
  5
1BF
330
70
100
AcDbEntity
  8
Camada 1
 62
    18
420
        0
370
    35
100
AcDbSpline
210
0.0
220
0.0
230
1.0
 70
     8
 71
     3
 72
     8
 73
     4
 74
     0
 42
0.0000000001
 43
0.0000000001
 40
0.0
 40
0.0
 40
0.0
 40
0.0
 40
1.0
 40
1.0
 40
1.0
 40
1.0
 10
1564.35963355619
 20
994.3017210740654
 30
0.0
 10
1564.35963355619
 20
993.4042923837004
 30
0.0
 10
1565.087112009039
 20
992.6767672796714
 30
0.0
 10
1565.98458735058
 20
992.6767672796714
 30
0.0
  0
SPLINE
  5
1C0
330
70
100
AcDbEntity
  8
Camada 1
 62
    18
420
        0
370
    35
100
AcDbSpline
210
0.0
220
0.0
230
1.0
 70
     8
 71
     3
 72
     8
 73
     4
 74
     0
 42
0.0000000001
 43
0.0000000001
 40
0.0
 40
0.0
 40
0.0
 40
0.0
 40
1.0
 40
1.0
 40
1.0
 40
1.0
 10
1565.98458735058
 20
992.6767672796714
 30
0.0
 10
1566.881969389769
 20
992.6767672796714
 30
0.0
 10
1567.60954114498
 20
993.4042923837004
 30
0.0
 10
1567.60954114498
 20
994.3017210740654
 30
0.0
  0
SPLINE
  5
1C1
330
70
100
AcDbEntity
  8
Camada 1
 62
    18
420
        0
370
    35
100
AcDbSpline
210
0.0
220
0.0
230
1.0
 70
     8
 71
     3
 72
     8
 73
     4
 74
     0
 42
0.0000000001
 43
0.0000000001
 40
0.0
 40
0.0
 40
0.0
 40
0.0
 40
1.0
 40
1.0
 40
1.0
 40
1.0
 10
1578.4425975417
 20
994.3017210740654
 30
0.0
 10
1578.4425975417
 20
993.4042923837004
 30
0.0
 10
1579.17007599456
 20
992.6767672796714
 30
0.0
 10
1580.0675513361
 20
992.6767672796714
 30
0.0
  0
SPLINE
  5
1C2
330
70
100
AcDbEntity
  8
Camada 1
 62
    18
420
        0
370
    35
100
AcDbSpline
210
0.0
220
0.0
230
1.0
 70
     8
 71
     3
 72
     8
 73
     4
 74
     0
 42
0.0000000001
 43
0.0000000001
 40
0.0
 40
0.0
 40
0.0
 40
0.0
 40
1.0
 40
1.0
 40
1.0
 40
1.0
 10
1580.0675513361
 20
992.6767672796714
 30
0.0
 10
1580.96493337528
 20
992.6767672796714
 30
0.0
 10
1581.692505130489
 20
993.4042923837004
 30
0.0
 10
1581.692505130489
 20
994.3017210740654
 30
0.0
  0
SPLINE
  5
1C3
330
70
100
AcDbEntity
  8
Camada 1
 62
    18
420
        0
370
    35
100
AcDbSpline
210
0.0
220
0.0
230
1.0
 70
     8
 71
     3
 72
     8
 73
     4
 74
     0
 42
0.0000000001
 43
0.0000000001
 40
0.0
 40
0.0
 40
0.0
 40
0.0
 40
1.0
 40
1.0
 40
1.0
 40
1.0
 10
1592.52556152722
 20
994.3017210740654
 30
0.0
 10
1592.52556152722
 20
993.4042923837004
 30
0.0
 10
1593.253039980071
 20
992.6767672796714
 30
0.0
 10
1594.150515321609
 20
992.6767672796714
 30
0.0
  0
SPLINE
  5
1C4
330
70
100
AcDbEntity
  8
Camada 1
 62
    18
420
        0
370
    35
100
AcDbSpline
210
0.0
220
0.0
230
1.0
 70
     8
 71
     3
 72
     8
 73
     4
 74
     0
 42
0.0000000001
 43
0.0000000001
 40
0.0
 40
0.0
 40
0.0
 40
0.0
 40
1.0
 40
1.0
 40
1.0
 40
1.0
 10
1594.150515321609
 20
992.6767672796714
 30
0.0
 10
1595.04799066315
 20
992.6767672796714
 30
0.0
 10
1595.775469116001
 20
993.4042923837004
 30
0.0
 10
1595.775469116001
 20
994.3017210740654
 30
0.0
  0
SPLINE
  5
1C5
330
70
100
AcDbEntity
  8
Camada 1
 62
    18
420
        0
370
    35
100
AcDbSpline
210
0.0
220
0.0
230
1.0
 70
     8
 71
     3
 72
     8
 73
     4
 74
     0
 42
0.0000000001
 43
0.0000000001
 40
0.0
 40
0.0
 40
0.0
 40
0.0
 40
1.0
 40
1.0
 40
1.0
 40
1.0
 10
1606.608525512729
 20
994.3017210740654
 30
0.0
 10
1606.608525512729
 20
993.4042923837004
 30
0.0
 10
1607.336097267929
 20
992.6767672796714
 30
0.0
 10
1608.23347930712
 20
992.6767672796714
 30
0.0
  0
SPLINE
  5
1C6
330
70
100
AcDbEntity
  8
Camada 1
 62
    18
420
        0
370
    35
100
AcDbSpline
210
0.0
220
0.0
230
1.0
 70
     8
 71
     3
 72
     8
 73
     4
 74
     0
 42
0.0000000001
 43
0.0000000001
 40
0.0
 40
0.0
 40
0.0
 40
0.0
 40
1.0
 40
1.0
 40
1.0
 40
1.0
 10
1608.23347930712
 20
992.6767672796714
 30
0.0
 10
1609.130954648659
 20
992.6767672796714
 30
0.0
 10
1609.858433101519
 20
993.4042923837004
 30
0.0
 10
1609.858433101519
 20
994.3017210740654
 30
0.0
  0
SPLINE
  5
1C7
330
70
100
AcDbEntity
  8
Camada 1
 62
    18
420
        0
370
    35
100
AcDbSpline
210
0.0
220
0.0
230
1.0
 70
     8
 71
     3
 72
     8
 73
     4
 74
     0
 42
0.0000000001
 43
0.0000000001
 40
0.0
 40
0.0
 40
0.0
 40
0.0
 40
1.0
 40
1.0
 40
1.0
 40
1.0
 10
1620.69148949824
 20
994.3017210740654
 30
0.0
 10
1620.69148949824
 20
993.4042923837004
 30
0.0
 10
1621.419061253449
 20
992.6767672796714
 30
0.0
 10
1622.31644329264
 20
992.6767672796714
 30
0.0
  0
SPLINE
  5
1C8
330
70
100
AcDbEntity
  8
Camada 1
 62
    18
420
        0
370
    35
100
AcDbSpline
210
0.0
220
0.0
230
1.0
 70
     8
 71
     3
 72
     8
 73
     4
 74
     0
 42
0.0000000001
 43
0.0000000001
 40
0.0
 40
0.0
 40
0.0
 40
0.0
 40
1.0
 40
1.0
 40
1.0
 40
1.0
 10
1622.31644329264
 20
992.6767672796714
 30
0.0
 10
1623.213918634179
 20
992.6767672796714
 30
0.0
 10
1623.941490389379
 20
993.4042923837004
 30
0.0
 10
1623.941490389379
 20
994.3017210740654
 30
0.0
  0
SPLINE
  5
1C9
330
70
100
AcDbEntity
  8
Camada 1
 62
    18
420
        0
370
    35
100
AcDbSpline
210
0.0
220
0.0
230
1.0
 70
     8
 71
     3
 72
     8
 73
     4
 74
     0
 42
0.0000000001
 43
0.0000000001
 40
0.0
 40
0.0
 40
0.0
 40
0.0
 40
1.0
 40
1.0
 40
1.0
 40
1.0
 10
1634.774546786109
 20
994.3017210740654
 30
0.0
 10
1634.774546786109
 20
993.4042923837004
 30
0.0
 10
1635.50202523896
 20
992.6767672796714
 30
0.0
 10
1636.399500580501
 20
992.6767672796714
 30
0.0
  0
SPLINE
  5
1CA
330
70
100
AcDbEntity
  8
Camada 1
 62
    18
420
        0
370
    35
100
AcDbSpline
210
0.0
220
0.0
230
1.0
 70
     8
 71
     3
 72
     8
 73
     4
 74
     0
 42
0.0000000001
 43
0.0000000001
 40
0.0
 40
0.0
 40
0.0
 40
0.0
 40
1.0
 40
1.0
 40
1.0
 40
1.0
 10
1636.399500580501
 20
992.6767672796714
 30
0.0
 10
1637.29688261969
 20
992.6767672796714
 30
0.0
 10
1638.024454374899
 20
993.4042923837004
 30
0.0
 10
1638.024454374899
 20
994.3017210740654
 30
0.0
  0
SPLINE
  5
1CB
330
70
100
AcDbEntity
  8
Camada 1
 62
    18
420
        0
370
    35
100
AcDbSpline
210
0.0
220
0.0
230
1.0
 70
     8
 71
     3
 72
     8
 73
     4
 74
     0
 42
0.0000000001
 43
0.0000000001
 40
0.0
 40
0.0
 40
0.0
 40
0.0
 40
1.0
 40
1.0
 40
1.0
 40
1.0
 10
1648.85751077162
 20
994.3017210740654
 30
0.0
 10
1648.85751077162
 20
993.4042923837004
 30
0.0
 10
1649.58498922448
 20
992.6767672796714
 30
0.0
 10
1650.482464566019
 20
992.6767672796714
 30
0.0
  0
SPLINE
  5
1CC
330
70
100
AcDbEntity
  8
Camada 1
 62
    18
420
        0
370
    35
100
AcDbSpline
210
0.0
220
0.0
230
1.0
 70
     8
 71
     3
 72
     8
 73
     4
 74
     0
 42
0.0000000001
 43
0.0000000001
 40
0.0
 40
0.0
 40
0.0
 40
0.0
 40
1.0
 40
1.0
 40
1.0
 40
1.0
 10
1650.482464566019
 20
992.6767672796714
 30
0.0
 10
1651.37993990756
 20
992.6767672796714
 30
0.0
 10
1652.107418360411
 20
993.4042923837004
 30
0.0
 10
1652.107418360411
 20
994.3017210740654
 30
0.0
  0
SPLINE
  5
1CD
330
70
100
AcDbEntity
  8
Camada 1
 62
    18
420
        0
370
    35
100
AcDbSpline
210
0.0
220
0.0
230
1.0
 70
     8
 71
     3
 72
     8
 73
     4
 74
     0
 42
0.0000000001
 43
0.0000000001
 40
0.0
 40
0.0
 40
0.0
 40
0.0
 40
1.0
 40
1.0
 40
1.0
 40
1.0
 10
1665.62095808047
 20
1029.29066357634
 30
0.0
 10
1661.324757895771
 20
1023.66266559301
 30
0.0
 10
1661.324757895771
 20
1015.856150949979
 30
0.0
 10
1665.62095808047
 20
1010.22819961782
 30
0.0
  0
SPLINE
  5
1CE
330
70
100
AcDbEntity
  8
Camada 1
 62
    18
420
        0
370
    35
100
AcDbSpline
210
0.0
220
0.0
230
1.0
 70
     8
 71
     3
 72
     8
 73
     4
 74
     0
 42
0.0000000001
 43
0.0000000001
 40
0.0
 40
0.0
 40
0.0
 40
0.0
 40
1.0
 40
1.0
 40
1.0
 40
1.0
 10
1665.62095808047
 20
1029.29066357634
 30
0.0
 10
1666.341625461489
 20
1030.234743443619
 30
0.0
 10
1666.732095812291
 20
1031.38954667704
 30
0.0
 10
1666.732095812291
 20
1032.57728564136
 30
0.0
  0
SPLINE
  5
1CF
330
70
100
AcDbEntity
  8
Camada 1
 62
    18
420
        0
370
    35
100
AcDbSpline
210
0.0
220
0.0
230
1.0
 70
     8
 71
     3
 72
     8
 73
     4
 74
     0
 42
0.0000000001
 43
0.0000000001
 40
0.0
 40
0.0
 40
0.0
 40
0.0
 40
1.0
 40
1.0
 40
1.0
 40
1.0
 10
1271.86683093743
 20
1045.21709546893
 30
0.0
 10
1271.86683093743
 20
1046.11457081047
 30
0.0
 10
1271.139352484581
 20
1046.8420959145
 30
0.0
 10
1270.24187714304
 20
1046.8420959145
 30
0.0
  0
SPLINE
  5
1D0
330
70
100
AcDbEntity
  8
Camada 1
 62
    18
420
        0
370
    35
100
AcDbSpline
210
0.0
220
0.0
230
1.0
 70
     8
 71
     3
 72
     8
 73
     4
 74
     0
 42
0.0000000001
 43
0.0000000001
 40
0.0
 40
0.0
 40
0.0
 40
0.0
 40
1.0
 40
1.0
 40
1.0
 40
1.0
 10
1270.24187714304
 20
1046.8420959145
 30
0.0
 10
1269.344448452681
 20
1046.8420959145
 30
0.0
 10
1268.616923348651
 20
1046.11457081047
 30
0.0
 10
1268.616923348651
 20
1045.21709546893
 30
0.0
  0
SPLINE
  5
1D1
330
70
100
AcDbEntity
  8
Camada 1
 62
    18
420
        0
370
    35
100
AcDbSpline
210
0.0
220
0.0
230
1.0
 70
     8
 71
     3
 72
     8
 73
     4
 74
     0
 42
0.0000000001
 43
0.0000000001
 40
0.0
 40
0.0
 40
0.0
 40
0.0
 40
1.0
 40
1.0
 40
1.0
 40
1.0
 10
1285.94984157412
 20
1045.21709546893
 30
0.0
 10
1285.94984157412
 20
1046.11457081047
 30
0.0
 10
1285.22231647009
 20
1046.8420959145
 30
0.0
 10
1284.32488777973
 20
1046.8420959145
 30
0.0
  0
SPLINE
  5
1D2
330
70
100
AcDbEntity
  8
Camada 1
 62
    18
420
        0
370
    35
100
AcDbSpline
210
0.0
220
0.0
230
1.0
 70
     8
 71
     3
 72
     8
 73
     4
 74
     0
 42
0.0000000001
 43
0.0000000001
 40
0.0
 40
0.0
 40
0.0
 40
0.0
 40
1.0
 40
1.0
 40
1.0
 40
1.0
 10
1284.32488777973
 20
1046.8420959145
 30
0.0
 10
1283.427459089369
 20
1046.8420959145
 30
0.0
 10
1282.699933985339
 20
1046.11457081047
 30
0.0
 10
1282.699933985339
 20
1045.21709546893
 30
0.0
  0
SPLINE
  5
1D3
330
70
100
AcDbEntity
  8
Camada 1
 62
    18
420
        0
370
    35
100
AcDbSpline
210
0.0
220
0.0
230
1.0
 70
     8
 71
     3
 72
     8
 73
     4
 74
     0
 42
0.0000000001
 43
0.0000000001
 40
0.0
 40
0.0
 40
0.0
 40
0.0
 40
1.0
 40
1.0
 40
1.0
 40
1.0
 10
1300.032805559629
 20
1045.21709546893
 30
0.0
 10
1300.032805559629
 20
1046.11457081047
 30
0.0
 10
1299.30528045561
 20
1046.8420959145
 30
0.0
 10
1298.40785176525
 20
1046.8420959145
 30
0.0
  0
SPLINE
  5
1D4
330
70
100
AcDbEntity
  8
Camada 1
 62
    18
420
        0
370
    35
100
AcDbSpline
210
0.0
220
0.0
230
1.0
 70
     8
 71
     3
 72
     8
 73
     4
 74
     0
 42
0.0000000001
 43
0.0000000001
 40
0.0
 40
0.0
 40
0.0
 40
0.0
 40
1.0
 40
1.0
 40
1.0
 40
1.0
 10
1298.40785176525
 20
1046.8420959145
 30
0.0
 10
1297.51042307488
 20
1046.8420959145
 30
0.0
 10
1296.78289797085
 20
1046.11457081047
 30
0.0
 10
1296.78289797085
 20
1045.21709546893
 30
0.0
  0
SPLINE
  5
1D5
330
70
100
AcDbEntity
  8
Camada 1
 62
    18
420
        0
370
    35
100
AcDbSpline
210
0.0
220
0.0
230
1.0
 70
     8
 71
     3
 72
     8
 73
     4
 74
     0
 42
0.0000000001
 43
0.0000000001
 40
0.0
 40
0.0
 40
0.0
 40
0.0
 40
1.0
 40
1.0
 40
1.0
 40
1.0
 10
1314.115816196319
 20
1045.21709546893
 30
0.0
 10
1314.115816196319
 20
1046.11457081047
 30
0.0
 10
1313.3882910923
 20
1046.8420959145
 30
0.0
 10
1312.49086240193
 20
1046.8420959145
 30
0.0
  0
SPLINE
  5
1D6
330
70
100
AcDbEntity
  8
Camada 1
 62
    18
420
        0
370
    35
100
AcDbSpline
210
0.0
220
0.0
230
1.0
 70
     8
 71
     3
 72
     8
 73
     4
 74
     0
 42
0.0000000001
 43
0.0000000001
 40
0.0
 40
0.0
 40
0.0
 40
0.0
 40
1.0
 40
1.0
 40
1.0
 40
1.0
 10
1312.49086240193
 20
1046.8420959145
 30
0.0
 10
1311.5933870604
 20
1046.8420959145
 30
0.0
 10
1310.86590860754
 20
1046.11457081047
 30
0.0
 10
1310.86590860754
 20
1045.21709546893
 30
0.0
  0
SPLINE
  5
1D7
330
70
100
AcDbEntity
  8
Camada 1
 62
    18
420
        0
370
    35
100
AcDbSpline
210
0.0
220
0.0
230
1.0
 70
     8
 71
     3
 72
     8
 73
     4
 74
     0
 42
0.0000000001
 43
0.0000000001
 40
0.0
 40
0.0
 40
0.0
 40
0.0
 40
1.0
 40
1.0
 40
1.0
 40
1.0
 10
1328.198780181839
 20
1045.21709546893
 30
0.0
 10
1328.198780181839
 20
1046.11457081047
 30
0.0
 10
1327.471255077809
 20
1046.8420959145
 30
0.0
 10
1326.573826387441
 20
1046.8420959145
 30
0.0
  0
SPLINE
  5
1D8
330
70
100
AcDbEntity
  8
Camada 1
 62
    18
420
        0
370
    35
100
AcDbSpline
210
0.0
220
0.0
230
1.0
 70
     8
 71
     3
 72
     8
 73
     4
 74
     0
 42
0.0000000001
 43
0.0000000001
 40
0.0
 40
0.0
 40
0.0
 40
0.0
 40
1.0
 40
1.0
 40
1.0
 40
1.0
 10
1326.573826387441
 20
1046.8420959145
 30
0.0
 10
1325.67639769709
 20
1046.8420959145
 30
0.0
 10
1324.94887259306
 20
1046.11457081047
 30
0.0
 10
1324.94887259306
 20
1045.21709546893
 30
0.0
  0
SPLINE
  5
1D9
330
70
100
AcDbEntity
  8
Camada 1
 62
    18
420
        0
370
    35
100
AcDbSpline
210
0.0
220
0.0
230
1.0
 70
     8
 71
     3
 72
     8
 73
     4
 74
     0
 42
0.0000000001
 43
0.0000000001
 40
0.0
 40
0.0
 40
0.0
 40
0.0
 40
1.0
 40
1.0
 40
1.0
 40
1.0
 10
1342.28179081853
 20
1045.21709546893
 30
0.0
 10
1342.28179081853
 20
1046.11457081047
 30
0.0
 10
1341.554265714499
 20
1046.8420959145
 30
0.0
 10
1340.656790372959
 20
1046.8420959145
 30
0.0
  0
SPLINE
  5
1DA
330
70
100
AcDbEntity
  8
Camada 1
 62
    18
420
        0
370
    35
100
AcDbSpline
210
0.0
220
0.0
230
1.0
 70
     8
 71
     3
 72
     8
 73
     4
 74
     0
 42
0.0000000001
 43
0.0000000001
 40
0.0
 40
0.0
 40
0.0
 40
0.0
 40
1.0
 40
1.0
 40
1.0
 40
1.0
 10
1340.656790372959
 20
1046.8420959145
 30
0.0
 10
1339.7593616826
 20
1046.8420959145
 30
0.0
 10
1339.03183657857
 20
1046.11457081047
 30
0.0
 10
1339.03183657857
 20
1045.21709546893
 30
0.0
  0
SPLINE
  5
1DB
330
70
100
AcDbEntity
  8
Camada 1
 62
    18
420
        0
370
    35
100
AcDbSpline
210
0.0
220
0.0
230
1.0
 70
     8
 71
     3
 72
     8
 73
     4
 74
     0
 42
0.0000000001
 43
0.0000000001
 40
0.0
 40
0.0
 40
0.0
 40
0.0
 40
1.0
 40
1.0
 40
1.0
 40
1.0
 10
1356.36480145522
 20
1045.21709546893
 30
0.0
 10
1356.36480145522
 20
1046.11457081047
 30
0.0
 10
1355.63722970001
 20
1046.8420959145
 30
0.0
 10
1354.73975435847
 20
1046.8420959145
 30
0.0
  0
SPLINE
  5
1DC
330
70
100
AcDbEntity
  8
Camada 1
 62
    18
420
        0
370
    35
100
AcDbSpline
210
0.0
220
0.0
230
1.0
 70
     8
 71
     3
 72
     8
 73
     4
 74
     0
 42
0.0000000001
 43
0.0000000001
 40
0.0
 40
0.0
 40
0.0
 40
0.0
 40
1.0
 40
1.0
 40
1.0
 40
1.0
 10
1354.73975435847
 20
1046.8420959145
 30
0.0
 10
1353.84237231929
 20
1046.8420959145
 30
0.0
 10
1353.11480056408
 20
1046.11457081047
 30
0.0
 10
1353.11480056408
 20
1045.21709546893
 30
0.0
  0
SPLINE
  5
1DD
330
70
100
AcDbEntity
  8
Camada 1
 62
    18
420
        0
370
    35
100
AcDbSpline
210
0.0
220
0.0
230
1.0
 70
     8
 71
     3
 72
     8
 73
     4
 74
     0
 42
0.0000000001
 43
0.0000000001
 40
0.0
 40
0.0
 40
0.0
 40
0.0
 40
1.0
 40
1.0
 40
1.0
 40
1.0
 10
1370.447765440731
 20
1045.21709546893
 30
0.0
 10
1370.447765440731
 20
1046.11457081047
 30
0.0
 10
1369.72019368553
 20
1046.8420959145
 30
0.0
 10
1368.82281164634
 20
1046.8420959145
 30
0.0
  0
SPLINE
  5
1DE
330
70
100
AcDbEntity
  8
Camada 1
 62
    18
420
        0
370
    35
100
AcDbSpline
210
0.0
220
0.0
230
1.0
 70
     8
 71
     3
 72
     8
 73
     4
 74
     0
 42
0.0000000001
 43
0.0000000001
 40
0.0
 40
0.0
 40
0.0
 40
0.0
 40
1.0
 40
1.0
 40
1.0
 40
1.0
 10
1368.82281164634
 20
1046.8420959145
 30
0.0
 10
1367.925336304801
 20
1046.8420959145
 30
0.0
 10
1367.197857851939
 20
1046.11457081047
 30
0.0
 10
1367.197857851939
 20
1045.21709546893
 30
0.0
  0
SPLINE
  5
1DF
330
70
100
AcDbEntity
  8
Camada 1
 62
    18
420
        0
370
    35
100
AcDbSpline
210
0.0
220
0.0
230
1.0
 70
     8
 71
     3
 72
     8
 73
     4
 74
     0
 42
0.0000000001
 43
0.0000000001
 40
0.0
 40
0.0
 40
0.0
 40
0.0
 40
1.0
 40
1.0
 40
1.0
 40
1.0
 10
1384.53072942624
 20
1045.21709546893
 30
0.0
 10
1384.53072942624
 20
1046.11457081047
 30
0.0
 10
1383.803250973389
 20
1046.8420959145
 30
0.0
 10
1382.905775631851
 20
1046.8420959145
 30
0.0
  0
SPLINE
  5
1E0
330
70
100
AcDbEntity
  8
Camada 1
 62
    18
420
        0
370
    35
100
AcDbSpline
210
0.0
220
0.0
230
1.0
 70
     8
 71
     3
 72
     8
 73
     4
 74
     0
 42
0.0000000001
 43
0.0000000001
 40
0.0
 40
0.0
 40
0.0
 40
0.0
 40
1.0
 40
1.0
 40
1.0
 40
1.0
 10
1382.905775631851
 20
1046.8420959145
 30
0.0
 10
1382.00830029031
 20
1046.8420959145
 30
0.0
 10
1381.280821837459
 20
1046.11457081047
 30
0.0
 10
1381.280821837459
 20
1045.21709546893
 30
0.0
  0
SPLINE
  5
1E1
330
70
100
AcDbEntity
  8
Camada 1
 62
    18
420
        0
370
    35
100
AcDbSpline
210
0.0
220
0.0
230
1.0
 70
     8
 71
     3
 72
     8
 73
     4
 74
     0
 42
0.0000000001
 43
0.0000000001
 40
0.0
 40
0.0
 40
0.0
 40
0.0
 40
1.0
 40
1.0
 40
1.0
 40
1.0
 10
1398.61369341176
 20
1045.21709546893
 30
0.0
 10
1398.61369341176
 20
1046.11457081047
 30
0.0
 10
1397.8862149589
 20
1046.8420959145
 30
0.0
 10
1396.988739617369
 20
1046.8420959145
 30
0.0
  0
SPLINE
  5
1E2
330
70
100
AcDbEntity
  8
Camada 1
 62
    18
420
        0
370
    35
100
AcDbSpline
210
0.0
220
0.0
230
1.0
 70
     8
 71
     3
 72
     8
 73
     4
 74
     0
 42
0.0000000001
 43
0.0000000001
 40
0.0
 40
0.0
 40
0.0
 40
0.0
 40
1.0
 40
1.0
 40
1.0
 40
1.0
 10
1396.988739617369
 20
1046.8420959145
 30
0.0
 10
1396.09126427583
 20
1046.8420959145
 30
0.0
 10
1395.36378582297
 20
1046.11457081047
 30
0.0
 10
1395.36378582297
 20
1045.21709546893
 30
0.0
  0
SPLINE
  5
1E3
330
70
100
AcDbEntity
  8
Camada 1
 62
    18
420
        0
370
    35
100
AcDbSpline
210
0.0
220
0.0
230
1.0
 70
     8
 71
     3
 72
     8
 73
     4
 74
     0
 42
0.0000000001
 43
0.0000000001
 40
0.0
 40
0.0
 40
0.0
 40
0.0
 40
1.0
 40
1.0
 40
1.0
 40
1.0
 10
1412.696657397269
 20
1045.21709546893
 30
0.0
 10
1412.696657397269
 20
1046.11457081047
 30
0.0
 10
1411.96917894442
 20
1046.8420959145
 30
0.0
 10
1411.07170360288
 20
1046.8420959145
 30
0.0
  0
SPLINE
  5
1E4
330
70
100
AcDbEntity
  8
Camada 1
 62
    18
420
        0
370
    35
100
AcDbSpline
210
0.0
220
0.0
230
1.0
 70
     8
 71
     3
 72
     8
 73
     4
 74
     0
 42
0.0000000001
 43
0.0000000001
 40
0.0
 40
0.0
 40
0.0
 40
0.0
 40
1.0
 40
1.0
 40
1.0
 40
1.0
 10
1411.07170360288
 20
1046.8420959145
 30
0.0
 10
1410.174321563691
 20
1046.8420959145
 30
0.0
 10
1409.44674980849
 20
1046.11457081047
 30
0.0
 10
1409.44674980849
 20
1045.21709546893
 30
0.0
  0
SPLINE
  5
1E5
330
70
100
AcDbEntity
  8
Camada 1
 62
    18
420
        0
370
    35
100
AcDbSpline
210
0.0
220
0.0
230
1.0
 70
     8
 71
     3
 72
     8
 73
     4
 74
     0
 42
0.0000000001
 43
0.0000000001
 40
0.0
 40
0.0
 40
0.0
 40
0.0
 40
1.0
 40
1.0
 40
1.0
 40
1.0
 10
1426.779714685141
 20
1045.21709546893
 30
0.0
 10
1426.779714685141
 20
1046.11457081047
 30
0.0
 10
1426.052142929929
 20
1046.8420959145
 30
0.0
 10
1425.15476089074
 20
1046.8420959145
 30
0.0
  0
SPLINE
  5
1E6
330
70
100
AcDbEntity
  8
Camada 1
 62
    18
420
        0
370
    35
100
AcDbSpline
210
0.0
220
0.0
230
1.0
 70
     8
 71
     3
 72
     8
 73
     4
 74
     0
 42
0.0000000001
 43
0.0000000001
 40
0.0
 40
0.0
 40
0.0
 40
0.0
 40
1.0
 40
1.0
 40
1.0
 40
1.0
 10
1425.15476089074
 20
1046.8420959145
 30
0.0
 10
1424.257285549211
 20
1046.8420959145
 30
0.0
 10
1423.529713793999
 20
1046.11457081047
 30
0.0
 10
1423.529713793999
 20
1045.21709546893
 30
0.0
  0
SPLINE
  5
1E7
330
70
100
AcDbEntity
  8
Camada 1
 62
    18
420
        0
370
    35
100
AcDbSpline
210
0.0
220
0.0
230
1.0
 70
     8
 71
     3
 72
     8
 73
     4
 74
     0
 42
0.0000000001
 43
0.0000000001
 40
0.0
 40
0.0
 40
0.0
 40
0.0
 40
1.0
 40
1.0
 40
1.0
 40
1.0
 10
1440.86267867065
 20
1045.21709546893
 30
0.0
 10
1440.86267867065
 20
1046.11457081047
 30
0.0
 10
1440.13510691545
 20
1046.8420959145
 30
0.0
 10
1439.23772487626
 20
1046.8420959145
 30
0.0
  0
SPLINE
  5
1E8
330
70
100
AcDbEntity
  8
Camada 1
 62
    18
420
        0
370
    35
100
AcDbSpline
210
0.0
220
0.0
230
1.0
 70
     8
 71
     3
 72
     8
 73
     4
 74
     0
 42
0.0000000001
 43
0.0000000001
 40
0.0
 40
0.0
 40
0.0
 40
0.0
 40
1.0
 40
1.0
 40
1.0
 40
1.0
 10
1439.23772487626
 20
1046.8420959145
 30
0.0
 10
1438.34024953472
 20
1046.8420959145
 30
0.0
 10
1437.612771081869
 20
1046.11457081047
 30
0.0
 10
1437.612771081869
 20
1045.21709546893
 30
0.0
  0
SPLINE
  5
1E9
330
70
100
AcDbEntity
  8
Camada 1
 62
    18
420
        0
370
    35
100
AcDbSpline
210
0.0
220
0.0
230
1.0
 70
     8
 71
     3
 72
     8
 73
     4
 74
     0
 42
0.0000000001
 43
0.0000000001
 40
0.0
 40
0.0
 40
0.0
 40
0.0
 40
1.0
 40
1.0
 40
1.0
 40
1.0
 10
1454.945642656159
 20
1045.21709546893
 30
0.0
 10
1454.945642656159
 20
1046.11457081047
 30
0.0
 10
1454.21816420331
 20
1046.8420959145
 30
0.0
 10
1453.32068886177
 20
1046.8420959145
 30
0.0
  0
SPLINE
  5
1EA
330
70
100
AcDbEntity
  8
Camada 1
 62
    18
420
        0
370
    35
100
AcDbSpline
210
0.0
220
0.0
230
1.0
 70
     8
 71
     3
 72
     8
 73
     4
 74
     0
 42
0.0000000001
 43
0.0000000001
 40
0.0
 40
0.0
 40
0.0
 40
0.0
 40
1.0
 40
1.0
 40
1.0
 40
1.0
 10
1453.32068886177
 20
1046.8420959145
 30
0.0
 10
1452.423213520229
 20
1046.8420959145
 30
0.0
 10
1451.69573506738
 20
1046.11457081047
 30
0.0
 10
1451.69573506738
 20
1045.21709546893
 30
0.0
  0
SPLINE
  5
1EB
330
70
100
AcDbEntity
  8
Camada 1
 62
    18
420
        0
370
    35
100
AcDbSpline
210
0.0
220
0.0
230
1.0
 70
     8
 71
     3
 72
     8
 73
     4
 74
     0
 42
0.0000000001
 43
0.0000000001
 40
0.0
 40
0.0
 40
0.0
 40
0.0
 40
1.0
 40
1.0
 40
1.0
 40
1.0
 10
1469.028606641679
 20
1045.21709546893
 30
0.0
 10
1469.028606641679
 20
1046.11457081047
 30
0.0
 10
1468.301128188819
 20
1046.8420959145
 30
0.0
 10
1467.40365284729
 20
1046.8420959145
 30
0.0
  0
SPLINE
  5
1EC
330
70
100
AcDbEntity
  8
Camada 1
 62
    18
420
        0
370
    35
100
AcDbSpline
210
0.0
220
0.0
230
1.0
 70
     8
 71
     3
 72
     8
 73
     4
 74
     0
 42
0.0000000001
 43
0.0000000001
 40
0.0
 40
0.0
 40
0.0
 40
0.0
 40
1.0
 40
1.0
 40
1.0
 40
1.0
 10
1467.40365284729
 20
1046.8420959145
 30
0.0
 10
1466.5062708081
 20
1046.8420959145
 30
0.0
 10
1465.778699052889
 20
1046.11457081047
 30
0.0
 10
1465.778699052889
 20
1045.21709546893
 30
0.0
  0
SPLINE
  5
1ED
330
70
100
AcDbEntity
  8
Camada 1
 62
    18
420
        0
370
    35
100
AcDbSpline
210
0.0
220
0.0
230
1.0
 70
     8
 71
     3
 72
     8
 73
     4
 74
     0
 42
0.0000000001
 43
0.0000000001
 40
0.0
 40
0.0
 40
0.0
 40
0.0
 40
1.0
 40
1.0
 40
1.0
 40
1.0
 10
1483.11157062719
 20
1045.21709546893
 30
0.0
 10
1483.11157062719
 20
1046.11457081047
 30
0.0
 10
1482.384092174339
 20
1046.8420959145
 30
0.0
 10
1481.486616832801
 20
1046.8420959145
 30
0.0
  0
SPLINE
  5
1EE
330
70
100
AcDbEntity
  8
Camada 1
 62
    18
420
        0
370
    35
100
AcDbSpline
210
0.0
220
0.0
230
1.0
 70
     8
 71
     3
 72
     8
 73
     4
 74
     0
 42
0.0000000001
 43
0.0000000001
 40
0.0
 40
0.0
 40
0.0
 40
0.0
 40
1.0
 40
1.0
 40
1.0
 40
1.0
 10
1481.486616832801
 20
1046.8420959145
 30
0.0
 10
1480.589234793609
 20
1046.8420959145
 30
0.0
 10
1479.861663038409
 20
1046.11457081047
 30
0.0
 10
1479.861663038409
 20
1045.21709546893
 30
0.0
  0
SPLINE
  5
1EF
330
70
100
AcDbEntity
  8
Camada 1
 62
    18
420
        0
370
    35
100
AcDbSpline
210
0.0
220
0.0
230
1.0
 70
     8
 71
     3
 72
     8
 73
     4
 74
     0
 42
0.0000000001
 43
0.0000000001
 40
0.0
 40
0.0
 40
0.0
 40
0.0
 40
1.0
 40
1.0
 40
1.0
 40
1.0
 10
1497.19462791505
 20
1045.21709546893
 30
0.0
 10
1497.19462791505
 20
1046.11457081047
 30
0.0
 10
1496.46705615985
 20
1046.8420959145
 30
0.0
 10
1495.569674120659
 20
1046.8420959145
 30
0.0
  0
SPLINE
  5
1F0
330
70
100
AcDbEntity
  8
Camada 1
 62
    18
420
        0
370
    35
100
AcDbSpline
210
0.0
220
0.0
230
1.0
 70
     8
 71
     3
 72
     8
 73
     4
 74
     0
 42
0.0000000001
 43
0.0000000001
 40
0.0
 40
0.0
 40
0.0
 40
0.0
 40
1.0
 40
1.0
 40
1.0
 40
1.0
 10
1495.569674120659
 20
1046.8420959145
 30
0.0
 10
1494.67219877912
 20
1046.8420959145
 30
0.0
 10
1493.94472032627
 20
1046.11457081047
 30
0.0
 10
1493.94472032627
 20
1045.21709546893
 30
0.0
  0
SPLINE
  5
1F1
330
70
100
AcDbEntity
  8
Camada 1
 62
    18
420
        0
370
    35
100
AcDbSpline
210
0.0
220
0.0
230
1.0
 70
     8
 71
     3
 72
     8
 73
     4
 74
     0
 42
0.0000000001
 43
0.0000000001
 40
0.0
 40
0.0
 40
0.0
 40
0.0
 40
1.0
 40
1.0
 40
1.0
 40
1.0
 10
1511.277591900571
 20
1045.21709546893
 30
0.0
 10
1511.277591900571
 20
1046.11457081047
 30
0.0
 10
1510.55002014537
 20
1046.8420959145
 30
0.0
 10
1509.652638106179
 20
1046.8420959145
 30
0.0
  0
SPLINE
  5
1F2
330
70
100
AcDbEntity
  8
Camada 1
 62
    18
420
        0
370
    35
100
AcDbSpline
210
0.0
220
0.0
230
1.0
 70
     8
 71
     3
 72
     8
 73
     4
 74
     0
 42
0.0000000001
 43
0.0000000001
 40
0.0
 40
0.0
 40
0.0
 40
0.0
 40
1.0
 40
1.0
 40
1.0
 40
1.0
 10
1509.652638106179
 20
1046.8420959145
 30
0.0
 10
1508.75516276464
 20
1046.8420959145
 30
0.0
 10
1508.02768431179
 20
1046.11457081047
 30
0.0
 10
1508.02768431179
 20
1045.21709546893
 30
0.0
  0
SPLINE
  5
1F3
330
70
100
AcDbEntity
  8
Camada 1
 62
    18
420
        0
370
    35
100
AcDbSpline
210
0.0
220
0.0
230
1.0
 70
     8
 71
     3
 72
     8
 73
     4
 74
     0
 42
0.0000000001
 43
0.0000000001
 40
0.0
 40
0.0
 40
0.0
 40
0.0
 40
1.0
 40
1.0
 40
1.0
 40
1.0
 10
1525.36055588608
 20
1045.21709546893
 30
0.0
 10
1525.36055588608
 20
1046.11457081047
 30
0.0
 10
1524.633077433231
 20
1046.8420959145
 30
0.0
 10
1523.73560209169
 20
1046.8420959145
 30
0.0
  0
SPLINE
  5
1F4
330
70
100
AcDbEntity
  8
Camada 1
 62
    18
420
        0
370
    35
100
AcDbSpline
210
0.0
220
0.0
230
1.0
 70
     8
 71
     3
 72
     8
 73
     4
 74
     0
 42
0.0000000001
 43
0.0000000001
 40
0.0
 40
0.0
 40
0.0
 40
0.0
 40
1.0
 40
1.0
 40
1.0
 40
1.0
 10
1523.73560209169
 20
1046.8420959145
 30
0.0
 10
1522.83812675015
 20
1046.8420959145
 30
0.0
 10
1522.110648297301
 20
1046.11457081047
 30
0.0
 10
1522.110648297301
 20
1045.21709546893
 30
0.0
  0
SPLINE
  5
1F5
330
70
100
AcDbEntity
  8
Camada 1
 62
    18
420
        0
370
    35
100
AcDbSpline
210
0.0
220
0.0
230
1.0
 70
     8
 71
     3
 72
     8
 73
     4
 74
     0
 42
0.0000000001
 43
0.0000000001
 40
0.0
 40
0.0
 40
0.0
 40
0.0
 40
1.0
 40
1.0
 40
1.0
 40
1.0
 10
1539.443519871591
 20
1045.21709546893
 30
0.0
 10
1539.443519871591
 20
1046.11457081047
 30
0.0
 10
1538.71604141874
 20
1046.8420959145
 30
0.0
 10
1537.8185660772
 20
1046.8420959145
 30
0.0
  0
SPLINE
  5
1F6
330
70
100
AcDbEntity
  8
Camada 1
 62
    18
420
        0
370
    35
100
AcDbSpline
210
0.0
220
0.0
230
1.0
 70
     8
 71
     3
 72
     8
 73
     4
 74
     0
 42
0.0000000001
 43
0.0000000001
 40
0.0
 40
0.0
 40
0.0
 40
0.0
 40
1.0
 40
1.0
 40
1.0
 40
1.0
 10
1537.8185660772
 20
1046.8420959145
 30
0.0
 10
1536.921184038019
 20
1046.8420959145
 30
0.0
 10
1536.19361228281
 20
1046.11457081047
 30
0.0
 10
1536.19361228281
 20
1045.21709546893
 30
0.0
  0
SPLINE
  5
1F7
330
70
100
AcDbEntity
  8
Camada 1
 62
    18
420
        0
370
    35
100
AcDbSpline
210
0.0
220
0.0
230
1.0
 70
     8
 71
     3
 72
     8
 73
     4
 74
     0
 42
0.0000000001
 43
0.0000000001
 40
0.0
 40
0.0
 40
0.0
 40
0.0
 40
1.0
 40
1.0
 40
1.0
 40
1.0
 10
1553.526483857109
 20
1045.21709546893
 30
0.0
 10
1553.526483857109
 20
1046.11457081047
 30
0.0
 10
1552.79900540426
 20
1046.8420959145
 30
0.0
 10
1551.90153006272
 20
1046.8420959145
 30
0.0
  0
SPLINE
  5
1F8
330
70
100
AcDbEntity
  8
Camada 1
 62
    18
420
        0
370
    35
100
AcDbSpline
210
0.0
220
0.0
230
1.0
 70
     8
 71
     3
 72
     8
 73
     4
 74
     0
 42
0.0000000001
 43
0.0000000001
 40
0.0
 40
0.0
 40
0.0
 40
0.0
 40
1.0
 40
1.0
 40
1.0
 40
1.0
 10
1551.90153006272
 20
1046.8420959145
 30
0.0
 10
1551.00414802353
 20
1046.8420959145
 30
0.0
 10
1550.276576268319
 20
1046.11457081047
 30
0.0
 10
1550.276576268319
 20
1045.21709546893
 30
0.0
  0
SPLINE
  5
1F9
330
70
100
AcDbEntity
  8
Camada 1
 62
    18
420
        0
370
    35
100
AcDbSpline
210
0.0
220
0.0
230
1.0
 70
     8
 71
     3
 72
     8
 73
     4
 74
     0
 42
0.0000000001
 43
0.0000000001
 40
0.0
 40
0.0
 40
0.0
 40
0.0
 40
1.0
 40
1.0
 40
1.0
 40
1.0
 10
1567.60954114498
 20
1045.21709546893
 30
0.0
 10
1567.60954114498
 20
1046.11457081047
 30
0.0
 10
1566.881969389769
 20
1046.8420959145
 30
0.0
 10
1565.98458735058
 20
1046.8420959145
 30
0.0
  0
SPLINE
  5
1FA
330
70
100
AcDbEntity
  8
Camada 1
 62
    18
420
        0
370
    35
100
AcDbSpline
210
0.0
220
0.0
230
1.0
 70
     8
 71
     3
 72
     8
 73
     4
 74
     0
 42
0.0000000001
 43
0.0000000001
 40
0.0
 40
0.0
 40
0.0
 40
0.0
 40
1.0
 40
1.0
 40
1.0
 40
1.0
 10
1565.98458735058
 20
1046.8420959145
 30
0.0
 10
1565.087112009039
 20
1046.8420959145
 30
0.0
 10
1564.35963355619
 20
1046.11457081047
 30
0.0
 10
1564.35963355619
 20
1045.21709546893
 30
0.0
  0
SPLINE
  5
1FB
330
70
100
AcDbEntity
  8
Camada 1
 62
    18
420
        0
370
    35
100
AcDbSpline
210
0.0
220
0.0
230
1.0
 70
     8
 71
     3
 72
     8
 73
     4
 74
     0
 42
0.0000000001
 43
0.0000000001
 40
0.0
 40
0.0
 40
0.0
 40
0.0
 40
1.0
 40
1.0
 40
1.0
 40
1.0
 10
1581.692505130489
 20
1045.21709546893
 30
0.0
 10
1581.692505130489
 20
1046.11457081047
 30
0.0
 10
1580.96493337528
 20
1046.8420959145
 30
0.0
 10
1580.0675513361
 20
1046.8420959145
 30
0.0
  0
SPLINE
  5
1FC
330
70
100
AcDbEntity
  8
Camada 1
 62
    18
420
        0
370
    35
100
AcDbSpline
210
0.0
220
0.0
230
1.0
 70
     8
 71
     3
 72
     8
 73
     4
 74
     0
 42
0.0000000001
 43
0.0000000001
 40
0.0
 40
0.0
 40
0.0
 40
0.0
 40
1.0
 40
1.0
 40
1.0
 40
1.0
 10
1580.0675513361
 20
1046.8420959145
 30
0.0
 10
1579.17007599456
 20
1046.8420959145
 30
0.0
 10
1578.4425975417
 20
1046.11457081047
 30
0.0
 10
1578.4425975417
 20
1045.21709546893
 30
0.0
  0
SPLINE
  5
1FD
330
70
100
AcDbEntity
  8
Camada 1
 62
    18
420
        0
370
    35
100
AcDbSpline
210
0.0
220
0.0
230
1.0
 70
     8
 71
     3
 72
     8
 73
     4
 74
     0
 42
0.0000000001
 43
0.0000000001
 40
0.0
 40
0.0
 40
0.0
 40
0.0
 40
1.0
 40
1.0
 40
1.0
 40
1.0
 10
1595.775469116001
 20
1045.21709546893
 30
0.0
 10
1595.775469116001
 20
1046.11457081047
 30
0.0
 10
1595.04799066315
 20
1046.8420959145
 30
0.0
 10
1594.150515321609
 20
1046.8420959145
 30
0.0
  0
SPLINE
  5
1FE
330
70
100
AcDbEntity
  8
Camada 1
 62
    18
420
        0
370
    35
100
AcDbSpline
210
0.0
220
0.0
230
1.0
 70
     8
 71
     3
 72
     8
 73
     4
 74
     0
 42
0.0000000001
 43
0.0000000001
 40
0.0
 40
0.0
 40
0.0
 40
0.0
 40
1.0
 40
1.0
 40
1.0
 40
1.0
 10
1594.150515321609
 20
1046.8420959145
 30
0.0
 10
1593.253039980071
 20
1046.8420959145
 30
0.0
 10
1592.52556152722
 20
1046.11457081047
 30
0.0
 10
1592.52556152722
 20
1045.21709546893
 30
0.0
  0
SPLINE
  5
1FF
330
70
100
AcDbEntity
  8
Camada 1
 62
    18
420
        0
370
    35
100
AcDbSpline
210
0.0
220
0.0
230
1.0
 70
     8
 71
     3
 72
     8
 73
     4
 74
     0
 42
0.0000000001
 43
0.0000000001
 40
0.0
 40
0.0
 40
0.0
 40
0.0
 40
1.0
 40
1.0
 40
1.0
 40
1.0
 10
1609.858433101519
 20
1045.21709546893
 30
0.0
 10
1609.858433101519
 20
1046.11457081047
 30
0.0
 10
1609.130954648659
 20
1046.8420959145
 30
0.0
 10
1608.23347930712
 20
1046.8420959145
 30
0.0
  0
SPLINE
  5
200
330
70
100
AcDbEntity
  8
Camada 1
 62
    18
420
        0
370
    35
100
AcDbSpline
210
0.0
220
0.0
230
1.0
 70
     8
 71
     3
 72
     8
 73
     4
 74
     0
 42
0.0000000001
 43
0.0000000001
 40
0.0
 40
0.0
 40
0.0
 40
0.0
 40
1.0
 40
1.0
 40
1.0
 40
1.0
 10
1608.23347930712
 20
1046.8420959145
 30
0.0
 10
1607.336097267929
 20
1046.8420959145
 30
0.0
 10
1606.608525512729
 20
1046.11457081047
 30
0.0
 10
1606.608525512729
 20
1045.21709546893
 30
0.0
  0
SPLINE
  5
201
330
70
100
AcDbEntity
  8
Camada 1
 62
    18
420
        0
370
    35
100
AcDbSpline
210
0.0
220
0.0
230
1.0
 70
     8
 71
     3
 72
     8
 73
     4
 74
     0
 42
0.0000000001
 43
0.0000000001
 40
0.0
 40
0.0
 40
0.0
 40
0.0
 40
1.0
 40
1.0
 40
1.0
 40
1.0
 10
1623.941490389379
 20
1045.21709546893
 30
0.0
 10
1623.941490389379
 20
1046.11457081047
 30
0.0
 10
1623.213918634179
 20
1046.8420959145
 30
0.0
 10
1622.31644329264
 20
1046.8420959145
 30
0.0
  0
SPLINE
  5
202
330
70
100
AcDbEntity
  8
Camada 1
 62
    18
420
        0
370
    35
100
AcDbSpline
210
0.0
220
0.0
230
1.0
 70
     8
 71
     3
 72
     8
 73
     4
 74
     0
 42
0.0000000001
 43
0.0000000001
 40
0.0
 40
0.0
 40
0.0
 40
0.0
 40
1.0
 40
1.0
 40
1.0
 40
1.0
 10
1622.31644329264
 20
1046.8420959145
 30
0.0
 10
1621.419061253449
 20
1046.8420959145
 30
0.0
 10
1620.69148949824
 20
1046.11457081047
 30
0.0
 10
1620.69148949824
 20
1045.21709546893
 30
0.0
  0
SPLINE
  5
203
330
70
100
AcDbEntity
  8
Camada 1
 62
    18
420
        0
370
    35
100
AcDbSpline
210
0.0
220
0.0
230
1.0
 70
     8
 71
     3
 72
     8
 73
     4
 74
     0
 42
0.0000000001
 43
0.0000000001
 40
0.0
 40
0.0
 40
0.0
 40
0.0
 40
1.0
 40
1.0
 40
1.0
 40
1.0
 10
1638.024454374899
 20
1045.21709546893
 30
0.0
 10
1638.024454374899
 20
1046.11457081047
 30
0.0
 10
1637.29688261969
 20
1046.8420959145
 30
0.0
 10
1636.399500580501
 20
1046.8420959145
 30
0.0
  0
SPLINE
  5
204
330
70
100
AcDbEntity
  8
Camada 1
 62
    18
420
        0
370
    35
100
AcDbSpline
210
0.0
220
0.0
230
1.0
 70
     8
 71
     3
 72
     8
 73
     4
 74
     0
 42
0.0000000001
 43
0.0000000001
 40
0.0
 40
0.0
 40
0.0
 40
0.0
 40
1.0
 40
1.0
 40
1.0
 40
1.0
 10
1636.399500580501
 20
1046.8420959145
 30
0.0
 10
1635.50202523896
 20
1046.8420959145
 30
0.0
 10
1634.774546786109
 20
1046.11457081047
 30
0.0
 10
1634.774546786109
 20
1045.21709546893
 30
0.0
  0
SPLINE
  5
205
330
70
100
AcDbEntity
  8
Camada 1
 62
    18
420
        0
370
    35
100
AcDbSpline
210
0.0
220
0.0
230
1.0
 70
     8
 71
     3
 72
     8
 73
     4
 74
     0
 42
0.0000000001
 43
0.0000000001
 40
0.0
 40
0.0
 40
0.0
 40
0.0
 40
1.0
 40
1.0
 40
1.0
 40
1.0
 10
1652.107418360411
 20
1045.21709546893
 30
0.0
 10
1652.107418360411
 20
1046.11457081047
 30
0.0
 10
1651.37993990756
 20
1046.8420959145
 30
0.0
 10
1650.482464566019
 20
1046.8420959145
 30
0.0
  0
SPLINE
  5
206
330
70
100
AcDbEntity
  8
Camada 1
 62
    18
420
        0
370
    35
100
AcDbSpline
210
0.0
220
0.0
230
1.0
 70
     8
 71
     3
 72
     8
 73
     4
 74
     0
 42
0.0000000001
 43
0.0000000001
 40
0.0
 40
0.0
 40
0.0
 40
0.0
 40
1.0
 40
1.0
 40
1.0
 40
1.0
 10
1650.482464566019
 20
1046.8420959145
 30
0.0
 10
1649.58498922448
 20
1046.8420959145
 30
0.0
 10
1648.85751077162
 20
1046.11457081047
 30
0.0
 10
1648.85751077162
 20
1045.21709546893
 30
0.0
  0
SPLINE
  5
207
330
70
100
AcDbEntity
  8
Camada 1
 62
    18
420
        0
370
    35
100
AcDbSpline
210
0.0
220
0.0
230
1.0
 70
     8
 71
     3
 72
     8
 73
     4
 74
     0
 42
0.0000000001
 43
0.0000000001
 40
0.0
 40
0.0
 40
0.0
 40
0.0
 40
1.0
 40
1.0
 40
1.0
 40
1.0
 10
802.7951717310388
 20
1144.26033554245
 30
0.0
 10
802.8310231604992
 20
1144.13316443417
 30
0.0
 10
802.8672011482003
 20
1144.00603997707
 30
0.0
 10
802.9036823685492
 20
1143.8790554735
 30
0.0
  0
SPLINE
  5
208
330
70
100
AcDbEntity
  8
Camada 1
 62
    18
420
        0
370
    35
100
AcDbSpline
210
0.0
220
0.0
230
1.0
 70
     8
 71
     3
 72
     8
 73
     4
 74
     0
 42
0.0000000001
 43
0.0000000001
 40
0.0
 40
0.0
 40
0.0
 40
0.0
 40
1.0
 40
1.0
 40
1.0
 40
1.0
 10
1667.16520533879
 20
1143.8790554735
 30
0.0
 10
1667.201686559139
 20
1144.00603997707
 30
0.0
 10
1667.237887872419
 20
1144.13316443417
 30
0.0
 10
1667.2737159763
 20
1144.26033554245
 30
0.0
  0
SPLINE
  5
209
330
70
100
AcDbEntity
  8
Camada 1
 62
    18
420
        0
370
    35
100
AcDbSpline
210
0.0
220
0.0
230
1.0
 70
     8
 71
     3
 72
     8
 73
     4
 74
     0
 42
0.0000000001
 43
0.0000000001
 40
0.0
 40
0.0
 40
0.0
 40
0.0
 40
1.0
 40
1.0
 40
1.0
 40
1.0
 10
1666.407030411519
 20
1142.31036299848
 30
0.0
 10
1667.48401948185
 20
1142.31036299848
 30
0.0
 10
1668.35704960668
 20
1143.18339312331
 30
0.0
 10
1668.35704960668
 20
1144.26033554245
 30
0.0
  0
SPLINE
  5
20A
330
70
100
AcDbEntity
  8
Camada 1
 62
    18
420
        0
370
    35
100
AcDbSpline
210
0.0
220
0.0
230
1.0
 70
     8
 71
     3
 72
     8
 73
     4
 74
     0
 42
0.0000000001
 43
0.0000000001
 40
0.0
 40
0.0
 40
0.0
 40
0.0
 40
1.0
 40
1.0
 40
1.0
 40
1.0
 10
801.7118614262489
 20
1144.26033554245
 30
0.0
 10
801.7118614262489
 20
1143.18339312331
 30
0.0
 10
802.5848682254945
 20
1142.31036299848
 30
0.0
 10
803.6618106446349
 20
1142.31036299848
 30
0.0
  0
LWPOLYLINE
  5
20B
330
70
100
AcDbEntity
  8
Camada 1
 62
    18
420
        0
370
    35
100
AcDbPolyline
 90
       12
 70
     0
 43
0.0
 10
803.6618106446349
 20
1055.725179767249
 10
803.5959625084178
 20
1055.82963175237
 10
803.5299044419007
 20
1055.93413038867
 10
803.4621902586078
 20
1056.03750939671
 10
803.3907439811555
 20
1056.139488869459
 10
803.3135129577713
 20
1056.23974224865
 10
803.2284911878377
 20
1056.33803627842
 10
803.2277214434179
 20
1056.338875999599
 10
803.1331595078045
 20
1056.4330647258
 10
803.0292206856357
 20
1056.51395786657
 10
802.9163948142596
 20
1056.57054574417
 10
802.7951717310388
 20
1056.59181868084
  0
LWPOLYLINE
  5
20C
330
70
100
AcDbEntity
  8
Camada 1
 62
    18
420
        0
370
    35
100
AcDbPolyline
 90
       12
 70
     0
 43
0.0
 10
1666.407030411519
 20
1055.725179767249
 10
1666.47290187333
 20
1055.82963175237
 10
1666.538959939849
 20
1055.93413038867
 10
1666.606697448729
 20
1056.03750939671
 10
1666.67816705177
 20
1056.139488869459
 10
1666.75532809839
 20
1056.23974224865
 10
1666.84041984509
 20
1056.33803627842
 10
1666.841166263919
 20
1056.338875999599
 10
1666.93568154836
 20
1056.4330647258
 10
1667.039620370529
 20
1056.51395786657
 10
1667.15251621867
 20
1056.57054574417
 10
1667.2737159763
 20
1056.59181868084
  0
LWPOLYLINE
  5
20D
330
70
100
AcDbEntity
  8
Camada 1
 62
    18
420
        0
370
    35
100
AcDbPolyline
 90
       12
 70
     0
 43
0.0
 10
1666.407030411519
 20
983.7936367757428
 10
1666.51152904782
 20
983.7278119651127
 10
1666.61602768412
 20
983.6617538985956
 10
1666.719406692169
 20
983.594016389714
 10
1666.821386164909
 20
983.5225467866731
 10
1666.921592892921
 20
983.4453390888738
 10
1667.019933573871
 20
983.3603406445327
 10
1667.020773295049
 20
983.3595475745241
 10
1667.11491537007
 20
983.2649856389107
 10
1667.195808510849
 20
983.1610468167381
 10
1667.25244303963
 20
983.0482442709508
 10
1667.2737159763
 20
982.926997862145
  0
LWPOLYLINE
  5
20E
330
70
100
AcDbEntity
  8
Camada 1
 62
    18
420
        0
370
    35
100
AcDbPolyline
 90
       12
 70
     0
 43
0.0
 10
1666.407030411519
 20
1055.725179767249
 10
1666.51152904782
 20
1055.79105122906
 10
1666.61602768412
 20
1055.85710929557
 10
1666.719406692169
 20
1055.924800153279
 10
1666.821386164909
 20
1055.99626975632
 10
1666.921592892921
 20
1056.07347745412
 10
1667.019933573871
 20
1056.15852254964
 10
1667.020773295049
 20
1056.15926896847
 10
1667.11491537007
 20
1056.25383090408
 10
1667.195808510849
 20
1056.35776972625
 10
1667.25244303963
 20
1056.47061892322
 10
1667.2737159763
 20
1056.59181868084
  0
LWPOLYLINE
  5
20F
330
70
100
AcDbEntity
  8
Camada 1
 62
    18
420
        0
370
    35
100
AcDbPolyline
 90
       12
 70
     0
 43
0.0
 10
803.6618106446349
 20
983.7936367757428
 10
803.5959625084178
 20
983.6891847906226
 10
803.5299044419007
 20
983.5846861543286
 10
803.4621902586078
 20
983.4813071462777
 10
803.3907439811555
 20
983.3793743247152
 10
803.3135129577713
 20
983.2790742943398
 10
803.2284911878377
 20
983.1807802645744
 10
803.2277214434179
 20
983.1799405433921
 10
803.1331595078045
 20
983.0857518171942
 10
803.0292206856357
 20
983.0048586764204
 10
802.9163948142596
 20
982.9483174499946
 10
802.7951717310388
 20
982.926997862145
  0
LWPOLYLINE
  5
210
330
70
100
AcDbEntity
  8
Camada 1
 62
    18
420
        0
370
    35
100
AcDbPolyline
 90
       12
 70
     0
 43
0.0
 10
1666.407030411519
 20
983.7936367757428
 10
1666.47290187333
 20
983.6891847906226
 10
1666.538959939849
 20
983.5846861543286
 10
1666.606697448729
 20
983.4813071462777
 10
1666.67816705177
 20
983.3793743247152
 10
1666.75532809839
 20
983.2790742943398
 10
1666.84041984509
 20
983.1807802645744
 10
1666.841166263919
 20
983.1799405433921
 10
1666.93568154836
 20
983.0857518171942
 10
1667.039620370529
 20
983.0048586764204
 10
1667.15251621867
 20
982.9483174499946
 10
1667.2737159763
 20
982.926997862145
  0
LWPOLYLINE
  5
211
330
70
100
AcDbEntity
  8
Camada 1
 62
    18
420
        0
370
    35
100
AcDbPolyline
 90
       12
 70
     0
 43
0.0
 10
803.6618106446349
 20
1055.725179767249
 10
803.5573586595173
 20
1055.79105122906
 10
803.4528600232233
 20
1055.85710929557
 10
803.3494810151724
 20
1055.924800153279
 10
803.2475248680203
 20
1055.99626975632
 10
803.1472481632354
 20
1056.07347745412
 10
803.04895413347
 20
1056.15852254964
 10
803.0481144122859
 20
1056.15926896847
 10
802.953925686088
 20
1056.25383090408
 10
802.8730325453143
 20
1056.35776972625
 10
802.8164679933015
 20
1056.47061892322
 10
802.7951717310388
 20
1056.59181868084
  0
LWPOLYLINE
  5
212
330
70
100
AcDbEntity
  8
Camada 1
 62
    18
420
        0
370
    35
100
AcDbPolyline
 90
       12
 70
     0
 43
0.0
 10
803.6618106446349
 20
983.7936367757428
 10
803.5573586595173
 20
983.7278119651127
 10
803.4528600232233
 20
983.6617538985956
 10
803.3494810151724
 20
983.594016389714
 10
803.2475248680203
 20
983.5225467866731
 10
803.1472481632354
 20
983.4453390888738
 10
803.04895413347
 20
983.3603406445327
 10
803.0481144122859
 20
983.3595475745241
 10
802.953925686088
 20
983.2649856389107
 10
802.8730325453143
 20
983.1610468167381
 10
802.8164679933015
 20
983.0482442709508
 10
802.7951717310388
 20
982.926997862145
  0
LWPOLYLINE
  5
213
330
70
100
AcDbEntity
  8
Camada 1
 62
    18
420
        0
370
    35
100
AcDbPolyline
 90
       13
 70
     0
 43
0.0
 10
1663.911379051151
 20
985.0068939338379
 10
1664.065701144391
 20
985.0117456562365
 10
1664.240083243711
 20
985.017437099821
 10
1664.414465343019
 20
985.0236883575272
 10
1664.588754139989
 20
985.0309192899477
 10
1664.762856332239
 20
985.0395031065017
 10
1664.936678617439
 20
985.04995297013
 10
1665.109941088511
 20
985.0626420902518
 10
1665.12123067333
 20
985.063528462615
 10
1665.294213237339
 20
985.0787367462908
 10
1665.468315429589
 20
985.0953445652704
 10
1665.4769925485
 20
985.0961842864562
 10
1665.647922460721
 20
985.1297731338382
  0
LWPOLYLINE
  5
214
330
70
100
AcDbEntity
  8
Camada 1
 62
    18
420
        0
370
    35
100
AcDbPolyline
 90
       12
 70
     0
 43
0.0
 10
1647.170137702509
 20
984.5388426758217
 10
1647.43670252742
 20
984.5391225828862
 10
1647.802634359159
 20
984.5401955599518
 10
1648.16865949326
 20
984.542108258207
 10
1648.268119802449
 20
984.5427613746833
 10
1648.634051634189
 20
984.5457470500042
 10
1649.000076768279
 20
984.5496657488693
 10
1649.366008600031
 20
984.5546574247974
 10
1649.73194043177
 20
984.5609086825033
 10
1650.09787226351
 20
984.5685594755195
 10
1650.463710792899
 20
984.5777031061953
 10
1650.829549322279
 20
984.5885261792391
  0
LWPOLYLINE
  5
215
330
70
100
AcDbEntity
  8
Camada 1
 62
    18
420
        0
370
    35
100
AcDbPolyline
 90
       12
 70
     0
 43
0.0
 10
1534.60719236055
 20
984.5942176228236
 10
1534.66196084226
 20
984.5923515757494
 10
1535.044873702391
 20
984.5805488279875
 10
1535.42778656253
 20
984.5707520808355
 10
1535.75593094097
 20
984.5635677995888
 10
1536.13893710346
 20
984.5565234718742
 10
1536.52194326596
 20
984.5507853771122
 10
1536.90494942845
 20
984.5462602129519
 10
1537.2880488933
 20
984.5429013282155
 10
1537.67114835814
 20
984.5406154205447
 10
1538.05415452064
 20
984.5392625364148
 10
1538.437253985479
 20
984.5388426758217
  0
LWPOLYLINE
  5
216
330
70
100
AcDbEntity
  8
Camada 1
 62
    18
420
        0
370
    35
100
AcDbPolyline
 90
       12
 70
     0
 43
0.0
 10
1409.369775366569
 20
984.5388426758217
 10
1409.66003898935
 20
984.5391692340635
 10
1410.043138454201
 20
984.5403821646614
 10
1410.426144616689
 20
984.5424814676226
 10
1410.518980458761
 20
984.5431345840989
 10
1410.901986621249
 20
984.5463535153067
 10
1411.2850860861
 20
984.5505987724028
 10
1411.66809224859
 20
984.5561036112812
 10
1412.05109841109
 20
984.5630546366409
 10
1412.43410457358
 20
984.5715918020177
 10
1412.817017433719
 20
984.5819017121176
 10
1413.1998369915
 20
984.5942176228236
  0
LWPOLYLINE
  5
217
330
70
100
AcDbEntity
  8
Camada 1
 62
    18
420
        0
370
    35
100
AcDbPolyline
 90
       12
 70
     0
 43
0.0
 10
1295.73809821261
 20
984.5942176228236
 10
1295.792913345489
 20
984.5923515757494
 10
1296.175779554451
 20
984.5805488279875
 10
1296.55873906576
 20
984.5707520808355
 10
1296.886836793019
 20
984.5635677995888
 10
1297.26984295552
 20
984.5565234718742
 10
1297.65289576919
 20
984.5507853771122
 10
1298.03590193168
 20
984.5462602129519
 10
1298.41895474535
 20
984.5429013282155
 10
1298.8020542102
 20
984.5406154205447
 10
1299.18510702387
 20
984.5392625364148
 10
1299.568159837539
 20
984.5388426758217
  0
LWPOLYLINE
  5
218
330
70
100
AcDbEntity
  8
Camada 1
 62
    18
420
        0
370
    35
100
AcDbPolyline
 90
       12
 70
     0
 43
0.0
 10
1170.500727869799
 20
984.5388426758217
 10
1170.79099149258
 20
984.5391692340635
 10
1171.17404430625
 20
984.5403821646614
 10
1171.557097119919
 20
984.5424814676226
 10
1171.64988631081
 20
984.5431345840989
 10
1172.032939124479
 20
984.5463535153067
 10
1172.415991938149
 20
984.5505987724028
 10
1172.79904475182
 20
984.5561036112812
 10
1173.182050914311
 20
984.5630546366409
 10
1173.565010425629
 20
984.5715918020177
 10
1173.94792328577
 20
984.5819017121176
 10
1174.33078949473
 20
984.5942176228236
  0
LWPOLYLINE
  5
219
330
70
100
AcDbEntity
  8
Camada 1
 62
    18
420
        0
370
    35
100
AcDbPolyline
 90
       12
 70
     0
 43
0.0
 10
1056.86900406466
 20
984.5942176228236
 10
1056.92381919754
 20
984.5923515757494
 10
1057.306732057679
 20
984.5805488279875
 10
1057.68964491782
 20
984.5707520808355
 10
1058.017789296249
 20
984.5635677995888
 10
1058.40079545875
 20
984.5565234718742
 10
1058.783801621241
 20
984.5507853771122
 10
1059.16685443491
 20
984.5462602129519
 10
1059.54990724858
 20
984.5429013282155
 10
1059.932960062249
 20
984.5406154205447
 10
1060.316012875919
 20
984.5392625364148
 10
1060.69906568959
 20
984.5388426758217
  0
LWPOLYLINE
  5
21A
330
70
100
AcDbEntity
  8
Camada 1
 62
    18
420
        0
370
    35
100
AcDbPolyline
 90
       12
 70
     0
 43
0.0
 10
931.6316337218559
 20
984.5388426758217
 10
931.9219439958123
 20
984.5391692340635
 10
932.3049968094819
 20
984.5403821646614
 10
932.6880496231515
 20
984.5424814676226
 10
932.7807921628627
 20
984.5431345840989
 10
933.1638683021228
 20
984.5463535153067
 10
933.5469211157924
 20
984.5505987724028
 10
933.9299506038733
 20
984.5561036112812
 10
934.3129567663673
 20
984.5630546366409
 10
934.6959396032707
 20
984.5715918020177
 10
935.0788524634099
 20
984.5819017121176
 10
935.4617186723736
 20
984.5942176228236
  0
LWPOLYLINE
  5
21B
330
70
100
AcDbEntity
  8
Camada 1
 62
    18
420
        0
370
    35
100
AcDbPolyline
 90
       12
 70
     0
 43
0.0
 10
819.2393383850577
 20
984.5885261792391
 10
819.3065160798179
 20
984.5864268762779
 10
819.6723546092053
 20
984.5760703150054
 10
820.0382397897683
 20
984.5673931960956
 10
820.3369239499824
 20
984.561281891918
 10
820.7028557817247
 20
984.5549373318608
 10
821.068810939054
 20
984.5497590512213
 10
821.4347660963831
 20
984.5456537476529
 10
821.8007445793009
 20
984.5425747699774
 10
822.1667230622234
 20
984.5404754670125
 10
822.5327015451403
 20
984.5392625364148
 10
822.8986800280562
 20
984.5388426758217
  0
LWPOLYLINE
  5
21C
330
70
100
AcDbEntity
  8
Camada 1
 62
    18
420
        0
370
    35
100
AcDbPolyline
 90
       13
 70
     0
 43
0.0
 10
804.4209652466143
 20
985.1297731338382
 10
804.428989249045
 20
985.1266941561625
 10
804.6005489521602
 20
985.0953445652704
 10
804.6119085137398
 20
985.0942249370273
 10
804.7858940780534
 20
985.077710420399
 10
804.9588999676506
 20
985.0626420902518
 10
805.1123823397102
 20
985.0513058542601
 10
805.2861113225517
 20
985.0406227347493
 10
805.4601668636296
 20
985.0318056623109
 10
805.6344556605946
 20
985.0244347763583
 10
805.808861085501
 20
985.0181368674748
 10
805.9832665104076
 20
985.0123987727128
 10
806.1575319817821
 20
985.0068939338379
  0
LWPOLYLINE
  5
21D
330
70
100
AcDbEntity
  8
Camada 1
 62
    18
420
        0
370
    35
100
AcDbPolyline
 90
       13
 70
     0
 43
0.0
 10
806.1575319817821
 20
1054.51196926033
 10
806.0031865629499
 20
1054.507070886759
 10
805.8287811380433
 20
1054.50137944317
 10
805.6543757131366
 20
1054.49512818547
 10
805.4800635905849
 20
1054.48794390422
 10
805.3059847239174
 20
1054.47931343649
 10
805.1322090899011
 20
1054.46886357286
 10
804.9588999676506
 20
1054.45617445274
 10
804.9476570340139
 20
1054.45528808038
 10
804.7746278188279
 20
1054.4400797967
 10
804.6005489521602
 20
1054.423471977719
 10
804.5919184844278
 20
1054.42263225653
 10
804.4209652466143
 20
1054.38904340916
  0
LWPOLYLINE
  5
21E
330
70
100
AcDbEntity
  8
Camada 1
 62
    18
420
        0
370
    35
100
AcDbPolyline
 90
       12
 70
     0
 43
0.0
 10
822.8986800280562
 20
1054.97997386717
 10
822.6321851799148
 20
1054.97974061128
 10
822.2662300225856
 20
1054.97862098304
 10
821.9002515396677
 20
1054.97670828479
 10
821.8007679048923
 20
1054.97605516831
 10
821.4347894219736
 20
1054.973116144159
 10
821.068810939054
 20
1054.9691974453
 10
820.7028557817247
 20
1054.96415911819
 10
820.3369239499824
 20
1054.95790786049
 10
819.9710154438307
 20
1054.95025706747
 10
819.6051535888564
 20
1054.9411134368
 10
819.2393383850577
 20
1054.93029036375
  0
LWPOLYLINE
  5
21F
330
70
100
AcDbEntity
  8
Camada 1
 62
    18
420
        0
370
    35
100
AcDbPolyline
 90
       12
 70
     0
 43
0.0
 10
935.4617186723736
 20
1054.92459892017
 10
935.4068802139064
 20
1054.92646496724
 10
935.0240140049445
 20
1054.93831436618
 10
934.6410778192149
 20
1054.94811111334
 10
934.3129567663673
 20
1054.9552487434
 10
933.9299506038733
 20
1054.9623397223
 10
933.5469211157924
 20
1054.96807781706
 10
933.1638916277116
 20
1054.97255633004
 10
932.7808388140402
 20
1054.97591521478
 10
932.3977626747819
 20
1054.97824777362
 10
932.0147098611123
 20
1054.97955400658
 10
931.6316337218559
 20
1054.97997386717
  0
LWPOLYLINE
  5
220
330
70
100
AcDbEntity
  8
Camada 1
 62
    18
420
        0
370
    35
100
AcDbPolyline
 90
       12
 70
     0
 43
0.0
 10
1060.69906568959
 20
1054.97997386717
 10
1060.408802066809
 20
1054.97969396011
 10
1060.02574925314
 20
1054.97843437833
 10
1059.64269643947
 20
1054.97633507537
 10
1059.54990724858
 20
1054.97568195889
 10
1059.16685443491
 20
1054.97246302769
 10
1058.783801621241
 20
1054.96821777059
 10
1058.40079545875
 20
1054.96271293171
 10
1058.017742645079
 20
1054.95576190635
 10
1057.63478313376
 20
1054.94722474097
 10
1057.251870273619
 20
1054.93691483087
 10
1056.86900406466
 20
1054.92459892017
  0
LWPOLYLINE
  5
221
330
70
100
AcDbEntity
  8
Camada 1
 62
    18
420
        0
370
    35
100
AcDbPolyline
 90
       12
 70
     0
 43
0.0
 10
1174.33078949473
 20
1054.92459892017
 10
1174.275974361861
 20
1054.92646496724
 10
1173.89310815289
 20
1054.93831436618
 10
1173.51014864158
 20
1054.94811111334
 10
1173.18200426314
 20
1054.9552487434
 10
1172.798998100639
 20
1054.9623397223
 10
1172.415991938149
 20
1054.96807781706
 10
1172.032939124479
 20
1054.97255633004
 10
1171.64988631081
 20
1054.97591521478
 10
1171.26683349714
 20
1054.97824777362
 10
1170.883780683471
 20
1054.97955400658
 10
1170.500727869799
 20
1054.97997386717
  0
LWPOLYLINE
  5
222
330
70
100
AcDbEntity
  8
Camada 1
 62
    18
420
        0
370
    35
100
AcDbPolyline
 90
       12
 70
     0
 43
0.0
 10
1299.568159837539
 20
1054.97997386717
 10
1299.277849563579
 20
1054.97969396011
 10
1298.89479674991
 20
1054.97843437833
 10
1298.51174393624
 20
1054.97633507537
 10
1298.419001396531
 20
1054.97568195889
 10
1298.035948582859
 20
1054.97246302769
 10
1297.65289576919
 20
1054.96821777059
 10
1297.26984295552
 20
1054.96271293171
 10
1296.886836793019
 20
1054.95576190635
 10
1296.50387728171
 20
1054.94722474097
 10
1296.12096442157
 20
1054.93691483087
 10
1295.73809821261
 20
1054.92459892017
  0
LWPOLYLINE
  5
223
330
70
100
AcDbEntity
  8
Camada 1
 62
    18
420
        0
370
    35
100
AcDbPolyline
 90
       12
 70
     0
 43
0.0
 10
1413.1998369915
 20
1054.92459892017
 10
1413.145068509801
 20
1054.92646496724
 10
1412.76215564966
 20
1054.93831436618
 10
1412.37924278952
 20
1054.94811111334
 10
1412.05109841109
 20
1054.9552487434
 10
1411.66809224859
 20
1054.9623397223
 10
1411.2850860861
 20
1054.96807781706
 10
1410.901986621249
 20
1054.97255633004
 10
1410.518980458761
 20
1054.97591521478
 10
1410.13588099391
 20
1054.97824777362
 10
1409.75287483142
 20
1054.97955400658
 10
1409.369775366569
 20
1054.97997386717
  0
LWPOLYLINE
  5
224
330
70
100
AcDbEntity
  8
Camada 1
 62
    18
420
        0
370
    35
100
AcDbPolyline
 90
       12
 70
     0
 43
0.0
 10
1538.437253985479
 20
1054.97997386717
 10
1538.146897060349
 20
1054.97969396011
 10
1537.763890897861
 20
1054.97843437833
 10
1537.38079143301
 20
1054.97633507537
 10
1537.2880488933
 20
1054.97568195889
 10
1536.905042730799
 20
1054.97246302769
 10
1536.52194326596
 20
1054.96821777059
 10
1536.13893710346
 20
1054.96271293171
 10
1535.75593094097
 20
1054.95576190635
 10
1535.372924778479
 20
1054.94722474097
 10
1534.99001191834
 20
1054.93691483087
 10
1534.60719236055
 20
1054.92459892017
  0
LWPOLYLINE
  5
225
330
70
100
AcDbEntity
  8
Camada 1
 62
    18
420
        0
370
    35
100
AcDbPolyline
 90
       12
 70
     0
 43
0.0
 10
1650.829549322279
 20
1054.93029036375
 10
1650.762371627519
 20
1054.93243631789
 10
1650.396533098141
 20
1054.94274622799
 10
1650.030601266389
 20
1054.95146999807
 10
1649.73194043177
 20
1054.95753465107
 10
1649.366008600031
 20
1054.96387921113
 10
1649.000076768279
 20
1054.96910414295
 10
1648.634144936539
 20
1054.97316279534
 10
1648.268119802449
 20
1054.97624177301
 10
1647.902187970711
 20
1054.97834107598
 10
1647.53616283661
 20
1054.97955400658
 10
1647.170137702509
 20
1054.97997386717
  0
LWPOLYLINE
  5
226
330
70
100
AcDbEntity
  8
Camada 1
 62
    18
420
        0
370
    35
100
AcDbPolyline
 90
       13
 70
     0
 43
0.0
 10
1665.647922460721
 20
1054.38904340916
 10
1665.639898458299
 20
1054.39212238683
 10
1665.468315429589
 20
1054.423471977719
 10
1665.45693254242
 20
1054.42459160597
 10
1665.283016954871
 20
1054.44110612259
 10
1665.109941088511
 20
1054.45617445274
 10
1664.956458716449
 20
1054.46755733991
 10
1664.78272973361
 20
1054.478240459419
 10
1664.608720843709
 20
1054.48701088068
 10
1664.43443204675
 20
1054.49438176664
 10
1664.26004994743
 20
1054.5007263267
 10
1664.085574545759
 20
1054.50641777028
 10
1663.911379051151
 20
1054.51196926033
  0
LWPOLYLINE
  5
227
330
70
100
AcDbEntity
  8
Camada 1
 62
    18
420
        0
370
    35
100
AcDbPolyline
 90
       12
 70
     0
 43
0.0
 10
803.3419701756884
 20
1053.95658699913
 10
803.3411771056817
 20
1053.95546737088
 10
803.3394043609586
 20
1053.95140871849
 10
803.3385179885991
 20
1053.94688355433
 10
803.338098128006
 20
1053.942218436639
 10
803.3378881977078
 20
1053.93899950543
 10
803.3375849650584
 20
1053.9344276901
 10
803.3373283835862
 20
1053.92994917711
 10
803.3371184532898
 20
1053.925470664129
 10
803.3369551741706
 20
1053.92103880232
 10
803.3368618718158
 20
1053.91656028933
 10
803.3368152206403
 20
1053.91208177635
  0
LWPOLYLINE
  5
228
330
70
100
AcDbEntity
  8
Camada 1
 62
    18
420
        0
370
    35
100
AcDbPolyline
 90
       12
 70
     0
 43
0.0
 10
1666.732095812291
 20
1053.91208177635
 10
1666.732002509931
 20
1053.9152074052
 10
1666.73190920758
 20
1053.91968591819
 10
1666.731815905219
 20
1053.924117779999
 10
1666.73162930052
 20
1053.9285496418
 10
1666.73134939346
 20
1053.93302815479
 10
1666.73106948639
 20
1053.937599970119
 10
1666.730789579329
 20
1053.942218436639
 10
1666.73069627698
 20
1053.943664623119
 10
1666.73013646286
 20
1053.94832974082
 10
1666.72901683461
 20
1053.95271495144
 10
1666.72687088048
 20
1053.95658699913
  0
LWPOLYLINE
  5
229
330
70
100
AcDbEntity
  8
Camada 1
 62
    18
420
        0
370
    35
100
AcDbPolyline
 90
       12
 70
     0
 43
0.0
 10
1666.72687088048
 20
985.5622295438633
 10
1666.727710601659
 20
985.5633491721091
 10
1666.72948334638
 20
985.5674078245028
 10
1666.73032306756
 20
985.5719329886596
 10
1666.730789579329
 20
985.5765981063523
 10
1666.73097618404
 20
985.5798170375601
 10
1666.7312560911
 20
985.584388852898
 10
1666.73153599816
 20
985.5889140170583
 10
1666.73172260287
 20
985.5933458788676
 10
1666.73190920758
 20
985.5977777406733
 10
1666.732002509931
 20
985.6022562536564
 10
1666.732095812291
 20
985.6067347666394
  0
LWPOLYLINE
  5
22A
330
70
100
AcDbEntity
  8
Camada 1
 62
    18
420
        0
370
    35
100
AcDbPolyline
 90
       12
 70
     0
 43
0.0
 10
803.3368152206403
 20
985.6067347666394
 10
803.3368385462273
 20
985.6036091377864
 10
803.3369085229933
 20
985.5991772759807
 10
803.3370484765237
 20
985.5947454141752
 10
803.3372584068201
 20
985.5902669011921
 10
803.3375149882941
 20
985.5857883882054
 10
803.3377948953566
 20
985.581263224045
 10
803.338098128006
 20
985.5765981063523
 10
803.3382147559459
 20
985.5751985710449
 10
803.3387279188938
 20
985.5705334533558
 10
803.3398242215517
 20
985.5661015915465
 10
803.3419701756884
 20
985.5622295438633
  0
LWPOLYLINE
  5
22B
330
70
100
AcDbEntity
  8
Camada 1
 62
    18
420
        0
370
    35
100
AcDbPolyline
 90
       12
 70
     0
 43
0.0
 10
1517.70043263622
 20
985.1059810336082
 10
1517.990696258999
 20
985.1057011265474
 10
1518.37379572385
 20
985.1044415447722
 10
1518.75680188634
 20
985.1023422418075
 10
1518.849544426061
 20
985.1016891253348
 10
1519.2326438909
 20
985.0984701941269
 10
1519.615743355749
 20
985.0942249370273
 10
1519.998749518239
 20
985.0887200981487
 10
1520.381755680741
 20
985.081769072789
 10
1520.764761843229
 20
985.0732319074122
 10
1521.14767470337
 20
985.0629219973125
 10
1521.530494261149
 20
985.0506060866065
  0
LWPOLYLINE
  5
22C
330
70
100
AcDbEntity
  8
Camada 1
 62
    18
420
        0
370
    35
100
AcDbPolyline
 90
       12
 70
     0
 43
0.0
 10
1039.96229099151
 20
985.1059810336082
 10
1040.25260126546
 20
985.1057011265474
 10
1040.635654079129
 20
985.1044415447722
 10
1041.018706892801
 20
985.1023422418075
 10
1041.111449432519
 20
985.1016891253348
 10
1041.494502246179
 20
985.0984701941269
 10
1041.877555059849
 20
985.0942249370273
 10
1042.260607873521
 20
985.0887200981487
 10
1042.643614036009
 20
985.081769072789
 10
1043.026573547329
 20
985.0732319074122
 10
1043.40948640747
 20
985.0629219973125
 10
1043.79235261643
 20
985.0506060866065
  0
LWPOLYLINE
  5
22D
330
70
100
AcDbEntity
  8
Camada 1
 62
    18
420
        0
370
    35
100
AcDbPolyline
 90
       12
 70
     0
 43
0.0
 10
948.5383701205973
 20
985.0506060866065
 10
948.593185253474
 20
985.0524721336842
 10
948.9760747880264
 20
985.0642748814461
 10
949.3590109737525
 20
985.0741182797756
 10
949.6871320266036
 20
985.0812559098413
 10
950.0701381890959
 20
985.0883002375603
 10
950.4531676771767
 20
985.0940383323177
 10
950.8361971652593
 20
985.0985634964782
 10
951.2192499789289
 20
985.1019223812182
 10
951.6023261181871
 20
985.1042082888852
 10
951.9853789318586
 20
985.1055611730153
 10
952.3684317455263
 20
985.1059810336082
  0
LWPOLYLINE
  5
22E
330
70
100
AcDbEntity
  8
Camada 1
 62
    18
420
        0
370
    35
100
AcDbPolyline
 90
       12
 70
     0
 43
0.0
 10
1426.276535090899
 20
985.0506060866065
 10
1426.331303572609
 20
985.0524721336842
 10
1426.71421643275
 20
985.0642748814461
 10
1427.097129292881
 20
985.0741182797756
 10
1427.42527367132
 20
985.0812559098413
 10
1427.808279833811
 20
985.0883002375603
 10
1428.19128599631
 20
985.0940383323177
 10
1428.574385461161
 20
985.0985634964782
 10
1428.957391623649
 20
985.1019223812182
 10
1429.340491088489
 20
985.1042082888852
 10
1429.72349725099
 20
985.1055611730153
 10
1430.10659671583
 20
985.1059810336082
  0
LWPOLYLINE
  5
22F
330
70
100
AcDbEntity
  8
Camada 1
 62
    18
420
        0
370
    35
100
AcDbPolyline
 90
       12
 70
     0
 43
0.0
 10
1430.10659671583
 20
1054.41288216056
 10
1429.816333093049
 20
1054.41316206762
 10
1429.433233628209
 20
1054.414374998219
 10
1429.05022746571
 20
1054.41652095236
 10
1428.957391623649
 20
1054.417127417659
 10
1428.574385461161
 20
1054.42034634887
 10
1428.19128599631
 20
1054.42463825714
 10
1427.808279833811
 20
1054.43014309602
 10
1427.42527367132
 20
1054.4370474702
 10
1427.04226750883
 20
1054.445584635579
 10
1426.659354648689
 20
1054.45594119686
 10
1426.276535090899
 20
1054.46821045638
  0
LWPOLYLINE
  5
230
330
70
100
AcDbEntity
  8
Camada 1
 62
    18
420
        0
370
    35
100
AcDbPolyline
 90
       12
 70
     0
 43
0.0
 10
1521.530494261149
 20
1054.46821045638
 10
1521.47572577945
 20
1054.46634440931
 10
1521.092812919311
 20
1054.45454166155
 10
1520.709900059169
 20
1054.4447449144
 10
1520.381755680741
 20
1054.43756063315
 10
1519.998749518239
 20
1054.43051630543
 10
1519.615743355749
 20
1054.42477821067
 10
1519.2326438909
 20
1054.42025304651
 10
1518.84963772841
 20
1054.41689416177
 10
1518.466538263559
 20
1054.4146082541
 10
1518.083532101071
 20
1054.41330202115
 10
1517.70043263622
 20
1054.41288216056
  0
LWPOLYLINE
  5
231
330
70
100
AcDbEntity
  8
Camada 1
 62
    18
420
        0
370
    35
100
AcDbPolyline
 90
       12
 70
     0
 43
0.0
 10
952.3684317455263
 20
1054.41288216056
 10
952.0781447971566
 20
1054.41316206762
 10
951.695091983489
 20
1054.414374998219
 10
951.3120391698176
 20
1054.41652095236
 10
951.2192733045177
 20
1054.417127417659
 10
950.8362204908481
 20
1054.42034634887
 10
950.4531676771767
 20
1054.42463825714
 10
950.0701381890959
 20
1054.43014309602
 10
949.6871087010148
 20
1054.4370474702
 10
949.3041491896983
 20
1054.445584635579
 10
948.9212363295591
 20
1054.45594119686
 10
948.5383701205973
 20
1054.46821045638
  0
LWPOLYLINE
  5
232
330
70
100
AcDbEntity
  8
Camada 1
 62
    18
420
        0
370
    35
100
AcDbPolyline
 90
       12
 70
     0
 43
0.0
 10
1191.23750256789
 20
1054.41288216056
 10
1190.947238945109
 20
1054.41316206762
 10
1190.56418613144
 20
1054.414374998219
 10
1190.18113331777
 20
1054.41652095236
 10
1190.08834412688
 20
1054.417127417659
 10
1189.70529131321
 20
1054.42034634887
 10
1189.32223849954
 20
1054.42463825714
 10
1188.939185685869
 20
1054.43014309602
 10
1188.556179523381
 20
1054.4370474702
 10
1188.17322001206
 20
1054.445584635579
 10
1187.790307151919
 20
1054.45594119686
 10
1187.407440942959
 20
1054.46821045638
  0
LWPOLYLINE
  5
233
330
70
100
AcDbEntity
  8
Camada 1
 62
    18
420
        0
370
    35
100
AcDbPolyline
 90
       12
 70
     0
 43
0.0
 10
1282.661446764379
 20
1054.46821045638
 10
1282.606584980331
 20
1054.46634440931
 10
1282.223718771369
 20
1054.45454166155
 10
1281.84080591123
 20
1054.4447449144
 10
1281.51266153279
 20
1054.43756063315
 10
1281.12965537029
 20
1054.43051630543
 10
1280.7466492078
 20
1054.42477821067
 10
1280.36359639413
 20
1054.42025304651
 10
1279.980543580459
 20
1054.41689416177
 10
1279.597490766789
 20
1054.4146082541
 10
1279.21443795312
 20
1054.41330202115
 10
1278.83133848828
 20
1054.41288216056
  0
LWPOLYLINE
  5
234
330
70
100
AcDbEntity
  8
Camada 1
 62
    18
420
        0
370
    35
100
AcDbPolyline
 90
       12
 70
     0
 43
0.0
 10
1043.79235261643
 20
1054.46821045638
 10
1043.737537483559
 20
1054.46634440931
 10
1043.35467127459
 20
1054.45454166155
 10
1042.971711763279
 20
1054.4447449144
 10
1042.643614036009
 20
1054.43756063315
 10
1042.260607873521
 20
1054.43051630543
 10
1041.877555059849
 20
1054.42477821067
 10
1041.494548897361
 20
1054.42025304651
 10
1041.111496083689
 20
1054.41689416177
 10
1040.72839661884
 20
1054.4146082541
 10
1040.345343805169
 20
1054.41330202115
 10
1039.96229099151
 20
1054.41288216056
  0
LWPOLYLINE
  5
235
330
70
100
AcDbEntity
  8
Camada 1
 62
    18
420
        0
370
    35
100
AcDbPolyline
 90
       12
 70
     0
 43
0.0
 10
1187.407440942959
 20
985.0506060866065
 10
1187.46225607583
 20
985.0524721336842
 10
1187.8451222848
 20
985.0642748814461
 10
1188.228081796111
 20
985.0741182797756
 10
1188.556226174551
 20
985.0812559098413
 10
1188.939185685869
 20
985.0883002375603
 10
1189.32223849954
 20
985.0940383323177
 10
1189.70529131321
 20
985.0985634964782
 10
1190.08834412688
 20
985.1019223812182
 10
1190.471396940549
 20
985.1042082888852
 10
1190.854449754221
 20
985.1055611730153
 10
1191.23750256789
 20
985.1059810336082
  0
LWPOLYLINE
  5
236
330
70
100
AcDbEntity
  8
Camada 1
 62
    18
420
        0
370
    35
100
AcDbPolyline
 90
       12
 70
     0
 43
0.0
 10
1278.83133848828
 20
985.1059810336082
 10
1279.121648762229
 20
985.1057011265474
 10
1279.504701575901
 20
985.1044415447722
 10
1279.887754389571
 20
985.1023422418075
 10
1279.980496929289
 20
985.1016891253348
 10
1280.36359639413
 20
985.0984701941269
 10
1280.7466492078
 20
985.0942249370273
 10
1281.12965537029
 20
985.0887200981487
 10
1281.51266153279
 20
985.081769072789
 10
1281.89566769528
 20
985.0732319074122
 10
1282.278580555419
 20
985.0629219973125
 10
1282.661446764379
 20
985.0506060866065
  0
LWPOLYLINE
  5
237
330
70
100
AcDbEntity
  8
Camada 1
 62
    18
420
        0
370
    35
100
AcDbPolyline
 90
       13
 70
     0
 43
0.0
 10
1666.407030411519
 20
1142.31036299848
 10
1666.44808344721
 20
1142.31600779088
 10
1666.596340887459
 20
1142.42428517251
 10
1666.611082659359
 20
1142.44154610797
 10
1666.71119608503
 20
1142.59260261883
 10
1666.78593127045
 20
1142.75261615565
 10
1666.82941016734
 20
1142.858234420189
 10
1666.89313567501
 20
1143.0243592612
 10
1666.953035786169
 20
1143.1929099634
 10
1667.00957701259
 20
1143.36328006151
 10
1667.06341247075
 20
1143.534816439029
 10
1667.115101974779
 20
1143.70695928186
 10
1667.16520533879
 20
1143.8790554735
  0
LWPOLYLINE
  5
238
330
70
100
AcDbEntity
  8
Camada 1
 62
    18
420
        0
370
    35
100
AcDbPolyline
 90
       13
 70
     0
 43
0.0
 10
803.6618106446349
 20
1142.31036299848
 10
803.6208275857134
 20
1142.31600779088
 10
803.4725234942925
 20
1142.42428517251
 10
803.4578283735646
 20
1142.44154610797
 10
803.357621645544
 20
1142.59260261883
 10
803.2828864601233
 20
1142.75261615565
 10
803.2394542144139
 20
1142.858234420189
 10
803.1757053811542
 20
1143.0243592612
 10
803.1158519211704
 20
1143.1929099634
 10
803.0593106947453
 20
1143.36328006151
 10
803.0054752365831
 20
1143.534816439029
 10
802.9538090581445
 20
1143.70695928186
 10
802.9036823685492
 20
1143.8790554735
  0
LINE
  5
239
330
70
100
AcDbEntity
  8
Camada 1
 62
    18
420
        0
370
    35
100
AcDbLine
 10
1213.36499550106
 20
1017.47699944081
 30
0.0
 11
1213.36499550106
 21
1022.50063142717
 31
0.0
  0
LINE
  5
23A
330
70
100
AcDbEntity
  8
Camada 1
 62
    18
420
        0
370
    18
100
AcDbLine
 10
1216.900128385519
 20
1021.75048050233
 30
0.0
 11
1216.900128385519
 21
1021.34237600666
 31
0.0
  0
LINE
  5
23B
330
70
100
AcDbEntity
  8
Camada 1
 62
    18
420
        0
370
    18
100
AcDbLine
 10
1217.99783057839
 20
1021.03970317082
 30
0.0
 11
1217.99783057839
 21
1018.07814650657
 31
0.0
  0
LINE
  5
23C
330
70
100
AcDbEntity
  8
Camada 1
 62
    18
420
        0
370
    18
100
AcDbLine
 10
1218.781383745891
 20
1017.77435404248
 30
0.0
 11
1218.781383745891
 21
1021.03970317082
 31
0.0
  0
LINE
  5
23D
330
70
100
AcDbEntity
  8
Camada 1
 62
    18
420
        0
370
    18
100
AcDbLine
 10
1219.879085938759
 20
1021.03970317082
 30
0.0
 11
1219.879085938759
 21
1021.75048050233
 31
0.0
  0
LINE
  5
23E
330
70
100
AcDbEntity
  8
Camada 1
 62
    18
420
        0
370
    18
100
AcDbLine
 10
1220.353201849779
 20
1021.75048050233
 30
0.0
 11
1220.353201849779
 21
1018.07814650657
 31
0.0
  0
LINE
  5
23F
330
70
100
AcDbEntity
  8
Camada 1
 62
    18
420
        0
370
    18
100
AcDbLine
 10
1221.0977079822
 20
1017.77435404248
 30
0.0
 11
1221.0977079822
 21
1019.2418134636
 31
0.0
  0
LINE
  5
240
330
70
100
AcDbEntity
  8
Camada 1
 62
    18
420
        0
370
    18
100
AcDbLine
 10
1221.0977079822
 20
1019.91918855244
 30
0.0
 11
1221.0977079822
 21
1021.067087411669
 31
0.0
  0
LINE
  5
241
330
70
100
AcDbEntity
  8
Camada 1
 62
    18
420
        0
370
    18
100
AcDbLine
 10
1236.925286030901
 20
1021.75048050233
 30
0.0
 11
1236.925286030901
 21
1018.07814650657
 31
0.0
  0
LINE
  5
242
330
70
100
AcDbEntity
  8
Camada 1
 62
    18
420
        0
370
    18
100
AcDbLine
 10
1237.648425924301
 20
1017.77435404248
 30
0.0
 11
1237.648425924301
 21
1020.53726999542
 31
0.0
  0
LINE
  5
243
330
70
100
AcDbEntity
  8
Camada 1
 62
    18
420
        0
370
    18
100
AcDbLine
 10
1228.140496207919
 20
1017.77435404248
 30
0.0
 11
1228.49840403722
 21
1020.504054357449
 31
0.0
  0
LINE
  5
244
330
70
100
AcDbEntity
  8
Camada 1
 62
    18
420
        0
370
    18
100
AcDbLine
 10
1228.008240121349
 20
1021.75048050233
 30
0.0
 11
1227.39034528308
 21
1017.77435404248
 31
0.0
  0
LINE
  5
245
330
70
100
AcDbEntity
  8
Camada 1
 62
    18
420
        0
370
    18
100
AcDbLine
 10
1224.141603973719
 20
1017.77435404248
 30
0.0
 11
1224.450248160199
 21
1018.65130286618
 31
0.0
  0
LINE
  5
246
330
70
100
AcDbEntity
  8
Camada 1
 62
    18
420
        0
370
    18
100
AcDbLine
 10
1224.699085537879
 20
1019.34579893695
 30
0.0
 11
1225.25530752027
 21
1020.89597089474
 31
0.0
  0
LINE
  5
247
330
70
100
AcDbEntity
  8
Camada 1
 62
    18
420
        0
370
    18
100
AcDbLine
 10
1230.05384757801
 20
1018.10529749153
 30
0.0
 11
1230.9471709648
 21
1020.46066876292
 31
0.0
  0
LINE
  5
248
330
70
100
AcDbEntity
  8
Camada 1
 62
    18
420
        0
370
    18
100
AcDbLine
 10
1230.771156074301
 20
1021.75048050233
 30
0.0
 11
1229.739651901469
 21
1019.04881754469
 31
0.0
  0
LINE
  5
249
330
70
100
AcDbEntity
  8
Camada 1
 62
    18
420
        0
370
    18
100
AcDbLine
 10
1224.88625005968
 20
1021.75048050233
 30
0.0
 11
1223.36369559862
 21
1017.77435404248
 31
0.0
  0
LINE
  5
24A
330
70
100
AcDbEntity
  8
Camada 1
 62
    18
420
        0
370
    35
100
AcDbLine
 10
1254.80029093216
 20
1015.58006928498
 30
0.0
 11
1215.26206561041
 21
1015.58006928498
 31
0.0
  0
LINE
  5
24B
330
70
100
AcDbEntity
  8
Camada 1
 62
    18
420
        0
370
    18
100
AcDbLine
 10
1218.301576391299
 20
1017.77435404248
 30
0.0
 11
1218.781383745891
 21
1017.77435404248
 31
0.0
  0
LINE
  5
24C
330
70
100
AcDbEntity
  8
Camada 1
 62
    18
420
        0
370
    18
100
AcDbLine
 10
1220.65676105798
 20
1017.77435404248
 30
0.0
 11
1221.0977079822
 21
1017.77435404248
 31
0.0
  0
LINE
  5
24D
330
70
100
AcDbEntity
  8
Camada 1
 62
    18
420
        0
370
    18
100
AcDbLine
 10
1222.624647653891
 20
1017.77435404248
 30
0.0
 11
1223.221036299599
 21
1017.77435404248
 31
0.0
  0
LINE
  5
24E
330
70
100
AcDbEntity
  8
Camada 1
 62
    18
420
        0
370
    18
100
AcDbLine
 10
1223.36369559862
 20
1017.77435404248
 30
0.0
 11
1224.141603973719
 21
1017.77435404248
 31
0.0
  0
LINE
  5
24F
330
70
100
AcDbEntity
  8
Camada 1
 62
    18
420
        0
370
    18
100
AcDbLine
 10
1226.639634544121
 20
1017.77435404248
 30
0.0
 11
1227.17542331102
 21
1017.77435404248
 31
0.0
  0
LINE
  5
250
330
70
100
AcDbEntity
  8
Camada 1
 62
    18
420
        0
370
    18
100
AcDbLine
 10
1227.39034528308
 20
1017.77435404248
 30
0.0
 11
1228.140496207919
 21
1017.77435404248
 31
0.0
  0
LINE
  5
251
330
70
100
AcDbEntity
  8
Camada 1
 62
    18
420
        0
370
    18
100
AcDbLine
 10
1231.625665681889
 20
1017.77435404248
 30
0.0
 11
1232.08373358805
 21
1017.77435404248
 31
0.0
  0
LINE
  5
252
330
70
100
AcDbEntity
  8
Camada 1
 62
    18
420
        0
370
    18
100
AcDbLine
 10
1237.229218448519
 20
1017.77435404248
 30
0.0
 11
1237.648425924301
 21
1017.77435404248
 31
0.0
  0
LINE
  5
253
330
70
100
AcDbEntity
  8
Camada 1
 62
    18
420
        0
370
    18
100
AcDbLine
 10
1239.848588730079
 20
1017.77435404248
 30
0.0
 11
1240.273254393571
 21
1017.77435404248
 31
0.0
  0
LINE
  5
254
330
70
100
AcDbEntity
  8
Camada 1
 62
    18
420
        0
370
    18
100
AcDbLine
 10
1242.14867835683
 20
1017.77435404248
 30
0.0
 11
1242.62843906025
 21
1017.77435404248
 31
0.0
  0
LINE
  5
255
330
70
100
AcDbEntity
  8
Camada 1
 62
    18
420
        0
370
    18
100
AcDbLine
 10
1244.53595903323
 20
1017.77435404248
 30
0.0
 11
1245.015766387831
 21
1017.77435404248
 31
0.0
  0
LINE
  5
256
330
70
100
AcDbEntity
  8
Camada 1
 62
    18
420
        0
370
    18
100
AcDbLine
 10
1246.074608150329
 20
1017.77435404248
 30
0.0
 11
1246.4938156261
 21
1017.77435404248
 31
0.0
  0
LINE
  5
257
330
70
100
AcDbEntity
  8
Camada 1
 62
    18
420
        0
370
    18
100
AcDbLine
 10
1248.694678199539
 20
1017.77435404248
 30
0.0
 11
1249.119717072441
 21
1017.77435404248
 31
0.0
  0
LINE
  5
258
330
70
100
AcDbEntity
  8
Camada 1
 62
    18
420
        0
370
    18
100
AcDbLine
 10
1249.54372961945
 20
1017.77435404248
 30
0.0
 11
1250.32159134337
 21
1017.77435404248
 31
0.0
  0
LINE
  5
259
330
70
100
AcDbEntity
  8
Camada 1
 62
    18
420
        0
370
    18
100
AcDbLine
 10
1252.819481960239
 20
1017.77435404248
 30
0.0
 11
1253.35508412243
 21
1017.77435404248
 31
0.0
  0
LINE
  5
25A
330
70
100
AcDbEntity
  8
Camada 1
 62
    18
420
        0
370
    18
100
AcDbLine
 10
1229.69514667869
 20
1018.10529749153
 30
0.0
 11
1230.05384757801
 21
1018.10529749153
 31
0.0
  0
LINE
  5
25B
330
70
100
AcDbEntity
  8
Camada 1
 62
    18
420
        0
370
    18
100
AcDbLine
 10
1224.450248160199
 20
1018.65130286618
 30
0.0
 11
1226.060600136219
 21
1018.65130286618
 31
0.0
  0
LINE
  5
25C
330
70
100
AcDbEntity
  8
Camada 1
 62
    18
420
        0
370
    18
100
AcDbLine
 10
1250.63102859986
 20
1018.65130286618
 30
0.0
 11
1252.24044755234
 21
1018.65130286618
 31
0.0
  0
LINE
  5
25D
330
70
100
AcDbEntity
  8
Camada 1
 62
    18
420
        0
370
    18
100
AcDbLine
 10
1221.0977079822
 20
1019.2418134636
 30
0.0
 11
1221.61068432359
 21
1019.2418134636
 31
0.0
  0
LINE
  5
25E
330
70
100
AcDbEntity
  8
Camada 1
 62
    18
420
        0
370
    18
100
AcDbLine
 10
1251.99230994231
 20
1019.34579893695
 30
0.0
 11
1250.878793000469
 21
1019.34579893695
 31
0.0
  0
LINE
  5
25F
330
70
100
AcDbEntity
  8
Camada 1
 62
    18
420
        0
370
    18
100
AcDbLine
 10
1225.812835735611
 20
1019.34579893695
 30
0.0
 11
1224.699085537879
 21
1019.34579893695
 31
0.0
  0
LINE
  5
260
330
70
100
AcDbEntity
  8
Camada 1
 62
    18
420
        0
370
    18
100
AcDbLine
 10
1221.616375767169
 20
1019.91918855244
 30
0.0
 11
1221.0977079822
 21
1019.91918855244
 31
0.0
  0
LINE
  5
261
330
70
100
AcDbEntity
  8
Camada 1
 62
    18
420
        0
370
    18
100
AcDbLine
 10
1217.203874198431
 20
1021.03970317082
 30
0.0
 11
1217.99783057839
 21
1021.03970317082
 31
0.0
  0
LINE
  5
262
330
70
100
AcDbEntity
  8
Camada 1
 62
    18
420
        0
370
    18
100
AcDbLine
 10
1218.781383745891
 20
1021.03970317082
 30
0.0
 11
1219.879085938759
 21
1021.03970317082
 31
0.0
  0
LINE
  5
263
330
70
100
AcDbEntity
  8
Camada 1
 62
    18
420
        0
370
    18
100
AcDbLine
 10
1241.050789559249
 20
1021.03970317082
 30
0.0
 11
1241.84474593921
 21
1021.03970317082
 31
0.0
  0
LINE
  5
264
330
70
100
AcDbEntity
  8
Camada 1
 62
    18
420
        0
370
    18
100
AcDbLine
 10
1242.62843906025
 20
1021.03970317082
 30
0.0
 11
1243.725954648409
 21
1021.03970317082
 31
0.0
  0
LINE
  5
265
330
70
100
AcDbEntity
  8
Camada 1
 62
    18
420
        0
370
    18
100
AcDbLine
 10
1221.0977079822
 20
1021.067087411669
 30
0.0
 11
1221.616375767169
 21
1021.067087411669
 31
0.0
  0
LINE
  5
266
330
70
100
AcDbEntity
  8
Camada 1
 62
    18
420
        0
370
    18
100
AcDbLine
 10
1251.82226640245
 20
1021.75048050233
 30
0.0
 11
1251.0662840805
 21
1021.75048050233
 31
0.0
  0
LINE
  5
267
330
70
100
AcDbEntity
  8
Camada 1
 62
    18
420
        0
370
    18
100
AcDbLine
 10
1249.119717072441
 20
1021.75048050233
 30
0.0
 11
1248.396577179039
 21
1021.75048050233
 31
0.0
  0
LINE
  5
268
330
70
100
AcDbEntity
  8
Camada 1
 62
    18
420
        0
370
    18
100
AcDbLine
 10
1246.477814272421
 20
1021.75048050233
 30
0.0
 11
1245.77212191919
 21
1021.75048050233
 31
0.0
  0
LINE
  5
269
330
70
100
AcDbEntity
  8
Camada 1
 62
    18
420
        0
370
    18
100
AcDbLine
 10
1245.015766387831
 20
1021.75048050233
 30
0.0
 11
1244.2334728021
 21
1021.75048050233
 31
0.0
  0
LINE
  5
26A
330
70
100
AcDbEntity
  8
Camada 1
 62
    18
420
        0
370
    18
100
AcDbLine
 10
1243.725954648409
 20
1021.75048050233
 30
0.0
 11
1240.747603560459
 21
1021.75048050233
 31
0.0
  0
LINE
  5
26B
330
70
100
AcDbEntity
  8
Camada 1
 62
    18
420
        0
370
    18
100
AcDbLine
 10
1240.273254393571
 20
1021.75048050233
 30
0.0
 11
1239.550487709581
 21
1021.75048050233
 31
0.0
  0
LINE
  5
26C
330
70
100
AcDbEntity
  8
Camada 1
 62
    18
420
        0
370
    18
100
AcDbLine
 10
1237.631678151791
 20
1021.75048050233
 30
0.0
 11
1236.925286030901
 21
1021.75048050233
 31
0.0
  0
LINE
  5
26D
330
70
100
AcDbEntity
  8
Camada 1
 62
    18
420
        0
370
    18
100
AcDbLine
 10
1231.46565214507
 20
1021.75048050233
 30
0.0
 11
1230.771156074301
 21
1021.75048050233
 31
0.0
  0
LINE
  5
26E
330
70
100
AcDbEntity
  8
Camada 1
 62
    18
420
        0
370
    18
100
AcDbLine
 10
1228.70838098453
 20
1021.75048050233
 30
0.0
 11
1228.008240121349
 21
1021.75048050233
 31
0.0
  0
LINE
  5
26F
330
70
100
AcDbEntity
  8
Camada 1
 62
    18
420
        0
370
    18
100
AcDbLine
 10
1225.64171921868
 20
1021.75048050233
 30
0.0
 11
1224.88625005968
 21
1021.75048050233
 31
0.0
  0
LINE
  5
270
330
70
100
AcDbEntity
  8
Camada 1
 62
    18
420
        0
370
    18
100
AcDbLine
 10
1221.682387182511
 20
1021.75048050233
 30
0.0
 11
1220.353201849779
 21
1021.75048050233
 31
0.0
  0
LINE
  5
271
330
70
100
AcDbEntity
  8
Camada 1
 62
    18
420
        0
370
    18
100
AcDbLine
 10
1219.879085938759
 20
1021.75048050233
 30
0.0
 11
1216.900128385519
 21
1021.75048050233
 31
0.0
  0
LINE
  5
272
330
70
100
AcDbEntity
  8
Camada 1
 62
    18
420
        0
370
    18
100
AcDbLine
 10
1237.648425924301
 20
1020.53726999542
 30
0.0
 11
1239.374612772601
 21
1018.05034240512
 31
0.0
  0
LINE
  5
273
330
70
100
AcDbEntity
  8
Camada 1
 62
    18
420
        0
370
    18
100
AcDbLine
 10
1239.550487709581
 20
1018.93806765069
 30
0.0
 11
1237.631678151791
 21
1021.75048050233
 31
0.0
  0
LINE
  5
274
330
70
100
AcDbEntity
  8
Camada 1
 62
    18
420
        0
370
    18
100
AcDbLine
 10
1223.221036299599
 20
1017.77435404248
 30
0.0
 11
1222.31087183794
 21
1019.38465936732
 31
0.0
  0
LINE
  5
275
330
70
100
AcDbEntity
  8
Camada 1
 62
    18
420
        0
370
    18
100
AcDbLine
 10
1221.61068432359
 20
1019.2418134636
 30
0.0
 11
1222.24444056201
 21
1018.000425645819
 31
0.0
  0
LINE
  5
276
330
70
100
AcDbEntity
  8
Camada 1
 62
    18
420
        0
370
    18
100
AcDbLine
 10
1227.17542331102
 20
1017.77435404248
 30
0.0
 11
1225.64171921868
 21
1021.75048050233
 31
0.0
  0
LINE
  5
277
330
70
100
AcDbEntity
  8
Camada 1
 62
    18
420
        0
370
    18
100
AcDbLine
 10
1228.49840403722
 20
1020.504054357449
 30
0.0
 11
1229.309154840879
 21
1018.39224888075
 31
0.0
  0
LINE
  5
278
330
70
100
AcDbEntity
  8
Camada 1
 62
    18
420
        0
370
    18
100
AcDbLine
 10
1229.739651901469
 20
1019.04881754469
 30
0.0
 11
1228.70838098453
 21
1021.75048050233
 31
0.0
  0
LINE
  5
279
330
70
100
AcDbEntity
  8
Camada 1
 62
    18
420
        0
370
    18
100
AcDbLine
 10
1226.060600136219
 20
1018.65130286618
 30
0.0
 11
1226.28130685422
 21
1018.04488421742
 31
0.0
  0
LINE
  5
27A
330
70
100
AcDbEntity
  8
Camada 1
 62
    18
420
        0
370
    18
100
AcDbLine
 10
1225.25530752027
 20
1020.89597089474
 30
0.0
 11
1225.812835735611
 21
1019.34579893695
 31
0.0
  0
LINE
  5
27B
330
70
100
AcDbEntity
  8
Camada 1
 62
    18
420
        0
370
    18
100
AcDbLine
 10
1232.08373358805
 20
1017.77435404248
 30
0.0
 11
1231.46565214507
 21
1021.75048050233
 31
0.0
  0
LINE
  5
27C
330
70
100
AcDbEntity
  8
Camada 1
 62
    18
420
        0
370
    18
100
AcDbLine
 10
1230.9471709648
 20
1020.46066876292
 30
0.0
 11
1231.26696478257
 21
1018.06643706116
 31
0.0
  0
LINE
  5
27D
330
70
100
AcDbEntity
  8
Camada 1
 62
    18
420
        0
370
    18
100
AcDbLine
 10
1239.550487709581
 20
1021.75048050233
 30
0.0
 11
1239.550487709581
 21
1018.93806765069
 31
0.0
  0
LINE
  5
27E
330
70
100
AcDbEntity
  8
Camada 1
 62
    18
420
        0
370
    18
100
AcDbLine
 10
1240.273254393571
 20
1017.77435404248
 30
0.0
 11
1240.273254393571
 21
1021.75048050233
 31
0.0
  0
LINE
  5
27F
330
70
100
AcDbEntity
  8
Camada 1
 62
    18
420
        0
370
    18
100
AcDbLine
 10
1240.747603560459
 20
1021.75048050233
 30
0.0
 11
1240.747603560459
 21
1021.34237600666
 31
0.0
  0
LINE
  5
280
330
70
100
AcDbEntity
  8
Camada 1
 62
    18
420
        0
370
    18
100
AcDbLine
 10
1241.84474593921
 20
1021.03970317082
 30
0.0
 11
1241.84474593921
 21
1018.07814650657
 31
0.0
  0
LINE
  5
281
330
70
100
AcDbEntity
  8
Camada 1
 62
    18
420
        0
370
    18
100
AcDbLine
 10
1242.62843906025
 20
1017.77435404248
 30
0.0
 11
1242.62843906025
 21
1021.03970317082
 31
0.0
  0
LINE
  5
282
330
70
100
AcDbEntity
  8
Camada 1
 62
    18
420
        0
370
    18
100
AcDbLine
 10
1243.725954648409
 20
1021.03970317082
 30
0.0
 11
1243.725954648409
 21
1021.75048050233
 31
0.0
  0
LINE
  5
283
330
70
100
AcDbEntity
  8
Camada 1
 62
    18
420
        0
370
    18
100
AcDbLine
 10
1244.2334728021
 20
1021.75048050233
 30
0.0
 11
1244.2334728021
 21
1018.07814650657
 31
0.0
  0
LINE
  5
284
330
70
100
AcDbEntity
  8
Camada 1
 62
    18
420
        0
370
    18
100
AcDbLine
 10
1245.015766387831
 20
1017.77435404248
 30
0.0
 11
1245.015766387831
 21
1021.75048050233
 31
0.0
  0
LINE
  5
285
330
70
100
AcDbEntity
  8
Camada 1
 62
    18
420
        0
370
    18
100
AcDbLine
 10
1245.77212191919
 20
1021.75048050233
 30
0.0
 11
1245.77212191919
 21
1018.07814650657
 31
0.0
  0
LINE
  5
286
330
70
100
AcDbEntity
  8
Camada 1
 62
    18
420
        0
370
    18
100
AcDbLine
 10
1246.4938156261
 20
1017.77435404248
 30
0.0
 11
1246.4938156261
 21
1020.53726999542
 31
0.0
  0
LINE
  5
287
330
70
100
AcDbEntity
  8
Camada 1
 62
    18
420
        0
370
    18
100
AcDbLine
 10
1248.396577179039
 20
1021.75048050233
 30
0.0
 11
1248.396577179039
 21
1018.93806765069
 31
0.0
  0
LINE
  5
288
330
70
100
AcDbEntity
  8
Camada 1
 62
    18
420
        0
370
    18
100
AcDbLine
 10
1249.119717072441
 20
1017.77435404248
 30
0.0
 11
1249.119717072441
 21
1021.75048050233
 31
0.0
  0
LINE
  5
289
330
70
100
AcDbEntity
  8
Camada 1
 62
    18
420
        0
370
    35
100
AcDbLine
 10
1256.697221087979
 20
1022.50063142717
 30
0.0
 11
1256.697221087979
 21
1017.47699944081
 31
0.0
  0
LINE
  5
28A
330
70
100
AcDbEntity
  8
Camada 1
 62
    18
420
        0
370
    18
100
AcDbLine
 10
1250.32159134337
 20
1017.77435404248
 30
0.0
 11
1250.63102859986
 21
1018.65130286618
 31
0.0
  0
LINE
  5
28B
330
70
100
AcDbEntity
  8
Camada 1
 62
    18
420
        0
370
    18
100
AcDbLine
 10
1250.878793000469
 20
1019.34579893695
 30
0.0
 11
1251.43590135522
 21
1020.89597089474
 31
0.0
  0
LINE
  5
28C
330
70
100
AcDbEntity
  8
Camada 1
 62
    18
420
        0
370
    18
100
AcDbLine
 10
1251.0662840805
 20
1021.75048050233
 30
0.0
 11
1249.54372961945
 21
1017.77435404248
 31
0.0
  0
LINE
  5
28D
330
70
100
AcDbEntity
  8
Camada 1
 62
    18
420
        0
370
    35
100
AcDbLine
 10
1215.26206561041
 20
1024.397888141229
 30
0.0
 11
1254.80029093216
 21
1024.397888141229
 31
0.0
  0
LINE
  5
28E
330
70
100
AcDbEntity
  8
Camada 1
 62
    18
420
        0
370
    18
100
AcDbLine
 10
1246.4938156261
 20
1020.53726999542
 30
0.0
 11
1248.22074889324
 21
1018.05034240512
 31
0.0
  0
LINE
  5
28F
330
70
100
AcDbEntity
  8
Camada 1
 62
    18
420
        0
370
    18
100
AcDbLine
 10
1248.396577179039
 20
1018.93806765069
 30
0.0
 11
1246.477814272421
 21
1021.75048050233
 31
0.0
  0
LINE
  5
290
330
70
100
AcDbEntity
  8
Camada 1
 62
    18
420
        0
370
    18
100
AcDbLine
 10
1253.35508412243
 20
1017.77435404248
 30
0.0
 11
1251.82226640245
 21
1021.75048050233
 31
0.0
  0
LINE
  5
291
330
70
100
AcDbEntity
  8
Camada 1
 62
    18
420
        0
370
    18
100
AcDbLine
 10
1252.24044755234
 20
1018.65130286618
 30
0.0
 11
1252.46190068917
 21
1018.04488421742
 31
0.0
  0
LINE
  5
292
330
70
100
AcDbEntity
  8
Camada 1
 62
    18
420
        0
370
    18
100
AcDbLine
 10
1251.43590135522
 20
1020.89597089474
 30
0.0
 11
1251.99230994231
 21
1019.34579893695
 31
0.0
  0
LWPOLYLINE
  5
293
330
70
100
AcDbEntity
  8
Camada 1
 62
    18
420
        0
370
    18
100
AcDbPolyline
 90
       11
 70
     0
 43
0.0
 10
1221.616375767169
 20
1021.067087411669
 10
1221.701467513871
 20
1021.06293545692
 10
1221.786745865269
 20
1021.049733173859
 10
1221.870018216079
 20
1021.02645423658
 10
1221.9491852633
 20
1020.991932365659
 10
1222.022101052829
 20
1020.94509458403
 10
1222.08657297932
 20
1020.88486791463
 10
1222.140455088669
 20
1020.810132729209
 10
1222.181601426709
 20
1020.719816050699
 10
1222.207866039309
 20
1020.612844902029
 10
1222.217102972339
 20
1020.48805300377
  0
LWPOLYLINE
  5
294
330
70
100
AcDbEntity
  8
Camada 1
 62
    18
420
        0
370
    18
100
AcDbPolyline
 90
       11
 70
     0
 43
0.0
 10
1244.2334728021
 20
1018.07814650657
 10
1244.23631852389
 20
1018.01852630247
 10
1244.24490234044
 20
1017.96576382137
 10
1244.259364205291
 20
1017.91976576093
 10
1244.27984407195
 20
1017.88034551643
 10
1244.306481893969
 20
1017.84736313436
 10
1244.33932432252
 20
1017.82072531233
 10
1244.37860461349
 20
1017.80024544567
 10
1244.42436941804
 20
1017.78578358082
 10
1244.4768053409
 20
1017.77719976427
 10
1244.53595903323
 20
1017.77435404248
  0
LWPOLYLINE
  5
295
330
70
100
AcDbEntity
  8
Camada 1
 62
    18
420
        0
370
    18
100
AcDbPolyline
 90
       11
 70
     0
 43
0.0
 10
1216.900128385519
 20
1021.34237600666
 10
1216.90297410731
 20
1021.28312901198
 10
1216.91155792386
 20
1021.23069308912
 10
1216.926066439881
 20
1021.184881633389
 10
1216.946592957731
 20
1021.14560134243
 10
1216.973277430919
 20
1021.1127122627
 10
1217.00625981301
 20
1021.08607444068
 10
1217.045680057499
 20
1021.06559457401
 10
1217.09167811794
 20
1021.05113270917
 10
1217.14434729668
 20
1021.04254889261
 10
1217.203874198431
 20
1021.03970317082
  0
LWPOLYLINE
  5
296
330
70
100
AcDbEntity
  8
Camada 1
 62
    18
420
        0
370
    18
100
AcDbPolyline
 90
       11
 70
     0
 43
0.0
 10
1217.99783057839
 20
1018.07814650657
 10
1218.00067630018
 20
1018.01852630247
 10
1218.009260116731
 20
1017.96576382137
 10
1218.023768632749
 20
1017.91976576093
 10
1218.044295150599
 20
1017.88034551643
 10
1218.07097962379
 20
1017.84736313436
 10
1218.10396200588
 20
1017.82072531233
 10
1218.143382250369
 20
1017.80024544567
 10
1218.18933365964
 20
1017.78578358082
 10
1218.24204948955
 20
1017.77719976427
 10
1218.301576391299
 20
1017.77435404248
  0
LWPOLYLINE
  5
297
330
70
100
AcDbEntity
  8
Camada 1
 62
    18
420
        0
370
    18
100
AcDbPolyline
 90
       11
 70
     0
 43
0.0
 10
1240.747603560459
 20
1021.34237600666
 10
1240.75040263108
 20
1021.28312901198
 10
1240.75898644763
 20
1021.23069308912
 10
1240.77344831248
 20
1021.184881633389
 10
1240.79388152797
 20
1021.14560134243
 10
1240.820519349991
 20
1021.1127122627
 10
1240.853455080891
 20
1021.08607444068
 10
1240.892782023029
 20
1021.06559457401
 10
1240.938686781119
 20
1021.05113270917
 10
1240.991355959861
 20
1021.04254889261
 10
1241.050789559249
 20
1021.03970317082
  0
LWPOLYLINE
  5
298
330
70
100
AcDbEntity
  8
Camada 1
 62
    18
420
        0
370
    18
100
AcDbPolyline
 90
       11
 70
     0
 43
0.0
 10
1241.84474593921
 20
1018.07814650657
 10
1241.847591661
 20
1018.01852630247
 10
1241.856175477551
 20
1017.96576382137
 10
1241.87068399358
 20
1017.91976576093
 10
1241.891210511419
 20
1017.88034551643
 10
1241.917894984621
 20
1017.84736313436
 10
1241.9508773667
 20
1017.82072531233
 10
1241.990344262369
 20
1017.80024544567
 10
1242.03634232281
 20
1017.78578358082
 10
1242.089058152731
 20
1017.77719976427
 10
1242.14867835683
 20
1017.77435404248
  0
LWPOLYLINE
  5
299
330
70
100
AcDbEntity
  8
Camada 1
 62
    18
420
        0
370
    18
100
AcDbPolyline
 90
       11
 70
     0
 43
0.0
 10
1252.46190068917
 20
1018.04488421742
 10
1252.48317362584
 20
1017.9931947134
 10
1252.50715233077
 20
1017.94701004825
 10
1252.534116711031
 20
1017.90633022198
 10
1252.56420672015
 20
1017.87120188576
 10
1252.597562311639
 20
1017.84148508606
 10
1252.634370090231
 20
1017.81727312524
 10
1252.674816660619
 20
1017.79847270094
 10
1252.71899532516
 20
1017.78508381317
 10
1252.767185990909
 20
1017.77705981074
 10
1252.819481960239
 20
1017.77435404248
  0
LWPOLYLINE
  5
29A
330
70
100
AcDbEntity
  8
Camada 1
 62
    18
420
        0
370
    18
100
AcDbPolyline
 90
       11
 70
     0
 43
0.0
 10
1226.28130685422
 20
1018.04488421742
 10
1226.30253313972
 20
1017.9931947134
 10
1226.32655849583
 20
1017.94701004825
 10
1226.353569527269
 20
1017.90633022198
 10
1226.383706187549
 20
1017.87115523458
 10
1226.41720173258
 20
1017.84148508606
 10
1226.454102813521
 20
1017.81727312524
 10
1226.494642686261
 20
1017.79847270094
 10
1226.539007955511
 20
1017.78508381317
 10
1226.58724527245
 20
1017.77705981074
 10
1226.639634544121
 20
1017.77435404248
  0
LWPOLYLINE
  5
29B
330
70
100
AcDbEntity
  8
Camada 1
 62
    18
420
        0
370
    18
100
AcDbPolyline
 90
       11
 70
     0
 43
0.0
 10
1239.374612772601
 20
1018.05034240512
 10
1239.415852413
 20
1017.994407643999
 10
1239.457278658099
 20
1017.945423908229
 10
1239.499264717329
 20
1017.90320459312
 10
1239.54232375362
 20
1017.8674697916
 10
1239.58692227876
 20
1017.83793959661
 10
1239.633480153319
 20
1017.8143341011
 10
1239.682463889079
 20
1017.79646670034
 10
1239.73433999782
 20
1017.784010836099
 10
1239.789574991289
 20
1017.7767332525
 10
1239.848588730079
 20
1017.77435404248
  0
LWPOLYLINE
  5
29C
330
70
100
AcDbEntity
  8
Camada 1
 62
    18
420
        0
370
    18
100
AcDbPolyline
 90
       11
 70
     0
 43
0.0
 10
1236.925286030901
 20
1018.07814650657
 10
1236.928131752689
 20
1018.01852630247
 10
1236.936715569251
 20
1017.96576382137
 10
1236.951224085271
 20
1017.91976576093
 10
1236.97175060311
 20
1017.88034551643
 10
1236.99843507631
 20
1017.84736313436
 10
1237.031417458391
 20
1017.82072531233
 10
1237.07088435406
 20
1017.80024544567
 10
1237.116882414501
 20
1017.78578358082
 10
1237.169644895599
 20
1017.77719976427
 10
1237.229218448519
 20
1017.77435404248
  0
LWPOLYLINE
  5
29D
330
70
100
AcDbEntity
  8
Camada 1
 62
    18
420
        0
370
    18
100
AcDbPolyline
 90
       11
 70
     0
 43
0.0
 10
1248.22074889324
 20
1018.05034240512
 10
1248.26198853363
 20
1017.994407643999
 10
1248.30332147638
 20
1017.945423908229
 10
1248.345260884431
 20
1017.90320459312
 10
1248.388273269549
 20
1017.8674697916
 10
1248.43277849233
 20
1017.83793959661
 10
1248.47928971572
 20
1017.81438075227
 10
1248.52827345148
 20
1017.79646670034
 10
1248.58014956021
 20
1017.784010836099
 10
1248.635477856031
 20
1017.7767332525
 10
1248.694678199539
 20
1017.77435404248
  0
LWPOLYLINE
  5
29E
330
70
100
AcDbEntity
  8
Camada 1
 62
    18
420
        0
370
    18
100
AcDbPolyline
 90
       11
 70
     0
 43
0.0
 10
1245.77212191919
 20
1018.07814650657
 10
1245.77496764098
 20
1018.01852630247
 10
1245.78355145754
 20
1017.96576382137
 10
1245.798013322379
 20
1017.91976576093
 10
1245.81849318905
 20
1017.88034551643
 10
1245.84513101107
 20
1017.84736313436
 10
1245.877973439619
 20
1017.82072531233
 10
1245.91725373058
 20
1017.80024544567
 10
1245.96301853514
 20
1017.78578358082
 10
1246.015454457989
 20
1017.77719976427
 10
1246.074608150329
 20
1017.77435404248
  0
LWPOLYLINE
  5
29F
330
70
100
AcDbEntity
  8
Camada 1
 62
    18
420
        0
370
    18
100
AcDbPolyline
 90
       11
 70
     0
 43
0.0
 10
1222.31087183794
 20
1019.38465936732
 10
1222.426193547289
 20
1019.44852482852
 10
1222.533304649491
 20
1019.52377317689
 10
1222.631272121011
 20
1019.610031203
 10
1222.71916293833
 20
1019.706785743929
 10
1222.796044077889
 20
1019.81361693907
 10
1222.86098251616
 20
1019.93001162549
 10
1222.91313853195
 20
1020.05554994257
 10
1222.95153245055
 20
1020.18976537856
 10
1222.97523124843
 20
1020.33219142169
 10
1222.983348553211
 20
1020.48236156019
  0
LWPOLYLINE
  5
2A0
330
70
100
AcDbEntity
  8
Camada 1
 62
    18
420
        0
370
    18
100
AcDbPolyline
 90
       11
 70
     0
 43
0.0
 10
1222.24444056201
 20
1018.000425645819
 10
1222.270098709319
 20
1017.95386777126
 10
1222.29771620605
 20
1017.91337454969
 10
1222.327572959281
 20
1017.878619422889
 10
1222.35999552724
 20
1017.84936913496
 10
1222.395310468169
 20
1017.82534377885
 10
1222.433704386771
 20
1017.80626344749
 10
1222.47555049246
 20
1017.79194153618
 10
1222.52117534349
 20
1017.782004835489
 10
1222.570765544549
 20
1017.77622008955
 10
1222.624647653891
 20
1017.77435404248
  0
LWPOLYLINE
  5
2A1
330
70
100
AcDbEntity
  8
Camada 1
 62
    18
420
        0
370
    18
100
AcDbPolyline
 90
       11
 70
     0
 43
0.0
 10
1220.353201849779
 20
1018.07814650657
 10
1220.356047571569
 20
1018.01852630247
 10
1220.364584736941
 20
1017.96576382137
 10
1220.379046601789
 20
1017.91976576093
 10
1220.399526468449
 20
1017.88034551643
 10
1220.42616429048
 20
1017.84736313436
 10
1220.45910002138
 20
1017.82072531233
 10
1220.498520265879
 20
1017.80024544567
 10
1220.544471675141
 20
1017.78578358082
 10
1220.597187505049
 20
1017.77719976427
 10
1220.65676105798
 20
1017.77435404248
  0
LWPOLYLINE
  5
2A2
330
70
100
AcDbEntity
  8
Camada 1
 62
    18
420
        0
370
    18
100
AcDbPolyline
 90
       11
 70
     0
 43
0.0
 10
1222.983348553211
 20
1020.48236156019
 10
1222.967300548349
 20
1020.70824655882
 10
1222.92050941791
 20
1020.9150512261
 10
1222.84502781365
 20
1021.10174923612
 10
1222.7428617362
 20
1021.267174309469
 10
1222.616017186159
 20
1021.41016016672
 10
1222.466500164141
 20
1021.52972713316
 10
1222.296363321921
 20
1021.62461562701
 10
1222.10765931129
 20
1021.69379932238
 10
1221.902300830499
 20
1021.73611193984
 10
1221.682387182511
 20
1021.75048050233
  0
LWPOLYLINE
  5
2A3
330
70
100
AcDbEntity
  8
Camada 1
 62
    18
420
        0
370
    18
100
AcDbPolyline
 90
       11
 70
     0
 43
0.0
 10
1229.309154840879
 20
1018.39224888075
 10
1229.33360005758
 20
1018.33729379434
 10
1229.36061108901
 20
1018.28821675622
 10
1229.39032788871
 20
1018.24506441757
 10
1229.423030363731
 20
1018.20779012722
 10
1229.45899842114
 20
1018.176300582799
 10
1229.49837201445
 20
1018.15064243549
 10
1229.541431050749
 20
1018.13076903413
 10
1229.588408785899
 20
1018.11658707634
 10
1229.639585126981
 20
1018.10809656214
 10
1229.69514667869
 20
1018.10529749153
  0
LWPOLYLINE
  5
2A4
330
70
100
AcDbEntity
  8
Camada 1
 62
    18
420
        0
370
    18
100
AcDbPolyline
 90
       11
 70
     0
 43
0.0
 10
1231.26696478257
 20
1018.06643706116
 10
1231.278814181511
 20
1018.00751662471
 10
1231.2974280011
 20
1017.95592042304
 10
1231.322293078399
 20
1017.91132189791
 10
1231.3528029481
 20
1017.87344114225
 10
1231.388537749619
 20
1017.84213820254
 10
1231.428844366481
 20
1017.81708652053
 10
1231.473256286899
 20
1017.79800618918
 10
1231.521213696769
 20
1017.78471060376
 10
1231.57220343315
 20
1017.776919857209
 10
1231.625665681889
 20
1017.77435404248
  0
LWPOLYLINE
  5
2A5
330
70
100
AcDbEntity
  8
Camada 1
 62
    18
420
        0
370
    35
100
AcDbPolyline
 90
       11
 70
     0
 43
0.0
 10
1213.36499550106
 20
1022.50063142717
 10
1213.38715481009
 20
1022.83246124858
 10
1213.452186550719
 20
1023.13835301563
 10
1213.558038071151
 20
1023.41625407653
 10
1213.70256341724
 20
1023.66392517479
 10
1213.883569983671
 20
1023.87936030979
 10
1214.098958467501
 20
1024.06036687623
 10
1214.346676216941
 20
1024.20484557114
 10
1214.62448397548
 20
1024.31069709157
 10
1214.93032909135
 20
1024.37572883219
 10
1215.26206561041
 20
1024.397888141229
  0
LWPOLYLINE
  5
2A6
330
70
100
AcDbEntity
  8
Camada 1
 62
    18
420
        0
370
    35
100
AcDbPolyline
 90
       11
 70
     0
 43
0.0
 10
1215.26206561041
 20
1015.58006928498
 10
1214.93032909135
 20
1015.60218194284
 10
1214.62448397548
 20
1015.66716703229
 10
1214.346676216941
 20
1015.77283194801
 10
1214.098958467501
 20
1015.917217340569
 10
1213.883569983671
 20
1016.09808395348
 10
1213.70256341724
 20
1016.31337913495
 10
1213.558038071151
 20
1016.56105023321
 10
1213.452186550719
 20
1016.8389512941
 10
1213.38715481009
 20
1017.14493636351
 10
1213.36499550106
 20
1017.47699944081
  0
LWPOLYLINE
  5
2A7
330
70
100
AcDbEntity
  8
Camada 1
 62
    18
420
        0
370
    35
100
AcDbPolyline
 90
       11
 70
     0
 43
0.0
 10
1256.697221087979
 20
1017.47699944081
 10
1256.67506177894
 20
1017.14493636351
 10
1256.61003003832
 20
1016.8389512941
 10
1256.504178517891
 20
1016.56105023321
 10
1256.35969982298
 20
1016.31337913495
 10
1256.17864660536
 20
1016.09808395348
 10
1255.963258121541
 20
1015.917217340569
 10
1255.71558702328
 20
1015.77283194801
 10
1255.437779264739
 20
1015.66716703229
 10
1255.13198080004
 20
1015.60218194284
 10
1254.80029093216
 20
1015.58006928498
  0
LWPOLYLINE
  5
2A8
330
70
100
AcDbEntity
  8
Camada 1
 62
    18
420
        0
370
    35
100
AcDbPolyline
 90
       11
 70
     0
 43
0.0
 10
1254.80029093216
 20
1024.397888141229
 10
1255.13198080004
 20
1024.37572883219
 10
1255.437779264739
 20
1024.31069709157
 10
1255.71558702328
 20
1024.20484557114
 10
1255.963258121541
 20
1024.06036687623
 10
1256.17864660536
 20
1023.87936030979
 10
1256.35969982298
 20
1023.66392517479
 10
1256.504178517891
 20
1023.41625407653
 10
1256.61003003832
 20
1023.13835301563
 10
1256.67506177894
 20
1022.83246124858
 10
1256.697221087979
 20
1022.50063142717
  0
LWPOLYLINE
  5
2A9
330
70
100
AcDbEntity
  8
Camada 1
 62
    18
420
        0
370
    18
100
AcDbPolyline
 90
       11
 70
     0
 43
0.0
 10
1235.61289512186
 20
1019.7594082715
 10
1235.596473907581
 20
1019.54896481242
 10
1235.5489363583
 20
1019.349064519329
 10
1235.47289493993
 20
1019.16255311401
 10
1235.370962118361
 20
1018.99208971356
 10
1235.24570370834
 20
1018.840333435039
 10
1235.099778826939
 20
1018.71013000027
 10
1234.9357532889
 20
1018.604091875129
 10
1234.756286211301
 20
1018.52501813026
 10
1234.563896757691
 20
1018.47556788272
 10
1234.36124404516
 20
1018.458493551969
  0
LWPOLYLINE
  5
2AA
330
70
100
AcDbEntity
  8
Camada 1
 62
    18
420
        0
370
    18
100
AcDbPolyline
 90
       11
 70
     0
 43
0.0
 10
1234.36124404516
 20
1021.067087411669
 10
1234.563896757691
 20
1021.04982647621
 10
1234.756286211301
 20
1020.99995636809
 10
1234.9357532889
 20
1020.92018285556
 10
1235.099778826939
 20
1020.81335166042
 10
1235.24570370834
 20
1020.68226185328
 10
1235.370962118361
 20
1020.52957255123
 10
1235.47289493993
 20
1020.35822277841
 10
1235.5489363583
 20
1020.17087165191
 10
1235.596473907581
 20
1019.97031824234
 10
1235.61289512186
 20
1019.7594082715
  0
LWPOLYLINE
  5
2AB
330
70
100
AcDbEntity
  8
Camada 1
 62
    18
420
        0
370
    18
100
AcDbPolyline
 90
       11
 70
     0
 43
0.0
 10
1233.114817900279
 20
1019.7594082715
 10
1233.131099161021
 20
1019.97031824234
 10
1233.17821684971
 20
1020.17087165191
 10
1233.253605151611
 20
1020.35822277841
 10
1233.35479155434
 20
1020.52957255123
 10
1233.47921024318
 20
1020.68226185328
 10
1233.62434205457
 20
1020.81335166042
 10
1233.78762117378
 20
1020.92018285556
 10
1233.966575088439
 20
1020.99995636809
 10
1234.15863798381
 20
1021.04982647621
 10
1234.36124404516
 20
1021.067087411669
  0
LWPOLYLINE
  5
2AC
330
70
100
AcDbEntity
  8
Camada 1
 62
    18
420
        0
370
    18
100
AcDbPolyline
 90
       11
 70
     0
 43
0.0
 10
1234.36124404516
 20
1018.458493551969
 10
1234.15863798381
 20
1018.47556788272
 10
1233.966575088439
 20
1018.52501813026
 10
1233.78762117378
 20
1018.604091875129
 10
1233.62434205457
 20
1018.71013000027
 10
1233.47921024318
 20
1018.840333435039
 10
1233.35479155434
 20
1018.99208971356
 10
1233.253605151611
 20
1019.16255311401
 10
1233.17821684971
 20
1019.349064519329
 10
1233.131099161021
 20
1019.54896481242
 10
1233.114817900279
 20
1019.7594082715
  0
LWPOLYLINE
  5
2AD
330
70
100
AcDbEntity
  8
Camada 1
 62
    18
420
        0
370
    18
100
AcDbPolyline
 90
       11
 70
     0
 43
0.0
 10
1236.418467644869
 20
1019.7650530639
 10
1236.39168986932
 20
1020.09744269944
 10
1236.314155613279
 20
1020.41327116717
 10
1236.190110133859
 20
1020.708106605289
 10
1236.023705385789
 20
1020.9777037567
 10
1235.819186626189
 20
1021.21772406193
 10
1235.58079911214
 20
1021.42378231038
 10
1235.312694798391
 20
1021.591586593749
 10
1235.01916559323
 20
1021.716798352609
 10
1234.70436345139
 20
1021.79512567865
 10
1234.37253362997
 20
1021.822183361259
  0
LWPOLYLINE
  5
2AE
330
70
100
AcDbEntity
  8
Camada 1
 62
    18
420
        0
370
    18
100
AcDbPolyline
 90
       11
 70
     0
 43
0.0
 10
1234.34972120446
 20
1017.70227797414
 10
1234.683836933549
 20
1017.72910240087
 10
1235.00129819247
 20
1017.80672995926
 10
1235.297813072961
 20
1017.93110199692
 10
1235.56890306203
 20
1018.09811321029
 10
1235.810322902569
 20
1018.30365829578
 10
1236.01759408162
 20
1018.54358529867
 10
1236.186424690881
 20
1018.81378891538
 10
1236.312429519739
 20
1019.11016384234
 10
1236.39122335755
 20
1019.42865142715
 10
1236.418467644869
 20
1019.7650530639
  0
LWPOLYLINE
  5
2AF
330
70
100
AcDbEntity
  8
Camada 1
 62
    18
420
        0
370
    18
100
AcDbPolyline
 90
       11
 70
     0
 43
0.0
 10
1232.309805191389
 20
1019.75483645616
 10
1232.33639636223
 20
1019.422586774149
 10
1232.41337080415
 20
1019.107131515839
 10
1232.53671651592
 20
1018.81276258948
 10
1232.70218824044
 20
1018.54381855456
 10
1232.905727325329
 20
1018.304498016969
 10
1233.14318181584
 20
1018.099092885
 10
1233.410446408399
 20
1017.93189506693
 10
1233.70336914827
 20
1017.80719647103
 10
1234.01784473187
 20
1017.7292423544
 10
1234.34972120446
 20
1017.70227797414
  0
LWPOLYLINE
  5
2B0
330
70
100
AcDbEntity
  8
Camada 1
 62
    18
420
        0
370
    18
100
AcDbPolyline
 90
       11
 70
     0
 43
0.0
 10
1234.37253362997
 20
1021.822183361259
 10
1234.0386045056
 20
1021.795265632179
 10
1233.72156310727
 20
1021.71726486437
 10
1233.42574799443
 20
1021.59237966376
 10
1233.15545107537
 20
1021.4247619851
 10
1232.91496425836
 20
1021.21856378312
 10
1232.708532800499
 20
1020.977937012579
 10
1232.54054191242
 20
1020.70712693057
 10
1232.41519020005
 20
1020.41019218949
 10
1232.336862873999
 20
1020.09137804644
 10
1232.309805191389
 20
1019.75483645616
  0
LWPOLYLINE
  5
2B1
330
70
100
AcDbEntity
  8
Camada 1
 62
    18
420
        0
370
    18
100
AcDbPolyline
 90
       11
 70
     0
 43
0.0
 10
1222.217102972339
 20
1020.48805300377
 10
1222.207866039309
 20
1020.36610682731
 10
1222.181601426709
 20
1020.26137493513
 10
1222.140455088669
 20
1020.17283100134
 10
1222.08657297932
 20
1020.0993553977
 10
1222.022101052829
 20
1020.04006175183
 10
1221.9491852633
 20
1019.99383043551
 10
1221.870018216079
 20
1019.95963512283
 10
1221.786745865269
 20
1019.93649613907
 10
1221.701467513871
 20
1019.92334050718
 10
1221.616375767169
 20
1019.91918855244
  0
LINE
  5
2B2
330
70
100
AcDbEntity
  8
Camada 1
 62
    18
420
        0
370
    18
100
AcDbLine
 10
801.7118614262489
 20
975.9468516670395
 30
0.0
 11
801.7118614262489
 21
942.2493600296174
 31
0.0
  0
LINE
  5
2B3
330
70
100
AcDbEntity
  8
Camada 1
 62
    18
420
        0
370
    18
100
AcDbLine
 10
1668.35704960668
 20
975.9468516670395
 30
0.0
 11
1668.35704960668
 21
942.2493600296174
 31
0.0
  0
LINE
  5
2B4
330
70
100
AcDbEntity
  8
Camada 1
 62
    18
420
        0
370
    18
100
AcDbLine
 10
794.4398672068846
 20
1057.89925083763
 30
0.0
 11
776.0120226505632
 21
1057.89925083763
 31
0.0
  0
LINE
  5
2B5
330
70
100
AcDbEntity
  8
Camada 1
 62
    18
420
        0
370
    18
100
AcDbLine
 10
794.4398672068846
 20
981.8437108829421
 30
0.0
 11
776.0120226505632
 21
981.8437108829421
 31
0.0
  0
LINE
  5
2B6
330
70
100
AcDbEntity
  8
Camada 1
 62
    18
420
        0
370
    18
100
AcDbLine
 10
795.7875353548433
 20
1174.80957883984
 30
0.0
 11
777.359690798522
 21
1174.80957883984
 31
0.0
  0
LINE
  5
2B7
330
70
100
AcDbEntity
  8
Camada 1
 62
    18
420
        0
370
    18
100
AcDbLine
 10
795.7875353548433
 20
1142.31036299848
 30
0.0
 11
777.359690798522
 21
1142.31036299848
 31
0.0
  0
MTEXT
  5
2B8
330
70
100
AcDbEntity
  8
Camada 1
100
AcDbMText
 10
776.9205627441415
 20
1150.343261718749
 30
0.0
 40
0.2
 41
0.0
 46
0.0
 71
     7
 72
     1
  1
\C250;\c1776925;\FMyriad Pro|b0|i0|c1;\H12.036000;\W1.000000;33
 11
0.0000000000000001
 21
1.0
 31
0.0
 73
     1
 44
1.0
  0
MTEXT
  5
2B9
330
70
100
AcDbEntity
  8
Camada 1
100
AcDbMText
 10
775.0118713378915
 20
1011.149902343749
 30
0.0
 40
0.2
 41
0.0
 46
0.0
 71
     7
 72
     1
  1
\C250;\c1776925;\FMyriad Pro|b0|i0|c1;\H12.036000;\W1.000000;70
 11
0.0000000000000001
 21
1.0
 31
0.0
 73
     1
 44
1.0
  0
MTEXT
  5
2BA
330
70
100
AcDbEntity
  8
Camada 1
100
AcDbMText
 10
1221.953704833984
 20
950.8572921752929
 30
0.0
 40
0.2
 41
0.0
 46
0.0
 71
     7
 72
     1
  1
\C250;\c1776925;\FMyriad Pro|b0|i0|c1;\H12.036000;\W1.000000;800
 73
     1
 44
1.0
  0
LINE
  5
2BB
330
70
100
AcDbEntity
  8
Camada 1
 62
   250
420
  1974045
370
    18
100
AcDbLine
 10
780.8786122455231
 20
1174.80957883984
 30
0.0
 11
780.8786122455231
 21
1142.31036299848
 31
0.0
  0
LINE
  5
2BC
330
70
100
AcDbEntity
  8
Camada 1
 62
   250
420
  1974045
370
    18
100
AcDbLine
 10
779.5309440975652
 20
1057.89925083763
 30
0.0
 11
779.5309440975652
 21
981.8437108829421
 31
0.0
  0
LINE
  5
2BD
330
70
100
AcDbEntity
  8
Camada 1
 62
   250
420
  1974045
370
    18
100
AcDbLine
 10
1668.357049606678
 20
947.4422704091139
 30
0.0
 11
801.7118614262489
 21
947.4422704091139
 31
0.0
  0
MTEXT
  5
2BE
330
70
100
AcDbEntity
  8
Camada 1
100
AcDbMText
 10
1755.287292480469
 20
877.8530654907227
 30
0.0
 40
0.2
 41
0.0
 46
0.0
 71
     7
 72
     1
  1
\C8;\c8485235;\FFrutiger Bold|b1|i0|c1;\H11.805467;\W1.000000;mm
 73
     1
 44
1.0
  0
INSERT
  5
2C0
330
70
100
AcDbEntity
  8
Camada 1
100
AcDbBlockReference
  2
Block_0
 10
0.0
 20
0.0
 30
0.0
  0
LINE
  5
2C5
330
70
100
AcDbEntity
  8
Camada 1
 62
     8
420
  7567745
370
    35
100
AcDbLine
 10
1755.033074492448
 20
868.9500853629624
 30
0.0
 11
1782.110711208692
 21
868.9500853629624
 31
0.0
  0
LINE
  5
2C6
330
70
100
AcDbEntity
  8
Camada 1
 62
     8
420
  7567745
370
    35
100
AcDbLine
 10
1754.710556033442
 20
872.5876848614371
 30
0.0
 11
1754.710556033442
 21
865.3169562290241
 31
0.0
  0
LINE
  5
2C7
330
70
100
AcDbEntity
  8
Camada 1
 62
     8
420
  7567745
370
    35
100
AcDbLine
 10
1782.440893149778
 20
872.5876848614371
 30
0.0
 11
1782.440893149778
 21
865.3169562290241
 31
0.0
  0
ENDSEC
  0
SECTION
  2
OBJECTS
  0
DICTIONARY
  5
C
330
0
100
AcDbDictionary
281
     1
  3
ACAD_COLOR
350
63
  3
ACAD_DETAILVIEWSTYLE
350
6A
  3
ACAD_GROUP
350
D
  3
ACAD_LAYOUT
350
62
  3
ACAD_MATERIAL
350
10
  3
ACAD_MLEADERSTYLE
350
66
  3
ACAD_MLINESTYLE
350
5F
  3
ACAD_PLOTSETTINGS
350
61
  3
ACAD_PLOTSTYLENAME
350
E
  3
ACAD_SCALELIST
350
42
  3
ACAD_SECTIONVIEWSTYLE
350
68
  3
ACAD_TABLESTYLE
350
64
  3
ACAD_VISUALSTYLE
350
29
  3
ACDB_RECOMPOSE_DATA
350
2D0
  3
AcDbVariableDictionary
350
2C8
  0
DICTIONARY
  5
63
102
{ACAD_REACTORS
330
C
102
}
330
C
100
AcDbDictionary
281
     1
  0
DICTIONARY
  5
6A
102
{ACAD_REACTORS
330
C
102
}
330
C
100
AcDbDictionary
281
     1
  3
Imperial24
350
6B
  0
DICTIONARY
  5
D
102
{ACAD_REACTORS
330
C
102
}
330
C
100
AcDbDictionary
281
     1
  0
DICTIONARY
  5
62
102
{ACAD_REACTORS
330
C
102
}
330
C
100
AcDbDictionary
281
     1
  3
Layout1
350
6F
  3
Layout2
350
77
  3
Model
350
73
  0
DICTIONARY
  5
10
102
{ACAD_REACTORS
330
C
102
}
330
C
100
AcDbDictionary
281
     1
  3
ByBlock
350
19
  3
ByLayer
350
11
  3
Global
350
21
  0
DICTIONARY
  5
66
102
{ACAD_REACTORS
330
C
102
}
330
C
100
AcDbDictionary
281
     1
  3
Standard
350
67
  0
DICTIONARY
  5
5F
102
{ACAD_REACTORS
330
C
102
}
330
C
100
AcDbDictionary
281
     1
  3
Standard
350
60
  0
DICTIONARY
  5
61
102
{ACAD_REACTORS
330
C
102
}
330
C
100
AcDbDictionary
281
     1
  0
ACDBDICTIONARYWDFLT
  5
E
102
{ACAD_REACTORS
330
C
102
}
330
C
100
AcDbDictionary
281
     1
  3
Normal
350
F
100
AcDbDictionaryWithDefault
340
F
  0
DICTIONARY
  5
42
102
{ACAD_REACTORS
330
C
102
}
330
C
100
AcDbDictionary
281
     1
  3
A0
350
43
  3
A1
350
44
  3
A2
350
45
  3
A3
350
46
  3
A4
350
47
  3
A5
350
48
  3
A6
350
49
  3
A7
350
4A
  3
A8
350
4B
  3
A9
350
4C
  3
B0
350
4D
  3
B1
350
4E
  3
B2
350
4F
  3
B3
350
50
  3
B4
350
51
  3
B5
350
52
  3
B6
350
53
  0
DICTIONARY
  5
68
102
{ACAD_REACTORS
330
C
102
}
330
C
100
AcDbDictionary
281
     1
  3
Imperial24
350
69
  0
DICTIONARY
  5
64
102
{ACAD_REACTORS
330
C
102
}
330
C
100
AcDbDictionary
281
     1
  3
Standard
350
65
  0
DICTIONARY
  5
29
102
{ACAD_REACTORS
330
C
102
}
330
C
100
AcDbDictionary
281
     1
  3
2dWireframe
350
2F
  3
Basic
350
2E
  3
Brighten
350
35
  3
ColorChange
350
39
  3
Conceptual
350
32
  3
Dim
350
34
  3
EdgeColorOff
350
41
  3
Facepattern
350
38
  3
Flat
350
2A
  3
FlatWithEdges
350
2B
  3
Gouraud
350
2C
  3
GouraudWithEdges
350
2D
  3
Hidden
350
31
  3
JitterOff
350
3F
  3
Linepattern
350
37
  3
OverhangOff
350
40
  3
Realistic
350
33
  3
Shaded
350
3E
  3
Shaded with edges
350
3D
  3
Shades of Gray
350
3A
  3
Sketchy
350
3B
  3
Thicken
350
36
  3
Wireframe
350
30
  3
X-Ray
350
3C
  0
XRECORD
  5
2D0
102
{ACAD_REACTORS
330
C
102
}
330
C
100
AcDbXrecord
280
     1
 90
        1
330
65
  0
DICTIONARY
  5
2C8
102
{ACAD_REACTORS
330
C
102
}
330
C
100
AcDbDictionary
281
     1
  3
CANNOSCALE
350
2CD
  3
CMLEADERSTYLE
350
2CA
  3
CTABLESTYLE
350
2C9
  3
CVIEWDETAILSTYLE
350
2CB
  3
CVIEWSECTIONSTYLE
350
2CC
  0
ACDBDETAILVIEWSTYLE
  5
6B
102
{ACAD_REACTORS
330
6A
102
}
330
6A
100
AcDbModelDocViewStyle
 70
     0
  3
Imperial24
290
     1
300
Imperial24
 90
        0
100
AcDbDetailViewStyle
 70
     0
 71
     0
 90
        3
 71
     1
340
55
 62
   256
 40
0.24
340
0
 62
   256
 40
0.24
300

 40
0.36
280
     3
 71
     2
340
5D
 90
       25
 62
   256
 71
     3
340
55
 62
   256
 40
0.24
 90
        1
 40
0.75
 90
        1
300
%<\AcVar ViewType \f "%tc1">% %<\AcVar ViewDetailId>%\PSCALE %<\AcVar ViewScale \f "%sn">%
 71
     4
340
5D
 90
       25
 62
   256
340
5D
 90
       25
 62
   256
280
     0
  0
LAYOUT
  5
6F
102
{ACAD_REACTORS
330
62
102
}
330
62
100
AcDbPlotSettings
  1

  2

  4

  6

 40
0.0
 41
0.0
 42
0.0
 43
0.0
 44
0.0
 45
0.0
 46
0.0
 47
0.0
 48
0.0
 49
0.0
140
0.0
141
0.0
142
1.0
143
1.0
 70
   688
 72
     0
 73
     0
 74
     5
  7

 75
    16
147
1.0
 76
     0
 77
     2
 78
   300
148
0.0
149
0.0
100
AcDbLayout
  1
Layout1
 70
     1
 71
     1
 10
0.0
 20
0.0
 11
12.0
 21
9.0
 12
0.0
 22
0.0
 32
0.0
 14
0.0
 24
0.0
 34
0.0
 15
0.0
 25
0.0
 35
0.0
146
0.0
 13
0.0
 23
0.0
 33
0.0
 16
1.0
 26
0.0
 36
0.0
 17
0.0
 27
1.0
 37
0.0
 76
     0
330
6C
  0
LAYOUT
  5
77
102
{ACAD_REACTORS
330
62
102
}
330
62
100
AcDbPlotSettings
  1

  2

  4

  6

 40
0.0
 41
0.0
 42
0.0
 43
0.0
 44
0.0
 45
0.0
 46
0.0
 47
0.0
 48
0.0
 49
0.0
140
0.0
141
0.0
142
1.0
143
1.0
 70
   688
 72
     0
 73
     0
 74
     5
  7

 75
    16
147
1.0
 76
     0
 77
     2
 78
   300
148
0.0
149
0.0
100
AcDbLayout
  1
Layout2
 70
     1
 71
     2
 10
0.0
 20
0.0
 11
12.0
 21
9.0
 12
0.0
 22
0.0
 32
0.0
 14
0.0
 24
0.0
 34
0.0
 15
0.0
 25
0.0
 35
0.0
146
0.0
 13
0.0
 23
0.0
 33
0.0
 16
1.0
 26
0.0
 36
0.0
 17
0.0
 27
1.0
 37
0.0
 76
     0
330
74
  0
LAYOUT
  5
73
102
{ACAD_REACTORS
330
62
102
}
330
62
100
AcDbPlotSettings
  1

  2

  4

  6

 40
0.0
 41
0.0
 42
0.0
 43
0.0
 44
0.0
 45
0.0
 46
0.0
 47
0.0
 48
0.0
 49
0.0
140
0.0
141
0.0
142
1.0
143
1.0
 70
  1712
 72
     0
 73
     0
 74
     0
  7

 75
     0
147
1.0
 76
     0
 77
     2
 78
   300
148
0.0
149
0.0
100
AcDbLayout
  1
Model
 70
     1
 71
     0
 10
0.0
 20
0.0
 11
12.0
 21
9.0
 12
0.0
 22
0.0
 32
0.0
 14
0.0
 24
0.0
 34
0.0
 15
0.0
 25
0.0
 35
0.0
146
0.0
 13
0.0
 23
0.0
 33
0.0
 16
1.0
 26
0.0
 36
0.0
 17
0.0
 27
1.0
 37
0.0
 76
     0
330
70
  0
MATERIAL
  5
19
102
{ACAD_XDICTIONARY
360
1A
102
}
102
{ACAD_REACTORS
330
10
102
}
330
10
100
AcDbMaterial
  1
ByBlock
 72
     0
 43
0.0208333333333333
 43
0.0
 43
0.0
 43
0.0
 43
0.0
 43
0.0208333333333333
 43
0.0
 43
0.0
 43
0.0
 43
0.0
 43
1.0
 43
0.0
 43
0.0
 43
0.0
 43
0.0
 43
1.0
 77
     0
 47
0.0208333333333333
 47
0.0
 47
0.0
 47
0.0
 47
0.0
 47
0.0208333333333333
 47
0.0
 47
0.0
 47
0.0
 47
0.0
 47
1.0
 47
0.0
 47
0.0
 47
0.0
 47
0.0
 47
1.0
171
     0
 49
0.0208333333333333
 49
0.0
 49
0.0
 49
0.0
 49
0.0
 49
0.0208333333333333
 49
0.0
 49
0.0
 49
0.0
 49
0.0
 49
1.0
 49
0.0
 49
0.0
 49
0.0
 49
0.0
 49
1.0
175
     0
142
0.0208333333333333
142
0.0
142
0.0
142
0.0
142
0.0
142
0.0208333333333333
142
0.0
142
0.0
142
0.0
142
0.0
142
1.0
142
0.0
142
0.0
142
0.0
142
0.0
142
1.0
179
     0
144
0.0208333333333333
144
0.0
144
0.0
144
0.0
144
0.0
144
0.0208333333333333
144
0.0
144
0.0
144
0.0
144
0.0
144
1.0
144
0.0
144
0.0
144
0.0
144
0.0
144
1.0
147
0.0208333333333333
147
0.0
147
0.0
147
0.0
147
0.0
147
0.0208333333333333
147
0.0
147
0.0
147
0.0
147
0.0
147
1.0
147
0.0
147
0.0
147
0.0
147
0.0
147
1.0
  0
MATERIAL
  5
11
102
{ACAD_XDICTIONARY
360
12
102
}
102
{ACAD_REACTORS
330
10
102
}
330
10
100
AcDbMaterial
  1
ByLayer
 72
     0
 43
0.0208333333333333
 43
0.0
 43
0.0
 43
0.0
 43
0.0
 43
0.0208333333333333
 43
0.0
 43
0.0
 43
0.0
 43
0.0
 43
1.0
 43
0.0
 43
0.0
 43
0.0
 43
0.0
 43
1.0
 77
     0
 47
0.0208333333333333
 47
0.0
 47
0.0
 47
0.0
 47
0.0
 47
0.0208333333333333
 47
0.0
 47
0.0
 47
0.0
 47
0.0
 47
1.0
 47
0.0
 47
0.0
 47
0.0
 47
0.0
 47
1.0
171
     0
 49
0.0208333333333333
 49
0.0
 49
0.0
 49
0.0
 49
0.0
 49
0.0208333333333333
 49
0.0
 49
0.0
 49
0.0
 49
0.0
 49
1.0
 49
0.0
 49
0.0
 49
0.0
 49
0.0
 49
1.0
175
     0
142
0.0208333333333333
142
0.0
142
0.0
142
0.0
142
0.0
142
0.0208333333333333
142
0.0
142
0.0
142
0.0
142
0.0
142
1.0
142
0.0
142
0.0
142
0.0
142
0.0
142
1.0
179
     0
144
0.0208333333333333
144
0.0
144
0.0
144
0.0
144
0.0
144
0.0208333333333333
144
0.0
144
0.0
144
0.0
144
0.0
144
1.0
144
0.0
144
0.0
144
0.0
144
0.0
144
1.0
147
0.0208333333333333
147
0.0
147
0.0
147
0.0
147
0.0
147
0.0208333333333333
147
0.0
147
0.0
147
0.0
147
0.0
147
1.0
147
0.0
147
0.0
147
0.0
147
0.0
147
1.0
  0
MATERIAL
  5
21
102
{ACAD_XDICTIONARY
360
22
102
}
102
{ACAD_REACTORS
330
10
102
}
330
10
100
AcDbMaterial
  1
Global
 72
     0
 43
0.0208333333333333
 43
0.0
 43
0.0
 43
0.0
 43
0.0
 43
0.0208333333333333
 43
0.0
 43
0.0
 43
0.0
 43
0.0
 43
1.0
 43
0.0
 43
0.0
 43
0.0
 43
0.0
 43
1.0
 77
     0
 47
0.0208333333333333
 47
0.0
 47
0.0
 47
0.0
 47
0.0
 47
0.0208333333333333
 47
0.0
 47
0.0
 47
0.0
 47
0.0
 47
1.0
 47
0.0
 47
0.0
 47
0.0
 47
0.0
 47
1.0
171
     0
 49
0.0208333333333333
 49
0.0
 49
0.0
 49
0.0
 49
0.0
 49
0.0208333333333333
 49
0.0
 49
0.0
 49
0.0
 49
0.0
 49
1.0
 49
0.0
 49
0.0
 49
0.0
 49
0.0
 49
1.0
175
     0
142
0.0208333333333333
142
0.0
142
0.0
142
0.0
142
0.0
142
0.0208333333333333
142
0.0
142
0.0
142
0.0
142
0.0
142
1.0
142
0.0
142
0.0
142
0.0
142
0.0
142
1.0
179
     0
144
0.0208333333333333
144
0.0
144
0.0
144
0.0
144
0.0
144
0.0208333333333333
144
0.0
144
0.0
144
0.0
144
0.0
144
1.0
144
0.0
144
0.0
144
0.0
144
0.0
144
1.0
147
0.0208333333333333
147
0.0
147
0.0
147
0.0
147
0.0
147
0.0208333333333333
147
0.0
147
0.0
147
0.0
147
0.0
147
1.0
147
0.0
147
0.0
147
0.0
147
0.0
147
1.0
  0
MLEADERSTYLE
  5
67
102
{ACAD_REACTORS
330
66
102
}
330
66
100
AcDbMLeaderStyle
179
     2
170
     2
171
     1
172
     0
 90
        2
 40
0.0
 41
0.0
173
     1
 91
-1056964608
340
5B
 92
       -2
290
     1
 42
0.09
291
     1
 43
0.36
  3
Standard
 44
0.18
300

342
55
174
     1
178
     6
175
     1
176
     0
 93
-1056964608
 45
0.18
292
     0
297
     0
 46
0.18
 94
-1056964608
 47
1.0
 49
1.0
140
1.0
293
     1
141
0.0
294
     1
177
     0
142
1.0
295
     1
296
     0
143
0.125
271
     0
272
     9
273
     9
298
     1
  0
MLINESTYLE
  5
60
102
{ACAD_REACTORS
330
5F
102
}
330
5F
100
AcDbMlineStyle
  2
STANDARD
 70
     0
  3

 62
   256
 51
90.0
 52
90.0
 71
     2
 49
0.5
 62
   256
  6
BYLAYER
 49
-0.5
 62
   256
  6
BYLAYER
  0
ACDBPLACEHOLDER
  5
F
102
{ACAD_REACTORS
330
E
102
}
330
E
  0
SCALE
  5
43
102
{ACAD_REACTORS
330
42
102
}
330
42
100
AcDbScale
 70
     0
300
1:1
140
1.0
141
1.0
290
     1
  0
SCALE
  5
44
102
{ACAD_REACTORS
330
42
102
}
330
42
100
AcDbScale
 70
     0
300
1/128" = 1'-0"
140
0.0078125
141
12.0
290
     0
  0
SCALE
  5
45
102
{ACAD_REACTORS
330
42
102
}
330
42
100
AcDbScale
 70
     0
300
1/64" = 1'-0"
140
0.015625
141
12.0
290
     0
  0
SCALE
  5
46
102
{ACAD_REACTORS
330
42
102
}
330
42
100
AcDbScale
 70
     0
300
1/32" = 1'-0"
140
0.03125
141
12.0
290
     0
  0
SCALE
  5
47
102
{ACAD_REACTORS
330
42
102
}
330
42
100
AcDbScale
 70
     0
300
1/16" = 1'-0"
140
0.0625
141
12.0
290
     0
  0
SCALE
  5
48
102
{ACAD_REACTORS
330
42
102
}
330
42
100
AcDbScale
 70
     0
300
3/32" = 1'-0"
140
0.09375
141
12.0
290
     0
  0
SCALE
  5
49
102
{ACAD_REACTORS
330
42
102
}
330
42
100
AcDbScale
 70
     0
300
1/8" = 1'-0"
140
0.125
141
12.0
290
     0
  0
SCALE
  5
4A
102
{ACAD_REACTORS
330
42
102
}
330
42
100
AcDbScale
 70
     0
300
3/16" = 1'-0"
140
0.1875
141
12.0
290
     0
  0
SCALE
  5
4B
102
{ACAD_REACTORS
330
42
102
}
330
42
100
AcDbScale
 70
     0
300
1/4" = 1'-0"
140
0.25
141
12.0
290
     0
  0
SCALE
  5
4C
102
{ACAD_REACTORS
330
42
102
}
330
42
100
AcDbScale
 70
     0
300
3/8" = 1'-0"
140
0.375
141
12.0
290
     0
  0
SCALE
  5
4D
102
{ACAD_REACTORS
330
42
102
}
330
42
100
AcDbScale
 70
     0
300
1/2" = 1'-0"
140
0.5
141
12.0
290
     0
  0
SCALE
  5
4E
102
{ACAD_REACTORS
330
42
102
}
330
42
100
AcDbScale
 70
     0
300
3/4" = 1'-0"
140
0.75
141
12.0
290
     0
  0
SCALE
  5
4F
102
{ACAD_REACTORS
330
42
102
}
330
42
100
AcDbScale
 70
     0
300
1" = 1'-0"
140
1.0
141
12.0
290
     0
  0
SCALE
  5
50
102
{ACAD_REACTORS
330
42
102
}
330
42
100
AcDbScale
 70
     0
300
1-1/2" = 1'-0"
140
1.5
141
12.0
290
     0
  0
SCALE
  5
51
102
{ACAD_REACTORS
330
42
102
}
330
42
100
AcDbScale
 70
     0
300
3" = 1'-0"
140
3.0
141
12.0
290
     0
  0
SCALE
  5
52
102
{ACAD_REACTORS
330
42
102
}
330
42
100
AcDbScale
 70
     0
300
6" = 1'-0"
140
6.0
141
12.0
290
     0
  0
SCALE
  5
53
102
{ACAD_REACTORS
330
42
102
}
330
42
100
AcDbScale
 70
     0
300
1'-0" = 1'-0"
140
12.0
141
12.0
290
     0
  0
ACDBSECTIONVIEWSTYLE
  5
69
102
{ACAD_REACTORS
330
68
102
}
330
68
100
AcDbModelDocViewStyle
 70
     0
  3
Imperial24
290
     1
300
Imperial24
 90
        0
100
AcDbSectionViewStyle
 70
     0
 71
     0
 90
       78
 71
     1
340
55
 62
   256
 40
0.24
340
0
340
0
 62
   256
 40
0.24
300
I, O, Q, S, X, Z
 40
0.48
 90
        3
 40
0.18
 90
        1
 71
     2
340
5D
 90
       25
 62
   256
340
5D
 90
       50
 62
   256
 40
0.24
 40
0.0
 40
0.24
 71
     3
340
55
 62
   256
 40
0.24
 90
        1
 40
0.75
 90
        1
300
%<\AcVar ViewType \f "%tc1">% %<\AcVar ViewSectionStartId>%-%<\AcVar ViewSectionEndId>%\PSCALE %<\AcVar ViewScale \f "%sn">%
 71
     4
 62
   256
 62
   257
300
ANSI31
 40
1.0
 90
        0
290
     0
290
     0
 90
        6
 40
0.0
 40
1.570796326794896
 40
0.2617993877991494
 40
1.308996938995747
 40
-0.2617993877991494
 40
1.832595714594046
  0
TABLESTYLE
  5
65
102
{ACAD_XDICTIONARY
360
2CE
102
}
102
{ACAD_REACTORS
330
64
102
}
330
64
100
AcDbTableStyle
280
     0
  3
Standard
 70
     0
 71
     0
 40
0.06
 41
0.06
280
     0
281
     0
  7
Standard
140
0.18
170
     2
 62
     0
 63
     7
283
     0
 90
      512
 91
        0
  1

274
    -2
284
     1
 64
     0
275
    -2
285
     1
 65
     0
276
    -2
286
     1
 66
     0
277
    -2
287
     1
 67
     0
278
    -2
288
     1
 68
     0
279
    -2
289
     1
 69
     0
  7
Standard
140
0.25
170
     5
 62
     0
 63
     7
283
     0
 90
      512
 91
        0
  1

274
    -2
284
     1
 64
     0
275
    -2
285
     1
 65
     0
276
    -2
286
     1
 66
     0
277
    -2
287
     1
 67
     0
278
    -2
288
     1
 68
     0
279
    -2
289
     1
 69
     0
  7
Standard
140
0.18
170
     5
 62
     0
 63
     7
283
     0
 90
      512
 91
        0
  1

274
    -2
284
     1
 64
     0
275
    -2
285
     1
 65
     0
276
    -2
286
     1
 66
     0
277
    -2
287
     1
 67
     0
278
    -2
288
     1
 68
     0
279
    -2
289
     1
 69
     0
  0
VISUALSTYLE
  5
2F
102
{ACAD_REACTORS
330
29
102
}
330
29
100
AcDbVisualStyle
  2
2dWireframe
 70
     4
177
     3
291
     0
 70
    58
 90
        0
176
     1
 90
        2
176
     1
 90
        0
176
     1
 90
        0
176
     1
 40
0.6
176
     1
 40
30.0
176
     1
 62
     7
420
 16777215
176
     1
 90
        1
176
     1
 90
        4
176
     1
 62
     7
176
     1
 62
   257
176
     1
 90
        1
176
     1
 90
        1
176
     1
 40
1.0
176
     1
 90
        0
176
     1
 62
   257
176
     1
 40
1.0
176
     1
 90
        1
176
     1
 90
        6
176
     1
 90
        2
176
     1
 62
     7
176
     1
 90
        5
176
     1
 90
        0
176
     1
 90
        0
176
     1
290
     0
176
     1
 90
        1
176
     1
 40
0.0
176
     1
 90
        0
176
     1
290
     1
176
     1
290
     1
176
     1
290
     0
176
     1
290
     0
176
     1
290
     0
176
     1
290
     0
176
     1
290
     0
176
     1
290
     0
176
     1
290
     0
176
     1
 90
       50
176
     1
 40
0.0
176
     1
 40
1.0
176
     1
 90
        0
176
     1
 62
    18
420
        0
176
     1
 90
       50
176
     1
 90
        3
176
     1
 62
     5
420
      255
176
     1
290
     0
176
     1
 90
       50
176
     1
 90
       50
176
     1
 90
       50
176
     1
290
     0
176
     1
 90
       50
176
     1
 62
   256
176
     0
 40
1.0
176
     0
 90
        2
176
     1
  1
strokes_ogs.tif
176
     1
290
     0
176
     1
 40
1.0
176
     1
 40
1.0
176
     1
  0
VISUALSTYLE
  5
2E
102
{ACAD_REACTORS
330
29
102
}
330
29
100
AcDbVisualStyle
  2
Basic
 70
     7
177
     3
291
     1
 70
    58
 90
        1
176
     1
 90
        0
176
     1
 90
        1
176
     1
 90
        0
176
     1
 40
0.6
176
     1
 40
30.0
176
     1
 62
     7
420
 16777215
176
     1
 90
        0
176
     1
 90
        4
176
     1
 62
     7
176
     1
 62
   257
176
     1
 90
        1
176
     1
 90
        1
176
     1
 40
1.0
176
     1
 90
        8
176
     1
 62
     7
176
     1
 40
1.0
176
     1
 90
        1
176
     1
 90
        6
176
     1
 90
        2
176
     1
 62
     7
176
     1
 90
        5
176
     1
 90
        0
176
     1
 90
        0
176
     1
290
     0
176
     1
 90
        1
176
     1
 40
0.0
176
     1
 90
        0
176
     1
290
     0
176
     1
290
     1
176
     1
290
     1
176
     1
290
     0
176
     1
290
     0
176
     1
290
     0
176
     1
290
     0
176
     1
290
     0
176
     1
290
     0
176
     1
 90
       50
176
     1
 40
0.0
176
     1
 40
1.0
176
     1
 90
        0
176
     1
 62
    18
420
        0
176
     1
 90
       50
176
     1
 90
        3
176
     1
 62
     5
420
      255
176
     1
290
     0
176
     1
 90
       50
176
     1
 90
       50
176
     1
 90
       50
176
     1
290
     0
176
     1
 90
       50
176
     1
 62
   256
176
     0
 40
1.0
176
     0
 90
        2
176
     1
  1
strokes_ogs.tif
176
     1
290
     0
176
     1
 40
1.0
176
     1
 40
1.0
176
     1
  0
VISUALSTYLE
  5
35
102
{ACAD_REACTORS
330
29
102
}
330
29
100
AcDbVisualStyle
  2
Brighten
 70
    12
177
     3
291
     1
 70
    58
 90
        2
176
     1
 90
        2
176
     1
 90
        0
176
     1
 90
        0
176
     1
 40
0.6
176
     1
 40
30.0
176
     1
 62
     7
420
 16777215
176
     1
 90
        1
176
     1
 90
        4
176
     1
 62
     7
176
     1
 62
   257
176
     1
 90
        1
176
     1
 90
        1
176
     1
 40
1.0
176
     1
 90
        8
176
     1
 62
     7
176
     1
 40
1.0
176
     1
 90
        1
176
     1
 90
        6
176
     1
 90
        2
176
     1
 62
     7
176
     1
 90
        5
176
     1
 90
        0
176
     1
 90
        0
176
     1
290
     0
176
     1
 90
        1
176
     1
 40
50.0
176
     1
 90
        0
176
     1
290
     0
176
     1
290
     1
176
     1
290
     1
176
     1
290
     0
176
     1
290
     0
176
     1
290
     0
176
     1
290
     0
176
     1
290
     0
176
     1
290
     0
176
     1
 90
       50
176
     1
 40
0.0
176
     1
 40
1.0
176
     1
 90
        0
176
     1
 62
    18
420
        0
176
     1
 90
       50
176
     1
 90
        3
176
     1
 62
     5
420
      255
176
     1
290
     0
176
     1
 90
       50
176
     1
 90
       50
176
     1
 90
       50
176
     1
290
     0
176
     1
 90
       50
176
     1
 62
   256
176
     0
 40
1.0
176
     0
 90
        2
176
     1
  1
strokes_ogs.tif
176
     1
290
     0
176
     1
 40
1.0
176
     1
 40
1.0
176
     1
  0
VISUALSTYLE
  5
39
102
{ACAD_REACTORS
330
29
102
}
330
29
100
AcDbVisualStyle
  2
ColorChange
 70
    16
177
     3
291
     1
 70
    58
 90
        2
176
     1
 90
        2
176
     1
 90
        3
176
     1
 90
        0
176
     1
 40
0.6
176
     1
 40
30.0
176
     1
 62
     8
420
  8421504
176
     1
 90
        1
176
     1
 90
        4
176
     1
 62
     7
176
     1
 62
   257
176
     1
 90
        1
176
     1
 90
        1
176
     1
 40
1.0
176
     1
 90
        8
176
     1
 62
     8
420
  8421504
176
     1
 40
1.0
176
     1
 90
        1
176
     1
 90
        6
176
     1
 90
        2
176
     1
 62
     7
176
     1
 90
        5
176
     1
 90
        0
176
     1
 90
        0
176
     1
290
     0
176
     1
 90
        1
176
     1
 40
0.0
176
     1
 90
        0
176
     1
290
     0
176
     1
290
     1
176
     1
290
     1
176
     1
290
     0
176
     1
290
     0
176
     1
290
     0
176
     1
290
     0
176
     1
290
     0
176
     1
290
     0
176
     1
 90
       50
176
     1
 40
0.0
176
     1
 40
1.0
176
     1
 90
        0
176
     1
 62
    18
420
        0
176
     1
 90
       50
176
     1
 90
        3
176
     1
 62
     5
420
      255
176
     1
290
     0
176
     1
 90
       50
176
     1
 90
       50
176
     1
 90
       50
176
     1
290
     0
176
     1
 90
       50
176
     1
 62
   256
176
     0
 40
1.0
176
     0
 90
        2
176
     1
  1
strokes_ogs.tif
176
     1
290
     0
176
     1
 40
1.0
176
     1
 40
1.0
176
     1
  0
VISUALSTYLE
  5
32
102
{ACAD_REACTORS
330
29
102
}
330
29
100
AcDbVisualStyle
  2
Conceptual
 70
     9
177
     3
291
     0
 70
    58
 90
        3
176
     1
 90
        2
176
     1
 90
        0
176
     1
 90
        0
176
     1
 40
0.6
176
     1
 40
30.0
176
     1
 62
     7
420
 16777215
176
     1
 90
        2
176
     1
 90
        2
176
     1
 62
     7
176
     1
 62
   257
176
     1
 90
        1
176
     1
 90
        1
176
     1
 40
179.0
176
     1
 90
        8
176
     1
 62
     7
176
     1
 40
1.0
176
     1
 90
        1
176
     1
 90
        6
176
     1
 90
        2
176
     1
 62
     7
176
     1
 90
        3
176
     1
 90
        0
176
     1
 90
        0
176
     1
290
     0
176
     1
 90
        1
176
     1
 40
0.0
176
     1
 90
        0
176
     1
290
     0
176
     1
290
     1
176
     1
290
     1
176
     1
290
     0
176
     1
290
     0
176
     1
290
     0
176
     1
290
     0
176
     1
290
     0
176
     1
290
     0
176
     1
 90
       50
176
     1
 40
0.0
176
     1
 40
1.0
176
     1
 90
        0
176
     1
 62
    18
420
        0
176
     1
 90
       50
176
     1
 90
        3
176
     1
 62
     5
420
      255
176
     1
290
     0
176
     1
 90
       50
176
     1
 90
       50
176
     1
 90
       50
176
     1
290
     0
176
     1
 90
       50
176
     1
 62
   256
176
     0
 40
1.0
176
     0
 90
        2
176
     1
  1
strokes_ogs.tif
176
     1
290
     0
176
     1
 40
1.0
176
     1
 40
1.0
176
     1
  0
VISUALSTYLE
  5
34
102
{ACAD_REACTORS
330
29
102
}
330
29
100
AcDbVisualStyle
  2
Dim
 70
    11
177
     3
291
     1
 70
    58
 90
        2
176
     1
 90
        2
176
     1
 90
        0
176
     1
 90
        0
176
     1
 40
0.6
176
     1
 40
30.0
176
     1
 62
     7
420
 16777215
176
     1
 90
        1
176
     1
 90
        4
176
     1
 62
     7
176
     1
 62
   257
176
     1
 90
        1
176
     1
 90
        1
176
     1
 40
1.0
176
     1
 90
        8
176
     1
 62
     7
176
     1
 40
1.0
176
     1
 90
        1
176
     1
 90
        6
176
     1
 90
        2
176
     1
 62
     7
176
     1
 90
        5
176
     1
 90
        0
176
     1
 90
        0
176
     1
290
     0
176
     1
 90
        1
176
     1
 40
-50.0
176
     1
 90
        0
176
     1
290
     0
176
     1
290
     1
176
     1
290
     1
176
     1
290
     0
176
     1
290
     0
176
     1
290
     0
176
     1
290
     0
176
     1
290
     0
176
     1
290
     0
176
     1
 90
       50
176
     1
 40
0.0
176
     1
 40
1.0
176
     1
 90
        0
176
     1
 62
    18
420
        0
176
     1
 90
       50
176
     1
 90
        3
176
     1
 62
     5
420
      255
176
     1
290
     0
176
     1
 90
       50
176
     1
 90
       50
176
     1
 90
       50
176
     1
290
     0
176
     1
 90
       50
176
     1
 62
   256
176
     0
 40
1.0
176
     0
 90
        2
176
     1
  1
strokes_ogs.tif
176
     1
290
     0
176
     1
 40
1.0
176
     1
 40
1.0
176
     1
  0
VISUALSTYLE
  5
41
102
{ACAD_REACTORS
330
29
102
}
330
29
100
AcDbVisualStyle
  2
EdgeColorOff
 70
    22
177
     3
291
     1
 70
    58
 90
        2
176
     0
 90
        2
176
     0
 90
        0
176
     0
 90
        0
176
     0
 40
0.6
176
     0
 40
30.0
176
     0
 62
     7
420
 16777215
176
     0
 90
        1
176
     0
 90
        4
176
     0
 62
     7
176
     0
 62
   257
176
     0
 90
        1
176
     0
 90
        1
176
     0
 40
1.0
176
     0
 90
        8
176
     2
 62
     7
176
     0
 40
1.0
176
     0
 90
        1
176
     0
 90
        6
176
     0
 90
        2
176
     0
 62
     7
176
     0
 90
        5
176
     0
 90
        0
176
     0
 90
        0
176
     0
290
     0
176
     0
 90
        1
176
     0
 40
0.0
176
     0
 90
        0
176
     0
290
     0
176
     0
290
     1
176
     0
290
     1
176
     0
290
     0
176
     0
290
     0
176
     0
290
     0
176
     0
290
     0
176
     0
290
     0
176
     0
290
     0
176
     0
 90
       50
176
     0
 40
0.0
176
     0
 40
1.0
176
     0
 90
        0
176
     0
 62
    18
420
        0
176
     0
 90
       50
176
     0
 90
        3
176
     0
 62
     5
420
      255
176
     0
290
     0
176
     0
 90
       50
176
     0
 90
       50
176
     0
 90
       50
176
     0
290
     0
176
     0
 90
       50
176
     0
 62
   256
176
     0
 40
1.0
176
     0
 90
        2
176
     0
  1
strokes_ogs.tif
176
     0
290
     0
176
     0
 40
1.0
176
     0
 40
1.0
176
     0
  0
VISUALSTYLE
  5
38
102
{ACAD_REACTORS
330
29
102
}
330
29
100
AcDbVisualStyle
  2
Facepattern
 70
    15
177
     3
291
     1
 70
    58
 90
        2
176
     1
 90
        2
176
     1
 90
        0
176
     1
 90
        0
176
     1
 40
0.6
176
     1
 40
30.0
176
     1
 62
     7
420
 16777215
176
     1
 90
        1
176
     1
 90
        4
176
     1
 62
     7
176
     1
 62
   257
176
     1
 90
        1
176
     1
 90
        1
176
     1
 40
1.0
176
     1
 90
        8
176
     1
 62
     7
176
     1
 40
1.0
176
     1
 90
        1
176
     1
 90
        6
176
     1
 90
        2
176
     1
 62
     7
176
     1
 90
        5
176
     1
 90
        0
176
     1
 90
        0
176
     1
290
     0
176
     1
 90
        1
176
     1
 40
0.0
176
     1
 90
        0
176
     1
290
     0
176
     1
290
     1
176
     1
290
     1
176
     1
290
     0
176
     1
290
     0
176
     1
290
     0
176
     1
290
     0
176
     1
290
     0
176
     1
290
     0
176
     1
 90
       50
176
     1
 40
0.0
176
     1
 40
1.0
176
     1
 90
        0
176
     1
 62
    18
420
        0
176
     1
 90
       50
176
     1
 90
        3
176
     1
 62
     5
420
      255
176
     1
290
     0
176
     1
 90
       50
176
     1
 90
       50
176
     1
 90
       50
176
     1
290
     0
176
     1
 90
       50
176
     1
 62
   256
176
     0
 40
1.0
176
     0
 90
        2
176
     1
  1
strokes_ogs.tif
176
     1
290
     0
176
     1
 40
1.0
176
     1
 40
1.0
176
     1
  0
VISUALSTYLE
  5
2A
102
{ACAD_REACTORS
330
29
102
}
330
29
100
AcDbVisualStyle
  2
Flat
 70
     0
177
     3
291
     1
 70
    58
 90
        2
176
     1
 90
        1
176
     1
 90
        1
176
     1
 90
        2
176
     1
 40
0.6
176
     1
 40
30.0
176
     1
 62
     7
420
 16777215
176
     1
 90
        0
176
     1
 90
        0
176
     1
 62
     7
176
     1
 62
   257
176
     1
 90
        1
176
     1
 90
        1
176
     1
 40
1.0
176
     1
 90
        8
176
     1
 62
     7
176
     1
 40
1.0
176
     1
 90
        1
176
     1
 90
        6
176
     1
 90
        2
176
     1
 62
     7
176
     1
 90
        5
176
     1
 90
        0
176
     1
 90
        0
176
     1
290
     0
176
     1
 90
       13
176
     1
 40
0.0
176
     1
 90
        0
176
     1
290
     0
176
     1
290
     1
176
     1
290
     1
176
     1
290
     0
176
     1
290
     0
176
     1
290
     0
176
     1
290
     0
176
     1
290
     0
176
     1
290
     0
176
     1
 90
       50
176
     1
 40
0.0
176
     1
 40
1.0
176
     1
 90
        0
176
     1
 62
    18
420
        0
176
     1
 90
       50
176
     1
 90
        3
176
     1
 62
     5
420
      255
176
     1
290
     0
176
     1
 90
       50
176
     1
 90
       50
176
     1
 90
       50
176
     1
290
     0
176
     1
 90
       50
176
     1
 62
   256
176
     0
 40
1.0
176
     0
 90
        2
176
     1
  1
strokes_ogs.tif
176
     1
290
     0
176
     1
 40
1.0
176
     1
 40
1.0
176
     1
  0
VISUALSTYLE
  5
2B
102
{ACAD_REACTORS
330
29
102
}
330
29
100
AcDbVisualStyle
  2
FlatWithEdges
 70
     1
177
     3
291
     1
 70
    58
 90
        2
176
     1
 90
        1
176
     1
 90
        1
176
     1
 90
        2
176
     1
 40
0.6
176
     1
 40
30.0
176
     1
 62
     7
420
 16777215
176
     1
 90
        1
176
     1
 90
        0
176
     1
 62
     7
176
     1
 62
   257
176
     1
 90
        1
176
     1
 90
        1
176
     1
 40
1.0
176
     1
 90
        0
176
     1
 62
   257
176
     1
 40
1.0
176
     1
 90
        1
176
     1
 90
        6
176
     1
 90
        2
176
     1
 62
     7
176
     1
 90
        5
176
     1
 90
        0
176
     1
 90
        0
176
     1
290
     0
176
     1
 90
       13
176
     1
 40
0.0
176
     1
 90
        0
176
     1
290
     0
176
     1
290
     1
176
     1
290
     1
176
     1
290
     0
176
     1
290
     0
176
     1
290
     0
176
     1
290
     0
176
     1
290
     0
176
     1
290
     0
176
     1
 90
       50
176
     1
 40
0.0
176
     1
 40
1.0
176
     1
 90
        0
176
     1
 62
    18
420
        0
176
     1
 90
       50
176
     1
 90
        3
176
     1
 62
     5
420
      255
176
     1
290
     0
176
     1
 90
       50
176
     1
 90
       50
176
     1
 90
       50
176
     1
290
     0
176
     1
 90
       50
176
     1
 62
   256
176
     0
 40
1.0
176
     0
 90
        2
176
     1
  1
strokes_ogs.tif
176
     1
290
     0
176
     1
 40
1.0
176
     1
 40
1.0
176
     1
  0
VISUALSTYLE
  5
2C
102
{ACAD_REACTORS
330
29
102
}
330
29
100
AcDbVisualStyle
  2
Gouraud
 70
     2
177
     3
291
     1
 70
    58
 90
        2
176
     1
 90
        2
176
     1
 90
        1
176
     1
 90
        2
176
     1
 40
0.6
176
     1
 40
30.0
176
     1
 62
     7
420
 16777215
176
     1
 90
        0
176
     1
 90
        0
176
     1
 62
     7
176
     1
 62
   257
176
     1
 90
        1
176
     1
 90
        1
176
     1
 40
1.0
176
     1
 90
        0
176
     1
 62
     7
176
     1
 40
1.0
176
     1
 90
        1
176
     1
 90
        6
176
     1
 90
        2
176
     1
 62
     7
176
     1
 90
        5
176
     1
 90
        0
176
     1
 90
        0
176
     1
290
     0
176
     1
 90
       13
176
     1
 40
0.0
176
     1
 90
        0
176
     1
290
     0
176
     1
290
     1
176
     1
290
     1
176
     1
290
     0
176
     1
290
     0
176
     1
290
     0
176
     1
290
     0
176
     1
290
     0
176
     1
290
     0
176
     1
 90
       50
176
     1
 40
0.0
176
     1
 40
1.0
176
     1
 90
        0
176
     1
 62
    18
420
        0
176
     1
 90
       50
176
     1
 90
        3
176
     1
 62
     5
420
      255
176
     1
290
     0
176
     1
 90
       50
176
     1
 90
       50
176
     1
 90
       50
176
     1
290
     0
176
     1
 90
       50
176
     1
 62
   256
176
     0
 40
1.0
176
     0
 90
        2
176
     1
  1
strokes_ogs.tif
176
     1
290
     0
176
     1
 40
1.0
176
     1
 40
1.0
176
     1
  0
VISUALSTYLE
  5
2D
102
{ACAD_REACTORS
330
29
102
}
330
29
100
AcDbVisualStyle
  2
GouraudWithEdges
 70
     3
177
     3
291
     1
 70
    58
 90
        2
176
     1
 90
        2
176
     1
 90
        1
176
     1
 90
        2
176
     1
 40
0.6
176
     1
 40
30.0
176
     1
 62
     7
420
 16777215
176
     1
 90
        1
176
     1
 90
        0
176
     1
 62
     7
176
     1
 62
   257
176
     1
 90
        1
176
     1
 90
        1
176
     1
 40
1.0
176
     1
 90
        0
176
     1
 62
   257
176
     1
 40
1.0
176
     1
 90
        1
176
     1
 90
        6
176
     1
 90
        2
176
     1
 62
     7
176
     1
 90
        5
176
     1
 90
        0
176
     1
 90
        0
176
     1
290
     0
176
     1
 90
       13
176
     1
 40
0.0
176
     1
 90
        0
176
     1
290
     0
176
     1
290
     1
176
     1
290
     1
176
     1
290
     0
176
     1
290
     0
176
     1
290
     0
176
     1
290
     0
176
     1
290
     0
176
     1
290
     0
176
     1
 90
       50
176
     1
 40
0.0
176
     1
 40
1.0
176
     1
 90
        0
176
     1
 62
    18
420
        0
176
     1
 90
       50
176
     1
 90
        3
176
     1
 62
     5
420
      255
176
     1
290
     0
176
     1
 90
       50
176
     1
 90
       50
176
     1
 90
       50
176
     1
290
     0
176
     1
 90
       50
176
     1
 62
   256
176
     0
 40
1.0
176
     0
 90
        2
176
     1
  1
strokes_ogs.tif
176
     1
290
     0
176
     1
 40
1.0
176
     1
 40
1.0
176
     1
  0
VISUALSTYLE
  5
31
102
{ACAD_REACTORS
330
29
102
}
330
29
100
AcDbVisualStyle
  2
Hidden
 70
     6
177
     3
291
     0
 70
    58
 90
        1
176
     1
 90
        2
176
     1
 90
        2
176
     1
 90
        0
176
     1
 40
0.6
176
     1
 40
30.0
176
     1
 62
     7
420
 16777215
176
     1
 90
        2
176
     1
 90
        2
176
     1
 62
     7
176
     1
 62
   257
176
     1
 90
        2
176
     1
 90
        1
176
     1
 40
40.0
176
     1
 90
        0
176
     1
 62
   257
176
     1
 40
1.0
176
     1
 90
        1
176
     1
 90
        6
176
     1
 90
        2
176
     1
 62
     7
176
     1
 90
        3
176
     1
 90
        0
176
     1
 90
        0
176
     1
290
     0
176
     1
 90
        1
176
     1
 40
0.0
176
     1
 90
        0
176
     1
290
     0
176
     1
290
     1
176
     1
290
     1
176
     1
290
     0
176
     1
290
     0
176
     1
290
     0
176
     1
290
     0
176
     1
290
     0
176
     1
290
     0
176
     1
 90
       50
176
     1
 40
0.0
176
     1
 40
1.0
176
     1
 90
        0
176
     1
 62
    18
420
        0
176
     1
 90
       50
176
     1
 90
        3
176
     1
 62
     5
420
      255
176
     1
290
     0
176
     1
 90
       50
176
     1
 90
       50
176
     1
 90
       50
176
     1
290
     0
176
     1
 90
       50
176
     1
 62
   256
176
     0
 40
1.0
176
     0
 90
        2
176
     1
  1
strokes_ogs.tif
176
     1
290
     0
176
     1
 40
1.0
176
     1
 40
1.0
176
     1
  0
VISUALSTYLE
  5
3F
102
{ACAD_REACTORS
330
29
102
}
330
29
100
AcDbVisualStyle
  2
JitterOff
 70
    20
177
     3
291
     1
 70
    58
 90
        2
176
     0
 90
        2
176
     0
 90
        0
176
     0
 90
        0
176
     0
 40
0.6
176
     0
 40
30.0
176
     0
 62
     7
420
 16777215
176
     0
 90
        1
176
     0
 90
        4
176
     0
 62
     7
176
     0
 62
   257
176
     0
 90
        1
176
     0
 90
        1
176
     0
 40
1.0
176
     0
 90
       10
176
     2
 62
     7
176
     0
 40
1.0
176
     0
 90
        1
176
     0
 90
        6
176
     0
 90
        2
176
     0
 62
     7
176
     0
 90
        5
176
     0
 90
        0
176
     0
 90
        0
176
     0
290
     0
176
     0
 90
        1
176
     0
 40
0.0
176
     0
 90
        0
176
     0
290
     0
176
     0
290
     1
176
     0
290
     1
176
     0
290
     0
176
     0
290
     0
176
     0
290
     0
176
     0
290
     0
176
     0
290
     0
176
     0
290
     0
176
     0
 90
       50
176
     0
 40
0.0
176
     0
 40
1.0
176
     0
 90
        0
176
     0
 62
    18
420
        0
176
     0
 90
       50
176
     0
 90
        3
176
     0
 62
     5
420
      255
176
     0
290
     0
176
     0
 90
       50
176
     0
 90
       50
176
     0
 90
       50
176
     0
290
     0
176
     0
 90
       50
176
     0
 62
   256
176
     0
 40
1.0
176
     0
 90
        2
176
     0
  1
strokes_ogs.tif
176
     0
290
     0
176
     0
 40
1.0
176
     0
 40
1.0
176
     0
  0
VISUALSTYLE
  5
37
102
{ACAD_REACTORS
330
29
102
}
330
29
100
AcDbVisualStyle
  2
Linepattern
 70
    14
177
     3
291
     1
 70
    58
 90
        2
176
     1
 90
        2
176
     1
 90
        0
176
     1
 90
        0
176
     1
 40
0.6
176
     1
 40
30.0
176
     1
 62
     7
420
 16777215
176
     1
 90
        1
176
     1
 90
        4
176
     1
 62
     7
176
     1
 62
   257
176
     1
 90
        7
176
     1
 90
        7
176
     1
 40
1.0
176
     1
 90
        8
176
     1
 62
     7
176
     1
 40
1.0
176
     1
 90
        1
176
     1
 90
        6
176
     1
 90
        2
176
     1
 62
     7
176
     1
 90
        5
176
     1
 90
        0
176
     1
 90
        0
176
     1
290
     0
176
     1
 90
        1
176
     1
 40
0.0
176
     1
 90
        0
176
     1
290
     0
176
     1
290
     1
176
     1
290
     1
176
     1
290
     0
176
     1
290
     0
176
     1
290
     0
176
     1
290
     0
176
     1
290
     0
176
     1
290
     0
176
     1
 90
       50
176
     1
 40
0.0
176
     1
 40
1.0
176
     1
 90
        0
176
     1
 62
    18
420
        0
176
     1
 90
       50
176
     1
 90
        3
176
     1
 62
     5
420
      255
176
     1
290
     0
176
     1
 90
       50
176
     1
 90
       50
176
     1
 90
       50
176
     1
290
     0
176
     1
 90
       50
176
     1
 62
   256
176
     0
 40
1.0
176
     0
 90
        2
176
     1
  1
strokes_ogs.tif
176
     1
290
     0
176
     1
 40
1.0
176
     1
 40
1.0
176
     1
  0
VISUALSTYLE
  5
40
102
{ACAD_REACTORS
330
29
102
}
330
29
100
AcDbVisualStyle
  2
OverhangOff
 70
    21
177
     3
291
     1
 70
    58
 90
        2
176
     0
 90
        2
176
     0
 90
        0
176
     0
 90
        0
176
     0
 40
0.6
176
     0
 40
30.0
176
     0
 62
     7
420
 16777215
176
     0
 90
        1
176
     0
 90
        4
176
     0
 62
     7
176
     0
 62
   257
176
     0
 90
        1
176
     0
 90
        1
176
     0
 40
1.0
176
     0
 90
        9
176
     2
 62
     7
176
     0
 40
1.0
176
     0
 90
        1
176
     0
 90
        6
176
     0
 90
        2
176
     0
 62
     7
176
     0
 90
        5
176
     0
 90
        0
176
     0
 90
        0
176
     0
290
     0
176
     0
 90
        1
176
     0
 40
0.0
176
     0
 90
        0
176
     0
290
     0
176
     0
290
     1
176
     0
290
     1
176
     0
290
     0
176
     0
290
     0
176
     0
290
     0
176
     0
290
     0
176
     0
290
     0
176
     0
290
     0
176
     0
 90
       50
176
     0
 40
0.0
176
     0
 40
1.0
176
     0
 90
        0
176
     0
 62
    18
420
        0
176
     0
 90
       50
176
     0
 90
        3
176
     0
 62
     5
420
      255
176
     0
290
     0
176
     0
 90
       50
176
     0
 90
       50
176
     0
 90
       50
176
     0
290
     0
176
     0
 90
       50
176
     0
 62
   256
176
     0
 40
1.0
176
     0
 90
        2
176
     0
  1
strokes_ogs.tif
176
     0
290
     0
176
     0
 40
1.0
176
     0
 40
1.0
176
     0
  0
VISUALSTYLE
  5
33
102
{ACAD_REACTORS
330
29
102
}
330
29
100
AcDbVisualStyle
  2
Realistic
 70
     8
177
     3
291
     0
 70
    58
 90
        2
176
     1
 90
        3
176
     1
 90
        0
176
     1
 90
        2
176
     1
 40
0.6
176
     1
 40
30.0
176
     1
 62
     7
420
 16777215
176
     1
 90
        0
176
     1
 90
        0
176
     1
 62
     7
176
     1
 62
   257
176
     1
 90
        1
176
     1
 90
        1
176
     1
 40
1.0
176
     1
 90
        8
176
     1
 62
   257
176
     1
 40
1.0
176
     1
 90
        1
176
     1
 90
        6
176
     1
 90
        2
176
     1
 62
     7
176
     1
 90
        3
176
     1
 90
        0
176
     1
 90
        0
176
     1
290
     0
176
     1
 90
       13
176
     1
 40
0.0
176
     1
 90
        0
176
     1
290
     0
176
     1
290
     1
176
     1
290
     1
176
     1
290
     0
176
     1
290
     0
176
     1
290
     0
176
     1
290
     0
176
     1
290
     0
176
     1
290
     0
176
     1
 90
       50
176
     1
 40
0.0
176
     1
 40
1.0
176
     1
 90
        0
176
     1
 62
    18
420
        0
176
     1
 90
       50
176
     1
 90
        3
176
     1
 62
     5
420
      255
176
     1
290
     0
176
     1
 90
       50
176
     1
 90
       50
176
     1
 90
       50
176
     1
290
     0
176
     1
 90
       50
176
     1
 62
   256
176
     0
 40
1.0
176
     0
 90
        2
176
     1
  1
strokes_ogs.tif
176
     1
290
     0
176
     1
 40
1.0
176
     1
 40
1.0
176
     1
  0
VISUALSTYLE
  5
3E
102
{ACAD_REACTORS
330
29
102
}
330
29
100
AcDbVisualStyle
  2
Shaded
 70
    27
177
     3
291
     0
 70
    58
 90
        2
176
     1
 90
        2
176
     1
 90
        1
176
     1
 90
        2
176
     1
 40
0.6
176
     1
 40
30.0
176
     1
 62
     7
420
 16777215
176
     1
 90
        0
176
     1
 90
        4
176
     1
 62
     7
176
     1
 62
   257
176
     1
 90
        1
176
     1
 90
        1
176
     1
 40
1.0
176
     1
 90
        8
176
     1
 62
   257
176
     1
 40
1.0
176
     1
 90
        1
176
     1
 90
        6
176
     1
 90
        2
176
     1
 62
     8
420
  7895160
176
     1
 90
        3
176
     1
 90
        0
176
     1
 90
        0
176
     1
290
     0
176
     1
 90
        5
176
     1
 40
0.0
176
     1
 90
        0
176
     1
290
     0
176
     1
290
     1
176
     1
290
     1
176
     1
290
     0
176
     1
290
     0
176
     1
290
     0
176
     1
290
     0
176
     1
290
     0
176
     1
290
     0
176
     1
 90
       50
176
     1
 40
0.0
176
     1
 40
1.0
176
     1
 90
        0
176
     1
 62
    18
420
        0
176
     1
 90
       50
176
     1
 90
        3
176
     1
 62
     5
420
      255
176
     1
290
     0
176
     1
 90
       50
176
     1
 90
       50
176
     1
 90
       50
176
     1
290
     0
176
     1
 90
       50
176
     1
 62
   256
176
     0
 40
1.0
176
     0
 90
        2
176
     1
  1
strokes_ogs.tif
176
     1
290
     0
176
     1
 40
1.0
176
     1
 40
1.0
176
     1
  0
VISUALSTYLE
  5
3D
102
{ACAD_REACTORS
330
29
102
}
330
29
100
AcDbVisualStyle
  2
Shaded with edges
 70
    26
177
     3
291
     0
 70
    58
 90
        2
176
     1
 90
        2
176
     1
 90
        1
176
     1
 90
        2
176
     1
 40
0.6
176
     1
 40
30.0
176
     1
 62
     7
420
 16777215
176
     1
 90
        1
176
     1
 90
        2
176
     1
 62
     7
176
     1
 62
   257
176
     1
 90
        2
176
     1
 90
        1
176
     1
 40
1.0
176
     1
 90
        8
176
     1
 62
   257
176
     1
 40
1.0
176
     1
 90
        1
176
     1
 90
        6
176
     1
 90
        2
176
     1
 62
     7
176
     1
 90
        3
176
     1
 90
        0
176
     1
 90
        0
176
     1
290
     0
176
     1
 90
        5
176
     1
 40
0.0
176
     1
 90
        0
176
     1
290
     0
176
     1
290
     1
176
     1
290
     1
176
     1
290
     0
176
     1
290
     0
176
     1
290
     0
176
     1
290
     0
176
     1
290
     0
176
     1
290
     0
176
     1
 90
       50
176
     1
 40
0.0
176
     1
 40
1.0
176
     1
 90
        0
176
     1
 62
    18
420
        0
176
     1
 90
       50
176
     1
 90
        3
176
     1
 62
     5
420
      255
176
     1
290
     0
176
     1
 90
       50
176
     1
 90
       50
176
     1
 90
       50
176
     1
290
     0
176
     1
 90
       50
176
     1
 62
   256
176
     0
 40
1.0
176
     0
 90
        2
176
     1
  1
strokes_ogs.tif
176
     1
290
     0
176
     1
 40
1.0
176
     1
 40
1.0
176
     1
  0
VISUALSTYLE
  5
3A
102
{ACAD_REACTORS
330
29
102
}
330
29
100
AcDbVisualStyle
  2
Shades of Gray
 70
    23
177
     3
291
     0
 70
    58
 90
        2
176
     1
 90
        2
176
     1
 90
        3
176
     1
 90
        0
176
     1
 40
0.6
176
     1
 40
30.0
176
     1
 62
     7
420
 16777215
176
     1
 90
        2
176
     1
 90
        2
176
     1
 62
     7
176
     1
 62
     7
176
     1
 90
        1
176
     1
 90
        1
176
     1
 40
40.0
176
     1
 90
        8
176
     1
 62
     7
176
     1
 40
1.0
176
     1
 90
        1
176
     1
 90
        6
176
     1
 90
        2
176
     1
 62
     7
176
     1
 90
        3
176
     1
 90
        0
176
     1
 90
        0
176
     1
290
     0
176
     1
 90
        1
176
     1
 40
0.0
176
     1
 90
        0
176
     1
290
     0
176
     1
290
     1
176
     1
290
     1
176
     1
290
     0
176
     1
290
     0
176
     1
290
     0
176
     1
290
     0
176
     1
290
     0
176
     1
290
     0
176
     1
 90
       50
176
     1
 40
0.0
176
     1
 40
1.0
176
     1
 90
        0
176
     1
 62
    18
420
        0
176
     1
 90
       50
176
     1
 90
        3
176
     1
 62
     5
420
      255
176
     1
290
     0
176
     1
 90
       50
176
     1
 90
       50
176
     1
 90
       50
176
     1
290
     0
176
     1
 90
       50
176
     1
 62
   256
176
     0
 40
1.0
176
     0
 90
        2
176
     1
  1
strokes_ogs.tif
176
     1
290
     0
176
     1
 40
1.0
176
     1
 40
1.0
176
     1
  0
VISUALSTYLE
  5
3B
102
{ACAD_REACTORS
330
29
102
}
330
29
100
AcDbVisualStyle
  2
Sketchy
 70
    24
177
     3
291
     0
 70
    58
 90
        1
176
     1
 90
        2
176
     1
 90
        2
176
     1
 90
        0
176
     1
 40
0.6
176
     1
 40
30.0
176
     1
 62
     7
420
 16777215
176
     1
 90
        2
176
     1
 90
        2
176
     1
 62
     7
176
     1
 62
     7
176
     1
 90
        1
176
     1
 90
        1
176
     1
 40
40.0
176
     1
 90
       11
176
     1
 62
     7
176
     1
 40
1.0
176
     1
 90
        1
176
     1
 90
        6
176
     1
 90
        2
176
     1
 62
     7
176
     1
 90
        6
176
     1
 90
        0
176
     1
 90
        0
176
     1
290
     0
176
     1
 90
        1
176
     1
 40
0.0
176
     1
 90
        0
176
     1
290
     0
176
     1
290
     1
176
     1
290
     1
176
     1
290
     0
176
     1
290
     0
176
     1
290
     0
176
     1
290
     0
176
     1
290
     0
176
     1
290
     0
176
     1
 90
       50
176
     1
 40
0.0
176
     1
 40
1.0
176
     1
 90
        0
176
     1
 62
    18
420
        0
176
     1
 90
       50
176
     1
 90
        3
176
     1
 62
     5
420
      255
176
     1
290
     0
176
     1
 90
       50
176
     1
 90
       50
176
     1
 90
       50
176
     1
290
     0
176
     1
 90
       50
176
     1
 62
   256
176
     0
 40
1.0
176
     0
 90
        2
176
     1
  1
strokes_ogs.tif
176
     1
290
     0
176
     1
 40
1.0
176
     1
 40
1.0
176
     1
  0
VISUALSTYLE
  5
36
102
{ACAD_REACTORS
330
29
102
}
330
29
100
AcDbVisualStyle
  2
Thicken
 70
    13
177
     3
291
     1
 70
    58
 90
        2
176
     1
 90
        2
176
     1
 90
        0
176
     1
 90
        0
176
     1
 40
0.6
176
     1
 40
30.0
176
     1
 62
     7
420
 16777215
176
     1
 90
        1
176
     1
 90
        4
176
     1
 62
     7
176
     1
 62
   257
176
     1
 90
        1
176
     1
 90
        1
176
     1
 40
1.0
176
     1
 90
       12
176
     1
 62
     7
176
     1
 40
1.0
176
     1
 90
        1
176
     1
 90
        6
176
     1
 90
        2
176
     1
 62
     7
176
     1
 90
        5
176
     1
 90
        0
176
     1
 90
        0
176
     1
290
     0
176
     1
 90
        1
176
     1
 40
0.0
176
     1
 90
        0
176
     1
290
     0
176
     1
290
     1
176
     1
290
     1
176
     1
290
     0
176
     1
290
     0
176
     1
290
     0
176
     1
290
     0
176
     1
290
     0
176
     1
290
     0
176
     1
 90
       50
176
     1
 40
0.0
176
     1
 40
1.0
176
     1
 90
        0
176
     1
 62
    18
420
        0
176
     1
 90
       50
176
     1
 90
        3
176
     1
 62
     5
420
      255
176
     1
290
     0
176
     1
 90
       50
176
     1
 90
       50
176
     1
 90
       50
176
     1
290
     0
176
     1
 90
       50
176
     1
 62
   256
176
     0
 40
1.0
176
     0
 90
        2
176
     1
  1
strokes_ogs.tif
176
     1
290
     0
176
     1
 40
1.0
176
     1
 40
1.0
176
     1
  0
VISUALSTYLE
  5
30
102
{ACAD_REACTORS
330
29
102
}
330
29
100
AcDbVisualStyle
  2
Wireframe
 70
     5
177
     3
291
     0
 70
    58
 90
        0
176
     1
 90
        2
176
     1
 90
        0
176
     1
 90
        0
176
     1
 40
0.6
176
     1
 40
30.0
176
     1
 62
     7
420
 16777215
176
     1
 90
        1
176
     1
 90
        4
176
     1
 62
     7
176
     1
 62
   257
176
     1
 90
        1
176
     1
 90
        1
176
     1
 40
1.0
176
     1
 90
        0
176
     1
 62
   257
176
     1
 40
1.0
176
     1
 90
        1
176
     1
 90
        6
176
     1
 90
        2
176
     1
 62
     7
176
     1
 90
        3
176
     1
 90
        0
176
     1
 90
        0
176
     1
290
     0
176
     1
 90
        1
176
     1
 40
0.0
176
     1
 90
        0
176
     1
290
     0
176
     1
290
     1
176
     1
290
     1
176
     1
290
     0
176
     1
290
     0
176
     1
290
     0
176
     1
290
     0
176
     1
290
     0
176
     1
290
     0
176
     1
 90
       50
176
     1
 40
0.0
176
     1
 40
1.0
176
     1
 90
        0
176
     1
 62
    18
420
        0
176
     1
 90
       50
176
     1
 90
        3
176
     1
 62
     5
420
      255
176
     1
290
     0
176
     1
 90
       50
176
     1
 90
       50
176
     1
 90
       50
176
     1
290
     0
176
     1
 90
       50
176
     1
 62
   256
176
     0
 40
1.0
176
     0
 90
        2
176
     1
  1
strokes_ogs.tif
176
     1
290
     0
176
     1
 40
1.0
176
     1
 40
1.0
176
     1
  0
VISUALSTYLE
  5
3C
102
{ACAD_REACTORS
330
29
102
}
330
29
100
AcDbVisualStyle
  2
X-Ray
 70
    25
177
     3
291
     0
 70
    58
 90
        2
176
     1
 90
        2
176
     1
 90
        1
176
     1
 90
        1
176
     1
 40
0.5
176
     1
 40
30.0
176
     1
 62
     7
420
 16777215
176
     1
 90
        1
176
     1
 90
        0
176
     1
 62
     7
176
     1
 62
   257
176
     1
 90
        1
176
     1
 90
        1
176
     1
 40
1.0
176
     1
 90
        8
176
     1
 62
     7
176
     1
 40
1.0
176
     1
 90
        1
176
     1
 90
        6
176
     1
 90
        2
176
     1
 62
     7
176
     1
 90
        3
176
     1
 90
        0
176
     1
 90
        0
176
     1
290
     0
176
     1
 90
       13
176
     1
 40
0.0
176
     1
 90
        0
176
     1
290
     0
176
     1
290
     1
176
     1
290
     1
176
     1
290
     0
176
     1
290
     0
176
     1
290
     0
176
     1
290
     0
176
     1
290
     0
176
     1
290
     0
176
     1
 90
       50
176
     1
 40
0.0
176
     1
 40
1.0
176
     1
 90
        0
176
     1
 62
    18
420
        0
176
     1
 90
       50
176
     1
 90
        3
176
     1
 62
     5
420
      255
176
     1
290
     0
176
     1
 90
       50
176
     1
 90
       50
176
     1
 90
       50
176
     1
290
     0
176
     1
 90
       50
176
     1
 62
   256
176
     0
 40
1.0
176
     0
 90
        2
176
     1
  1
strokes_ogs.tif
176
     1
290
     0
176
     1
 40
1.0
176
     1
 40
1.0
176
     1
  0
DICTIONARYVAR
  5
2CD
102
{ACAD_REACTORS
330
2C8
102
}
330
2C8
100
DictionaryVariables
280
     0
  1
1:1
  0
DICTIONARYVAR
  5
2CA
102
{ACAD_REACTORS
330
2C8
102
}
330
2C8
100
DictionaryVariables
280
     0
  1
STANDARD
  0
DICTIONARYVAR
  5
2C9
102
{ACAD_REACTORS
330
2C8
102
}
330
2C8
100
DictionaryVariables
280
     0
  1
STANDARD
  0
DICTIONARYVAR
  5
2CB
102
{ACAD_REACTORS
330
2C8
102
}
330
2C8
100
DictionaryVariables
280
     0
  1
Imperial24
  0
DICTIONARYVAR
  5
2CC
102
{ACAD_REACTORS
330
2C8
102
}
330
2C8
100
DictionaryVariables
280
     0
  1
Imperial24
  0
DICTIONARY
  5
1A
330
19
100
AcDbDictionary
280
     1
281
     1
  3
BUMPTILE
360
1C
  3
DIFFUSETILE
360
1B
  3
OPACITYTILE
360
1F
  3
REFLECTIONTILE
360
1E
  3
REFRACTIONTILE
360
20
  3
SPECULARTILE
360
1D
  0
DICTIONARY
  5
12
330
11
100
AcDbDictionary
280
     1
281
     1
  3
BUMPTILE
360
14
  3
DIFFUSETILE
360
13
  3
OPACITYTILE
360
17
  3
REFLECTIONTILE
360
16
  3
REFRACTIONTILE
360
18
  3
SPECULARTILE
360
15
  0
DICTIONARY
  5
22
330
21
100
AcDbDictionary
280
     1
281
     1
  3
BUMPTILE
360
24
  3
DIFFUSETILE
360
23
  3
OPACITYTILE
360
27
  3
REFLECTIONTILE
360
26
  3
REFRACTIONTILE
360
28
  3
SPECULARTILE
360
25
  0
DICTIONARY
  5
2CE
330
65
100
AcDbDictionary
280
     1
281
     1
  3
ACAD_ROUNDTRIP_2008_TABLESTYLE_CELLSTYLEMAP
360
2CF
  0
XRECORD
  5
1C
102
{ACAD_REACTORS
330
1A
102
}
330
1A
100
AcDbXrecord
280
     1
270
     1
271
     1
  0
XRECORD
  5
1B
102
{ACAD_REACTORS
330
1A
102
}
330
1A
100
AcDbXrecord
280
     1
270
     1
271
     1
  0
XRECORD
  5
1F
102
{ACAD_REACTORS
330
1A
102
}
330
1A
100
AcDbXrecord
280
     1
270
     1
271
     1
  0
XRECORD
  5
1E
102
{ACAD_REACTORS
330
1A
102
}
330
1A
100
AcDbXrecord
280
     1
270
     1
271
     1
  0
XRECORD
  5
20
102
{ACAD_REACTORS
330
1A
102
}
330
1A
100
AcDbXrecord
280
     1
270
     1
271
     1
  0
XRECORD
  5
1D
102
{ACAD_REACTORS
330
1A
102
}
330
1A
100
AcDbXrecord
280
     1
270
     1
271
     1
  0
XRECORD
  5
14
102
{ACAD_REACTORS
330
12
102
}
330
12
100
AcDbXrecord
280
     1
270
     1
271
     1
  0
XRECORD
  5
13
102
{ACAD_REACTORS
330
12
102
}
330
12
100
AcDbXrecord
280
     1
270
     1
271
     1
  0
XRECORD
  5
17
102
{ACAD_REACTORS
330
12
102
}
330
12
100
AcDbXrecord
280
     1
270
     1
271
     1
  0
XRECORD
  5
16
102
{ACAD_REACTORS
330
12
102
}
330
12
100
AcDbXrecord
280
     1
270
     1
271
     1
  0
XRECORD
  5
18
102
{ACAD_REACTORS
330
12
102
}
330
12
100
AcDbXrecord
280
     1
270
     1
271
     1
  0
XRECORD
  5
15
102
{ACAD_REACTORS
330
12
102
}
330
12
100
AcDbXrecord
280
     1
270
     1
271
     1
  0
XRECORD
  5
24
102
{ACAD_REACTORS
330
22
102
}
330
22
100
AcDbXrecord
280
     1
270
     1
271
     1
  0
XRECORD
  5
23
102
{ACAD_REACTORS
330
22
102
}
330
22
100
AcDbXrecord
280
     1
270
     1
271
     1
  0
XRECORD
  5
27
102
{ACAD_REACTORS
330
22
102
}
330
22
100
AcDbXrecord
280
     1
270
     1
271
     1
  0
XRECORD
  5
26
102
{ACAD_REACTORS
330
22
102
}
330
22
100
AcDbXrecord
280
     1
270
     1
271
     1
  0
XRECORD
  5
28
102
{ACAD_REACTORS
330
22
102
}
330
22
100
AcDbXrecord
280
     1
270
     1
271
     1
  0
XRECORD
  5
25
102
{ACAD_REACTORS
330
22
102
}
330
22
100
AcDbXrecord
280
     1
270
     1
271
     1
  0
CELLSTYLEMAP
  5
2CF
102
{ACAD_REACTORS
330
2CE
102
}
330
2CE
100
AcDbCellStyleMap
 90
        3
300
CELLSTYLE
  1
TABLEFORMAT_BEGIN
 90
        5
170
     1
 91
        0
 92
    32768
 62
   257
 93
        1
300
CONTENTFORMAT
  1
CONTENTFORMAT_BEGIN
 90
        0
 91
        0
 92
      512
 93
        0
300

 40
0.0
140
1.0
 94
        5
 62
     0
340
55
144
0.25
309
CONTENTFORMAT_END
171
     0
 94
        0
309
TABLEFORMAT_END
  1
CELLSTYLE_BEGIN
 90
        1
 91
        1
300
_TITLE
309
CELLSTYLE_END
300
CELLSTYLE
  1
TABLEFORMAT_BEGIN
 90
        5
170
     1
 91
        0
 92
        0
 62
   257
 93
        1
300
CONTENTFORMAT
  1
CONTENTFORMAT_BEGIN
 90
        0
 91
        0
 92
      512
 93
        0
300

 40
0.0
140
1.0
 94
        5
 62
     0
340
55
144
0.18
309
CONTENTFORMAT_END
171
     0
 94
        0
309
TABLEFORMAT_END
  1
CELLSTYLE_BEGIN
 90
        2
 91
        1
300
_HEADER
309
CELLSTYLE_END
300
CELLSTYLE
  1
TABLEFORMAT_BEGIN
 90
        5
170
     1
 91
        0
 92
        0
 62
   257
 93
        1
300
CONTENTFORMAT
  1
CONTENTFORMAT_BEGIN
 90
        0
 91
        0
 92
      512
 93
        0
300

 40
0.0
140
1.0
 94
        2
 62
     0
340
55
144
0.18
309
CONTENTFORMAT_END
171
     0
 94
        0
309
TABLEFORMAT_END
  1
CELLSTYLE_BEGIN
 90
        3
 91
        2
300
_DATA
309
CELLSTYLE_END
  0
ENDSEC
  0
EOF
