  0
SECTION
  2
HEADER
  9
$ACADVER
  1
AC1032
  9
$ACADMAINTVER
 90
      251
  9
$DWGCODEPAGE
  3
ANSI_1252
  9
$REQUIREDVERSIONS
160
                 0
  9
$INSBASE
 10
0.0
 20
0.0
 30
0.0
  9
$EXTMIN
 10
1.000000000000000E+20
 20
1.000000000000000E+20
 30
1.000000000000000E+20
  9
$EXTMAX
 10
-1.000000000000000E+20
 20
-1.000000000000000E+20
 30
-1.000000000000000E+20
  9
$LIMMIN
 10
0.0
 20
0.0
  9
$LIMMAX
 10
12.0
 20
9.0
  9
$ORTHOMODE
 70
     0
  9
$REGENMODE
 70
     1
  9
$FILLMODE
 70
     1
  9
$QTEXTMODE
 70
     0
  9
$MIRRTEXT
 70
     0
  9
$LTSCALE
 40
1.0
  9
$ATTMODE
 70
     1
  9
$TEXTSIZE
 40
0.2
  9
$TRACEWID
 40
0.05
  9
$TEXTSTYLE
  7
Standard
  9
$CLAYER
  8
0
  9
$CELTYPE
  6
ByLayer
  9
$CECOLOR
 62
   256
  9
$CELTSCALE
 40
1.0
  9
$DISPSILH
 70
     0
  9
$DIMSCALE
 40
1.0
  9
$DIMASZ
 40
0.18
  9
$DIMEXO
 40
0.0625
  9
$DIMDLI
 40
0.38
  9
$DIMRND
 40
0.0
  9
$DIMDLE
 40
0.0
  9
$DIMEXE
 40
0.18
  9
$DIMTP
 40
0.0
  9
$DIMTM
 40
0.0
  9
$DIMTXT
 40
0.18
  9
$DIMCEN
 40
0.09
  9
$DIMTSZ
 40
0.0
  9
$DIMTOL
 70
     0
  9
$DIMLIM
 70
     0
  9
$DIMTIH
 70
     1
  9
$DIMTOH
 70
     1
  9
$DIMSE1
 70
     0
  9
$DIMSE2
 70
     0
  9
$DIMTAD
 70
     0
  9
$DIMZIN
 70
     0
  9
$DIMBLK
  1

  9
$DIMASO
 70
     1
  9
$DIMSHO
 70
     1
  9
$DIMPOST
  1

  9
$DIMAPOST
  1

  9
$DIMALT
 70
     0
  9
$DIMALTD
 70
     2
  9
$DIMALTF
 40
25.4
  9
$DIMLFAC
 40
1.0
  9
$DIMTOFL
 70
     0
  9
$DIMTVP
 40
0.0
  9
$DIMTIX
 70
     0
  9
$DIMSOXD
 70
     0
  9
$DIMSAH
 70
     0
  9
$DIMBLK1
  1

  9
$DIMBLK2
  1

  9
$DIMSTYLE
  2
Standard
  9
$DIMCLRD
 70
     0
  9
$DIMCLRE
 70
     0
  9
$DIMCLRT
 70
     0
  9
$DIMTFAC
 40
1.0
  9
$DIMGAP
 40
0.09
  9
$DIMJUST
 70
     0
  9
$DIMSD1
 70
     0
  9
$DIMSD2
 70
     0
  9
$DIMTOLJ
 70
     1
  9
$DIMTZIN
 70
     0
  9
$DIMALTZ
 70
     0
  9
$DIMALTTZ
 70
     0
  9
$DIMUPT
 70
     0
  9
$DIMDEC
 70
     4
  9
$DIMTDEC
 70
     4
  9
$DIMALTU
 70
     2
  9
$DIMALTTD
 70
     2
  9
$DIMTXSTY
  7
Standard
  9
$DIMAUNIT
 70
     0
  9
$DIMADEC
 70
     0
  9
$DIMALTRND
 40
0.0
  9
$DIMAZIN
 70
     0
  9
$DIMDSEP
 70
    46
  9
$DIMATFIT
 70
     3
  9
$DIMFRAC
 70
     0
  9
$DIMLDRBLK
  1

  9
$DIMLUNIT
 70
     2
  9
$DIMLWD
 70
    -2
  9
$DIMLWE
 70
    -2
  9
$DIMTMOVE
 70
     0
  9
$DIMFXL
 40
1.0
  9
$DIMFXLON
 70
     0
  9
$DIMJOGANG
 40
0.7853981633974483
  9
$DIMTFILL
 70
     0
  9
$DIMTFILLCLR
 70
     0
  9
$DIMARCSYM
 70
     0
  9
$DIMLTYPE
  6

  9
$DIMLTEX1
  6

  9
$DIMLTEX2
  6

  9
$DIMTXTDIRECTION
 70
     0
  9
$LUNITS
 70
     2
  9
$LUPREC
 70
     4
  9
$SKETCHINC
 40
0.1
  9
$FILLETRAD
 40
0.0
  9
$AUNITS
 70
     0
  9
$AUPREC
 70
     0
  9
$MENU
  1
.
  9
$ELEVATION
 40
0.0
  9
$PELEVATION
 40
0.0
  9
$THICKNESS
 40
0.0
  9
$LIMCHECK
 70
     0
  9
$CHAMFERA
 40
0.0
  9
$CHAMFERB
 40
0.0
  9
$CHAMFERC
 40
0.0
  9
$CHAMFERD
 40
0.0
  9
$SKPOLY
 70
     0
  9
$TDCREATE
 40
2460097.578495370
  9
$TDUCREATE
 40
2460097.703495371
  9
$TDUPDATE
 40
2460097.578495370
  9
$TDUUPDATE
 40
2460097.703495371
  9
$TDINDWG
 40
0.0000000000
  9
$TDUSRTIMER
 40
0.0000000000
  9
$USRTIMER
 70
     1
  9
$ANGBASE
 50
0.0
  9
$ANGDIR
 70
     0
  9
$PDMODE
 70
     0
  9
$PDSIZE
 40
0.0
  9
$PLINEWID
 40
0.0
  9
$SPLFRAME
 70
     0
  9
$SPLINETYPE
 70
     6
  9
$SPLINESEGS
 70
     8
  9
$HANDSEED
  5
279
  9
$SURFTAB1
 70
     6
  9
$SURFTAB2
 70
     6
  9
$SURFTYPE
 70
     6
  9
$SURFU
 70
     6
  9
$SURFV
 70
     6
  9
$UCSBASE
  2

  9
$UCSNAME
  2

  9
$UCSORG
 10
0.0
 20
0.0
 30
0.0
  9
$UCSXDIR
 10
1.0
 20
0.0
 30
0.0
  9
$UCSYDIR
 10
0.0
 20
1.0
 30
0.0
  9
$UCSORTHOREF
  2

  9
$UCSORTHOVIEW
 70
     0
  9
$UCSORGTOP
 10
0.0
 20
0.0
 30
0.0
  9
$UCSORGBOTTOM
 10
0.0
 20
0.0
 30
0.0
  9
$UCSORGLEFT
 10
0.0
 20
0.0
 30
0.0
  9
$UCSORGRIGHT
 10
0.0
 20
0.0
 30
0.0
  9
$UCSORGFRONT
 10
0.0
 20
0.0
 30
0.0
  9
$UCSORGBACK
 10
0.0
 20
0.0
 30
0.0
  9
$PUCSBASE
  2

  9
$PUCSNAME
  2

  9
$PUCSORG
 10
0.0
 20
0.0
 30
0.0
  9
$PUCSXDIR
 10
1.0
 20
0.0
 30
0.0
  9
$PUCSYDIR
 10
0.0
 20
1.0
 30
0.0
  9
$PUCSORTHOREF
  2

  9
$PUCSORTHOVIEW
 70
     0
  9
$PUCSORGTOP
 10
0.0
 20
0.0
 30
0.0
  9
$PUCSORGBOTTOM
 10
0.0
 20
0.0
 30
0.0
  9
$PUCSORGLEFT
 10
0.0
 20
0.0
 30
0.0
  9
$PUCSORGRIGHT
 10
0.0
 20
0.0
 30
0.0
  9
$PUCSORGFRONT
 10
0.0
 20
0.0
 30
0.0
  9
$PUCSORGBACK
 10
0.0
 20
0.0
 30
0.0
  9
$USERI1
 70
     0
  9
$USERI2
 70
     0
  9
$USERI3
 70
     0
  9
$USERI4
 70
     0
  9
$USERI5
 70
     0
  9
$USERR1
 40
0.0
  9
$USERR2
 40
0.0
  9
$USERR3
 40
0.0
  9
$USERR4
 40
0.0
  9
$USERR5
 40
0.0
  9
$WORLDVIEW
 70
     1
  9
$SHADEDGE
 70
     3
  9
$SHADEDIF
 70
    70
  9
$TILEMODE
 70
     1
  9
$MAXACTVP
 70
    64
  9
$PINSBASE
 10
0.0
 20
0.0
 30
0.0
  9
$PLIMCHECK
 70
     0
  9
$PEXTMIN
 10
1.000000000000000E+20
 20
1.000000000000000E+20
 30
1.000000000000000E+20
  9
$PEXTMAX
 10
-1.000000000000000E+20
 20
-1.000000000000000E+20
 30
-1.000000000000000E+20
  9
$PLIMMIN
 10
0.0
 20
0.0
  9
$PLIMMAX
 10
12.0
 20
9.0
  9
$UNITMODE
 70
     0
  9
$VISRETAIN
 70
     1
  9
$PLINEGEN
 70
     0
  9
$PSLTSCALE
 70
     1
  9
$TREEDEPTH
 70
  3020
  9
$CMLSTYLE
  2
Standard
  9
$CMLJUST
 70
     0
  9
$CMLSCALE
 40
1.0
  9
$PROXYGRAPHICS
 70
     1
  9
$MEASUREMENT
 70
     0
  9
$CELWEIGHT
370
    -1
  9
$ENDCAPS
280
     0
  9
$JOINSTYLE
280
     0
  9
$LWDISPLAY
290
     1
  9
$INSUNITS
 70
     0
  9
$HYPERLINKBASE
  1

  9
$STYLESHEET
  1

  9
$XEDIT
290
     1
  9
$CEPSNTYPE
380
     0
  9
$PSTYLEMODE
290
     1
  9
$FINGERPRINTGUID
  2
{9337E01E-9BAE-0A47-AF93-65E372751C1B}
  9
$VERSIONGUID
  2
{D003FEAD-90B9-404C-A594-5D08C2D9755C}
  9
$EXTNAMES
290
     1
  9
$PSVPSCALE
 40
0.0
  9
$OLESTARTUP
290
     0
  9
$SORTENTS
280
   127
  9
$INDEXCTL
280
     0
  9
$HIDETEXT
280
     1
  9
$XCLIPFRAME
280
     2
  9
$HALOGAP
280
     0
  9
$OBSCOLOR
 70
   257
  9
$OBSLTYPE
280
     0
  9
$INTERSECTIONDISPLAY
280
     0
  9
$INTERSECTIONCOLOR
 70
   257
  9
$DIMASSOC
280
     2
  9
$PROJECTNAME
  1

  9
$CAMERADISPLAY
290
     0
  9
$LENSLENGTH
 40
50.0
  9
$CAMERAHEIGHT
 40
0.0
  9
$STEPSPERSEC
 40
2.0
  9
$STEPSIZE
 40
6.0
  9
$3DDWFPREC
 40
2.0
  9
$PSOLWIDTH
 40
0.25
  9
$PSOLHEIGHT
 40
4.0
  9
$LOFTANG1
 40
1.570796326794896
  9
$LOFTANG2
 40
1.570796326794896
  9
$LOFTMAG1
 40
0.0
  9
$LOFTMAG2
 40
0.0
  9
$LOFTPARAM
 70
     7
  9
$LOFTNORMALS
280
     1
  9
$LATITUDE
 40
37.795
  9
$LONGITUDE
 40
-122.394
  9
$NORTHDIRECTION
 40
0.0
  9
$TIMEZONE
 70
 -8000
  9
$LIGHTGLYPHDISPLAY
280
     1
  9
$TILEMODELIGHTSYNCH
280
     1
  9
$CMATERIAL
347
11
  9
$SOLIDHIST
280
     0
  9
$SHOWHIST
280
     1
  9
$DWFFRAME
280
     2
  9
$DGNFRAME
280
     0
  9
$REALWORLDSCALE
290
     1
  9
$INTERFERECOLOR
 62
     1
  9
$INTERFEREOBJVS
345
33
  9
$INTERFEREVPVS
346
30
  9
$CSHADOW
280
     0
  9
$SHADOWPLANELOCATION
 40
0.0
  0
ENDSEC
  0
SECTION
  2
CLASSES
  0
CLASS
  1
ACDBDICTIONARYWDFLT
  2
AcDbDictionaryWithDefault
  3
ObjectDBX Classes
 90
        0
 91
        1
280
     0
281
     0
  0
CLASS
  1
MATERIAL
  2
AcDbMaterial
  3
ObjectDBX Classes
 90
     1153
 91
        3
280
     0
281
     0
  0
CLASS
  1
VISUALSTYLE
  2
AcDbVisualStyle
  3
ObjectDBX Classes
 90
     4095
 91
       24
280
     0
281
     0
  0
CLASS
  1
SCALE
  2
AcDbScale
  3
ObjectDBX Classes
 90
     1153
 91
       17
280
     0
281
     0
  0
CLASS
  1
TABLESTYLE
  2
AcDbTableStyle
  3
ObjectDBX Classes
 90
     4095
 91
        1
280
     0
281
     0
  0
CLASS
  1
MLEADERSTYLE
  2
AcDbMLeaderStyle
  3
ACDB_MLEADERSTYLE_CLASS
 90
     4095
 91
        1
280
     0
281
     0
  0
CLASS
  1
ACDBSECTIONVIEWSTYLE
  2
AcDbSectionViewStyle
  3
ObjectDBX Classes
 90
     1025
 91
        1
280
     0
281
     0
  0
CLASS
  1
ACDBDETAILVIEWSTYLE
  2
AcDbDetailViewStyle
  3
ObjectDBX Classes
 90
     1025
 91
        1
280
     0
281
     0
  0
CLASS
  1
DICTIONARYVAR
  2
AcDbDictionaryVar
  3
ObjectDBX Classes
 90
        0
 91
        5
280
     0
281
     0
  0
CLASS
  1
CELLSTYLEMAP
  2
AcDbCellStyleMap
  3
ObjectDBX Classes
 90
     1152
 91
        1
280
     0
281
     0
  0
ENDSEC
  0
SECTION
  2
TABLES
  0
TABLE
  2
VPORT
  5
8
330
0
100
AcDbSymbolTable
 70
     1
  0
VPORT
  5
57
330
8
100
AcDbSymbolTableRecord
100
AcDbViewportTableRecord
  2
*Active
 70
     0
 10
0.0
 20
0.0
 11
1.0
 21
1.0
 12
0.0
 22
0.0
 13
0.0
 23
0.0
 14
1.0
 24
1.0
 15
0.0
 25
0.0
 16
0.0
 26
0.0
 36
1.0
 17
954.3717061642123
 27
761.9087868525921
 37
0.0
 40
348.2060406410246
 41
2.398470743927569
 42
50.0
 43
0.0
 44
0.0
 50
0.0
 51
0.0
 71
     0
 72
   100
 73
     1
 74
     1
 75
     0
 76
     0
 77
     0
 78
     0
281
     0
 65
     1
110
0.0
120
0.0
130
0.0
111
1.0
121
0.0
131
0.0
112
0.0
122
1.0
132
0.0
 79
     0
146
0.0
 60
     3
 61
     5
292
     1
282
     1
141
0.0
142
0.0
 63
   250
421
  3355443
  0
ENDTAB
  0
TABLE
  2
LTYPE
  5
5
330
0
100
AcDbSymbolTable
 70
     1
  0
LTYPE
  5
5B
330
5
100
AcDbSymbolTableRecord
100
AcDbLinetypeTableRecord
  2
ByBlock
 70
     0
  3

 72
    65
 73
     0
 40
0.0
  0
LTYPE
  5
5C
330
5
100
AcDbSymbolTableRecord
100
AcDbLinetypeTableRecord
  2
ByLayer
 70
     0
  3

 72
    65
 73
     0
 40
0.0
  0
LTYPE
  5
5D
330
5
100
AcDbSymbolTableRecord
100
AcDbLinetypeTableRecord
  2
Continuous
 70
     0
  3
Solid line
 72
    65
 73
     0
 40
0.0
  0
ENDTAB
  0
TABLE
  2
LAYER
  5
2
330
0
100
AcDbSymbolTable
 70
     2
  0
LAYER
  5
54
330
2
100
AcDbSymbolTableRecord
100
AcDbLayerTableRecord
  2
0
 70
     0
 62
     7
  6
Continuous
370
    -3
390
F
347
21
348
0
  0
LAYER
  5
78
330
2
100
AcDbSymbolTableRecord
100
AcDbLayerTableRecord
  2
Camada 1
 70
     0
 62
     7
  6
Continuous
370
     0
390
F
347
21
348
0
  0
ENDTAB
  0
TABLE
  2
STYLE
  5
3
330
0
100
AcDbSymbolTable
 70
     2
  0
STYLE
  5
55
330
3
100
AcDbSymbolTableRecord
100
AcDbTextStyleTableRecord
  2
Standard
 70
     0
 40
0.0
 41
1.0
 50
0.0
 71
     0
 42
0.2
  3
txt
  4

  0
STYLE
  5
5A
330
3
100
AcDbSymbolTableRecord
100
AcDbTextStyleTableRecord
  2
Annotative
 70
     0
 40
0.0
 41
1.0
 50
0.0
 71
     0
 42
0.2
  3
txt
  4

1001
AcadAnnotative
1000
AnnotativeData
1002
{
1070
     1
1070
     1
1002
}
  0
ENDTAB
  0
TABLE
  2
VIEW
  5
6
330
0
100
AcDbSymbolTable
 70
     0
  0
ENDTAB
  0
TABLE
  2
UCS
  5
7
330
0
100
AcDbSymbolTable
 70
     0
  0
ENDTAB
  0
TABLE
  2
APPID
  5
9
330
0
100
AcDbSymbolTable
 70
     2
  0
APPID
  5
56
330
9
100
AcDbSymbolTableRecord
100
AcDbRegAppTableRecord
  2
ACAD
 70
     0
  0
APPID
  5
5E
330
9
100
AcDbSymbolTableRecord
100
AcDbRegAppTableRecord
  2
AcadAnnotative
 70
     0
  0
ENDTAB
  0
TABLE
  2
DIMSTYLE
  5
A
330
0
100
AcDbSymbolTable
 70
     2
100
AcDbDimStyleTable
 71
     0
  0
DIMSTYLE
105
58
330
A
100
AcDbSymbolTableRecord
100
AcDbDimStyleTableRecord
  2
Standard
 70
     0
340
55
  0
DIMSTYLE
105
59
330
A
100
AcDbSymbolTableRecord
100
AcDbDimStyleTableRecord
  2
Annotative
 70
     0
340
55
1001
AcadAnnotative
1000
AnnotativeData
1002
{
1070
     1
1070
     1
1002
}
  0
ENDTAB
  0
TABLE
  2
BLOCK_RECORD
  5
1
330
0
100
AcDbSymbolTable
 70
     2
  0
BLOCK_RECORD
  5
70
330
1
100
AcDbSymbolTableRecord
100
AcDbBlockTableRecord
  2
*Model_Space
340
73
 70
     0
280
     1
281
     0
  0
BLOCK_RECORD
  5
6C
330
1
100
AcDbSymbolTableRecord
100
AcDbBlockTableRecord
  2
*Paper_Space
340
6F
 70
     0
280
     1
281
     0
  0
BLOCK_RECORD
  5
74
330
1
100
AcDbSymbolTableRecord
100
AcDbBlockTableRecord
  2
*Paper_Space0
340
77
 70
     0
280
     1
281
     0
  0
BLOCK_RECORD
  5
267
330
1
100
AcDbSymbolTableRecord
100
AcDbBlockTableRecord
  2
Block_0
340
0
102
{BLKREFS
331
268
102
}
 70
     0
280
     1
281
     0
  0
ENDTAB
  0
ENDSEC
  0
SECTION
  2
BLOCKS
  0
BLOCK
  5
71
330
70
100
AcDbEntity
  8
0
100
AcDbBlockBegin
  2
*Model_Space
 70
     0
 10
0.0
 20
0.0
 30
0.0
  3
*Model_Space
  1

  0
ENDBLK
  5
72
330
70
100
AcDbEntity
  8
0
100
AcDbBlockEnd
  0
BLOCK
  5
6D
330
6C
100
AcDbEntity
 67
     1
  8
0
100
AcDbBlockBegin
  2
*Paper_Space
 70
     0
 10
0.0
 20
0.0
 30
0.0
  3
*Paper_Space
  1

  0
ENDBLK
  5
6E
330
6C
100
AcDbEntity
 67
     1
  8
0
100
AcDbBlockEnd
  0
BLOCK
  5
75
330
74
100
AcDbEntity
 67
     1
  8
0
100
AcDbBlockBegin
  2
*Paper_Space0
 70
     0
 10
0.0
 20
0.0
 30
0.0
  3
*Paper_Space0
  1

  0
ENDBLK
  5
76
330
74
100
AcDbEntity
 67
     1
  8
0
100
AcDbBlockEnd
  0
BLOCK
  5
269
330
267
100
AcDbEntity
  8
0
100
AcDbBlockBegin
  2
Block_0
 70
     0
 10
0.0
 20
0.0
 30
0.0
  3
Block_0
  1

  0
SPLINE
  5
26B
330
267
100
AcDbEntity
  8
Camada 1
 62
   149
420
  3818319
370
    35
100
AcDbSpline
210
0.0
220
0.0
230
1.0
 70
     9
 71
     3
 72
    29
 73
    25
 74
     0
 42
0.0000000001
 43
0.0000000001
 40
0.0
 40
0.0
 40
0.0
 40
0.0
 40
1.0
 40
1.0
 40
1.0
 40
2.0
 40
2.0
 40
2.0
 40
3.0
 40
3.0
 40
3.0
 40
4.0
 40
4.0
 40
4.0
 40
5.0
 40
5.0
 40
5.0
 40
6.0
 40
6.0
 40
6.0
 40
7.0
 40
7.0
 40
7.0
 40
8.0
 40
8.0
 40
8.0
 40
8.0
 10
1325.507985021993
 20
634.6856940884754
 30
0.0
 10
1325.507985021993
 20
631.6263344997396
 30
0.0
 10
1323.006441760901
 20
629.1247943315393
 30
0.0
 10
1319.944923330125
 20
629.1247943315393
 30
0.0
 10
1319.944923330125
 20
629.1247943315393
 30
0.0
 10
1287.249774104337
 20
629.1247943315393
 30
0.0
 10
1287.249774104337
 20
629.1247943315393
 30
0.0
 10
1284.194738385453
 20
629.1247943315393
 30
0.0
 10
1281.691034220404
 20
631.6263344997396
 30
0.0
 10
1281.691034220404
 20
634.6856940884754
 30
0.0
 10
1281.691034220404
 20
634.6856940884754
 30
0.0
 10
1281.691034220404
 20
667.3851635757509
 30
0.0
 10
1281.691034220404
 20
667.3851635757509
 30
0.0
 10
1281.691034220404
 20
670.4402034184859
 30
0.0
 10
1284.194738385453
 20
672.9439034596798
 30
0.0
 10
1287.249774104337
 20
672.9439034596798
 30
0.0
 10
1287.249774104337
 20
672.9439034596798
 30
0.0
 10
1319.944923330125
 20
672.9439034596798
 30
0.0
 10
1319.944923330125
 20
672.9439034596798
 30
0.0
 10
1323.006441760901
 20
672.9439034596798
 30
0.0
 10
1325.507985021993
 20
670.4402034184859
 30
0.0
 10
1325.507985021993
 20
667.3851635757509
 30
0.0
 10
1325.507985021993
 20
667.3851635757509
 30
0.0
 10
1325.507985021993
 20
634.6856940884754
 30
0.0
 10
1325.507985021993
 20
634.6856940884754
 30
0.0
  0
LWPOLYLINE
  5
26C
330
267
100
AcDbEntity
  8
Camada 1
100
AcDbPolyline
 90
        4
 70
     1
 43
0.0
 10
1280.798308706675
 20
628.2324992459725
 10
1326.580597543325
 20
628.2324992459725
 10
1326.580597543325
 20
673.8353340805725
 10
1280.798308706675
 20
673.8353340805725
  0
ENDBLK
  5
26A
330
267
100
AcDbEntity
  8
0
100
AcDbBlockEnd
  0
ENDSEC
  0
SECTION
  2
ENTITIES
  0
LINE
  5
79
330
70
100
AcDbEntity
  8
Camada 1
 62
    18
420
        0
370
    35
100
AcDbLine
 10
623.9646681989397
 20
726.9065008430061
 30
0.0
 11
623.9646681989397
 21
793.8379259596777
 31
0.0
  0
LINE
  5
7A
330
70
100
AcDbEntity
  8
Camada 1
 62
    18
420
        0
370
    35
100
AcDbLine
 10
624.9489572907768
 20
725.9222117511671
 30
0.0
 11
624.9489572907768
 21
794.8221938580291
 31
0.0
  0
LINE
  5
7B
330
70
100
AcDbEntity
  8
Camada 1
 62
    18
420
        0
370
    35
100
AcDbLine
 10
625.4410912399525
 20
729.3008561697406
 30
0.0
 11
625.4410912399525
 21
748.725979316493
 31
0.0
  0
LINE
  5
7C
330
70
100
AcDbEntity
  8
Camada 1
100
AcDbLine
 10
625.4410912399525
 20
772.0184262927032
 30
0.0
 11
625.4410912399525
 21
791.4031334607689
 31
0.0
  0
LINE
  5
7D
330
70
100
AcDbEntity
  8
Camada 1
 62
    18
420
        0
370
    35
100
AcDbLine
 10
642.6660761699268
 20
737.2414833235953
 30
0.0
 11
642.6660761699268
 21
783.5029222856019
 31
0.0
  0
LINE
  5
7E
330
70
100
AcDbEntity
  8
Camada 1
 62
    18
420
        0
370
    35
100
AcDbLine
 10
645.6189434454408
 20
783.5029222856019
 30
0.0
 11
645.6189434454408
 21
737.2414833235953
 31
0.0
  0
LINE
  5
7F
330
70
100
AcDbEntity
  8
Camada 1
 62
    18
420
        0
370
    35
100
AcDbLine
 10
655.4617919768534
 20
737.2414833235953
 30
0.0
 11
655.4617919768534
 21
783.5029222856019
 31
0.0
  0
LINE
  5
80
330
70
100
AcDbEntity
  8
Camada 1
 62
    18
420
        0
370
    35
100
AcDbLine
 10
658.4146592523702
 20
783.5029222856019
 30
0.0
 11
658.4146592523702
 21
737.2414833235953
 31
0.0
  0
LINE
  5
81
330
70
100
AcDbEntity
  8
Camada 1
 62
    18
420
        0
370
    35
100
AcDbLine
 10
668.2575077837809
 20
737.2414833235953
 30
0.0
 11
668.2575077837809
 21
783.5029222856019
 31
0.0
  0
LINE
  5
82
330
70
100
AcDbEntity
  8
Camada 1
 62
    18
420
        0
370
    35
100
AcDbLine
 10
671.2103750592977
 20
783.5029222856019
 30
0.0
 11
671.2103750592977
 21
737.2414833235953
 31
0.0
  0
LINE
  5
83
330
70
100
AcDbEntity
  8
Camada 1
 62
    18
420
        0
370
    35
100
AcDbLine
 10
681.0532235907121
 20
737.2414833235953
 30
0.0
 11
681.0532235907121
 21
783.5029222856019
 31
0.0
  0
LINE
  5
84
330
70
100
AcDbEntity
  8
Camada 1
 62
    18
420
        0
370
    35
100
AcDbLine
 10
684.0060908662253
 20
783.5029222856019
 30
0.0
 11
684.0060908662253
 21
737.2414833235953
 31
0.0
  0
LINE
  5
85
330
70
100
AcDbEntity
  8
Camada 1
 62
    18
420
        0
370
    35
100
AcDbLine
 10
693.8489393976415
 20
737.2414833235953
 30
0.0
 11
693.8489393976415
 21
783.5029222856019
 31
0.0
  0
LINE
  5
86
330
70
100
AcDbEntity
  8
Camada 1
 62
    18
420
        0
370
    35
100
AcDbLine
 10
696.801785479669
 20
783.5029222856019
 30
0.0
 11
696.801785479669
 21
737.2414833235953
 31
0.0
  0
LINE
  5
87
330
70
100
AcDbEntity
  8
Camada 1
 62
    18
420
        0
370
    35
100
AcDbLine
 10
706.6446552045654
 20
737.2414833235953
 30
0.0
 11
706.6446552045654
 21
783.5029222856019
 31
0.0
  0
LINE
  5
88
330
70
100
AcDbEntity
  8
Camada 1
 62
    18
420
        0
370
    35
100
AcDbLine
 10
709.5975012865965
 20
783.5029222856019
 30
0.0
 11
709.5975012865965
 21
737.2414833235953
 31
0.0
  0
LINE
  5
89
330
70
100
AcDbEntity
  8
Camada 1
 62
    18
420
        0
370
    35
100
AcDbLine
 10
719.4403710114966
 20
737.2414833235953
 30
0.0
 11
719.4403710114966
 21
783.5029222856019
 31
0.0
  0
LINE
  5
8A
330
70
100
AcDbEntity
  8
Camada 1
 62
    18
420
        0
370
    35
100
AcDbLine
 10
722.3932170935259
 20
783.5029222856019
 30
0.0
 11
722.3932170935259
 21
737.2414833235953
 31
0.0
  0
LINE
  5
8B
330
70
100
AcDbEntity
  8
Camada 1
 62
    18
420
        0
370
    35
100
AcDbLine
 10
732.2360656249365
 20
737.2414833235953
 30
0.0
 11
732.2360656249365
 21
783.5029222856019
 31
0.0
  0
LINE
  5
8C
330
70
100
AcDbEntity
  8
Camada 1
 62
    18
420
        0
370
    35
100
AcDbLine
 10
735.1889329004534
 20
783.5029222856019
 30
0.0
 11
735.1889329004534
 21
737.2414833235953
 31
0.0
  0
LINE
  5
8D
330
70
100
AcDbEntity
  8
Camada 1
 62
    18
420
        0
370
    35
100
AcDbLine
 10
745.0317814318678
 20
737.2414833235953
 30
0.0
 11
745.0317814318678
 21
783.5029222856019
 31
0.0
  0
LINE
  5
8E
330
70
100
AcDbEntity
  8
Camada 1
 62
    18
420
        0
370
    35
100
AcDbLine
 10
747.9846487073809
 20
783.5029222856019
 30
0.0
 11
747.9846487073809
 21
737.2414833235953
 31
0.0
  0
LINE
  5
8F
330
70
100
AcDbEntity
  8
Camada 1
 62
    18
420
        0
370
    35
100
AcDbLine
 10
757.8274972387953
 20
737.2414833235953
 30
0.0
 11
757.8274972387953
 21
783.5029222856019
 31
0.0
  0
LINE
  5
90
330
70
100
AcDbEntity
  8
Camada 1
 62
    18
420
        0
370
    35
100
AcDbLine
 10
760.7803645143103
 20
783.5029222856019
 30
0.0
 11
760.7803645143103
 21
737.2414833235953
 31
0.0
  0
LINE
  5
91
330
70
100
AcDbEntity
  8
Camada 1
 62
    18
420
        0
370
    35
100
AcDbLine
 10
770.6232130457246
 20
737.2414833235953
 30
0.0
 11
770.6232130457246
 21
783.5029222856019
 31
0.0
  0
LINE
  5
92
330
70
100
AcDbEntity
  8
Camada 1
 62
    18
420
        0
370
    35
100
AcDbLine
 10
773.5760591277522
 20
783.5029222856019
 30
0.0
 11
773.5760591277522
 21
737.2414833235953
 31
0.0
  0
LINE
  5
93
330
70
100
AcDbEntity
  8
Camada 1
 62
    18
420
        0
370
    35
100
AcDbLine
 10
783.4189288526522
 20
737.2414833235953
 30
0.0
 11
783.4189288526522
 21
783.5029222856019
 31
0.0
  0
LINE
  5
94
330
70
100
AcDbEntity
  8
Camada 1
 62
    18
420
        0
370
    35
100
AcDbLine
 10
786.3717749346833
 20
783.5029222856019
 30
0.0
 11
786.3717749346833
 21
737.2414833235953
 31
0.0
  0
LINE
  5
95
330
70
100
AcDbEntity
  8
Camada 1
 62
    18
420
        0
370
    35
100
AcDbLine
 10
626.4261432973053
 20
791.8364978719819
 30
0.0
 11
625.4598262819863
 21
791.4510307401778
 31
0.0
  0
LINE
  5
96
330
70
100
AcDbEntity
  8
Camada 1
 62
    18
420
        0
370
    35
100
AcDbLine
 10
625.4410912399525
 20
729.3008561697406
 30
0.0
 11
626.4261432973053
 21
728.9079289307019
 31
0.0
  0
LINE
  5
97
330
70
100
AcDbEntity
  8
Camada 1
 62
    18
420
        0
370
    35
100
AcDbLine
 10
796.2146446595816
 20
737.2414833235953
 30
0.0
 11
796.2146446595816
 21
783.5029222856019
 31
0.0
  0
LINE
  5
98
330
70
100
AcDbEntity
  8
Camada 1
 62
    18
420
        0
370
    35
100
AcDbLine
 10
799.1674907416091
 20
783.5029222856019
 30
0.0
 11
799.1674907416091
 21
737.2414833235953
 31
0.0
  0
LINE
  5
99
330
70
100
AcDbEntity
  8
Camada 1
 62
    18
420
        0
370
    35
100
AcDbLine
 10
809.0103604665092
 20
737.2414833235953
 30
0.0
 11
809.0103604665092
 21
783.5029222856019
 31
0.0
  0
LINE
  5
9A
330
70
100
AcDbEntity
  8
Camada 1
 62
    18
420
        0
370
    35
100
AcDbLine
 10
811.9632065485385
 20
783.5029222856019
 30
0.0
 11
811.9632065485385
 21
737.2414833235953
 31
0.0
  0
LINE
  5
9B
330
70
100
AcDbEntity
  8
Camada 1
 62
    18
420
        0
370
    35
100
AcDbLine
 10
821.806055079951
 20
737.2414833235953
 30
0.0
 11
821.806055079951
 21
783.5029222856019
 31
0.0
  0
LINE
  5
9C
330
70
100
AcDbEntity
  8
Camada 1
 62
    18
420
        0
370
    35
100
AcDbLine
 10
824.7589011619783
 20
783.5029222856019
 30
0.0
 11
824.7589011619783
 21
737.2414833235953
 31
0.0
  0
LINE
  5
9D
330
70
100
AcDbEntity
  8
Camada 1
 62
    18
420
        0
370
    35
100
AcDbLine
 10
834.601792080366
 20
737.2414833235953
 30
0.0
 11
834.601792080366
 21
783.5029222856019
 31
0.0
  0
LINE
  5
9E
330
70
100
AcDbEntity
  8
Camada 1
 62
    18
420
        0
370
    35
100
AcDbLine
 10
837.5546381623953
 20
783.5029222856019
 30
0.0
 11
837.5546381623953
 21
737.2414833235953
 31
0.0
  0
LINE
  5
9F
330
70
100
AcDbEntity
  8
Camada 1
 62
    18
420
        0
370
    35
100
AcDbLine
 10
847.3974866938078
 20
737.2414833235953
 30
0.0
 11
847.3974866938078
 21
783.5029222856019
 31
0.0
  0
LINE
  5
A0
330
70
100
AcDbEntity
  8
Camada 1
 62
    18
420
        0
370
    35
100
AcDbLine
 10
850.3503327758389
 20
783.5029222856019
 30
0.0
 11
850.3503327758389
 21
737.2414833235953
 31
0.0
  0
LINE
  5
A1
330
70
100
AcDbEntity
  8
Camada 1
 62
    18
420
        0
370
    35
100
AcDbLine
 10
860.1931813072496
 20
737.2414833235953
 30
0.0
 11
860.1931813072496
 21
783.5029222856019
 31
0.0
  0
LINE
  5
A2
330
70
100
AcDbEntity
  8
Camada 1
 62
    18
420
        0
370
    35
100
AcDbLine
 10
863.1460697762522
 20
783.5029222856019
 30
0.0
 11
863.1460697762522
 21
737.2414833235953
 31
0.0
  0
LINE
  5
A3
330
70
100
AcDbEntity
  8
Camada 1
 62
    18
420
        0
370
    35
100
AcDbLine
 10
872.9889183076629
 20
737.2414833235953
 30
0.0
 11
872.9889183076629
 21
783.5029222856019
 31
0.0
  0
LINE
  5
A4
330
70
100
AcDbEntity
  8
Camada 1
 62
    18
420
        0
370
    35
100
AcDbLine
 10
875.941764389694
 20
783.5029222856019
 30
0.0
 11
875.941764389694
 21
737.2414833235953
 31
0.0
  0
LINE
  5
A5
330
70
100
AcDbEntity
  8
Camada 1
 62
    18
420
        0
370
    35
100
AcDbLine
 10
885.7846129211047
 20
737.2414833235953
 30
0.0
 11
885.7846129211047
 21
783.5029222856019
 31
0.0
  0
LINE
  5
A6
330
70
100
AcDbEntity
  8
Camada 1
 62
    18
420
        0
370
    35
100
AcDbLine
 10
888.7375013901092
 20
783.5029222856019
 30
0.0
 11
888.7375013901092
 21
737.2414833235953
 31
0.0
  0
LINE
  5
A7
330
70
100
AcDbEntity
  8
Camada 1
 62
    18
420
        0
370
    35
100
AcDbLine
 10
1031.669976994719
 20
728.4213264814943
 30
0.0
 11
1043.551384602109
 21
728.8359770441584
 31
0.0
  0
LINE
  5
A8
330
70
100
AcDbEntity
  8
Camada 1
 62
    18
420
        0
370
    35
100
AcDbLine
 10
864.0953684219402
 20
728.4213264814943
 30
0.0
 11
875.9767336423593
 21
728.8359770441584
 31
0.0
  0
LINE
  5
A9
330
70
100
AcDbEntity
  8
Camada 1
 62
    18
420
        0
370
    35
100
AcDbLine
 10
696.5207386556722
 20
728.4213264814943
 30
0.0
 11
708.4021250695786
 21
728.8359770441584
 31
0.0
  0
LINE
  5
AA
330
70
100
AcDbEntity
  8
Camada 1
 62
    18
420
        0
370
    35
100
AcDbLine
 10
1198.61064600039
 20
728.4161552707973
 30
0.0
 11
1210.49671617481
 21
728.7962604505228
 31
0.0
  0
LINE
  5
AB
330
70
100
AcDbEntity
  8
Camada 1
 62
    18
420
        0
370
    35
100
AcDbLine
 10
1213.551714861591
 20
725.9222117511671
 30
0.0
 11
624.9489572907768
 21
725.9222117511671
 31
0.0
  0
LINE
  5
AC
330
70
100
AcDbEntity
  8
Camada 1
 62
    18
420
        0
370
    35
100
AcDbLine
 10
623.9646681989397
 20
726.9065008430061
 30
0.0
 11
1214.536025146921
 21
726.9065008430061
 31
0.0
  0
LINE
  5
AD
330
70
100
AcDbEntity
  8
Camada 1
 62
    18
420
        0
370
    35
100
AcDbLine
 10
643.2148815019045
 20
728.3710343381153
 30
0.0
 11
693.0407681783163
 21
728.3710343381153
 31
0.0
  0
LINE
  5
AE
330
70
100
AcDbEntity
  8
Camada 1
 62
    18
420
        0
370
    35
100
AcDbLine
 10
810.3106656350101
 20
728.3710343381153
 30
0.0
 11
860.6153979445807
 21
728.3710343381153
 31
0.0
  0
LINE
  5
AF
330
70
100
AcDbEntity
  8
Camada 1
 62
    18
420
        0
370
    35
100
AcDbLine
 10
977.8852742077887
 20
728.3710343381153
 30
0.0
 11
1028.190006517359
 21
728.3710343381153
 31
0.0
  0
LINE
  5
B0
330
70
100
AcDbEntity
  8
Camada 1
 62
    18
420
        0
370
    35
100
AcDbLine
 10
1145.459882780569
 20
728.3710343381153
 30
0.0
 11
1195.285811843951
 21
728.3710343381153
 31
0.0
  0
LINE
  5
B1
330
70
100
AcDbEntity
  8
Camada 1
 62
    18
420
        0
370
    35
100
AcDbLine
 10
711.8820955469345
 20
728.8862903810231
 30
0.0
 11
791.4693382663863
 21
728.8862903810231
 31
0.0
  0
LINE
  5
B2
330
70
100
AcDbEntity
  8
Camada 1
 62
    18
420
        0
370
    35
100
AcDbLine
 10
879.4567041197151
 20
728.8862903810231
 30
0.0
 11
959.0439680326545
 21
728.8862903810231
 31
0.0
  0
LINE
  5
B3
330
70
100
AcDbEntity
  8
Camada 1
 62
    18
420
        0
370
    35
100
AcDbLine
 10
1047.031355079471
 20
728.8862903810231
 30
0.0
 11
1126.61857660544
 21
728.8862903810231
 31
0.0
  0
LINE
  5
B4
330
70
100
AcDbEntity
  8
Camada 1
 62
    18
420
        0
370
    35
100
AcDbLine
 10
628.0039771710489
 20
728.7962604505228
 30
0.0
 11
639.8900049584908
 21
728.4161552707973
 31
0.0
  0
LINE
  5
B5
330
70
100
AcDbEntity
  8
Camada 1
 62
    18
420
        0
370
    35
100
AcDbLine
 10
794.9493087437477
 20
728.8359770441584
 30
0.0
 11
806.8306739641649
 21
728.4213264814943
 31
0.0
  0
LINE
  5
B6
330
70
100
AcDbEntity
  8
Camada 1
 62
    18
420
        0
370
    35
100
AcDbLine
 10
962.5239385100103
 20
728.8359770441584
 30
0.0
 11
974.4053037304329
 21
728.4213264814943
 31
0.0
  0
LINE
  5
B7
330
70
100
AcDbEntity
  8
Camada 1
 62
    18
420
        0
370
    35
100
AcDbLine
 10
1130.098547082791
 20
728.8359770441584
 30
0.0
 11
1141.97991230321
 21
728.4213264814943
 31
0.0
  0
LINE
  5
B8
330
70
100
AcDbEntity
  8
Camada 1
 62
    18
420
        0
370
    35
100
AcDbLine
 10
1141.97991230321
 20
792.323057934218
 30
0.0
 11
1130.098547082791
 21
791.9084285650397
 31
0.0
  0
LINE
  5
B9
330
70
100
AcDbEntity
  8
Camada 1
 62
    18
420
        0
370
    35
100
AcDbLine
 10
708.4021250695786
 20
791.9084285650397
 30
0.0
 11
696.5207386556722
 21
792.323057934218
 31
0.0
  0
LINE
  5
BA
330
70
100
AcDbEntity
  8
Camada 1
 62
    18
420
        0
370
    35
100
AcDbLine
 10
949.7631707622621
 20
737.2414833235953
 30
0.0
 11
949.7631707622621
 21
783.5029222856019
 31
0.0
  0
LINE
  5
BB
330
70
100
AcDbEntity
  8
Camada 1
 62
    18
420
        0
370
    35
100
AcDbLine
 10
952.7160592312629
 20
783.5029222856019
 30
0.0
 11
952.7160592312629
 21
737.2414833235953
 31
0.0
  0
LINE
  5
BC
330
70
100
AcDbEntity
  8
Camada 1
 62
    18
420
        0
370
    35
100
AcDbLine
 10
962.5589077626791
 20
737.2414833235953
 30
0.0
 11
962.5589077626791
 21
783.5029222856019
 31
0.0
  0
LINE
  5
BD
330
70
100
AcDbEntity
  8
Camada 1
 62
    18
420
        0
370
    35
100
AcDbLine
 10
965.5117538447067
 20
783.5029222856019
 30
0.0
 11
965.5117538447067
 21
737.2414833235953
 31
0.0
  0
LINE
  5
BE
330
70
100
AcDbEntity
  8
Camada 1
 62
    18
420
        0
370
    35
100
AcDbLine
 10
974.4053037304329
 20
792.323057934218
 30
0.0
 11
962.5239385100103
 21
791.9084285650397
 31
0.0
  0
LINE
  5
BF
330
70
100
AcDbEntity
  8
Camada 1
 62
    18
420
        0
370
    35
100
AcDbLine
 10
806.8306739641649
 20
792.323057934218
 30
0.0
 11
794.9493087437477
 21
791.9084285650397
 31
0.0
  0
LINE
  5
C0
330
70
100
AcDbEntity
  8
Camada 1
 62
    18
420
        0
370
    35
100
AcDbLine
 10
639.8900049584908
 20
792.3282715318873
 30
0.0
 11
628.0039771710489
 21
791.9481451586725
 31
0.0
  0
LINE
  5
C1
330
70
100
AcDbEntity
  8
Camada 1
 62
    18
420
        0
370
    35
100
AcDbLine
 10
1126.61857660544
 20
791.8581152281749
 30
0.0
 11
1047.031355079471
 21
791.8581152281749
 31
0.0
  0
LINE
  5
C2
330
70
100
AcDbEntity
  8
Camada 1
 62
    18
420
        0
370
    35
100
AcDbLine
 10
959.0439680326545
 20
791.8581152281749
 30
0.0
 11
879.4567041197151
 21
791.8581152281749
 31
0.0
  0
LINE
  5
C3
330
70
100
AcDbEntity
  8
Camada 1
 62
    18
420
        0
370
    35
100
AcDbLine
 10
791.4693382663863
 20
791.8581152281749
 30
0.0
 11
711.8820955469345
 21
791.8581152281749
 31
0.0
  0
LINE
  5
C4
330
70
100
AcDbEntity
  8
Camada 1
 62
    18
420
        0
370
    35
100
AcDbLine
 10
1195.285811843951
 20
792.3733712710818
 30
0.0
 11
1145.459882780569
 21
792.3733712710818
 31
0.0
  0
LINE
  5
C5
330
70
100
AcDbEntity
  8
Camada 1
 62
    18
420
        0
370
    35
100
AcDbLine
 10
1028.190006517359
 20
792.3733712710818
 30
0.0
 11
977.8852742077887
 21
792.3733712710818
 31
0.0
  0
LINE
  5
C6
330
70
100
AcDbEntity
  8
Camada 1
 62
    18
420
        0
370
    35
100
AcDbLine
 10
860.6153979445807
 20
792.3733712710818
 30
0.0
 11
810.3106656350101
 21
792.3733712710818
 31
0.0
  0
LINE
  5
C7
330
70
100
AcDbEntity
  8
Camada 1
 62
    18
420
        0
370
    35
100
AcDbLine
 10
693.0407681783163
 20
792.3733712710818
 30
0.0
 11
643.2148815019045
 21
792.3733712710818
 31
0.0
  0
LINE
  5
C8
330
70
100
AcDbEntity
  8
Camada 1
 62
    18
420
        0
370
    35
100
AcDbLine
 10
623.9646681989397
 20
793.8379259596777
 30
0.0
 11
1214.536025146921
 21
793.8379259596777
 31
0.0
  0
LINE
  5
C9
330
70
100
AcDbEntity
  8
Camada 1
100
AcDbLine
 10
624.9489572907768
 20
794.8221938580291
 30
0.0
 11
1213.551714861591
 21
794.8221938580291
 31
0.0
  0
LINE
  5
CA
330
70
100
AcDbEntity
  8
Camada 1
 62
    18
420
        0
370
    35
100
AcDbLine
 10
1210.49671617481
 20
791.9481451586725
 30
0.0
 11
1198.61064600039
 21
792.3282715318873
 31
0.0
  0
LINE
  5
CB
330
70
100
AcDbEntity
  8
Camada 1
 62
    18
420
        0
370
    35
100
AcDbLine
 10
875.9767336423593
 20
791.9084285650397
 30
0.0
 11
864.0953684219402
 21
792.323057934218
 31
0.0
  0
LINE
  5
CC
330
70
100
AcDbEntity
  8
Camada 1
 62
    18
420
        0
370
    35
100
AcDbLine
 10
1043.551384602109
 20
791.9084285650397
 30
0.0
 11
1031.669976994719
 21
792.323057934218
 31
0.0
  0
LINE
  5
CD
330
70
100
AcDbEntity
  8
Camada 1
 62
    18
420
        0
370
    35
100
AcDbLine
 10
975.3546023761192
 20
737.2414833235953
 30
0.0
 11
975.3546023761192
 21
783.5029222856019
 31
0.0
  0
LINE
  5
CE
330
70
100
AcDbEntity
  8
Camada 1
 62
    18
420
        0
370
    35
100
AcDbLine
 10
978.3074908451199
 20
783.5029222856019
 30
0.0
 11
978.3074908451199
 21
737.2414833235953
 31
0.0
  0
LINE
  5
CF
330
70
100
AcDbEntity
  8
Camada 1
 62
    18
420
        0
370
    35
100
AcDbLine
 10
988.1503393765342
 20
737.2414833235953
 30
0.0
 11
988.1503393765342
 21
783.5029222856019
 31
0.0
  0
LINE
  5
D0
330
70
100
AcDbEntity
  8
Camada 1
 62
    18
420
        0
370
    35
100
AcDbLine
 10
991.1031854585617
 20
783.5029222856019
 30
0.0
 11
991.1031854585617
 21
737.2414833235953
 31
0.0
  0
LINE
  5
D1
330
70
100
AcDbEntity
  8
Camada 1
 62
    18
420
        0
370
    35
100
AcDbLine
 10
1000.94603398997
 20
737.2414833235953
 30
0.0
 11
1000.94603398997
 21
783.5029222856019
 31
0.0
  0
LINE
  5
D2
330
70
100
AcDbEntity
  8
Camada 1
 62
    18
420
        0
370
    35
100
AcDbLine
 10
1003.898880072011
 20
783.5029222856019
 30
0.0
 11
1003.898880072011
 21
737.2414833235953
 31
0.0
  0
LINE
  5
D3
330
70
100
AcDbEntity
  8
Camada 1
 62
    18
420
        0
370
    35
100
AcDbLine
 10
1013.741770990389
 20
737.2414833235953
 30
0.0
 11
1013.741770990389
 21
783.5029222856019
 31
0.0
  0
LINE
  5
D4
330
70
100
AcDbEntity
  8
Camada 1
 62
    18
420
        0
370
    35
100
AcDbLine
 10
1016.69461707242
 20
783.5029222856019
 30
0.0
 11
1016.69461707242
 21
737.2414833235953
 31
0.0
  0
LINE
  5
D5
330
70
100
AcDbEntity
  8
Camada 1
 62
    18
420
        0
370
    35
100
AcDbLine
 10
1026.537465603829
 20
737.2414833235953
 30
0.0
 11
1026.537465603829
 21
783.5029222856019
 31
0.0
  0
LINE
  5
D6
330
70
100
AcDbEntity
  8
Camada 1
 62
    18
420
        0
370
    35
100
AcDbLine
 10
1029.49031168586
 20
783.5029222856019
 30
0.0
 11
1029.49031168586
 21
737.2414833235953
 31
0.0
  0
LINE
  5
D7
330
70
100
AcDbEntity
  8
Camada 1
 62
    18
420
        0
370
    35
100
AcDbLine
 10
1039.333160217269
 20
737.2414833235953
 30
0.0
 11
1039.333160217269
 21
783.5029222856019
 31
0.0
  0
LINE
  5
D8
330
70
100
AcDbEntity
  8
Camada 1
 62
    18
420
        0
370
    35
100
AcDbLine
 10
1042.286048686281
 20
783.5029222856019
 30
0.0
 11
1042.286048686281
 21
737.2414833235953
 31
0.0
  0
LINE
  5
D9
330
70
100
AcDbEntity
  8
Camada 1
 62
    18
420
        0
370
    35
100
AcDbLine
 10
1052.12889721769
 20
737.2414833235953
 30
0.0
 11
1052.12889721769
 21
783.5029222856019
 31
0.0
  0
LINE
  5
DA
330
70
100
AcDbEntity
  8
Camada 1
 62
    18
420
        0
370
    35
100
AcDbLine
 10
1055.081743299721
 20
783.5029222856019
 30
0.0
 11
1055.081743299721
 21
737.2414833235953
 31
0.0
  0
LINE
  5
DB
330
70
100
AcDbEntity
  8
Camada 1
 62
    18
420
        0
370
    35
100
AcDbLine
 10
1064.92459183113
 20
737.2414833235953
 30
0.0
 11
1064.92459183113
 21
783.5029222856019
 31
0.0
  0
LINE
  5
DC
330
70
100
AcDbEntity
  8
Camada 1
 62
    18
420
        0
370
    35
100
AcDbLine
 10
1067.87748030014
 20
783.5029222856019
 30
0.0
 11
1067.87748030014
 21
737.2414833235953
 31
0.0
  0
LINE
  5
DD
330
70
100
AcDbEntity
  8
Camada 1
 62
    18
420
        0
370
    35
100
AcDbLine
 10
1212.07452885507
 20
728.9079289307019
 30
0.0
 11
1213.04086706387
 21
729.293396062506
 31
0.0
  0
LINE
  5
DE
330
70
100
AcDbEntity
  8
Camada 1
 62
    18
420
        0
370
    35
100
AcDbLine
 10
1213.059602105899
 20
791.4435282459699
 30
0.0
 11
1212.07452885507
 21
791.8364978719819
 31
0.0
  0
LINE
  5
DF
330
70
100
AcDbEntity
  8
Camada 1
 62
    18
420
        0
370
    35
100
AcDbLine
 10
1077.72032883155
 20
737.2414833235953
 30
0.0
 11
1077.72032883155
 21
783.5029222856019
 31
0.0
  0
LINE
  5
E0
330
70
100
AcDbEntity
  8
Camada 1
 62
    18
420
        0
370
    35
100
AcDbLine
 10
1080.67317491357
 20
783.5029222856019
 30
0.0
 11
1080.67317491357
 21
737.2414833235953
 31
0.0
  0
LINE
  5
E1
330
70
100
AcDbEntity
  8
Camada 1
 62
    18
420
        0
370
    35
100
AcDbLine
 10
1090.51602344499
 20
737.2414833235953
 30
0.0
 11
1090.51602344499
 21
783.5029222856019
 31
0.0
  0
LINE
  5
E2
330
70
100
AcDbEntity
  8
Camada 1
 62
    18
420
        0
370
    35
100
AcDbLine
 10
1093.468869527019
 20
783.5029222856019
 30
0.0
 11
1093.468869527019
 21
737.2414833235953
 31
0.0
  0
LINE
  5
E3
330
70
100
AcDbEntity
  8
Camada 1
 62
    18
420
        0
370
    35
100
AcDbLine
 10
1103.3117604454
 20
737.2414833235953
 30
0.0
 11
1103.3117604454
 21
783.5029222856019
 31
0.0
  0
LINE
  5
E4
330
70
100
AcDbEntity
  8
Camada 1
 62
    18
420
        0
370
    35
100
AcDbLine
 10
1106.264606527429
 20
783.5029222856019
 30
0.0
 11
1106.264606527429
 21
737.2414833235953
 31
0.0
  0
LINE
  5
E5
330
70
100
AcDbEntity
  8
Camada 1
 62
    18
420
        0
370
    35
100
AcDbLine
 10
1116.107455058849
 20
737.2414833235953
 30
0.0
 11
1116.107455058849
 21
783.5029222856019
 31
0.0
  0
LINE
  5
E6
330
70
100
AcDbEntity
  8
Camada 1
 62
    18
420
        0
370
    35
100
AcDbLine
 10
1119.06030114088
 20
783.5029222856019
 30
0.0
 11
1119.06030114088
 21
737.2414833235953
 31
0.0
  0
LINE
  5
E7
330
70
100
AcDbEntity
  8
Camada 1
 62
    18
420
        0
370
    35
100
AcDbLine
 10
1128.903149672289
 20
737.2414833235953
 30
0.0
 11
1128.903149672289
 21
783.5029222856019
 31
0.0
  0
LINE
  5
E8
330
70
100
AcDbEntity
  8
Camada 1
 62
    18
420
        0
370
    35
100
AcDbLine
 10
1131.85603814129
 20
783.5029222856019
 30
0.0
 11
1131.85603814129
 21
737.2414833235953
 31
0.0
  0
LINE
  5
E9
330
70
100
AcDbEntity
  8
Camada 1
 62
    18
420
        0
370
    35
100
AcDbLine
 10
1141.6988866727
 20
737.2414833235953
 30
0.0
 11
1141.6988866727
 21
783.5029222856019
 31
0.0
  0
LINE
  5
EA
330
70
100
AcDbEntity
  8
Camada 1
 62
    18
420
        0
370
    35
100
AcDbLine
 10
1144.65173275473
 20
783.5029222856019
 30
0.0
 11
1144.65173275473
 21
737.2414833235953
 31
0.0
  0
LINE
  5
EB
330
70
100
AcDbEntity
  8
Camada 1
 62
    18
420
        0
370
    35
100
AcDbLine
 10
1154.49458128614
 20
737.2414833235953
 30
0.0
 11
1154.49458128614
 21
783.5029222856019
 31
0.0
  0
LINE
  5
EC
330
70
100
AcDbEntity
  8
Camada 1
 62
    18
420
        0
370
    35
100
AcDbLine
 10
1157.44742736817
 20
783.5029222856019
 30
0.0
 11
1157.44742736817
 21
737.2414833235953
 31
0.0
  0
LINE
  5
ED
330
70
100
AcDbEntity
  8
Camada 1
 62
    18
420
        0
370
    35
100
AcDbLine
 10
1167.290318286559
 20
737.2414833235953
 30
0.0
 11
1167.290318286559
 21
783.5029222856019
 31
0.0
  0
LINE
  5
EE
330
70
100
AcDbEntity
  8
Camada 1
 62
    18
420
        0
370
    35
100
AcDbLine
 10
1170.24316436859
 20
783.5029222856019
 30
0.0
 11
1170.24316436859
 21
737.2414833235953
 31
0.0
  0
LINE
  5
EF
330
70
100
AcDbEntity
  8
Camada 1
 62
    18
420
        0
370
    35
100
AcDbLine
 10
1180.086012899999
 20
737.2414833235953
 30
0.0
 11
1180.086012899999
 21
783.5029222856019
 31
0.0
  0
LINE
  5
F0
330
70
100
AcDbEntity
  8
Camada 1
 62
    18
420
        0
370
    35
100
AcDbLine
 10
1183.03885898203
 20
783.5029222856019
 30
0.0
 11
1183.03885898203
 21
737.2414833235953
 31
0.0
  0
LINE
  5
F1
330
70
100
AcDbEntity
  8
Camada 1
 62
    18
420
        0
370
    35
100
AcDbLine
 10
1192.881707513439
 20
737.2414833235953
 30
0.0
 11
1192.881707513439
 21
783.5029222856019
 31
0.0
  0
LINE
  5
F2
330
70
100
AcDbEntity
  8
Camada 1
 62
    18
420
        0
370
    35
100
AcDbLine
 10
1195.83455359547
 20
783.5029222856019
 30
0.0
 11
1195.83455359547
 21
737.2414833235953
 31
0.0
  0
LINE
  5
F3
330
70
100
AcDbEntity
  8
Camada 1
 62
    18
420
        0
370
    35
100
AcDbLine
 10
1213.059602105899
 20
791.4435282459699
 30
0.0
 11
1213.059602105899
 21
772.0184262927032
 31
0.0
  0
LINE
  5
F4
330
70
100
AcDbEntity
  8
Camada 1
 62
    18
420
        0
370
    35
100
AcDbLine
 10
1213.059602105899
 20
729.3412721484282
 30
0.0
 11
1213.059602105899
 21
748.725979316493
 31
0.0
  0
LINE
  5
F5
330
70
100
AcDbEntity
  8
Camada 1
 62
    18
420
        0
370
    35
100
AcDbLine
 10
1213.551714861591
 20
725.9222117511671
 30
0.0
 11
1213.551714861591
 21
794.8221938580291
 31
0.0
  0
LINE
  5
F6
330
70
100
AcDbEntity
  8
Camada 1
 62
    18
420
        0
370
    35
100
AcDbLine
 10
1214.536025146921
 20
793.8379259596777
 30
0.0
 11
1214.536025146921
 21
726.9065008430061
 31
0.0
  0
LINE
  5
F7
330
70
100
AcDbEntity
  8
Camada 1
 62
    18
420
        0
370
    35
100
AcDbLine
 10
623.9646681989397
 20
862.0019430555975
 30
0.0
 11
623.9646681989397
 21
889.7587979554073
 31
0.0
  0
LINE
  5
F8
330
70
100
AcDbEntity
  8
Camada 1
 62
    18
420
        0
370
    35
100
AcDbLine
 10
624.9489572907768
 20
862.0019430555975
 30
0.0
 11
624.9489572907768
 21
889.7587979554073
 31
0.0
  0
LINE
  5
F9
330
70
100
AcDbEntity
  8
Camada 1
 62
    18
420
        0
370
    35
100
AcDbLine
 10
625.7363800868533
 20
860.2302099741955
 30
0.0
 11
1212.764334452489
 21
860.2302099741955
 31
0.0
  0
LINE
  5
FA
330
70
100
AcDbEntity
  8
Camada 1
 62
    18
420
        0
370
    35
100
AcDbLine
 10
624.9489572907768
 20
862.0019430555975
 30
0.0
 11
623.9646681989397
 21
862.0019430555975
 31
0.0
  0
LINE
  5
FB
330
70
100
AcDbEntity
  8
Camada 1
 62
    18
420
        0
370
    35
100
AcDbLine
 10
1213.551714861591
 20
862.0019430555975
 30
0.0
 11
1214.536025146921
 21
862.0019430555975
 31
0.0
  0
LINE
  5
FC
330
70
100
AcDbEntity
  8
Camada 1
 62
    18
420
        0
370
    35
100
AcDbLine
 10
1213.551714861591
 20
889.7587979554073
 30
0.0
 11
624.9489572907768
 21
889.7587979554073
 31
0.0
  0
LINE
  5
FD
330
70
100
AcDbEntity
  8
Camada 1
 62
    18
420
        0
370
    35
100
AcDbLine
 10
624.9489572907768
 20
889.7587979554073
 30
0.0
 11
623.9646681989397
 21
889.7587979554073
 31
0.0
  0
LINE
  5
FE
330
70
100
AcDbEntity
  8
Camada 1
 62
    18
420
        0
370
    35
100
AcDbLine
 10
1213.551714861591
 20
889.7587979554073
 30
0.0
 11
1214.536025146921
 21
889.7587979554073
 31
0.0
  0
LINE
  5
FF
330
70
100
AcDbEntity
  8
Camada 1
 62
    18
420
        0
370
    35
100
AcDbLine
 10
1213.551714861591
 20
862.0019430555975
 30
0.0
 11
1213.551714861591
 21
889.7587979554073
 31
0.0
  0
LINE
  5
100
330
70
100
AcDbEntity
  8
Camada 1
 62
    18
420
        0
370
    35
100
AcDbLine
 10
1214.536025146921
 20
862.0019430555975
 30
0.0
 11
1214.536025146921
 21
889.7587979554073
 31
0.0
  0
SPLINE
  5
101
330
70
100
AcDbEntity
  8
Camada 1
 62
    18
420
        0
370
    35
100
AcDbSpline
210
0.0
220
0.0
230
1.0
 70
     8
 71
     3
 72
     8
 73
     4
 74
     0
 42
0.0000000001
 43
0.0000000001
 40
0.0
 40
0.0
 40
0.0
 40
0.0
 40
1.0
 40
1.0
 40
1.0
 40
1.0
 10
626.4506217741691
 20
751.7121839462179
 30
0.0
 10
625.7958066228994
 20
750.8543987750818
 30
0.0
 10
625.4410912399525
 20
749.8051516472323
 30
0.0
 10
625.4410912399525
 20
748.725979316493
 30
0.0
  0
SPLINE
  5
102
330
70
100
AcDbEntity
  8
Camada 1
 62
    18
420
        0
370
    35
100
AcDbSpline
210
0.0
220
0.0
230
1.0
 70
     8
 71
     3
 72
     8
 73
     4
 74
     0
 42
0.0000000001
 43
0.0000000001
 40
0.0
 40
0.0
 40
0.0
 40
0.0
 40
1.0
 40
1.0
 40
1.0
 40
1.0
 10
642.6660761699268
 20
737.2414833235953
 30
0.0
 10
642.6660761699268
 20
736.4260851253866
 30
0.0
 10
643.3271010127318
 20
735.7650602825797
 30
0.0
 10
644.142520404428
 20
735.7650602825797
 30
0.0
  0
SPLINE
  5
103
330
70
100
AcDbEntity
  8
Camada 1
 62
    18
420
        0
370
    35
100
AcDbSpline
210
0.0
220
0.0
230
1.0
 70
     8
 71
     3
 72
     8
 73
     4
 74
     0
 42
0.0000000001
 43
0.0000000001
 40
0.0
 40
0.0
 40
0.0
 40
0.0
 40
1.0
 40
1.0
 40
1.0
 40
1.0
 10
644.142520404428
 20
735.7650602825797
 30
0.0
 10
644.9579186026367
 20
735.7650602825797
 30
0.0
 10
645.6189434454408
 20
736.4260851253866
 30
0.0
 10
645.6189434454408
 20
737.2414833235953
 30
0.0
  0
SPLINE
  5
104
330
70
100
AcDbEntity
  8
Camada 1
 62
    18
420
        0
370
    35
100
AcDbSpline
210
0.0
220
0.0
230
1.0
 70
     8
 71
     3
 72
     8
 73
     4
 74
     0
 42
0.0000000001
 43
0.0000000001
 40
0.0
 40
0.0
 40
0.0
 40
0.0
 40
1.0
 40
1.0
 40
1.0
 40
1.0
 10
655.4617919768534
 20
737.2414833235953
 30
0.0
 10
655.4617919768534
 20
736.4260851253866
 30
0.0
 10
656.1228168196612
 20
735.7650602825797
 30
0.0
 10
656.9382362113556
 20
735.7650602825797
 30
0.0
  0
SPLINE
  5
105
330
70
100
AcDbEntity
  8
Camada 1
 62
    18
420
        0
370
    35
100
AcDbSpline
210
0.0
220
0.0
230
1.0
 70
     8
 71
     3
 72
     8
 73
     4
 74
     0
 42
0.0000000001
 43
0.0000000001
 40
0.0
 40
0.0
 40
0.0
 40
0.0
 40
1.0
 40
1.0
 40
1.0
 40
1.0
 10
656.9382362113556
 20
735.7650602825797
 30
0.0
 10
657.7536344095642
 20
735.7650602825797
 30
0.0
 10
658.4146592523702
 20
736.4260851253866
 30
0.0
 10
658.4146592523702
 20
737.2414833235953
 30
0.0
  0
SPLINE
  5
106
330
70
100
AcDbEntity
  8
Camada 1
 62
    18
420
        0
370
    35
100
AcDbSpline
210
0.0
220
0.0
230
1.0
 70
     8
 71
     3
 72
     8
 73
     4
 74
     0
 42
0.0000000001
 43
0.0000000001
 40
0.0
 40
0.0
 40
0.0
 40
0.0
 40
1.0
 40
1.0
 40
1.0
 40
1.0
 10
668.2575077837809
 20
737.2414833235953
 30
0.0
 10
668.2575077837809
 20
736.4260851253866
 30
0.0
 10
668.9185326265906
 20
735.7650602825797
 30
0.0
 10
669.7339308247974
 20
735.7650602825797
 30
0.0
  0
SPLINE
  5
107
330
70
100
AcDbEntity
  8
Camada 1
 62
    18
420
        0
370
    35
100
AcDbSpline
210
0.0
220
0.0
230
1.0
 70
     8
 71
     3
 72
     8
 73
     4
 74
     0
 42
0.0000000001
 43
0.0000000001
 40
0.0
 40
0.0
 40
0.0
 40
0.0
 40
1.0
 40
1.0
 40
1.0
 40
1.0
 10
669.7339308247974
 20
735.7650602825797
 30
0.0
 10
670.5493502164918
 20
735.7650602825797
 30
0.0
 10
671.2103750592977
 20
736.4260851253866
 30
0.0
 10
671.2103750592977
 20
737.2414833235953
 30
0.0
  0
SPLINE
  5
108
330
70
100
AcDbEntity
  8
Camada 1
 62
    18
420
        0
370
    35
100
AcDbSpline
210
0.0
220
0.0
230
1.0
 70
     8
 71
     3
 72
     8
 73
     4
 74
     0
 42
0.0000000001
 43
0.0000000001
 40
0.0
 40
0.0
 40
0.0
 40
0.0
 40
1.0
 40
1.0
 40
1.0
 40
1.0
 10
681.0532235907121
 20
737.2414833235953
 30
0.0
 10
681.0532235907121
 20
736.4260851253866
 30
0.0
 10
681.7142484335163
 20
735.7650602825797
 30
0.0
 10
682.5296466317268
 20
735.7650602825797
 30
0.0
  0
SPLINE
  5
109
330
70
100
AcDbEntity
  8
Camada 1
 62
    18
420
        0
370
    35
100
AcDbSpline
210
0.0
220
0.0
230
1.0
 70
     8
 71
     3
 72
     8
 73
     4
 74
     0
 42
0.0000000001
 43
0.0000000001
 40
0.0
 40
0.0
 40
0.0
 40
0.0
 40
1.0
 40
1.0
 40
1.0
 40
1.0
 10
682.5296466317268
 20
735.7650602825797
 30
0.0
 10
683.3450660234212
 20
735.7650602825797
 30
0.0
 10
684.0060908662253
 20
736.4260851253866
 30
0.0
 10
684.0060908662253
 20
737.2414833235953
 30
0.0
  0
SPLINE
  5
10A
330
70
100
AcDbEntity
  8
Camada 1
 62
    18
420
        0
370
    35
100
AcDbSpline
210
0.0
220
0.0
230
1.0
 70
     8
 71
     3
 72
     8
 73
     4
 74
     0
 42
0.0000000001
 43
0.0000000001
 40
0.0
 40
0.0
 40
0.0
 40
0.0
 40
1.0
 40
1.0
 40
1.0
 40
1.0
 10
693.8489393976415
 20
737.2414833235953
 30
0.0
 10
693.8489393976415
 20
736.4260851253866
 30
0.0
 10
694.5099642404457
 20
735.7650602825797
 30
0.0
 10
695.3253624386543
 20
735.7650602825797
 30
0.0
  0
SPLINE
  5
10B
330
70
100
AcDbEntity
  8
Camada 1
 62
    18
420
        0
370
    35
100
AcDbSpline
210
0.0
220
0.0
230
1.0
 70
     8
 71
     3
 72
     8
 73
     4
 74
     0
 42
0.0000000001
 43
0.0000000001
 40
0.0
 40
0.0
 40
0.0
 40
0.0
 40
1.0
 40
1.0
 40
1.0
 40
1.0
 10
695.3253624386543
 20
735.7650602825797
 30
0.0
 10
696.1407818303505
 20
735.7650602825797
 30
0.0
 10
696.801785479669
 20
736.4260851253866
 30
0.0
 10
696.801785479669
 20
737.2414833235953
 30
0.0
  0
SPLINE
  5
10C
330
70
100
AcDbEntity
  8
Camada 1
 62
    18
420
        0
370
    35
100
AcDbSpline
210
0.0
220
0.0
230
1.0
 70
     8
 71
     3
 72
     8
 73
     4
 74
     0
 42
0.0000000001
 43
0.0000000001
 40
0.0
 40
0.0
 40
0.0
 40
0.0
 40
1.0
 40
1.0
 40
1.0
 40
1.0
 10
706.6446552045654
 20
737.2414833235953
 30
0.0
 10
706.6446552045654
 20
736.4260851253866
 30
0.0
 10
707.3056588538875
 20
735.7650602825797
 30
0.0
 10
708.1210782455837
 20
735.7650602825797
 30
0.0
  0
SPLINE
  5
10D
330
70
100
AcDbEntity
  8
Camada 1
 62
    18
420
        0
370
    35
100
AcDbSpline
210
0.0
220
0.0
230
1.0
 70
     8
 71
     3
 72
     8
 73
     4
 74
     0
 42
0.0000000001
 43
0.0000000001
 40
0.0
 40
0.0
 40
0.0
 40
0.0
 40
1.0
 40
1.0
 40
1.0
 40
1.0
 10
708.1210782455837
 20
735.7650602825797
 30
0.0
 10
708.9364764437923
 20
735.7650602825797
 30
0.0
 10
709.5975012865965
 20
736.4260851253866
 30
0.0
 10
709.5975012865965
 20
737.2414833235953
 30
0.0
  0
SPLINE
  5
10E
330
70
100
AcDbEntity
  8
Camada 1
 62
    18
420
        0
370
    35
100
AcDbSpline
210
0.0
220
0.0
230
1.0
 70
     8
 71
     3
 72
     8
 73
     4
 74
     0
 42
0.0000000001
 43
0.0000000001
 40
0.0
 40
0.0
 40
0.0
 40
0.0
 40
1.0
 40
1.0
 40
1.0
 40
1.0
 10
719.4403710114966
 20
737.2414833235953
 30
0.0
 10
719.4403710114966
 20
736.4260851253866
 30
0.0
 10
720.1013746608168
 20
735.7650602825797
 30
0.0
 10
720.9167940525112
 20
735.7650602825797
 30
0.0
  0
SPLINE
  5
10F
330
70
100
AcDbEntity
  8
Camada 1
 62
    18
420
        0
370
    35
100
AcDbSpline
210
0.0
220
0.0
230
1.0
 70
     8
 71
     3
 72
     8
 73
     4
 74
     0
 42
0.0000000001
 43
0.0000000001
 40
0.0
 40
0.0
 40
0.0
 40
0.0
 40
1.0
 40
1.0
 40
1.0
 40
1.0
 10
720.9167940525112
 20
735.7650602825797
 30
0.0
 10
721.7321922507198
 20
735.7650602825797
 30
0.0
 10
722.3932170935259
 20
736.4260851253866
 30
0.0
 10
722.3932170935259
 20
737.2414833235953
 30
0.0
  0
SPLINE
  5
110
330
70
100
AcDbEntity
  8
Camada 1
 62
    18
420
        0
370
    35
100
AcDbSpline
210
0.0
220
0.0
230
1.0
 70
     8
 71
     3
 72
     8
 73
     4
 74
     0
 42
0.0000000001
 43
0.0000000001
 40
0.0
 40
0.0
 40
0.0
 40
0.0
 40
1.0
 40
1.0
 40
1.0
 40
1.0
 10
732.2360656249365
 20
737.2414833235953
 30
0.0
 10
732.2360656249365
 20
736.4260851253866
 30
0.0
 10
732.8970904677444
 20
735.7650602825797
 30
0.0
 10
733.7125098594388
 20
735.7650602825797
 30
0.0
  0
SPLINE
  5
111
330
70
100
AcDbEntity
  8
Camada 1
 62
    18
420
        0
370
    35
100
AcDbSpline
210
0.0
220
0.0
230
1.0
 70
     8
 71
     3
 72
     8
 73
     4
 74
     0
 42
0.0000000001
 43
0.0000000001
 40
0.0
 40
0.0
 40
0.0
 40
0.0
 40
1.0
 40
1.0
 40
1.0
 40
1.0
 10
733.7125098594388
 20
735.7650602825797
 30
0.0
 10
734.5279080576474
 20
735.7650602825797
 30
0.0
 10
735.1889329004534
 20
736.4260851253866
 30
0.0
 10
735.1889329004534
 20
737.2414833235953
 30
0.0
  0
SPLINE
  5
112
330
70
100
AcDbEntity
  8
Camada 1
 62
    18
420
        0
370
    35
100
AcDbSpline
210
0.0
220
0.0
230
1.0
 70
     8
 71
     3
 72
     8
 73
     4
 74
     0
 42
0.0000000001
 43
0.0000000001
 40
0.0
 40
0.0
 40
0.0
 40
0.0
 40
1.0
 40
1.0
 40
1.0
 40
1.0
 10
745.0317814318678
 20
737.2414833235953
 30
0.0
 10
745.0317814318678
 20
736.4260851253866
 30
0.0
 10
745.6928062746719
 20
735.7650602825797
 30
0.0
 10
746.5082256663682
 20
735.7650602825797
 30
0.0
  0
SPLINE
  5
113
330
70
100
AcDbEntity
  8
Camada 1
 62
    18
420
        0
370
    35
100
AcDbSpline
210
0.0
220
0.0
230
1.0
 70
     8
 71
     3
 72
     8
 73
     4
 74
     0
 42
0.0000000001
 43
0.0000000001
 40
0.0
 40
0.0
 40
0.0
 40
0.0
 40
1.0
 40
1.0
 40
1.0
 40
1.0
 10
746.5082256663682
 20
735.7650602825797
 30
0.0
 10
747.3236238645768
 20
735.7650602825797
 30
0.0
 10
747.9846487073809
 20
736.4260851253866
 30
0.0
 10
747.9846487073809
 20
737.2414833235953
 30
0.0
  0
SPLINE
  5
114
330
70
100
AcDbEntity
  8
Camada 1
 62
    18
420
        0
370
    35
100
AcDbSpline
210
0.0
220
0.0
230
1.0
 70
     8
 71
     3
 72
     8
 73
     4
 74
     0
 42
0.0000000001
 43
0.0000000001
 40
0.0
 40
0.0
 40
0.0
 40
0.0
 40
1.0
 40
1.0
 40
1.0
 40
1.0
 10
757.8274972387953
 20
737.2414833235953
 30
0.0
 10
757.8274972387953
 20
736.4260851253866
 30
0.0
 10
758.4885220816013
 20
735.7650602825797
 30
0.0
 10
759.30392027981
 20
735.7650602825797
 30
0.0
  0
SPLINE
  5
115
330
70
100
AcDbEntity
  8
Camada 1
 62
    18
420
        0
370
    35
100
AcDbSpline
210
0.0
220
0.0
230
1.0
 70
     8
 71
     3
 72
     8
 73
     4
 74
     0
 42
0.0000000001
 43
0.0000000001
 40
0.0
 40
0.0
 40
0.0
 40
0.0
 40
1.0
 40
1.0
 40
1.0
 40
1.0
 10
759.30392027981
 20
735.7650602825797
 30
0.0
 10
760.1193396715043
 20
735.7650602825797
 30
0.0
 10
760.7803645143103
 20
736.4260851253866
 30
0.0
 10
760.7803645143103
 20
737.2414833235953
 30
0.0
  0
SPLINE
  5
116
330
70
100
AcDbEntity
  8
Camada 1
 62
    18
420
        0
370
    35
100
AcDbSpline
210
0.0
220
0.0
230
1.0
 70
     8
 71
     3
 72
     8
 73
     4
 74
     0
 42
0.0000000001
 43
0.0000000001
 40
0.0
 40
0.0
 40
0.0
 40
0.0
 40
1.0
 40
1.0
 40
1.0
 40
1.0
 10
770.6232130457246
 20
737.2414833235953
 30
0.0
 10
770.6232130457246
 20
736.4260851253866
 30
0.0
 10
771.2842378885288
 20
735.7650602825797
 30
0.0
 10
772.0996360867375
 20
735.7650602825797
 30
0.0
  0
SPLINE
  5
117
330
70
100
AcDbEntity
  8
Camada 1
 62
    18
420
        0
370
    35
100
AcDbSpline
210
0.0
220
0.0
230
1.0
 70
     8
 71
     3
 72
     8
 73
     4
 74
     0
 42
0.0000000001
 43
0.0000000001
 40
0.0
 40
0.0
 40
0.0
 40
0.0
 40
1.0
 40
1.0
 40
1.0
 40
1.0
 10
772.0996360867375
 20
735.7650602825797
 30
0.0
 10
772.9150554784319
 20
735.7650602825797
 30
0.0
 10
773.5760591277522
 20
736.4260851253866
 30
0.0
 10
773.5760591277522
 20
737.2414833235953
 30
0.0
  0
SPLINE
  5
118
330
70
100
AcDbEntity
  8
Camada 1
 62
    18
420
        0
370
    35
100
AcDbSpline
210
0.0
220
0.0
230
1.0
 70
     8
 71
     3
 72
     8
 73
     4
 74
     0
 42
0.0000000001
 43
0.0000000001
 40
0.0
 40
0.0
 40
0.0
 40
0.0
 40
1.0
 40
1.0
 40
1.0
 40
1.0
 10
783.4189288526522
 20
737.2414833235953
 30
0.0
 10
783.4189288526522
 20
736.4260851253866
 30
0.0
 10
784.0799536954563
 20
735.7650602825797
 30
0.0
 10
784.895351893665
 20
735.7650602825797
 30
0.0
  0
SPLINE
  5
119
330
70
100
AcDbEntity
  8
Camada 1
 62
    18
420
        0
370
    35
100
AcDbSpline
210
0.0
220
0.0
230
1.0
 70
     8
 71
     3
 72
     8
 73
     4
 74
     0
 42
0.0000000001
 43
0.0000000001
 40
0.0
 40
0.0
 40
0.0
 40
0.0
 40
1.0
 40
1.0
 40
1.0
 40
1.0
 10
784.895351893665
 20
735.7650602825797
 30
0.0
 10
785.7107712853612
 20
735.7650602825797
 30
0.0
 10
786.3717749346833
 20
736.4260851253866
 30
0.0
 10
786.3717749346833
 20
737.2414833235953
 30
0.0
  0
SPLINE
  5
11A
330
70
100
AcDbEntity
  8
Camada 1
 62
    18
420
        0
370
    35
100
AcDbSpline
210
0.0
220
0.0
230
1.0
 70
     8
 71
     3
 72
     8
 73
     4
 74
     0
 42
0.0000000001
 43
0.0000000001
 40
0.0
 40
0.0
 40
0.0
 40
0.0
 40
1.0
 40
1.0
 40
1.0
 40
1.0
 10
796.2146446595816
 20
737.2414833235953
 30
0.0
 10
796.2146446595816
 20
736.4260851253866
 30
0.0
 10
796.8756483089
 20
735.7650602825797
 30
0.0
 10
797.6910677005944
 20
735.7650602825797
 30
0.0
  0
SPLINE
  5
11B
330
70
100
AcDbEntity
  8
Camada 1
 62
    18
420
        0
370
    35
100
AcDbSpline
210
0.0
220
0.0
230
1.0
 70
     8
 71
     3
 72
     8
 73
     4
 74
     0
 42
0.0000000001
 43
0.0000000001
 40
0.0
 40
0.0
 40
0.0
 40
0.0
 40
1.0
 40
1.0
 40
1.0
 40
1.0
 10
797.6910677005944
 20
735.7650602825797
 30
0.0
 10
798.506465898803
 20
735.7650602825797
 30
0.0
 10
799.1674907416091
 20
736.4260851253866
 30
0.0
 10
799.1674907416091
 20
737.2414833235953
 30
0.0
  0
SPLINE
  5
11C
330
70
100
AcDbEntity
  8
Camada 1
 62
    18
420
        0
370
    35
100
AcDbSpline
210
0.0
220
0.0
230
1.0
 70
     8
 71
     3
 72
     8
 73
     4
 74
     0
 42
0.0000000001
 43
0.0000000001
 40
0.0
 40
0.0
 40
0.0
 40
0.0
 40
1.0
 40
1.0
 40
1.0
 40
1.0
 10
809.0103604665092
 20
737.2414833235953
 30
0.0
 10
809.0103604665092
 20
736.4260851253866
 30
0.0
 10
809.6713641158276
 20
735.7650602825797
 30
0.0
 10
810.486783507522
 20
735.7650602825797
 30
0.0
  0
SPLINE
  5
11D
330
70
100
AcDbEntity
  8
Camada 1
 62
    18
420
        0
370
    35
100
AcDbSpline
210
0.0
220
0.0
230
1.0
 70
     8
 71
     3
 72
     8
 73
     4
 74
     0
 42
0.0000000001
 43
0.0000000001
 40
0.0
 40
0.0
 40
0.0
 40
0.0
 40
1.0
 40
1.0
 40
1.0
 40
1.0
 10
810.486783507522
 20
735.7650602825797
 30
0.0
 10
811.3021817057306
 20
735.7650602825797
 30
0.0
 10
811.9632065485385
 20
736.4260851253866
 30
0.0
 10
811.9632065485385
 20
737.2414833235953
 30
0.0
  0
SPLINE
  5
11E
330
70
100
AcDbEntity
  8
Camada 1
 62
    18
420
        0
370
    35
100
AcDbSpline
210
0.0
220
0.0
230
1.0
 70
     8
 71
     3
 72
     8
 73
     4
 74
     0
 42
0.0000000001
 43
0.0000000001
 40
0.0
 40
0.0
 40
0.0
 40
0.0
 40
1.0
 40
1.0
 40
1.0
 40
1.0
 10
821.806055079951
 20
737.2414833235953
 30
0.0
 10
821.806055079951
 20
736.4260851253866
 30
0.0
 10
822.4670799227569
 20
735.7650602825797
 30
0.0
 10
823.2824781209655
 20
735.7650602825797
 30
0.0
  0
SPLINE
  5
11F
330
70
100
AcDbEntity
  8
Camada 1
 62
    18
420
        0
370
    35
100
AcDbSpline
210
0.0
220
0.0
230
1.0
 70
     8
 71
     3
 72
     8
 73
     4
 74
     0
 42
0.0000000001
 43
0.0000000001
 40
0.0
 40
0.0
 40
0.0
 40
0.0
 40
1.0
 40
1.0
 40
1.0
 40
1.0
 10
823.2824781209655
 20
735.7650602825797
 30
0.0
 10
824.0979187061457
 20
735.7650602825797
 30
0.0
 10
824.7589011619783
 20
736.4260851253866
 30
0.0
 10
824.7589011619783
 20
737.2414833235953
 30
0.0
  0
SPLINE
  5
120
330
70
100
AcDbEntity
  8
Camada 1
 62
    18
420
        0
370
    35
100
AcDbSpline
210
0.0
220
0.0
230
1.0
 70
     8
 71
     3
 72
     8
 73
     4
 74
     0
 42
0.0000000001
 43
0.0000000001
 40
0.0
 40
0.0
 40
0.0
 40
0.0
 40
1.0
 40
1.0
 40
1.0
 40
1.0
 10
834.601792080366
 20
737.2414833235953
 30
0.0
 10
834.601792080366
 20
736.4260851253866
 30
0.0
 10
835.2627745361987
 20
735.7650602825797
 30
0.0
 10
836.0782151213788
 20
735.7650602825797
 30
0.0
  0
SPLINE
  5
121
330
70
100
AcDbEntity
  8
Camada 1
 62
    18
420
        0
370
    35
100
AcDbSpline
210
0.0
220
0.0
230
1.0
 70
     8
 71
     3
 72
     8
 73
     4
 74
     0
 42
0.0000000001
 43
0.0000000001
 40
0.0
 40
0.0
 40
0.0
 40
0.0
 40
1.0
 40
1.0
 40
1.0
 40
1.0
 10
836.0782151213788
 20
735.7650602825797
 30
0.0
 10
836.8936133195875
 20
735.7650602825797
 30
0.0
 10
837.5546381623953
 20
736.4260851253866
 30
0.0
 10
837.5546381623953
 20
737.2414833235953
 30
0.0
  0
SPLINE
  5
122
330
70
100
AcDbEntity
  8
Camada 1
 62
    18
420
        0
370
    35
100
AcDbSpline
210
0.0
220
0.0
230
1.0
 70
     8
 71
     3
 72
     8
 73
     4
 74
     0
 42
0.0000000001
 43
0.0000000001
 40
0.0
 40
0.0
 40
0.0
 40
0.0
 40
1.0
 40
1.0
 40
1.0
 40
1.0
 10
847.3974866938078
 20
737.2414833235953
 30
0.0
 10
847.3974866938078
 20
736.4260851253866
 30
0.0
 10
848.0585115366121
 20
735.7650602825797
 30
0.0
 10
848.8739097348226
 20
735.7650602825797
 30
0.0
  0
SPLINE
  5
123
330
70
100
AcDbEntity
  8
Camada 1
 62
    18
420
        0
370
    35
100
AcDbSpline
210
0.0
220
0.0
230
1.0
 70
     8
 71
     3
 72
     8
 73
     4
 74
     0
 42
0.0000000001
 43
0.0000000001
 40
0.0
 40
0.0
 40
0.0
 40
0.0
 40
1.0
 40
1.0
 40
1.0
 40
1.0
 10
848.8739097348226
 20
735.7650602825797
 30
0.0
 10
849.6893079330311
 20
735.7650602825797
 30
0.0
 10
850.3503327758389
 20
736.4260851253866
 30
0.0
 10
850.3503327758389
 20
737.2414833235953
 30
0.0
  0
SPLINE
  5
124
330
70
100
AcDbEntity
  8
Camada 1
 62
    18
420
        0
370
    35
100
AcDbSpline
210
0.0
220
0.0
230
1.0
 70
     8
 71
     3
 72
     8
 73
     4
 74
     0
 42
0.0000000001
 43
0.0000000001
 40
0.0
 40
0.0
 40
0.0
 40
0.0
 40
1.0
 40
1.0
 40
1.0
 40
1.0
 10
860.1931813072496
 20
737.2414833235953
 30
0.0
 10
860.1931813072496
 20
736.4260851253866
 30
0.0
 10
860.8542061500557
 20
735.7650602825797
 30
0.0
 10
861.6696467352394
 20
735.7650602825797
 30
0.0
  0
SPLINE
  5
125
330
70
100
AcDbEntity
  8
Camada 1
 62
    18
420
        0
370
    35
100
AcDbSpline
210
0.0
220
0.0
230
1.0
 70
     8
 71
     3
 72
     8
 73
     4
 74
     0
 42
0.0000000001
 43
0.0000000001
 40
0.0
 40
0.0
 40
0.0
 40
0.0
 40
1.0
 40
1.0
 40
1.0
 40
1.0
 10
861.6696467352394
 20
735.7650602825797
 30
0.0
 10
862.4850449334443
 20
735.7650602825797
 30
0.0
 10
863.1460697762522
 20
736.4260851253866
 30
0.0
 10
863.1460697762522
 20
737.2414833235953
 30
0.0
  0
SPLINE
  5
126
330
70
100
AcDbEntity
  8
Camada 1
 62
    18
420
        0
370
    35
100
AcDbSpline
210
0.0
220
0.0
230
1.0
 70
     8
 71
     3
 72
     8
 73
     4
 74
     0
 42
0.0000000001
 43
0.0000000001
 40
0.0
 40
0.0
 40
0.0
 40
0.0
 40
1.0
 40
1.0
 40
1.0
 40
1.0
 10
872.9889183076629
 20
737.2414833235953
 30
0.0
 10
872.9889183076629
 20
736.4260851253866
 30
0.0
 10
873.6499431504725
 20
735.7650602825797
 30
0.0
 10
874.4653413486812
 20
735.7650602825797
 30
0.0
  0
SPLINE
  5
127
330
70
100
AcDbEntity
  8
Camada 1
 62
    18
420
        0
370
    35
100
AcDbSpline
210
0.0
220
0.0
230
1.0
 70
     8
 71
     3
 72
     8
 73
     4
 74
     0
 42
0.0000000001
 43
0.0000000001
 40
0.0
 40
0.0
 40
0.0
 40
0.0
 40
1.0
 40
1.0
 40
1.0
 40
1.0
 10
874.4653413486812
 20
735.7650602825797
 30
0.0
 10
875.2807395468861
 20
735.7650602825797
 30
0.0
 10
875.941764389694
 20
736.4260851253866
 30
0.0
 10
875.941764389694
 20
737.2414833235953
 30
0.0
  0
SPLINE
  5
128
330
70
100
AcDbEntity
  8
Camada 1
 62
    18
420
        0
370
    35
100
AcDbSpline
210
0.0
220
0.0
230
1.0
 70
     8
 71
     3
 72
     8
 73
     4
 74
     0
 42
0.0000000001
 43
0.0000000001
 40
0.0
 40
0.0
 40
0.0
 40
0.0
 40
1.0
 40
1.0
 40
1.0
 40
1.0
 10
885.7846129211047
 20
737.2414833235953
 30
0.0
 10
885.7846129211047
 20
736.4260851253866
 30
0.0
 10
886.4456377639143
 20
735.7650602825797
 30
0.0
 10
887.2610359621194
 20
735.7650602825797
 30
0.0
  0
SPLINE
  5
129
330
70
100
AcDbEntity
  8
Camada 1
 62
    18
420
        0
370
    35
100
AcDbSpline
210
0.0
220
0.0
230
1.0
 70
     8
 71
     3
 72
     8
 73
     4
 74
     0
 42
0.0000000001
 43
0.0000000001
 40
0.0
 40
0.0
 40
0.0
 40
0.0
 40
1.0
 40
1.0
 40
1.0
 40
1.0
 10
887.2610359621194
 20
735.7650602825797
 30
0.0
 10
888.0764765473031
 20
735.7650602825797
 30
0.0
 10
888.7375013901092
 20
736.4260851253866
 30
0.0
 10
888.7375013901092
 20
737.2414833235953
 30
0.0
  0
SPLINE
  5
12A
330
70
100
AcDbEntity
  8
Camada 1
 62
    18
420
        0
370
    35
100
AcDbSpline
210
0.0
220
0.0
230
1.0
 70
     8
 71
     3
 72
     8
 73
     4
 74
     0
 42
0.0000000001
 43
0.0000000001
 40
0.0
 40
0.0
 40
0.0
 40
0.0
 40
1.0
 40
1.0
 40
1.0
 40
1.0
 10
626.4506217741691
 20
769.0322216629793
 30
0.0
 10
630.3541016915342
 20
763.9186996359658
 30
0.0
 10
630.3541016915342
 20
756.825727166718
 30
0.0
 10
626.4506217741691
 20
751.7121839462179
 30
0.0
  0
SPLINE
  5
12B
330
70
100
AcDbEntity
  8
Camada 1
 62
    18
420
        0
370
    35
100
AcDbSpline
210
0.0
220
0.0
230
1.0
 70
     8
 71
     3
 72
     8
 73
     4
 74
     0
 42
0.0000000001
 43
0.0000000001
 40
0.0
 40
0.0
 40
0.0
 40
0.0
 40
1.0
 40
1.0
 40
1.0
 40
1.0
 10
625.4410912399525
 20
772.0184262927032
 30
0.0
 10
625.4410912399525
 20
770.9392539619657
 30
0.0
 10
625.7958066228994
 20
769.8900068341154
 30
0.0
 10
626.4506217741691
 20
769.0322216629793
 30
0.0
  0
SPLINE
  5
12C
330
70
100
AcDbEntity
  8
Camada 1
 62
    18
420
        0
370
    35
100
AcDbSpline
210
0.0
220
0.0
230
1.0
 70
     8
 71
     3
 72
     8
 73
     4
 74
     0
 42
0.0000000001
 43
0.0000000001
 40
0.0
 40
0.0
 40
0.0
 40
0.0
 40
1.0
 40
1.0
 40
1.0
 40
1.0
 10
645.6189434454408
 20
783.5029222856019
 30
0.0
 10
645.6189434454408
 20
784.3183204838124
 30
0.0
 10
644.9579186026367
 20
784.9793453266183
 30
0.0
 10
644.142520404428
 20
784.9793453266183
 30
0.0
  0
SPLINE
  5
12D
330
70
100
AcDbEntity
  8
Camada 1
 62
    18
420
        0
370
    35
100
AcDbSpline
210
0.0
220
0.0
230
1.0
 70
     8
 71
     3
 72
     8
 73
     4
 74
     0
 42
0.0000000001
 43
0.0000000001
 40
0.0
 40
0.0
 40
0.0
 40
0.0
 40
1.0
 40
1.0
 40
1.0
 40
1.0
 10
644.142520404428
 20
784.9793453266183
 30
0.0
 10
643.3271010127318
 20
784.9793453266183
 30
0.0
 10
642.6660761699268
 20
784.3183204838124
 30
0.0
 10
642.6660761699268
 20
783.5029222856019
 30
0.0
  0
SPLINE
  5
12E
330
70
100
AcDbEntity
  8
Camada 1
 62
    18
420
        0
370
    35
100
AcDbSpline
210
0.0
220
0.0
230
1.0
 70
     8
 71
     3
 72
     8
 73
     4
 74
     0
 42
0.0000000001
 43
0.0000000001
 40
0.0
 40
0.0
 40
0.0
 40
0.0
 40
1.0
 40
1.0
 40
1.0
 40
1.0
 10
658.4146592523702
 20
783.5029222856019
 30
0.0
 10
658.4146592523702
 20
784.3183204838124
 30
0.0
 10
657.7536344095642
 20
784.9793453266183
 30
0.0
 10
656.9382362113556
 20
784.9793453266183
 30
0.0
  0
SPLINE
  5
12F
330
70
100
AcDbEntity
  8
Camada 1
 62
    18
420
        0
370
    35
100
AcDbSpline
210
0.0
220
0.0
230
1.0
 70
     8
 71
     3
 72
     8
 73
     4
 74
     0
 42
0.0000000001
 43
0.0000000001
 40
0.0
 40
0.0
 40
0.0
 40
0.0
 40
1.0
 40
1.0
 40
1.0
 40
1.0
 10
656.9382362113556
 20
784.9793453266183
 30
0.0
 10
656.1228168196612
 20
784.9793453266183
 30
0.0
 10
655.4617919768534
 20
784.3183204838124
 30
0.0
 10
655.4617919768534
 20
783.5029222856019
 30
0.0
  0
SPLINE
  5
130
330
70
100
AcDbEntity
  8
Camada 1
 62
    18
420
        0
370
    35
100
AcDbSpline
210
0.0
220
0.0
230
1.0
 70
     8
 71
     3
 72
     8
 73
     4
 74
     0
 42
0.0000000001
 43
0.0000000001
 40
0.0
 40
0.0
 40
0.0
 40
0.0
 40
1.0
 40
1.0
 40
1.0
 40
1.0
 10
671.2103750592977
 20
783.5029222856019
 30
0.0
 10
671.2103750592977
 20
784.3183204838124
 30
0.0
 10
670.5493502164918
 20
784.9793453266183
 30
0.0
 10
669.7339308247974
 20
784.9793453266183
 30
0.0
  0
SPLINE
  5
131
330
70
100
AcDbEntity
  8
Camada 1
 62
    18
420
        0
370
    35
100
AcDbSpline
210
0.0
220
0.0
230
1.0
 70
     8
 71
     3
 72
     8
 73
     4
 74
     0
 42
0.0000000001
 43
0.0000000001
 40
0.0
 40
0.0
 40
0.0
 40
0.0
 40
1.0
 40
1.0
 40
1.0
 40
1.0
 10
669.7339308247974
 20
784.9793453266183
 30
0.0
 10
668.9185326265906
 20
784.9793453266183
 30
0.0
 10
668.2575077837809
 20
784.3183204838124
 30
0.0
 10
668.2575077837809
 20
783.5029222856019
 30
0.0
  0
SPLINE
  5
132
330
70
100
AcDbEntity
  8
Camada 1
 62
    18
420
        0
370
    35
100
AcDbSpline
210
0.0
220
0.0
230
1.0
 70
     8
 71
     3
 72
     8
 73
     4
 74
     0
 42
0.0000000001
 43
0.0000000001
 40
0.0
 40
0.0
 40
0.0
 40
0.0
 40
1.0
 40
1.0
 40
1.0
 40
1.0
 10
684.0060908662253
 20
783.5029222856019
 30
0.0
 10
684.0060908662253
 20
784.3183204838124
 30
0.0
 10
683.3450660234212
 20
784.9793453266183
 30
0.0
 10
682.5296466317268
 20
784.9793453266183
 30
0.0
  0
SPLINE
  5
133
330
70
100
AcDbEntity
  8
Camada 1
 62
    18
420
        0
370
    35
100
AcDbSpline
210
0.0
220
0.0
230
1.0
 70
     8
 71
     3
 72
     8
 73
     4
 74
     0
 42
0.0000000001
 43
0.0000000001
 40
0.0
 40
0.0
 40
0.0
 40
0.0
 40
1.0
 40
1.0
 40
1.0
 40
1.0
 10
682.5296466317268
 20
784.9793453266183
 30
0.0
 10
681.7142484335163
 20
784.9793453266183
 30
0.0
 10
681.0532235907121
 20
784.3183204838124
 30
0.0
 10
681.0532235907121
 20
783.5029222856019
 30
0.0
  0
SPLINE
  5
134
330
70
100
AcDbEntity
  8
Camada 1
 62
    18
420
        0
370
    35
100
AcDbSpline
210
0.0
220
0.0
230
1.0
 70
     8
 71
     3
 72
     8
 73
     4
 74
     0
 42
0.0000000001
 43
0.0000000001
 40
0.0
 40
0.0
 40
0.0
 40
0.0
 40
1.0
 40
1.0
 40
1.0
 40
1.0
 10
696.801785479669
 20
783.5029222856019
 30
0.0
 10
696.801785479669
 20
784.3183204838124
 30
0.0
 10
696.1407818303505
 20
784.9793453266183
 30
0.0
 10
695.3253624386543
 20
784.9793453266183
 30
0.0
  0
SPLINE
  5
135
330
70
100
AcDbEntity
  8
Camada 1
 62
    18
420
        0
370
    35
100
AcDbSpline
210
0.0
220
0.0
230
1.0
 70
     8
 71
     3
 72
     8
 73
     4
 74
     0
 42
0.0000000001
 43
0.0000000001
 40
0.0
 40
0.0
 40
0.0
 40
0.0
 40
1.0
 40
1.0
 40
1.0
 40
1.0
 10
695.3253624386543
 20
784.9793453266183
 30
0.0
 10
694.5099642404457
 20
784.9793453266183
 30
0.0
 10
693.8489393976415
 20
784.3183204838124
 30
0.0
 10
693.8489393976415
 20
783.5029222856019
 30
0.0
  0
SPLINE
  5
136
330
70
100
AcDbEntity
  8
Camada 1
 62
    18
420
        0
370
    35
100
AcDbSpline
210
0.0
220
0.0
230
1.0
 70
     8
 71
     3
 72
     8
 73
     4
 74
     0
 42
0.0000000001
 43
0.0000000001
 40
0.0
 40
0.0
 40
0.0
 40
0.0
 40
1.0
 40
1.0
 40
1.0
 40
1.0
 10
709.5975012865965
 20
783.5029222856019
 30
0.0
 10
709.5975012865965
 20
784.3183204838124
 30
0.0
 10
708.9364764437923
 20
784.9793453266183
 30
0.0
 10
708.1210782455837
 20
784.9793453266183
 30
0.0
  0
SPLINE
  5
137
330
70
100
AcDbEntity
  8
Camada 1
 62
    18
420
        0
370
    35
100
AcDbSpline
210
0.0
220
0.0
230
1.0
 70
     8
 71
     3
 72
     8
 73
     4
 74
     0
 42
0.0000000001
 43
0.0000000001
 40
0.0
 40
0.0
 40
0.0
 40
0.0
 40
1.0
 40
1.0
 40
1.0
 40
1.0
 10
708.1210782455837
 20
784.9793453266183
 30
0.0
 10
707.3056588538875
 20
784.9793453266183
 30
0.0
 10
706.6446552045654
 20
784.3183204838124
 30
0.0
 10
706.6446552045654
 20
783.5029222856019
 30
0.0
  0
SPLINE
  5
138
330
70
100
AcDbEntity
  8
Camada 1
 62
    18
420
        0
370
    35
100
AcDbSpline
210
0.0
220
0.0
230
1.0
 70
     8
 71
     3
 72
     8
 73
     4
 74
     0
 42
0.0000000001
 43
0.0000000001
 40
0.0
 40
0.0
 40
0.0
 40
0.0
 40
1.0
 40
1.0
 40
1.0
 40
1.0
 10
722.3932170935259
 20
783.5029222856019
 30
0.0
 10
722.3932170935259
 20
784.3183204838124
 30
0.0
 10
721.7321922507198
 20
784.9793453266183
 30
0.0
 10
720.9167940525112
 20
784.9793453266183
 30
0.0
  0
SPLINE
  5
139
330
70
100
AcDbEntity
  8
Camada 1
 62
    18
420
        0
370
    35
100
AcDbSpline
210
0.0
220
0.0
230
1.0
 70
     8
 71
     3
 72
     8
 73
     4
 74
     0
 42
0.0000000001
 43
0.0000000001
 40
0.0
 40
0.0
 40
0.0
 40
0.0
 40
1.0
 40
1.0
 40
1.0
 40
1.0
 10
720.9167940525112
 20
784.9793453266183
 30
0.0
 10
720.1013746608168
 20
784.9793453266183
 30
0.0
 10
719.4403710114966
 20
784.3183204838124
 30
0.0
 10
719.4403710114966
 20
783.5029222856019
 30
0.0
  0
SPLINE
  5
13A
330
70
100
AcDbEntity
  8
Camada 1
 62
    18
420
        0
370
    35
100
AcDbSpline
210
0.0
220
0.0
230
1.0
 70
     8
 71
     3
 72
     8
 73
     4
 74
     0
 42
0.0000000001
 43
0.0000000001
 40
0.0
 40
0.0
 40
0.0
 40
0.0
 40
1.0
 40
1.0
 40
1.0
 40
1.0
 10
735.1889329004534
 20
783.5029222856019
 30
0.0
 10
735.1889329004534
 20
784.3183204838124
 30
0.0
 10
734.5279080576474
 20
784.9793453266183
 30
0.0
 10
733.7125098594388
 20
784.9793453266183
 30
0.0
  0
SPLINE
  5
13B
330
70
100
AcDbEntity
  8
Camada 1
 62
    18
420
        0
370
    35
100
AcDbSpline
210
0.0
220
0.0
230
1.0
 70
     8
 71
     3
 72
     8
 73
     4
 74
     0
 42
0.0000000001
 43
0.0000000001
 40
0.0
 40
0.0
 40
0.0
 40
0.0
 40
1.0
 40
1.0
 40
1.0
 40
1.0
 10
733.7125098594388
 20
784.9793453266183
 30
0.0
 10
732.8970904677444
 20
784.9793453266183
 30
0.0
 10
732.2360656249365
 20
784.3183204838124
 30
0.0
 10
732.2360656249365
 20
783.5029222856019
 30
0.0
  0
SPLINE
  5
13C
330
70
100
AcDbEntity
  8
Camada 1
 62
    18
420
        0
370
    35
100
AcDbSpline
210
0.0
220
0.0
230
1.0
 70
     8
 71
     3
 72
     8
 73
     4
 74
     0
 42
0.0000000001
 43
0.0000000001
 40
0.0
 40
0.0
 40
0.0
 40
0.0
 40
1.0
 40
1.0
 40
1.0
 40
1.0
 10
747.9846487073809
 20
783.5029222856019
 30
0.0
 10
747.9846487073809
 20
784.3183204838124
 30
0.0
 10
747.3236238645768
 20
784.9793453266183
 30
0.0
 10
746.5082256663682
 20
784.9793453266183
 30
0.0
  0
SPLINE
  5
13D
330
70
100
AcDbEntity
  8
Camada 1
 62
    18
420
        0
370
    35
100
AcDbSpline
210
0.0
220
0.0
230
1.0
 70
     8
 71
     3
 72
     8
 73
     4
 74
     0
 42
0.0000000001
 43
0.0000000001
 40
0.0
 40
0.0
 40
0.0
 40
0.0
 40
1.0
 40
1.0
 40
1.0
 40
1.0
 10
746.5082256663682
 20
784.9793453266183
 30
0.0
 10
745.6928062746719
 20
784.9793453266183
 30
0.0
 10
745.0317814318678
 20
784.3183204838124
 30
0.0
 10
745.0317814318678
 20
783.5029222856019
 30
0.0
  0
SPLINE
  5
13E
330
70
100
AcDbEntity
  8
Camada 1
 62
    18
420
        0
370
    35
100
AcDbSpline
210
0.0
220
0.0
230
1.0
 70
     8
 71
     3
 72
     8
 73
     4
 74
     0
 42
0.0000000001
 43
0.0000000001
 40
0.0
 40
0.0
 40
0.0
 40
0.0
 40
1.0
 40
1.0
 40
1.0
 40
1.0
 10
760.7803645143103
 20
783.5029222856019
 30
0.0
 10
760.7803645143103
 20
784.3183204838124
 30
0.0
 10
760.1193396715043
 20
784.9793453266183
 30
0.0
 10
759.30392027981
 20
784.9793453266183
 30
0.0
  0
SPLINE
  5
13F
330
70
100
AcDbEntity
  8
Camada 1
 62
    18
420
        0
370
    35
100
AcDbSpline
210
0.0
220
0.0
230
1.0
 70
     8
 71
     3
 72
     8
 73
     4
 74
     0
 42
0.0000000001
 43
0.0000000001
 40
0.0
 40
0.0
 40
0.0
 40
0.0
 40
1.0
 40
1.0
 40
1.0
 40
1.0
 10
759.30392027981
 20
784.9793453266183
 30
0.0
 10
758.4885220816013
 20
784.9793453266183
 30
0.0
 10
757.8274972387953
 20
784.3183204838124
 30
0.0
 10
757.8274972387953
 20
783.5029222856019
 30
0.0
  0
SPLINE
  5
140
330
70
100
AcDbEntity
  8
Camada 1
 62
    18
420
        0
370
    35
100
AcDbSpline
210
0.0
220
0.0
230
1.0
 70
     8
 71
     3
 72
     8
 73
     4
 74
     0
 42
0.0000000001
 43
0.0000000001
 40
0.0
 40
0.0
 40
0.0
 40
0.0
 40
1.0
 40
1.0
 40
1.0
 40
1.0
 10
773.5760591277522
 20
783.5029222856019
 30
0.0
 10
773.5760591277522
 20
784.3183204838124
 30
0.0
 10
772.9150554784319
 20
784.9793453266183
 30
0.0
 10
772.0996360867375
 20
784.9793453266183
 30
0.0
  0
SPLINE
  5
141
330
70
100
AcDbEntity
  8
Camada 1
 62
    18
420
        0
370
    35
100
AcDbSpline
210
0.0
220
0.0
230
1.0
 70
     8
 71
     3
 72
     8
 73
     4
 74
     0
 42
0.0000000001
 43
0.0000000001
 40
0.0
 40
0.0
 40
0.0
 40
0.0
 40
1.0
 40
1.0
 40
1.0
 40
1.0
 10
772.0996360867375
 20
784.9793453266183
 30
0.0
 10
771.2842378885288
 20
784.9793453266183
 30
0.0
 10
770.6232130457246
 20
784.3183204838124
 30
0.0
 10
770.6232130457246
 20
783.5029222856019
 30
0.0
  0
SPLINE
  5
142
330
70
100
AcDbEntity
  8
Camada 1
 62
    18
420
        0
370
    35
100
AcDbSpline
210
0.0
220
0.0
230
1.0
 70
     8
 71
     3
 72
     8
 73
     4
 74
     0
 42
0.0000000001
 43
0.0000000001
 40
0.0
 40
0.0
 40
0.0
 40
0.0
 40
1.0
 40
1.0
 40
1.0
 40
1.0
 10
786.3717749346833
 20
783.5029222856019
 30
0.0
 10
786.3717749346833
 20
784.3183204838124
 30
0.0
 10
785.7107712853612
 20
784.9793453266183
 30
0.0
 10
784.895351893665
 20
784.9793453266183
 30
0.0
  0
SPLINE
  5
143
330
70
100
AcDbEntity
  8
Camada 1
 62
    18
420
        0
370
    35
100
AcDbSpline
210
0.0
220
0.0
230
1.0
 70
     8
 71
     3
 72
     8
 73
     4
 74
     0
 42
0.0000000001
 43
0.0000000001
 40
0.0
 40
0.0
 40
0.0
 40
0.0
 40
1.0
 40
1.0
 40
1.0
 40
1.0
 10
784.895351893665
 20
784.9793453266183
 30
0.0
 10
784.0799536954563
 20
784.9793453266183
 30
0.0
 10
783.4189288526522
 20
784.3183204838124
 30
0.0
 10
783.4189288526522
 20
783.5029222856019
 30
0.0
  0
SPLINE
  5
144
330
70
100
AcDbEntity
  8
Camada 1
 62
    18
420
        0
370
    35
100
AcDbSpline
210
0.0
220
0.0
230
1.0
 70
     8
 71
     3
 72
     8
 73
     4
 74
     0
 42
0.0000000001
 43
0.0000000001
 40
0.0
 40
0.0
 40
0.0
 40
0.0
 40
1.0
 40
1.0
 40
1.0
 40
1.0
 10
799.1674907416091
 20
783.5029222856019
 30
0.0
 10
799.1674907416091
 20
784.3183204838124
 30
0.0
 10
798.506465898803
 20
784.9793453266183
 30
0.0
 10
797.6910677005944
 20
784.9793453266183
 30
0.0
  0
SPLINE
  5
145
330
70
100
AcDbEntity
  8
Camada 1
 62
    18
420
        0
370
    35
100
AcDbSpline
210
0.0
220
0.0
230
1.0
 70
     8
 71
     3
 72
     8
 73
     4
 74
     0
 42
0.0000000001
 43
0.0000000001
 40
0.0
 40
0.0
 40
0.0
 40
0.0
 40
1.0
 40
1.0
 40
1.0
 40
1.0
 10
797.6910677005944
 20
784.9793453266183
 30
0.0
 10
796.8756483089
 20
784.9793453266183
 30
0.0
 10
796.2146446595816
 20
784.3183204838124
 30
0.0
 10
796.2146446595816
 20
783.5029222856019
 30
0.0
  0
SPLINE
  5
146
330
70
100
AcDbEntity
  8
Camada 1
 62
    18
420
        0
370
    35
100
AcDbSpline
210
0.0
220
0.0
230
1.0
 70
     8
 71
     3
 72
     8
 73
     4
 74
     0
 42
0.0000000001
 43
0.0000000001
 40
0.0
 40
0.0
 40
0.0
 40
0.0
 40
1.0
 40
1.0
 40
1.0
 40
1.0
 10
811.9632065485385
 20
783.5029222856019
 30
0.0
 10
811.9632065485385
 20
784.3183204838124
 30
0.0
 10
811.3021817057306
 20
784.9793453266183
 30
0.0
 10
810.486783507522
 20
784.9793453266183
 30
0.0
  0
SPLINE
  5
147
330
70
100
AcDbEntity
  8
Camada 1
 62
    18
420
        0
370
    35
100
AcDbSpline
210
0.0
220
0.0
230
1.0
 70
     8
 71
     3
 72
     8
 73
     4
 74
     0
 42
0.0000000001
 43
0.0000000001
 40
0.0
 40
0.0
 40
0.0
 40
0.0
 40
1.0
 40
1.0
 40
1.0
 40
1.0
 10
810.486783507522
 20
784.9793453266183
 30
0.0
 10
809.6713641158276
 20
784.9793453266183
 30
0.0
 10
809.0103604665092
 20
784.3183204838124
 30
0.0
 10
809.0103604665092
 20
783.5029222856019
 30
0.0
  0
SPLINE
  5
148
330
70
100
AcDbEntity
  8
Camada 1
 62
    18
420
        0
370
    35
100
AcDbSpline
210
0.0
220
0.0
230
1.0
 70
     8
 71
     3
 72
     8
 73
     4
 74
     0
 42
0.0000000001
 43
0.0000000001
 40
0.0
 40
0.0
 40
0.0
 40
0.0
 40
1.0
 40
1.0
 40
1.0
 40
1.0
 10
824.7589011619783
 20
783.5029222856019
 30
0.0
 10
824.7589011619783
 20
784.3183204838124
 30
0.0
 10
824.0979187061457
 20
784.9793453266183
 30
0.0
 10
823.2824781209655
 20
784.9793453266183
 30
0.0
  0
SPLINE
  5
149
330
70
100
AcDbEntity
  8
Camada 1
 62
    18
420
        0
370
    35
100
AcDbSpline
210
0.0
220
0.0
230
1.0
 70
     8
 71
     3
 72
     8
 73
     4
 74
     0
 42
0.0000000001
 43
0.0000000001
 40
0.0
 40
0.0
 40
0.0
 40
0.0
 40
1.0
 40
1.0
 40
1.0
 40
1.0
 10
823.2824781209655
 20
784.9793453266183
 30
0.0
 10
822.4670799227569
 20
784.9793453266183
 30
0.0
 10
821.806055079951
 20
784.3183204838124
 30
0.0
 10
821.806055079951
 20
783.5029222856019
 30
0.0
  0
SPLINE
  5
14A
330
70
100
AcDbEntity
  8
Camada 1
 62
    18
420
        0
370
    35
100
AcDbSpline
210
0.0
220
0.0
230
1.0
 70
     8
 71
     3
 72
     8
 73
     4
 74
     0
 42
0.0000000001
 43
0.0000000001
 40
0.0
 40
0.0
 40
0.0
 40
0.0
 40
1.0
 40
1.0
 40
1.0
 40
1.0
 10
837.5546381623953
 20
783.5029222856019
 30
0.0
 10
837.5546381623953
 20
784.3183204838124
 30
0.0
 10
836.8936133195875
 20
784.9793453266183
 30
0.0
 10
836.0782151213788
 20
784.9793453266183
 30
0.0
  0
SPLINE
  5
14B
330
70
100
AcDbEntity
  8
Camada 1
 62
    18
420
        0
370
    35
100
AcDbSpline
210
0.0
220
0.0
230
1.0
 70
     8
 71
     3
 72
     8
 73
     4
 74
     0
 42
0.0000000001
 43
0.0000000001
 40
0.0
 40
0.0
 40
0.0
 40
0.0
 40
1.0
 40
1.0
 40
1.0
 40
1.0
 10
836.0782151213788
 20
784.9793453266183
 30
0.0
 10
835.2627745361987
 20
784.9793453266183
 30
0.0
 10
834.601792080366
 20
784.3183204838124
 30
0.0
 10
834.601792080366
 20
783.5029222856019
 30
0.0
  0
SPLINE
  5
14C
330
70
100
AcDbEntity
  8
Camada 1
 62
    18
420
        0
370
    35
100
AcDbSpline
210
0.0
220
0.0
230
1.0
 70
     8
 71
     3
 72
     8
 73
     4
 74
     0
 42
0.0000000001
 43
0.0000000001
 40
0.0
 40
0.0
 40
0.0
 40
0.0
 40
1.0
 40
1.0
 40
1.0
 40
1.0
 10
850.3503327758389
 20
783.5029222856019
 30
0.0
 10
850.3503327758389
 20
784.3183204838124
 30
0.0
 10
849.6893079330311
 20
784.9793453266183
 30
0.0
 10
848.8739097348226
 20
784.9793453266183
 30
0.0
  0
SPLINE
  5
14D
330
70
100
AcDbEntity
  8
Camada 1
 62
    18
420
        0
370
    35
100
AcDbSpline
210
0.0
220
0.0
230
1.0
 70
     8
 71
     3
 72
     8
 73
     4
 74
     0
 42
0.0000000001
 43
0.0000000001
 40
0.0
 40
0.0
 40
0.0
 40
0.0
 40
1.0
 40
1.0
 40
1.0
 40
1.0
 10
848.8739097348226
 20
784.9793453266183
 30
0.0
 10
848.0585115366121
 20
784.9793453266183
 30
0.0
 10
847.3974866938078
 20
784.3183204838124
 30
0.0
 10
847.3974866938078
 20
783.5029222856019
 30
0.0
  0
SPLINE
  5
14E
330
70
100
AcDbEntity
  8
Camada 1
 62
    18
420
        0
370
    35
100
AcDbSpline
210
0.0
220
0.0
230
1.0
 70
     8
 71
     3
 72
     8
 73
     4
 74
     0
 42
0.0000000001
 43
0.0000000001
 40
0.0
 40
0.0
 40
0.0
 40
0.0
 40
1.0
 40
1.0
 40
1.0
 40
1.0
 10
863.1460697762522
 20
783.5029222856019
 30
0.0
 10
863.1460697762522
 20
784.3183204838124
 30
0.0
 10
862.4850449334443
 20
784.9793453266183
 30
0.0
 10
861.6696467352394
 20
784.9793453266183
 30
0.0
  0
SPLINE
  5
14F
330
70
100
AcDbEntity
  8
Camada 1
 62
    18
420
        0
370
    35
100
AcDbSpline
210
0.0
220
0.0
230
1.0
 70
     8
 71
     3
 72
     8
 73
     4
 74
     0
 42
0.0000000001
 43
0.0000000001
 40
0.0
 40
0.0
 40
0.0
 40
0.0
 40
1.0
 40
1.0
 40
1.0
 40
1.0
 10
861.6696467352394
 20
784.9793453266183
 30
0.0
 10
860.8542061500557
 20
784.9793453266183
 30
0.0
 10
860.1931813072496
 20
784.3183204838124
 30
0.0
 10
860.1931813072496
 20
783.5029222856019
 30
0.0
  0
SPLINE
  5
150
330
70
100
AcDbEntity
  8
Camada 1
 62
    18
420
        0
370
    35
100
AcDbSpline
210
0.0
220
0.0
230
1.0
 70
     8
 71
     3
 72
     8
 73
     4
 74
     0
 42
0.0000000001
 43
0.0000000001
 40
0.0
 40
0.0
 40
0.0
 40
0.0
 40
1.0
 40
1.0
 40
1.0
 40
1.0
 10
875.941764389694
 20
783.5029222856019
 30
0.0
 10
875.941764389694
 20
784.3183204838124
 30
0.0
 10
875.2807395468861
 20
784.9793453266183
 30
0.0
 10
874.4653413486812
 20
784.9793453266183
 30
0.0
  0
SPLINE
  5
151
330
70
100
AcDbEntity
  8
Camada 1
 62
    18
420
        0
370
    35
100
AcDbSpline
210
0.0
220
0.0
230
1.0
 70
     8
 71
     3
 72
     8
 73
     4
 74
     0
 42
0.0000000001
 43
0.0000000001
 40
0.0
 40
0.0
 40
0.0
 40
0.0
 40
1.0
 40
1.0
 40
1.0
 40
1.0
 10
874.4653413486812
 20
784.9793453266183
 30
0.0
 10
873.6499431504725
 20
784.9793453266183
 30
0.0
 10
872.9889183076629
 20
784.3183204838124
 30
0.0
 10
872.9889183076629
 20
783.5029222856019
 30
0.0
  0
SPLINE
  5
152
330
70
100
AcDbEntity
  8
Camada 1
 62
    18
420
        0
370
    35
100
AcDbSpline
210
0.0
220
0.0
230
1.0
 70
     8
 71
     3
 72
     8
 73
     4
 74
     0
 42
0.0000000001
 43
0.0000000001
 40
0.0
 40
0.0
 40
0.0
 40
0.0
 40
1.0
 40
1.0
 40
1.0
 40
1.0
 10
888.7375013901092
 20
783.5029222856019
 30
0.0
 10
888.7375013901092
 20
784.3183204838124
 30
0.0
 10
888.0764765473031
 20
784.9793453266183
 30
0.0
 10
887.2610359621194
 20
784.9793453266183
 30
0.0
  0
SPLINE
  5
153
330
70
100
AcDbEntity
  8
Camada 1
 62
    18
420
        0
370
    35
100
AcDbSpline
210
0.0
220
0.0
230
1.0
 70
     8
 71
     3
 72
     8
 73
     4
 74
     0
 42
0.0000000001
 43
0.0000000001
 40
0.0
 40
0.0
 40
0.0
 40
0.0
 40
1.0
 40
1.0
 40
1.0
 40
1.0
 10
887.2610359621194
 20
784.9793453266183
 30
0.0
 10
886.4456377639143
 20
784.9793453266183
 30
0.0
 10
885.7846129211047
 20
784.3183204838124
 30
0.0
 10
885.7846129211047
 20
783.5029222856019
 30
0.0
  0
SPLINE
  5
154
330
70
100
AcDbEntity
  8
Camada 1
 62
    18
420
        0
370
    35
100
AcDbSpline
210
0.0
220
0.0
230
1.0
 70
     8
 71
     3
 72
     8
 73
     4
 74
     0
 42
0.0000000001
 43
0.0000000001
 40
0.0
 40
0.0
 40
0.0
 40
0.0
 40
1.0
 40
1.0
 40
1.0
 40
1.0
 10
1213.059602105899
 20
748.725979316493
 30
0.0
 10
1213.059602105899
 20
749.8051516472323
 30
0.0
 10
1212.70490791645
 20
750.8543987750818
 30
0.0
 10
1212.050029184709
 20
751.7121839462179
 30
0.0
  0
SPLINE
  5
155
330
70
100
AcDbEntity
  8
Camada 1
 62
    18
420
        0
370
    35
100
AcDbSpline
210
0.0
220
0.0
230
1.0
 70
     8
 71
     3
 72
     8
 73
     4
 74
     0
 42
0.0000000001
 43
0.0000000001
 40
0.0
 40
0.0
 40
0.0
 40
0.0
 40
1.0
 40
1.0
 40
1.0
 40
1.0
 10
949.7631707622621
 20
737.2414833235953
 30
0.0
 10
949.7631707622621
 20
736.4260851253866
 30
0.0
 10
950.42419560507
 20
735.7650602825797
 30
0.0
 10
951.2396361902501
 20
735.7650602825797
 30
0.0
  0
SPLINE
  5
156
330
70
100
AcDbEntity
  8
Camada 1
 62
    18
420
        0
370
    35
100
AcDbSpline
210
0.0
220
0.0
230
1.0
 70
     8
 71
     3
 72
     8
 73
     4
 74
     0
 42
0.0000000001
 43
0.0000000001
 40
0.0
 40
0.0
 40
0.0
 40
0.0
 40
1.0
 40
1.0
 40
1.0
 40
1.0
 10
951.2396361902501
 20
735.7650602825797
 30
0.0
 10
952.0550343884588
 20
735.7650602825797
 30
0.0
 10
952.7160592312629
 20
736.4260851253866
 30
0.0
 10
952.7160592312629
 20
737.2414833235953
 30
0.0
  0
SPLINE
  5
157
330
70
100
AcDbEntity
  8
Camada 1
 62
    18
420
        0
370
    35
100
AcDbSpline
210
0.0
220
0.0
230
1.0
 70
     8
 71
     3
 72
     8
 73
     4
 74
     0
 42
0.0000000001
 43
0.0000000001
 40
0.0
 40
0.0
 40
0.0
 40
0.0
 40
1.0
 40
1.0
 40
1.0
 40
1.0
 10
962.5589077626791
 20
737.2414833235953
 30
0.0
 10
962.5589077626791
 20
736.4260851253866
 30
0.0
 10
963.2199326054832
 20
735.7650602825797
 30
0.0
 10
964.0353308036919
 20
735.7650602825797
 30
0.0
  0
SPLINE
  5
158
330
70
100
AcDbEntity
  8
Camada 1
 62
    18
420
        0
370
    35
100
AcDbSpline
210
0.0
220
0.0
230
1.0
 70
     8
 71
     3
 72
     8
 73
     4
 74
     0
 42
0.0000000001
 43
0.0000000001
 40
0.0
 40
0.0
 40
0.0
 40
0.0
 40
1.0
 40
1.0
 40
1.0
 40
1.0
 10
964.0353308036919
 20
735.7650602825797
 30
0.0
 10
964.8507290019006
 20
735.7650602825797
 30
0.0
 10
965.5117538447067
 20
736.4260851253866
 30
0.0
 10
965.5117538447067
 20
737.2414833235953
 30
0.0
  0
SPLINE
  5
159
330
70
100
AcDbEntity
  8
Camada 1
 62
    18
420
        0
370
    35
100
AcDbSpline
210
0.0
220
0.0
230
1.0
 70
     8
 71
     3
 72
     8
 73
     4
 74
     0
 42
0.0000000001
 43
0.0000000001
 40
0.0
 40
0.0
 40
0.0
 40
0.0
 40
1.0
 40
1.0
 40
1.0
 40
1.0
 10
975.3546023761192
 20
737.2414833235953
 30
0.0
 10
975.3546023761192
 20
736.4260851253866
 30
0.0
 10
976.015627218925
 20
735.7650602825797
 30
0.0
 10
976.8310254171337
 20
735.7650602825797
 30
0.0
  0
SPLINE
  5
15A
330
70
100
AcDbEntity
  8
Camada 1
 62
    18
420
        0
370
    35
100
AcDbSpline
210
0.0
220
0.0
230
1.0
 70
     8
 71
     3
 72
     8
 73
     4
 74
     0
 42
0.0000000001
 43
0.0000000001
 40
0.0
 40
0.0
 40
0.0
 40
0.0
 40
1.0
 40
1.0
 40
1.0
 40
1.0
 10
976.8310254171337
 20
735.7650602825797
 30
0.0
 10
977.6464660023156
 20
735.7650602825797
 30
0.0
 10
978.3074908451199
 20
736.4260851253866
 30
0.0
 10
978.3074908451199
 20
737.2414833235953
 30
0.0
  0
SPLINE
  5
15B
330
70
100
AcDbEntity
  8
Camada 1
 62
    18
420
        0
370
    35
100
AcDbSpline
210
0.0
220
0.0
230
1.0
 70
     8
 71
     3
 72
     8
 73
     4
 74
     0
 42
0.0000000001
 43
0.0000000001
 40
0.0
 40
0.0
 40
0.0
 40
0.0
 40
1.0
 40
1.0
 40
1.0
 40
1.0
 10
988.1503393765342
 20
737.2414833235953
 30
0.0
 10
988.1503393765342
 20
736.4260851253866
 30
0.0
 10
988.8113642193403
 20
735.7650602825797
 30
0.0
 10
989.6267624175489
 20
735.7650602825797
 30
0.0
  0
SPLINE
  5
15C
330
70
100
AcDbEntity
  8
Camada 1
 62
    18
420
        0
370
    35
100
AcDbSpline
210
0.0
220
0.0
230
1.0
 70
     8
 71
     3
 72
     8
 73
     4
 74
     0
 42
0.0000000001
 43
0.0000000001
 40
0.0
 40
0.0
 40
0.0
 40
0.0
 40
1.0
 40
1.0
 40
1.0
 40
1.0
 10
989.6267624175489
 20
735.7650602825797
 30
0.0
 10
990.4421606157539
 20
735.7650602825797
 30
0.0
 10
991.1031854585617
 20
736.4260851253866
 30
0.0
 10
991.1031854585617
 20
737.2414833235953
 30
0.0
  0
SPLINE
  5
15D
330
70
100
AcDbEntity
  8
Camada 1
 62
    18
420
        0
370
    35
100
AcDbSpline
210
0.0
220
0.0
230
1.0
 70
     8
 71
     3
 72
     8
 73
     4
 74
     0
 42
0.0000000001
 43
0.0000000001
 40
0.0
 40
0.0
 40
0.0
 40
0.0
 40
1.0
 40
1.0
 40
1.0
 40
1.0
 10
1000.94603398997
 20
737.2414833235953
 30
0.0
 10
1000.94603398997
 20
736.4260851253866
 30
0.0
 10
1001.60705883278
 20
735.7650602825797
 30
0.0
 10
1002.42245703099
 20
735.7650602825797
 30
0.0
  0
SPLINE
  5
15E
330
70
100
AcDbEntity
  8
Camada 1
 62
    18
420
        0
370
    35
100
AcDbSpline
210
0.0
220
0.0
230
1.0
 70
     8
 71
     3
 72
     8
 73
     4
 74
     0
 42
0.0000000001
 43
0.0000000001
 40
0.0
 40
0.0
 40
0.0
 40
0.0
 40
1.0
 40
1.0
 40
1.0
 40
1.0
 10
1002.42245703099
 20
735.7650602825797
 30
0.0
 10
1003.237897616171
 20
735.7650602825797
 30
0.0
 10
1003.898880072011
 20
736.4260851253866
 30
0.0
 10
1003.898880072011
 20
737.2414833235953
 30
0.0
  0
SPLINE
  5
15F
330
70
100
AcDbEntity
  8
Camada 1
 62
    18
420
        0
370
    35
100
AcDbSpline
210
0.0
220
0.0
230
1.0
 70
     8
 71
     3
 72
     8
 73
     4
 74
     0
 42
0.0000000001
 43
0.0000000001
 40
0.0
 40
0.0
 40
0.0
 40
0.0
 40
1.0
 40
1.0
 40
1.0
 40
1.0
 10
1013.741770990389
 20
737.2414833235953
 30
0.0
 10
1013.741770990389
 20
736.4260851253866
 30
0.0
 10
1014.40275344622
 20
735.7650602825797
 30
0.0
 10
1015.2181940314
 20
735.7650602825797
 30
0.0
  0
SPLINE
  5
160
330
70
100
AcDbEntity
  8
Camada 1
 62
    18
420
        0
370
    35
100
AcDbSpline
210
0.0
220
0.0
230
1.0
 70
     8
 71
     3
 72
     8
 73
     4
 74
     0
 42
0.0000000001
 43
0.0000000001
 40
0.0
 40
0.0
 40
0.0
 40
0.0
 40
1.0
 40
1.0
 40
1.0
 40
1.0
 10
1015.2181940314
 20
735.7650602825797
 30
0.0
 10
1016.033592229611
 20
735.7650602825797
 30
0.0
 10
1016.69461707242
 20
736.4260851253866
 30
0.0
 10
1016.69461707242
 20
737.2414833235953
 30
0.0
  0
SPLINE
  5
161
330
70
100
AcDbEntity
  8
Camada 1
 62
    18
420
        0
370
    35
100
AcDbSpline
210
0.0
220
0.0
230
1.0
 70
     8
 71
     3
 72
     8
 73
     4
 74
     0
 42
0.0000000001
 43
0.0000000001
 40
0.0
 40
0.0
 40
0.0
 40
0.0
 40
1.0
 40
1.0
 40
1.0
 40
1.0
 10
1026.537465603829
 20
737.2414833235953
 30
0.0
 10
1026.537465603829
 20
736.4260851253866
 30
0.0
 10
1027.19849044664
 20
735.7650602825797
 30
0.0
 10
1028.013888644849
 20
735.7650602825797
 30
0.0
  0
SPLINE
  5
162
330
70
100
AcDbEntity
  8
Camada 1
 62
    18
420
        0
370
    35
100
AcDbSpline
210
0.0
220
0.0
230
1.0
 70
     8
 71
     3
 72
     8
 73
     4
 74
     0
 42
0.0000000001
 43
0.0000000001
 40
0.0
 40
0.0
 40
0.0
 40
0.0
 40
1.0
 40
1.0
 40
1.0
 40
1.0
 10
1028.013888644849
 20
735.7650602825797
 30
0.0
 10
1028.82928684306
 20
735.7650602825797
 30
0.0
 10
1029.49031168586
 20
736.4260851253866
 30
0.0
 10
1029.49031168586
 20
737.2414833235953
 30
0.0
  0
SPLINE
  5
163
330
70
100
AcDbEntity
  8
Camada 1
 62
    18
420
        0
370
    35
100
AcDbSpline
210
0.0
220
0.0
230
1.0
 70
     8
 71
     3
 72
     8
 73
     4
 74
     0
 42
0.0000000001
 43
0.0000000001
 40
0.0
 40
0.0
 40
0.0
 40
0.0
 40
1.0
 40
1.0
 40
1.0
 40
1.0
 10
1039.333160217269
 20
737.2414833235953
 30
0.0
 10
1039.333160217269
 20
736.4260851253866
 30
0.0
 10
1039.994185060081
 20
735.7650602825797
 30
0.0
 10
1040.809625645259
 20
735.7650602825797
 30
0.0
  0
SPLINE
  5
164
330
70
100
AcDbEntity
  8
Camada 1
 62
    18
420
        0
370
    35
100
AcDbSpline
210
0.0
220
0.0
230
1.0
 70
     8
 71
     3
 72
     8
 73
     4
 74
     0
 42
0.0000000001
 43
0.0000000001
 40
0.0
 40
0.0
 40
0.0
 40
0.0
 40
1.0
 40
1.0
 40
1.0
 40
1.0
 10
1040.809625645259
 20
735.7650602825797
 30
0.0
 10
1041.625023843469
 20
735.7650602825797
 30
0.0
 10
1042.286048686281
 20
736.4260851253866
 30
0.0
 10
1042.286048686281
 20
737.2414833235953
 30
0.0
  0
SPLINE
  5
165
330
70
100
AcDbEntity
  8
Camada 1
 62
    18
420
        0
370
    35
100
AcDbSpline
210
0.0
220
0.0
230
1.0
 70
     8
 71
     3
 72
     8
 73
     4
 74
     0
 42
0.0000000001
 43
0.0000000001
 40
0.0
 40
0.0
 40
0.0
 40
0.0
 40
1.0
 40
1.0
 40
1.0
 40
1.0
 10
1052.12889721769
 20
737.2414833235953
 30
0.0
 10
1052.12889721769
 20
736.4260851253866
 30
0.0
 10
1052.789922060499
 20
735.7650602825797
 30
0.0
 10
1053.605320258699
 20
735.7650602825797
 30
0.0
  0
SPLINE
  5
166
330
70
100
AcDbEntity
  8
Camada 1
 62
    18
420
        0
370
    35
100
AcDbSpline
210
0.0
220
0.0
230
1.0
 70
     8
 71
     3
 72
     8
 73
     4
 74
     0
 42
0.0000000001
 43
0.0000000001
 40
0.0
 40
0.0
 40
0.0
 40
0.0
 40
1.0
 40
1.0
 40
1.0
 40
1.0
 10
1053.605320258699
 20
735.7650602825797
 30
0.0
 10
1054.420718456909
 20
735.7650602825797
 30
0.0
 10
1055.081743299721
 20
736.4260851253866
 30
0.0
 10
1055.081743299721
 20
737.2414833235953
 30
0.0
  0
SPLINE
  5
167
330
70
100
AcDbEntity
  8
Camada 1
 62
    18
420
        0
370
    35
100
AcDbSpline
210
0.0
220
0.0
230
1.0
 70
     8
 71
     3
 72
     8
 73
     4
 74
     0
 42
0.0000000001
 43
0.0000000001
 40
0.0
 40
0.0
 40
0.0
 40
0.0
 40
1.0
 40
1.0
 40
1.0
 40
1.0
 10
1064.92459183113
 20
737.2414833235953
 30
0.0
 10
1064.92459183113
 20
736.4260851253866
 30
0.0
 10
1065.585616673939
 20
735.7650602825797
 30
0.0
 10
1066.401014872139
 20
735.7650602825797
 30
0.0
  0
SPLINE
  5
168
330
70
100
AcDbEntity
  8
Camada 1
 62
    18
420
        0
370
    35
100
AcDbSpline
210
0.0
220
0.0
230
1.0
 70
     8
 71
     3
 72
     8
 73
     4
 74
     0
 42
0.0000000001
 43
0.0000000001
 40
0.0
 40
0.0
 40
0.0
 40
0.0
 40
1.0
 40
1.0
 40
1.0
 40
1.0
 10
1066.401014872139
 20
735.7650602825797
 30
0.0
 10
1067.21645545733
 20
735.7650602825797
 30
0.0
 10
1067.87748030014
 20
736.4260851253866
 30
0.0
 10
1067.87748030014
 20
737.2414833235953
 30
0.0
  0
SPLINE
  5
169
330
70
100
AcDbEntity
  8
Camada 1
 62
    18
420
        0
370
    35
100
AcDbSpline
210
0.0
220
0.0
230
1.0
 70
     8
 71
     3
 72
     8
 73
     4
 74
     0
 42
0.0000000001
 43
0.0000000001
 40
0.0
 40
0.0
 40
0.0
 40
0.0
 40
1.0
 40
1.0
 40
1.0
 40
1.0
 10
1077.72032883155
 20
737.2414833235953
 30
0.0
 10
1077.72032883155
 20
736.4260851253866
 30
0.0
 10
1078.381353674351
 20
735.7650602825797
 30
0.0
 10
1079.19675187256
 20
735.7650602825797
 30
0.0
  0
SPLINE
  5
16A
330
70
100
AcDbEntity
  8
Camada 1
 62
    18
420
        0
370
    35
100
AcDbSpline
210
0.0
220
0.0
230
1.0
 70
     8
 71
     3
 72
     8
 73
     4
 74
     0
 42
0.0000000001
 43
0.0000000001
 40
0.0
 40
0.0
 40
0.0
 40
0.0
 40
1.0
 40
1.0
 40
1.0
 40
1.0
 10
1079.19675187256
 20
735.7650602825797
 30
0.0
 10
1080.01215007077
 20
735.7650602825797
 30
0.0
 10
1080.67317491357
 20
736.4260851253866
 30
0.0
 10
1080.67317491357
 20
737.2414833235953
 30
0.0
  0
SPLINE
  5
16B
330
70
100
AcDbEntity
  8
Camada 1
 62
    18
420
        0
370
    35
100
AcDbSpline
210
0.0
220
0.0
230
1.0
 70
     8
 71
     3
 72
     8
 73
     4
 74
     0
 42
0.0000000001
 43
0.0000000001
 40
0.0
 40
0.0
 40
0.0
 40
0.0
 40
1.0
 40
1.0
 40
1.0
 40
1.0
 10
1090.51602344499
 20
737.2414833235953
 30
0.0
 10
1090.51602344499
 20
736.4260851253866
 30
0.0
 10
1091.177048287791
 20
735.7650602825797
 30
0.0
 10
1091.992446485999
 20
735.7650602825797
 30
0.0
  0
SPLINE
  5
16C
330
70
100
AcDbEntity
  8
Camada 1
 62
    18
420
        0
370
    35
100
AcDbSpline
210
0.0
220
0.0
230
1.0
 70
     8
 71
     3
 72
     8
 73
     4
 74
     0
 42
0.0000000001
 43
0.0000000001
 40
0.0
 40
0.0
 40
0.0
 40
0.0
 40
1.0
 40
1.0
 40
1.0
 40
1.0
 10
1091.992446485999
 20
735.7650602825797
 30
0.0
 10
1092.80784468421
 20
735.7650602825797
 30
0.0
 10
1093.468869527019
 20
736.4260851253866
 30
0.0
 10
1093.468869527019
 20
737.2414833235953
 30
0.0
  0
SPLINE
  5
16D
330
70
100
AcDbEntity
  8
Camada 1
 62
    18
420
        0
370
    35
100
AcDbSpline
210
0.0
220
0.0
230
1.0
 70
     8
 71
     3
 72
     8
 73
     4
 74
     0
 42
0.0000000001
 43
0.0000000001
 40
0.0
 40
0.0
 40
0.0
 40
0.0
 40
1.0
 40
1.0
 40
1.0
 40
1.0
 10
1103.3117604454
 20
737.2414833235953
 30
0.0
 10
1103.3117604454
 20
736.4260851253866
 30
0.0
 10
1103.97274290124
 20
735.7650602825797
 30
0.0
 10
1104.78818348642
 20
735.7650602825797
 30
0.0
  0
SPLINE
  5
16E
330
70
100
AcDbEntity
  8
Camada 1
 62
    18
420
        0
370
    35
100
AcDbSpline
210
0.0
220
0.0
230
1.0
 70
     8
 71
     3
 72
     8
 73
     4
 74
     0
 42
0.0000000001
 43
0.0000000001
 40
0.0
 40
0.0
 40
0.0
 40
0.0
 40
1.0
 40
1.0
 40
1.0
 40
1.0
 10
1104.78818348642
 20
735.7650602825797
 30
0.0
 10
1105.60358168463
 20
735.7650602825797
 30
0.0
 10
1106.264606527429
 20
736.4260851253866
 30
0.0
 10
1106.264606527429
 20
737.2414833235953
 30
0.0
  0
SPLINE
  5
16F
330
70
100
AcDbEntity
  8
Camada 1
 62
    18
420
        0
370
    35
100
AcDbSpline
210
0.0
220
0.0
230
1.0
 70
     8
 71
     3
 72
     8
 73
     4
 74
     0
 42
0.0000000001
 43
0.0000000001
 40
0.0
 40
0.0
 40
0.0
 40
0.0
 40
1.0
 40
1.0
 40
1.0
 40
1.0
 10
1116.107455058849
 20
737.2414833235953
 30
0.0
 10
1116.107455058849
 20
736.4260851253866
 30
0.0
 10
1116.768479901649
 20
735.7650602825797
 30
0.0
 10
1117.58387809986
 20
735.7650602825797
 30
0.0
  0
SPLINE
  5
170
330
70
100
AcDbEntity
  8
Camada 1
 62
    18
420
        0
370
    35
100
AcDbSpline
210
0.0
220
0.0
230
1.0
 70
     8
 71
     3
 72
     8
 73
     4
 74
     0
 42
0.0000000001
 43
0.0000000001
 40
0.0
 40
0.0
 40
0.0
 40
0.0
 40
1.0
 40
1.0
 40
1.0
 40
1.0
 10
1117.58387809986
 20
735.7650602825797
 30
0.0
 10
1118.39927629807
 20
735.7650602825797
 30
0.0
 10
1119.06030114088
 20
736.4260851253866
 30
0.0
 10
1119.06030114088
 20
737.2414833235953
 30
0.0
  0
SPLINE
  5
171
330
70
100
AcDbEntity
  8
Camada 1
 62
    18
420
        0
370
    35
100
AcDbSpline
210
0.0
220
0.0
230
1.0
 70
     8
 71
     3
 72
     8
 73
     4
 74
     0
 42
0.0000000001
 43
0.0000000001
 40
0.0
 40
0.0
 40
0.0
 40
0.0
 40
1.0
 40
1.0
 40
1.0
 40
1.0
 10
1128.903149672289
 20
737.2414833235953
 30
0.0
 10
1128.903149672289
 20
736.4260851253866
 30
0.0
 10
1129.564174515089
 20
735.7650602825797
 30
0.0
 10
1130.37961510028
 20
735.7650602825797
 30
0.0
  0
SPLINE
  5
172
330
70
100
AcDbEntity
  8
Camada 1
 62
    18
420
        0
370
    35
100
AcDbSpline
210
0.0
220
0.0
230
1.0
 70
     8
 71
     3
 72
     8
 73
     4
 74
     0
 42
0.0000000001
 43
0.0000000001
 40
0.0
 40
0.0
 40
0.0
 40
0.0
 40
1.0
 40
1.0
 40
1.0
 40
1.0
 10
1130.37961510028
 20
735.7650602825797
 30
0.0
 10
1131.19501329848
 20
735.7650602825797
 30
0.0
 10
1131.85603814129
 20
736.4260851253866
 30
0.0
 10
1131.85603814129
 20
737.2414833235953
 30
0.0
  0
SPLINE
  5
173
330
70
100
AcDbEntity
  8
Camada 1
 62
    18
420
        0
370
    35
100
AcDbSpline
210
0.0
220
0.0
230
1.0
 70
     8
 71
     3
 72
     8
 73
     4
 74
     0
 42
0.0000000001
 43
0.0000000001
 40
0.0
 40
0.0
 40
0.0
 40
0.0
 40
1.0
 40
1.0
 40
1.0
 40
1.0
 10
1141.6988866727
 20
737.2414833235953
 30
0.0
 10
1141.6988866727
 20
736.4260851253866
 30
0.0
 10
1142.35991151551
 20
735.7650602825797
 30
0.0
 10
1143.17530971372
 20
735.7650602825797
 30
0.0
  0
SPLINE
  5
174
330
70
100
AcDbEntity
  8
Camada 1
 62
    18
420
        0
370
    35
100
AcDbSpline
210
0.0
220
0.0
230
1.0
 70
     8
 71
     3
 72
     8
 73
     4
 74
     0
 42
0.0000000001
 43
0.0000000001
 40
0.0
 40
0.0
 40
0.0
 40
0.0
 40
1.0
 40
1.0
 40
1.0
 40
1.0
 10
1143.17530971372
 20
735.7650602825797
 30
0.0
 10
1143.99070791192
 20
735.7650602825797
 30
0.0
 10
1144.65173275473
 20
736.4260851253866
 30
0.0
 10
1144.65173275473
 20
737.2414833235953
 30
0.0
  0
SPLINE
  5
175
330
70
100
AcDbEntity
  8
Camada 1
 62
    18
420
        0
370
    35
100
AcDbSpline
210
0.0
220
0.0
230
1.0
 70
     8
 71
     3
 72
     8
 73
     4
 74
     0
 42
0.0000000001
 43
0.0000000001
 40
0.0
 40
0.0
 40
0.0
 40
0.0
 40
1.0
 40
1.0
 40
1.0
 40
1.0
 10
1154.49458128614
 20
737.2414833235953
 30
0.0
 10
1154.49458128614
 20
736.4260851253866
 30
0.0
 10
1155.15560612895
 20
735.7650602825797
 30
0.0
 10
1155.97100432716
 20
735.7650602825797
 30
0.0
  0
SPLINE
  5
176
330
70
100
AcDbEntity
  8
Camada 1
 62
    18
420
        0
370
    35
100
AcDbSpline
210
0.0
220
0.0
230
1.0
 70
     8
 71
     3
 72
     8
 73
     4
 74
     0
 42
0.0000000001
 43
0.0000000001
 40
0.0
 40
0.0
 40
0.0
 40
0.0
 40
1.0
 40
1.0
 40
1.0
 40
1.0
 10
1155.97100432716
 20
735.7650602825797
 30
0.0
 10
1156.786444912341
 20
735.7650602825797
 30
0.0
 10
1157.44742736817
 20
736.4260851253866
 30
0.0
 10
1157.44742736817
 20
737.2414833235953
 30
0.0
  0
SPLINE
  5
177
330
70
100
AcDbEntity
  8
Camada 1
 62
    18
420
        0
370
    35
100
AcDbSpline
210
0.0
220
0.0
230
1.0
 70
     8
 71
     3
 72
     8
 73
     4
 74
     0
 42
0.0000000001
 43
0.0000000001
 40
0.0
 40
0.0
 40
0.0
 40
0.0
 40
1.0
 40
1.0
 40
1.0
 40
1.0
 10
1167.290318286559
 20
737.2414833235953
 30
0.0
 10
1167.290318286559
 20
736.4260851253866
 30
0.0
 10
1167.95130074239
 20
735.7650602825797
 30
0.0
 10
1168.76674132757
 20
735.7650602825797
 30
0.0
  0
SPLINE
  5
178
330
70
100
AcDbEntity
  8
Camada 1
 62
    18
420
        0
370
    35
100
AcDbSpline
210
0.0
220
0.0
230
1.0
 70
     8
 71
     3
 72
     8
 73
     4
 74
     0
 42
0.0000000001
 43
0.0000000001
 40
0.0
 40
0.0
 40
0.0
 40
0.0
 40
1.0
 40
1.0
 40
1.0
 40
1.0
 10
1168.76674132757
 20
735.7650602825797
 30
0.0
 10
1169.582181912759
 20
735.7650602825797
 30
0.0
 10
1170.24316436859
 20
736.4260851253866
 30
0.0
 10
1170.24316436859
 20
737.2414833235953
 30
0.0
  0
SPLINE
  5
179
330
70
100
AcDbEntity
  8
Camada 1
 62
    18
420
        0
370
    35
100
AcDbSpline
210
0.0
220
0.0
230
1.0
 70
     8
 71
     3
 72
     8
 73
     4
 74
     0
 42
0.0000000001
 43
0.0000000001
 40
0.0
 40
0.0
 40
0.0
 40
0.0
 40
1.0
 40
1.0
 40
1.0
 40
1.0
 10
1180.086012899999
 20
737.2414833235953
 30
0.0
 10
1180.086012899999
 20
736.4260851253866
 30
0.0
 10
1180.74699535583
 20
735.7650602825797
 30
0.0
 10
1181.56243594101
 20
735.7650602825797
 30
0.0
  0
SPLINE
  5
17A
330
70
100
AcDbEntity
  8
Camada 1
 62
    18
420
        0
370
    35
100
AcDbSpline
210
0.0
220
0.0
230
1.0
 70
     8
 71
     3
 72
     8
 73
     4
 74
     0
 42
0.0000000001
 43
0.0000000001
 40
0.0
 40
0.0
 40
0.0
 40
0.0
 40
1.0
 40
1.0
 40
1.0
 40
1.0
 10
1181.56243594101
 20
735.7650602825797
 30
0.0
 10
1182.377876526199
 20
735.7650602825797
 30
0.0
 10
1183.03885898203
 20
736.4260851253866
 30
0.0
 10
1183.03885898203
 20
737.2414833235953
 30
0.0
  0
SPLINE
  5
17B
330
70
100
AcDbEntity
  8
Camada 1
 62
    18
420
        0
370
    35
100
AcDbSpline
210
0.0
220
0.0
230
1.0
 70
     8
 71
     3
 72
     8
 73
     4
 74
     0
 42
0.0000000001
 43
0.0000000001
 40
0.0
 40
0.0
 40
0.0
 40
0.0
 40
1.0
 40
1.0
 40
1.0
 40
1.0
 10
1192.881707513439
 20
737.2414833235953
 30
0.0
 10
1192.881707513439
 20
736.4260851253866
 30
0.0
 10
1193.54277474322
 20
735.7650602825797
 30
0.0
 10
1194.358130554459
 20
735.7650602825797
 30
0.0
  0
SPLINE
  5
17C
330
70
100
AcDbEntity
  8
Camada 1
 62
    18
420
        0
370
    35
100
AcDbSpline
210
0.0
220
0.0
230
1.0
 70
     8
 71
     3
 72
     8
 73
     4
 74
     0
 42
0.0000000001
 43
0.0000000001
 40
0.0
 40
0.0
 40
0.0
 40
0.0
 40
1.0
 40
1.0
 40
1.0
 40
1.0
 10
1194.358130554459
 20
735.7650602825797
 30
0.0
 10
1195.173571139639
 20
735.7650602825797
 30
0.0
 10
1195.83455359547
 20
736.4260851253866
 30
0.0
 10
1195.83455359547
 20
737.2414833235953
 30
0.0
  0
SPLINE
  5
17D
330
70
100
AcDbEntity
  8
Camada 1
 62
    18
420
        0
370
    35
100
AcDbSpline
210
0.0
220
0.0
230
1.0
 70
     8
 71
     3
 72
     8
 73
     4
 74
     0
 42
0.0000000001
 43
0.0000000001
 40
0.0
 40
0.0
 40
0.0
 40
0.0
 40
1.0
 40
1.0
 40
1.0
 40
1.0
 10
1212.050029184709
 20
769.0322216629793
 30
0.0
 10
1208.146528073859
 20
763.9186996359658
 30
0.0
 10
1208.146528073859
 20
756.825727166718
 30
0.0
 10
1212.050029184709
 20
751.7121839462179
 30
0.0
  0
SPLINE
  5
17E
330
70
100
AcDbEntity
  8
Camada 1
 62
    18
420
        0
370
    35
100
AcDbSpline
210
0.0
220
0.0
230
1.0
 70
     8
 71
     3
 72
     8
 73
     4
 74
     0
 42
0.0000000001
 43
0.0000000001
 40
0.0
 40
0.0
 40
0.0
 40
0.0
 40
1.0
 40
1.0
 40
1.0
 40
1.0
 10
1212.050029184709
 20
769.0322216629793
 30
0.0
 10
1212.70490791645
 20
769.8900068341154
 30
0.0
 10
1213.059602105899
 20
770.9392539619657
 30
0.0
 10
1213.059602105899
 20
772.0184262927032
 30
0.0
  0
SPLINE
  5
17F
330
70
100
AcDbEntity
  8
Camada 1
 62
    18
420
        0
370
    35
100
AcDbSpline
210
0.0
220
0.0
230
1.0
 70
     8
 71
     3
 72
     8
 73
     4
 74
     0
 42
0.0000000001
 43
0.0000000001
 40
0.0
 40
0.0
 40
0.0
 40
0.0
 40
1.0
 40
1.0
 40
1.0
 40
1.0
 10
952.7160592312629
 20
783.5029222856019
 30
0.0
 10
952.7160592312629
 20
784.3183204838124
 30
0.0
 10
952.0550343884588
 20
784.9793453266183
 30
0.0
 10
951.2396361902501
 20
784.9793453266183
 30
0.0
  0
SPLINE
  5
180
330
70
100
AcDbEntity
  8
Camada 1
 62
    18
420
        0
370
    35
100
AcDbSpline
210
0.0
220
0.0
230
1.0
 70
     8
 71
     3
 72
     8
 73
     4
 74
     0
 42
0.0000000001
 43
0.0000000001
 40
0.0
 40
0.0
 40
0.0
 40
0.0
 40
1.0
 40
1.0
 40
1.0
 40
1.0
 10
951.2396361902501
 20
784.9793453266183
 30
0.0
 10
950.42419560507
 20
784.9793453266183
 30
0.0
 10
949.7631707622621
 20
784.3183204838124
 30
0.0
 10
949.7631707622621
 20
783.5029222856019
 30
0.0
  0
SPLINE
  5
181
330
70
100
AcDbEntity
  8
Camada 1
 62
    18
420
        0
370
    35
100
AcDbSpline
210
0.0
220
0.0
230
1.0
 70
     8
 71
     3
 72
     8
 73
     4
 74
     0
 42
0.0000000001
 43
0.0000000001
 40
0.0
 40
0.0
 40
0.0
 40
0.0
 40
1.0
 40
1.0
 40
1.0
 40
1.0
 10
965.5117538447067
 20
783.5029222856019
 30
0.0
 10
965.5117538447067
 20
784.3183204838124
 30
0.0
 10
964.8507290019006
 20
784.9793453266183
 30
0.0
 10
964.0353308036919
 20
784.9793453266183
 30
0.0
  0
SPLINE
  5
182
330
70
100
AcDbEntity
  8
Camada 1
 62
    18
420
        0
370
    35
100
AcDbSpline
210
0.0
220
0.0
230
1.0
 70
     8
 71
     3
 72
     8
 73
     4
 74
     0
 42
0.0000000001
 43
0.0000000001
 40
0.0
 40
0.0
 40
0.0
 40
0.0
 40
1.0
 40
1.0
 40
1.0
 40
1.0
 10
964.0353308036919
 20
784.9793453266183
 30
0.0
 10
963.2199326054832
 20
784.9793453266183
 30
0.0
 10
962.5589077626791
 20
784.3183204838124
 30
0.0
 10
962.5589077626791
 20
783.5029222856019
 30
0.0
  0
SPLINE
  5
183
330
70
100
AcDbEntity
  8
Camada 1
 62
    18
420
        0
370
    35
100
AcDbSpline
210
0.0
220
0.0
230
1.0
 70
     8
 71
     3
 72
     8
 73
     4
 74
     0
 42
0.0000000001
 43
0.0000000001
 40
0.0
 40
0.0
 40
0.0
 40
0.0
 40
1.0
 40
1.0
 40
1.0
 40
1.0
 10
978.3074908451199
 20
783.5029222856019
 30
0.0
 10
978.3074908451199
 20
784.3183204838124
 30
0.0
 10
977.6464660023156
 20
784.9793453266183
 30
0.0
 10
976.8310254171337
 20
784.9793453266183
 30
0.0
  0
SPLINE
  5
184
330
70
100
AcDbEntity
  8
Camada 1
 62
    18
420
        0
370
    35
100
AcDbSpline
210
0.0
220
0.0
230
1.0
 70
     8
 71
     3
 72
     8
 73
     4
 74
     0
 42
0.0000000001
 43
0.0000000001
 40
0.0
 40
0.0
 40
0.0
 40
0.0
 40
1.0
 40
1.0
 40
1.0
 40
1.0
 10
976.8310254171337
 20
784.9793453266183
 30
0.0
 10
976.015627218925
 20
784.9793453266183
 30
0.0
 10
975.3546023761192
 20
784.3183204838124
 30
0.0
 10
975.3546023761192
 20
783.5029222856019
 30
0.0
  0
SPLINE
  5
185
330
70
100
AcDbEntity
  8
Camada 1
 62
    18
420
        0
370
    35
100
AcDbSpline
210
0.0
220
0.0
230
1.0
 70
     8
 71
     3
 72
     8
 73
     4
 74
     0
 42
0.0000000001
 43
0.0000000001
 40
0.0
 40
0.0
 40
0.0
 40
0.0
 40
1.0
 40
1.0
 40
1.0
 40
1.0
 10
991.1031854585617
 20
783.5029222856019
 30
0.0
 10
991.1031854585617
 20
784.3183204838124
 30
0.0
 10
990.4421606157539
 20
784.9793453266183
 30
0.0
 10
989.6267624175489
 20
784.9793453266183
 30
0.0
  0
SPLINE
  5
186
330
70
100
AcDbEntity
  8
Camada 1
 62
    18
420
        0
370
    35
100
AcDbSpline
210
0.0
220
0.0
230
1.0
 70
     8
 71
     3
 72
     8
 73
     4
 74
     0
 42
0.0000000001
 43
0.0000000001
 40
0.0
 40
0.0
 40
0.0
 40
0.0
 40
1.0
 40
1.0
 40
1.0
 40
1.0
 10
989.6267624175489
 20
784.9793453266183
 30
0.0
 10
988.8113642193403
 20
784.9793453266183
 30
0.0
 10
988.1503393765342
 20
784.3183204838124
 30
0.0
 10
988.1503393765342
 20
783.5029222856019
 30
0.0
  0
SPLINE
  5
187
330
70
100
AcDbEntity
  8
Camada 1
 62
    18
420
        0
370
    35
100
AcDbSpline
210
0.0
220
0.0
230
1.0
 70
     8
 71
     3
 72
     8
 73
     4
 74
     0
 42
0.0000000001
 43
0.0000000001
 40
0.0
 40
0.0
 40
0.0
 40
0.0
 40
1.0
 40
1.0
 40
1.0
 40
1.0
 10
1003.898880072011
 20
783.5029222856019
 30
0.0
 10
1003.898880072011
 20
784.3183204838124
 30
0.0
 10
1003.237897616171
 20
784.9793453266183
 30
0.0
 10
1002.42245703099
 20
784.9793453266183
 30
0.0
  0
SPLINE
  5
188
330
70
100
AcDbEntity
  8
Camada 1
 62
    18
420
        0
370
    35
100
AcDbSpline
210
0.0
220
0.0
230
1.0
 70
     8
 71
     3
 72
     8
 73
     4
 74
     0
 42
0.0000000001
 43
0.0000000001
 40
0.0
 40
0.0
 40
0.0
 40
0.0
 40
1.0
 40
1.0
 40
1.0
 40
1.0
 10
1002.42245703099
 20
784.9793453266183
 30
0.0
 10
1001.60705883278
 20
784.9793453266183
 30
0.0
 10
1000.94603398997
 20
784.3183204838124
 30
0.0
 10
1000.94603398997
 20
783.5029222856019
 30
0.0
  0
SPLINE
  5
189
330
70
100
AcDbEntity
  8
Camada 1
 62
    18
420
        0
370
    35
100
AcDbSpline
210
0.0
220
0.0
230
1.0
 70
     8
 71
     3
 72
     8
 73
     4
 74
     0
 42
0.0000000001
 43
0.0000000001
 40
0.0
 40
0.0
 40
0.0
 40
0.0
 40
1.0
 40
1.0
 40
1.0
 40
1.0
 10
1016.69461707242
 20
783.5029222856019
 30
0.0
 10
1016.69461707242
 20
784.3183204838124
 30
0.0
 10
1016.033592229611
 20
784.9793453266183
 30
0.0
 10
1015.2181940314
 20
784.9793453266183
 30
0.0
  0
SPLINE
  5
18A
330
70
100
AcDbEntity
  8
Camada 1
 62
    18
420
        0
370
    35
100
AcDbSpline
210
0.0
220
0.0
230
1.0
 70
     8
 71
     3
 72
     8
 73
     4
 74
     0
 42
0.0000000001
 43
0.0000000001
 40
0.0
 40
0.0
 40
0.0
 40
0.0
 40
1.0
 40
1.0
 40
1.0
 40
1.0
 10
1015.2181940314
 20
784.9793453266183
 30
0.0
 10
1014.40275344622
 20
784.9793453266183
 30
0.0
 10
1013.741770990389
 20
784.3183204838124
 30
0.0
 10
1013.741770990389
 20
783.5029222856019
 30
0.0
  0
SPLINE
  5
18B
330
70
100
AcDbEntity
  8
Camada 1
 62
    18
420
        0
370
    35
100
AcDbSpline
210
0.0
220
0.0
230
1.0
 70
     8
 71
     3
 72
     8
 73
     4
 74
     0
 42
0.0000000001
 43
0.0000000001
 40
0.0
 40
0.0
 40
0.0
 40
0.0
 40
1.0
 40
1.0
 40
1.0
 40
1.0
 10
1029.49031168586
 20
783.5029222856019
 30
0.0
 10
1029.49031168586
 20
784.3183204838124
 30
0.0
 10
1028.82928684306
 20
784.9793453266183
 30
0.0
 10
1028.013888644849
 20
784.9793453266183
 30
0.0
  0
SPLINE
  5
18C
330
70
100
AcDbEntity
  8
Camada 1
 62
    18
420
        0
370
    35
100
AcDbSpline
210
0.0
220
0.0
230
1.0
 70
     8
 71
     3
 72
     8
 73
     4
 74
     0
 42
0.0000000001
 43
0.0000000001
 40
0.0
 40
0.0
 40
0.0
 40
0.0
 40
1.0
 40
1.0
 40
1.0
 40
1.0
 10
1028.013888644849
 20
784.9793453266183
 30
0.0
 10
1027.19849044664
 20
784.9793453266183
 30
0.0
 10
1026.537465603829
 20
784.3183204838124
 30
0.0
 10
1026.537465603829
 20
783.5029222856019
 30
0.0
  0
SPLINE
  5
18D
330
70
100
AcDbEntity
  8
Camada 1
 62
    18
420
        0
370
    35
100
AcDbSpline
210
0.0
220
0.0
230
1.0
 70
     8
 71
     3
 72
     8
 73
     4
 74
     0
 42
0.0000000001
 43
0.0000000001
 40
0.0
 40
0.0
 40
0.0
 40
0.0
 40
1.0
 40
1.0
 40
1.0
 40
1.0
 10
1042.286048686281
 20
783.5029222856019
 30
0.0
 10
1042.286048686281
 20
784.3183204838124
 30
0.0
 10
1041.625023843469
 20
784.9793453266183
 30
0.0
 10
1040.809625645259
 20
784.9793453266183
 30
0.0
  0
SPLINE
  5
18E
330
70
100
AcDbEntity
  8
Camada 1
 62
    18
420
        0
370
    35
100
AcDbSpline
210
0.0
220
0.0
230
1.0
 70
     8
 71
     3
 72
     8
 73
     4
 74
     0
 42
0.0000000001
 43
0.0000000001
 40
0.0
 40
0.0
 40
0.0
 40
0.0
 40
1.0
 40
1.0
 40
1.0
 40
1.0
 10
1040.809625645259
 20
784.9793453266183
 30
0.0
 10
1039.994185060081
 20
784.9793453266183
 30
0.0
 10
1039.333160217269
 20
784.3183204838124
 30
0.0
 10
1039.333160217269
 20
783.5029222856019
 30
0.0
  0
SPLINE
  5
18F
330
70
100
AcDbEntity
  8
Camada 1
 62
    18
420
        0
370
    35
100
AcDbSpline
210
0.0
220
0.0
230
1.0
 70
     8
 71
     3
 72
     8
 73
     4
 74
     0
 42
0.0000000001
 43
0.0000000001
 40
0.0
 40
0.0
 40
0.0
 40
0.0
 40
1.0
 40
1.0
 40
1.0
 40
1.0
 10
1055.081743299721
 20
783.5029222856019
 30
0.0
 10
1055.081743299721
 20
784.3183204838124
 30
0.0
 10
1054.420718456909
 20
784.9793453266183
 30
0.0
 10
1053.605320258699
 20
784.9793453266183
 30
0.0
  0
SPLINE
  5
190
330
70
100
AcDbEntity
  8
Camada 1
 62
    18
420
        0
370
    35
100
AcDbSpline
210
0.0
220
0.0
230
1.0
 70
     8
 71
     3
 72
     8
 73
     4
 74
     0
 42
0.0000000001
 43
0.0000000001
 40
0.0
 40
0.0
 40
0.0
 40
0.0
 40
1.0
 40
1.0
 40
1.0
 40
1.0
 10
1053.605320258699
 20
784.9793453266183
 30
0.0
 10
1052.789922060499
 20
784.9793453266183
 30
0.0
 10
1052.12889721769
 20
784.3183204838124
 30
0.0
 10
1052.12889721769
 20
783.5029222856019
 30
0.0
  0
SPLINE
  5
191
330
70
100
AcDbEntity
  8
Camada 1
 62
    18
420
        0
370
    35
100
AcDbSpline
210
0.0
220
0.0
230
1.0
 70
     8
 71
     3
 72
     8
 73
     4
 74
     0
 42
0.0000000001
 43
0.0000000001
 40
0.0
 40
0.0
 40
0.0
 40
0.0
 40
1.0
 40
1.0
 40
1.0
 40
1.0
 10
1067.87748030014
 20
783.5029222856019
 30
0.0
 10
1067.87748030014
 20
784.3183204838124
 30
0.0
 10
1067.21645545733
 20
784.9793453266183
 30
0.0
 10
1066.401014872139
 20
784.9793453266183
 30
0.0
  0
SPLINE
  5
192
330
70
100
AcDbEntity
  8
Camada 1
 62
    18
420
        0
370
    35
100
AcDbSpline
210
0.0
220
0.0
230
1.0
 70
     8
 71
     3
 72
     8
 73
     4
 74
     0
 42
0.0000000001
 43
0.0000000001
 40
0.0
 40
0.0
 40
0.0
 40
0.0
 40
1.0
 40
1.0
 40
1.0
 40
1.0
 10
1066.401014872139
 20
784.9793453266183
 30
0.0
 10
1065.585616673939
 20
784.9793453266183
 30
0.0
 10
1064.92459183113
 20
784.3183204838124
 30
0.0
 10
1064.92459183113
 20
783.5029222856019
 30
0.0
  0
SPLINE
  5
193
330
70
100
AcDbEntity
  8
Camada 1
 62
    18
420
        0
370
    35
100
AcDbSpline
210
0.0
220
0.0
230
1.0
 70
     8
 71
     3
 72
     8
 73
     4
 74
     0
 42
0.0000000001
 43
0.0000000001
 40
0.0
 40
0.0
 40
0.0
 40
0.0
 40
1.0
 40
1.0
 40
1.0
 40
1.0
 10
1080.67317491357
 20
783.5029222856019
 30
0.0
 10
1080.67317491357
 20
784.3183204838124
 30
0.0
 10
1080.01215007077
 20
784.9793453266183
 30
0.0
 10
1079.19675187256
 20
784.9793453266183
 30
0.0
  0
SPLINE
  5
194
330
70
100
AcDbEntity
  8
Camada 1
 62
    18
420
        0
370
    35
100
AcDbSpline
210
0.0
220
0.0
230
1.0
 70
     8
 71
     3
 72
     8
 73
     4
 74
     0
 42
0.0000000001
 43
0.0000000001
 40
0.0
 40
0.0
 40
0.0
 40
0.0
 40
1.0
 40
1.0
 40
1.0
 40
1.0
 10
1079.19675187256
 20
784.9793453266183
 30
0.0
 10
1078.381353674351
 20
784.9793453266183
 30
0.0
 10
1077.72032883155
 20
784.3183204838124
 30
0.0
 10
1077.72032883155
 20
783.5029222856019
 30
0.0
  0
SPLINE
  5
195
330
70
100
AcDbEntity
  8
Camada 1
 62
    18
420
        0
370
    35
100
AcDbSpline
210
0.0
220
0.0
230
1.0
 70
     8
 71
     3
 72
     8
 73
     4
 74
     0
 42
0.0000000001
 43
0.0000000001
 40
0.0
 40
0.0
 40
0.0
 40
0.0
 40
1.0
 40
1.0
 40
1.0
 40
1.0
 10
1093.468869527019
 20
783.5029222856019
 30
0.0
 10
1093.468869527019
 20
784.3183204838124
 30
0.0
 10
1092.80784468421
 20
784.9793453266183
 30
0.0
 10
1091.992446485999
 20
784.9793453266183
 30
0.0
  0
SPLINE
  5
196
330
70
100
AcDbEntity
  8
Camada 1
 62
    18
420
        0
370
    35
100
AcDbSpline
210
0.0
220
0.0
230
1.0
 70
     8
 71
     3
 72
     8
 73
     4
 74
     0
 42
0.0000000001
 43
0.0000000001
 40
0.0
 40
0.0
 40
0.0
 40
0.0
 40
1.0
 40
1.0
 40
1.0
 40
1.0
 10
1091.992446485999
 20
784.9793453266183
 30
0.0
 10
1091.177048287791
 20
784.9793453266183
 30
0.0
 10
1090.51602344499
 20
784.3183204838124
 30
0.0
 10
1090.51602344499
 20
783.5029222856019
 30
0.0
  0
SPLINE
  5
197
330
70
100
AcDbEntity
  8
Camada 1
 62
    18
420
        0
370
    35
100
AcDbSpline
210
0.0
220
0.0
230
1.0
 70
     8
 71
     3
 72
     8
 73
     4
 74
     0
 42
0.0000000001
 43
0.0000000001
 40
0.0
 40
0.0
 40
0.0
 40
0.0
 40
1.0
 40
1.0
 40
1.0
 40
1.0
 10
1106.264606527429
 20
783.5029222856019
 30
0.0
 10
1106.264606527429
 20
784.3183204838124
 30
0.0
 10
1105.60358168463
 20
784.9793453266183
 30
0.0
 10
1104.78818348642
 20
784.9793453266183
 30
0.0
  0
SPLINE
  5
198
330
70
100
AcDbEntity
  8
Camada 1
 62
    18
420
        0
370
    35
100
AcDbSpline
210
0.0
220
0.0
230
1.0
 70
     8
 71
     3
 72
     8
 73
     4
 74
     0
 42
0.0000000001
 43
0.0000000001
 40
0.0
 40
0.0
 40
0.0
 40
0.0
 40
1.0
 40
1.0
 40
1.0
 40
1.0
 10
1104.78818348642
 20
784.9793453266183
 30
0.0
 10
1103.97274290124
 20
784.9793453266183
 30
0.0
 10
1103.3117604454
 20
784.3183204838124
 30
0.0
 10
1103.3117604454
 20
783.5029222856019
 30
0.0
  0
SPLINE
  5
199
330
70
100
AcDbEntity
  8
Camada 1
 62
    18
420
        0
370
    35
100
AcDbSpline
210
0.0
220
0.0
230
1.0
 70
     8
 71
     3
 72
     8
 73
     4
 74
     0
 42
0.0000000001
 43
0.0000000001
 40
0.0
 40
0.0
 40
0.0
 40
0.0
 40
1.0
 40
1.0
 40
1.0
 40
1.0
 10
1119.06030114088
 20
783.5029222856019
 30
0.0
 10
1119.06030114088
 20
784.3183204838124
 30
0.0
 10
1118.39927629807
 20
784.9793453266183
 30
0.0
 10
1117.58387809986
 20
784.9793453266183
 30
0.0
  0
SPLINE
  5
19A
330
70
100
AcDbEntity
  8
Camada 1
 62
    18
420
        0
370
    35
100
AcDbSpline
210
0.0
220
0.0
230
1.0
 70
     8
 71
     3
 72
     8
 73
     4
 74
     0
 42
0.0000000001
 43
0.0000000001
 40
0.0
 40
0.0
 40
0.0
 40
0.0
 40
1.0
 40
1.0
 40
1.0
 40
1.0
 10
1117.58387809986
 20
784.9793453266183
 30
0.0
 10
1116.768479901649
 20
784.9793453266183
 30
0.0
 10
1116.107455058849
 20
784.3183204838124
 30
0.0
 10
1116.107455058849
 20
783.5029222856019
 30
0.0
  0
SPLINE
  5
19B
330
70
100
AcDbEntity
  8
Camada 1
 62
    18
420
        0
370
    35
100
AcDbSpline
210
0.0
220
0.0
230
1.0
 70
     8
 71
     3
 72
     8
 73
     4
 74
     0
 42
0.0000000001
 43
0.0000000001
 40
0.0
 40
0.0
 40
0.0
 40
0.0
 40
1.0
 40
1.0
 40
1.0
 40
1.0
 10
1131.85603814129
 20
783.5029222856019
 30
0.0
 10
1131.85603814129
 20
784.3183204838124
 30
0.0
 10
1131.19501329848
 20
784.9793453266183
 30
0.0
 10
1130.37961510028
 20
784.9793453266183
 30
0.0
  0
SPLINE
  5
19C
330
70
100
AcDbEntity
  8
Camada 1
 62
    18
420
        0
370
    35
100
AcDbSpline
210
0.0
220
0.0
230
1.0
 70
     8
 71
     3
 72
     8
 73
     4
 74
     0
 42
0.0000000001
 43
0.0000000001
 40
0.0
 40
0.0
 40
0.0
 40
0.0
 40
1.0
 40
1.0
 40
1.0
 40
1.0
 10
1130.37961510028
 20
784.9793453266183
 30
0.0
 10
1129.564174515089
 20
784.9793453266183
 30
0.0
 10
1128.903149672289
 20
784.3183204838124
 30
0.0
 10
1128.903149672289
 20
783.5029222856019
 30
0.0
  0
SPLINE
  5
19D
330
70
100
AcDbEntity
  8
Camada 1
 62
    18
420
        0
370
    35
100
AcDbSpline
210
0.0
220
0.0
230
1.0
 70
     8
 71
     3
 72
     8
 73
     4
 74
     0
 42
0.0000000001
 43
0.0000000001
 40
0.0
 40
0.0
 40
0.0
 40
0.0
 40
1.0
 40
1.0
 40
1.0
 40
1.0
 10
1144.65173275473
 20
783.5029222856019
 30
0.0
 10
1144.65173275473
 20
784.3183204838124
 30
0.0
 10
1143.99070791192
 20
784.9793453266183
 30
0.0
 10
1143.17530971372
 20
784.9793453266183
 30
0.0
  0
SPLINE
  5
19E
330
70
100
AcDbEntity
  8
Camada 1
 62
    18
420
        0
370
    35
100
AcDbSpline
210
0.0
220
0.0
230
1.0
 70
     8
 71
     3
 72
     8
 73
     4
 74
     0
 42
0.0000000001
 43
0.0000000001
 40
0.0
 40
0.0
 40
0.0
 40
0.0
 40
1.0
 40
1.0
 40
1.0
 40
1.0
 10
1143.17530971372
 20
784.9793453266183
 30
0.0
 10
1142.35991151551
 20
784.9793453266183
 30
0.0
 10
1141.6988866727
 20
784.3183204838124
 30
0.0
 10
1141.6988866727
 20
783.5029222856019
 30
0.0
  0
SPLINE
  5
19F
330
70
100
AcDbEntity
  8
Camada 1
 62
    18
420
        0
370
    35
100
AcDbSpline
210
0.0
220
0.0
230
1.0
 70
     8
 71
     3
 72
     8
 73
     4
 74
     0
 42
0.0000000001
 43
0.0000000001
 40
0.0
 40
0.0
 40
0.0
 40
0.0
 40
1.0
 40
1.0
 40
1.0
 40
1.0
 10
1157.44742736817
 20
783.5029222856019
 30
0.0
 10
1157.44742736817
 20
784.3183204838124
 30
0.0
 10
1156.786444912341
 20
784.9793453266183
 30
0.0
 10
1155.97100432716
 20
784.9793453266183
 30
0.0
  0
SPLINE
  5
1A0
330
70
100
AcDbEntity
  8
Camada 1
 62
    18
420
        0
370
    35
100
AcDbSpline
210
0.0
220
0.0
230
1.0
 70
     8
 71
     3
 72
     8
 73
     4
 74
     0
 42
0.0000000001
 43
0.0000000001
 40
0.0
 40
0.0
 40
0.0
 40
0.0
 40
1.0
 40
1.0
 40
1.0
 40
1.0
 10
1155.97100432716
 20
784.9793453266183
 30
0.0
 10
1155.15560612895
 20
784.9793453266183
 30
0.0
 10
1154.49458128614
 20
784.3183204838124
 30
0.0
 10
1154.49458128614
 20
783.5029222856019
 30
0.0
  0
SPLINE
  5
1A1
330
70
100
AcDbEntity
  8
Camada 1
 62
    18
420
        0
370
    35
100
AcDbSpline
210
0.0
220
0.0
230
1.0
 70
     8
 71
     3
 72
     8
 73
     4
 74
     0
 42
0.0000000001
 43
0.0000000001
 40
0.0
 40
0.0
 40
0.0
 40
0.0
 40
1.0
 40
1.0
 40
1.0
 40
1.0
 10
1170.24316436859
 20
783.5029222856019
 30
0.0
 10
1170.24316436859
 20
784.3183204838124
 30
0.0
 10
1169.582181912759
 20
784.9793453266183
 30
0.0
 10
1168.76674132757
 20
784.9793453266183
 30
0.0
  0
SPLINE
  5
1A2
330
70
100
AcDbEntity
  8
Camada 1
 62
    18
420
        0
370
    35
100
AcDbSpline
210
0.0
220
0.0
230
1.0
 70
     8
 71
     3
 72
     8
 73
     4
 74
     0
 42
0.0000000001
 43
0.0000000001
 40
0.0
 40
0.0
 40
0.0
 40
0.0
 40
1.0
 40
1.0
 40
1.0
 40
1.0
 10
1168.76674132757
 20
784.9793453266183
 30
0.0
 10
1167.95130074239
 20
784.9793453266183
 30
0.0
 10
1167.290318286559
 20
784.3183204838124
 30
0.0
 10
1167.290318286559
 20
783.5029222856019
 30
0.0
  0
SPLINE
  5
1A3
330
70
100
AcDbEntity
  8
Camada 1
 62
    18
420
        0
370
    35
100
AcDbSpline
210
0.0
220
0.0
230
1.0
 70
     8
 71
     3
 72
     8
 73
     4
 74
     0
 42
0.0000000001
 43
0.0000000001
 40
0.0
 40
0.0
 40
0.0
 40
0.0
 40
1.0
 40
1.0
 40
1.0
 40
1.0
 10
1183.03885898203
 20
783.5029222856019
 30
0.0
 10
1183.03885898203
 20
784.3183204838124
 30
0.0
 10
1182.377876526199
 20
784.9793453266183
 30
0.0
 10
1181.56243594101
 20
784.9793453266183
 30
0.0
  0
SPLINE
  5
1A4
330
70
100
AcDbEntity
  8
Camada 1
 62
    18
420
        0
370
    35
100
AcDbSpline
210
0.0
220
0.0
230
1.0
 70
     8
 71
     3
 72
     8
 73
     4
 74
     0
 42
0.0000000001
 43
0.0000000001
 40
0.0
 40
0.0
 40
0.0
 40
0.0
 40
1.0
 40
1.0
 40
1.0
 40
1.0
 10
1181.56243594101
 20
784.9793453266183
 30
0.0
 10
1180.74699535583
 20
784.9793453266183
 30
0.0
 10
1180.086012899999
 20
784.3183204838124
 30
0.0
 10
1180.086012899999
 20
783.5029222856019
 30
0.0
  0
SPLINE
  5
1A5
330
70
100
AcDbEntity
  8
Camada 1
 62
    18
420
        0
370
    35
100
AcDbSpline
210
0.0
220
0.0
230
1.0
 70
     8
 71
     3
 72
     8
 73
     4
 74
     0
 42
0.0000000001
 43
0.0000000001
 40
0.0
 40
0.0
 40
0.0
 40
0.0
 40
1.0
 40
1.0
 40
1.0
 40
1.0
 10
1195.83455359547
 20
783.5029222856019
 30
0.0
 10
1195.83455359547
 20
784.3183204838124
 30
0.0
 10
1195.173571139639
 20
784.9793453266183
 30
0.0
 10
1194.358130554459
 20
784.9793453266183
 30
0.0
  0
SPLINE
  5
1A6
330
70
100
AcDbEntity
  8
Camada 1
 62
    18
420
        0
370
    35
100
AcDbSpline
210
0.0
220
0.0
230
1.0
 70
     8
 71
     3
 72
     8
 73
     4
 74
     0
 42
0.0000000001
 43
0.0000000001
 40
0.0
 40
0.0
 40
0.0
 40
0.0
 40
1.0
 40
1.0
 40
1.0
 40
1.0
 10
1194.358130554459
 20
784.9793453266183
 30
0.0
 10
1193.54277474322
 20
784.9793453266183
 30
0.0
 10
1192.881707513439
 20
784.3183204838124
 30
0.0
 10
1192.881707513439
 20
783.5029222856019
 30
0.0
  0
SPLINE
  5
1A7
330
70
100
AcDbEntity
  8
Camada 1
 62
    18
420
        0
370
    35
100
AcDbSpline
210
0.0
220
0.0
230
1.0
 70
     8
 71
     3
 72
     8
 73
     4
 74
     0
 42
0.0000000001
 43
0.0000000001
 40
0.0
 40
0.0
 40
0.0
 40
0.0
 40
1.0
 40
1.0
 40
1.0
 40
1.0
 10
624.9489572907768
 20
862.0019430555975
 30
0.0
 10
624.981531679472
 20
861.8863537804244
 30
0.0
 10
625.0144027769765
 20
861.7708916661705
 30
0.0
 10
625.0475493898057
 20
861.6555143258601
 30
0.0
  0
HATCH
  5
1A8
330
70
100
AcDbEntity
  8
Camada 1
 62
    18
420
        0
440
 33554687
100
AcDbHatch
 10
0.0
 20
0.0
 30
0.0
210
0.0
220
0.0
230
1.0
  2
SOLID
 70
     1
 71
     1
 91
        1
 92
        1
 93
        2
 72
     4
 94
        3
 73
     0
 74
     0
 95
        8
 96
        4
 40
0.0
 40
0.0
 40
0.0
 40
0.0
 40
1.0
 40
1.0
 40
1.0
 40
1.0
 10
624.9489572907768
 20
862.0019430555975
 10
624.981531679472
 20
861.8863537804244
 10
625.0144027769765
 20
861.7708916661705
 10
625.0475493898057
 20
861.6555143258601
 97
        0
 72
     1
 10
625.0475493898058
 20
861.6555143258601
 11
624.9489572907768
 21
862.0019430555975
 97
        0
 75
     2
 76
     1
 98
        1
 10
0.0
 20
0.0
450
        0
451
        0
460
0.0
461
0.0
452
        0
462
0.0
453
        0
470

  0
SPLINE
  5
1A9
330
70
100
AcDbEntity
  8
Camada 1
 62
    18
420
        0
370
    35
100
AcDbSpline
210
0.0
220
0.0
230
1.0
 70
     8
 71
     3
 72
     8
 73
     4
 74
     0
 42
0.0000000001
 43
0.0000000001
 40
0.0
 40
0.0
 40
0.0
 40
0.0
 40
1.0
 40
1.0
 40
1.0
 40
1.0
 10
1213.453122762559
 20
861.6555143258601
 30
0.0
 10
1213.486269375389
 20
861.7708916661705
 30
0.0
 10
1213.51916166639
 20
861.8863537804244
 30
0.0
 10
1213.551714861591
 20
862.0019430555975
 30
0.0
  0
HATCH
  5
1AA
330
70
100
AcDbEntity
  8
Camada 1
 62
    18
420
        0
440
 33554687
100
AcDbHatch
 10
0.0
 20
0.0
 30
0.0
210
0.0
220
0.0
230
1.0
  2
SOLID
 70
     1
 71
     1
 91
        1
 92
        1
 93
        2
 72
     4
 94
        3
 73
     0
 74
     0
 95
        8
 96
        4
 40
0.0
 40
0.0
 40
0.0
 40
0.0
 40
1.0
 40
1.0
 40
1.0
 40
1.0
 10
1213.453122762559
 20
861.6555143258601
 10
1213.486269375389
 20
861.7708916661705
 10
1213.51916166639
 20
861.8863537804244
 10
1213.551714861591
 20
862.0019430555975
 97
        0
 72
     1
 10
1213.551714861591
 20
862.0019430555975
 11
1213.453122762559
 21
861.6555143258601
 97
        0
 75
     2
 76
     1
 98
        1
 10
0.0
 20
0.0
450
        0
451
        0
460
0.0
461
0.0
452
        0
462
0.0
453
        0
470

  0
SPLINE
  5
1AB
330
70
100
AcDbEntity
  8
Camada 1
 62
    18
420
        0
370
    35
100
AcDbSpline
210
0.0
220
0.0
230
1.0
 70
     8
 71
     3
 72
     8
 73
     4
 74
     0
 42
0.0000000001
 43
0.0000000001
 40
0.0
 40
0.0
 40
0.0
 40
0.0
 40
1.0
 40
1.0
 40
1.0
 40
1.0
 10
1213.35470021143
 20
861.3228613623242
 30
0.0
 10
1213.388440241881
 20
861.4334489746925
 30
0.0
 10
1213.421247758921
 20
861.5443332958703
 30
0.0
 10
1213.453122762559
 20
861.6555143258601
 30
0.0
  0
HATCH
  5
1AC
330
70
100
AcDbEntity
  8
Camada 1
 62
    18
420
        0
440
 33554687
100
AcDbHatch
 10
0.0
 20
0.0
 30
0.0
210
0.0
220
0.0
230
1.0
  2
SOLID
 70
     1
 71
     1
 91
        1
 92
        1
 93
        2
 72
     4
 94
        3
 73
     0
 74
     0
 95
        8
 96
        4
 40
0.0
 40
0.0
 40
0.0
 40
0.0
 40
1.0
 40
1.0
 40
1.0
 40
1.0
 10
1213.35470021143
 20
861.3228613623242
 10
1213.388440241881
 20
861.4334489746925
 10
1213.421247758921
 20
861.5443332958703
 10
1213.453122762559
 20
861.6555143258601
 97
        0
 72
     1
 10
1213.453122762559
 20
861.6555143258601
 11
1213.35470021143
 21
861.3228613623242
 97
        0
 75
     2
 76
     1
 98
        1
 10
0.0
 20
0.0
450
        0
451
        0
460
0.0
461
0.0
452
        0
462
0.0
453
        0
470

  0
SPLINE
  5
1AD
330
70
100
AcDbEntity
  8
Camada 1
 62
    18
420
        0
370
    35
100
AcDbSpline
210
0.0
220
0.0
230
1.0
 70
     8
 71
     3
 72
     8
 73
     4
 74
     0
 42
0.0000000001
 43
0.0000000001
 40
0.0
 40
0.0
 40
0.0
 40
0.0
 40
1.0
 40
1.0
 40
1.0
 40
1.0
 10
625.0475493898057
 20
861.6555143258601
 30
0.0
 10
625.0794455869345
 20
861.5443332958703
 30
0.0
 10
625.1122531039791
 20
861.4334489746925
 30
0.0
 10
625.1459931344307
 20
861.3228613623242
 30
0.0
  0
HATCH
  5
1AE
330
70
100
AcDbEntity
  8
Camada 1
 62
    18
420
        0
440
 33554687
100
AcDbHatch
 10
0.0
 20
0.0
 30
0.0
210
0.0
220
0.0
230
1.0
  2
SOLID
 70
     1
 71
     1
 91
        1
 92
        1
 93
        2
 72
     4
 94
        3
 73
     0
 74
     0
 95
        8
 96
        4
 40
0.0
 40
0.0
 40
0.0
 40
0.0
 40
1.0
 40
1.0
 40
1.0
 40
1.0
 10
625.0475493898057
 20
861.6555143258601
 10
625.0794455869345
 20
861.5443332958703
 10
625.1122531039791
 20
861.4334489746925
 10
625.1459931344307
 20
861.3228613623242
 97
        0
 72
     1
 10
625.1459931344306
 20
861.3228613623242
 11
625.0475493898057
 21
861.6555143258601
 97
        0
 75
     2
 76
     1
 98
        1
 10
0.0
 20
0.0
450
        0
451
        0
460
0.0
461
0.0
452
        0
462
0.0
453
        0
470

  0
SPLINE
  5
1AF
330
70
100
AcDbEntity
  8
Camada 1
 62
    18
420
        0
370
    35
100
AcDbSpline
210
0.0
220
0.0
230
1.0
 70
     8
 71
     3
 72
     8
 73
     4
 74
     0
 42
0.0000000001
 43
0.0000000001
 40
0.0
 40
0.0
 40
0.0
 40
0.0
 40
1.0
 40
1.0
 40
1.0
 40
1.0
 10
1212.764334452489
 20
860.2302099741955
 30
0.0
 10
1213.742795335551
 20
860.2302099741955
 30
0.0
 10
1214.536025146921
 20
861.0234397855638
 30
0.0
 10
1214.536025146921
 20
862.0019430555975
 30
0.0
  0
HATCH
  5
1B0
330
70
100
AcDbEntity
  8
Camada 1
 62
    18
420
        0
440
 33554687
100
AcDbHatch
 10
0.0
 20
0.0
 30
0.0
210
0.0
220
0.0
230
1.0
  2
SOLID
 70
     1
 71
     1
 91
        1
 92
        1
 93
        2
 72
     4
 94
        3
 73
     0
 74
     0
 95
        8
 96
        4
 40
0.0
 40
0.0
 40
0.0
 40
0.0
 40
1.0
 40
1.0
 40
1.0
 40
1.0
 10
1212.764334452489
 20
860.2302099741955
 10
1213.742795335551
 20
860.2302099741955
 10
1214.536025146921
 20
861.0234397855638
 10
1214.536025146921
 20
862.0019430555975
 97
        0
 72
     1
 10
1214.536025146921
 20
862.0019430555975
 11
1212.764334452489
 21
860.2302099741955
 97
        0
 75
     2
 76
     1
 98
        1
 10
0.0
 20
0.0
450
        0
451
        0
460
0.0
461
0.0
452
        0
462
0.0
453
        0
470

  0
SPLINE
  5
1B1
330
70
100
AcDbEntity
  8
Camada 1
 62
    18
420
        0
370
    35
100
AcDbSpline
210
0.0
220
0.0
230
1.0
 70
     8
 71
     3
 72
     8
 73
     4
 74
     0
 42
0.0000000001
 43
0.0000000001
 40
0.0
 40
0.0
 40
0.0
 40
0.0
 40
1.0
 40
1.0
 40
1.0
 40
1.0
 10
623.9646681989397
 20
862.0019430555975
 30
0.0
 10
623.9646681989397
 20
861.0234397855638
 30
0.0
 10
624.7578980103071
 20
860.2302099741955
 30
0.0
 10
625.7363800868533
 20
860.2302099741955
 30
0.0
  0
HATCH
  5
1B2
330
70
100
AcDbEntity
  8
Camada 1
 62
    18
420
        0
440
 33554687
100
AcDbHatch
 10
0.0
 20
0.0
 30
0.0
210
0.0
220
0.0
230
1.0
  2
SOLID
 70
     1
 71
     1
 91
        1
 92
        1
 93
        2
 72
     4
 94
        3
 73
     0
 74
     0
 95
        8
 96
        4
 40
0.0
 40
0.0
 40
0.0
 40
0.0
 40
1.0
 40
1.0
 40
1.0
 40
1.0
 10
623.9646681989397
 20
862.0019430555975
 10
623.9646681989397
 20
861.0234397855638
 10
624.7578980103071
 20
860.2302099741955
 10
625.7363800868533
 20
860.2302099741955
 97
        0
 72
     1
 10
625.7363800868534
 20
860.2302099741955
 11
623.9646681989397
 21
862.0019430555975
 97
        0
 75
     2
 76
     1
 98
        1
 10
0.0
 20
0.0
450
        0
451
        0
460
0.0
461
0.0
452
        0
462
0.0
453
        0
470

  0
LWPOLYLINE
  5
1B3
330
70
100
AcDbEntity
  8
Camada 1
 62
    18
420
        0
370
    35
100
AcDbPolyline
 90
       12
 70
     0
 43
0.0
 10
625.7363800868533
 20
793.0505031636003
 10
625.6765508745665
 20
793.1453652090131
 10
625.6165309208991
 20
793.2403120283725
 10
625.5550062296951
 20
793.3342415603783
 10
625.490090580658
 20
793.4268994831982
 10
625.4199189469764
 20
793.517989088019
 10
625.342668688816
 20
793.6072984399788
 10
625.3419693037622
 20
793.6080614054908
 10
625.2560509096383
 20
793.6936830908043
 10
625.1616127339548
 20
793.7671397148879
 10
625.0590998399302
 20
793.81855511305
 10
624.9489572907768
 20
793.8379259596777
  0
LWPOLYLINE
  5
1B4
330
70
100
AcDbEntity
  8
Camada 1
 62
    18
420
        0
370
    35
100
AcDbPolyline
 90
       12
 70
     0
 43
0.0
 10
1212.764334452489
 20
793.0505031636003
 10
1212.824100084319
 20
793.1453652090131
 10
1212.884120037979
 20
793.2403120283725
 10
1212.94566592268
 20
793.3342415603783
 10
1213.0106027652
 20
793.4268994831982
 10
1213.08071081842
 20
793.517989088019
 10
1213.158024657039
 20
793.6072984399788
 10
1213.15870284861
 20
793.6080614054908
 10
1213.244663629699
 20
793.6936830908043
 10
1213.33910180539
 20
793.7671397148879
 10
1213.441593505929
 20
793.81855511305
 10
1213.551714861591
 20
793.8379259596777
  0
LWPOLYLINE
  5
1B5
330
70
100
AcDbEntity
  8
Camada 1
 62
    18
420
        0
370
    35
100
AcDbPolyline
 90
       12
 70
     0
 43
0.0
 10
1212.764334452489
 20
727.6939236390817
 10
1212.8591964979
 20
727.634094426794
 10
1212.95414331726
 20
727.5740744731292
 10
1213.048072849269
 20
727.5125497819253
 10
1213.140730772089
 20
727.4476341328872
 10
1213.23177798994
 20
727.3774624992047
 10
1213.321129728869
 20
727.3002122410444
 10
1213.321892694381
 20
727.2995128559923
 10
1213.407514379691
 20
727.2135944618667
 10
1213.4809286168
 20
727.119156286185
 10
1213.532386401939
 20
727.0166433921586
 10
1213.551714861591
 20
726.9065008430061
  0
LWPOLYLINE
  5
1B6
330
70
100
AcDbEntity
  8
Camada 1
 62
    18
420
        0
370
    35
100
AcDbPolyline
 90
       12
 70
     0
 43
0.0
 10
1212.764334452489
 20
793.0505031636003
 10
1212.8591964979
 20
793.1103111824013
 10
1212.95414331726
 20
793.1703311360688
 10
1213.048072849269
 20
793.2318770207594
 10
1213.140730772089
 20
793.2967714763117
 10
1213.23177798994
 20
793.3669219165067
 10
1213.321129728869
 20
793.4441933681528
 10
1213.321892694381
 20
793.4449139466932
 10
1213.407514379691
 20
793.530832340819
 10
1213.4809286168
 20
793.6252281295273
 10
1213.532386401939
 20
793.7277622170386
 10
1213.551714861591
 20
793.8379259596777
  0
LWPOLYLINE
  5
1B7
330
70
100
AcDbEntity
  8
Camada 1
 62
    18
420
        0
370
    35
100
AcDbPolyline
 90
       12
 70
     0
 43
0.0
 10
625.7363800868533
 20
727.6939236390817
 10
625.6765508745665
 20
727.5990192066983
 10
625.6165309208991
 20
727.5040723873408
 10
625.5550062296951
 20
727.4101428553312
 10
625.490090580658
 20
727.317506125999
 10
625.4199189469764
 20
727.2263953276933
 10
625.342668688816
 20
727.1370859757334
 10
625.3419693037622
 20
727.1363230102196
 10
625.2560509096383
 20
727.0507437118803
 10
625.1616127339548
 20
726.9772447008226
 10
625.0590998399302
 20
726.9258504961471
 10
624.9489572907768
 20
726.9065008430061
  0
LWPOLYLINE
  5
1B8
330
70
100
AcDbEntity
  8
Camada 1
 62
    18
420
        0
370
    35
100
AcDbPolyline
 90
       12
 70
     0
 43
0.0
 10
1212.764334452489
 20
727.6939236390817
 10
1212.824100084319
 20
727.5990192066983
 10
1212.884120037979
 20
727.5040723873408
 10
1212.94566592268
 20
727.4101428553312
 10
1213.0106027652
 20
727.317506125999
 10
1213.08071081842
 20
727.2263953276933
 10
1213.158024657039
 20
727.1370859757334
 10
1213.15870284861
 20
727.1363230102196
 10
1213.244663629699
 20
727.0507437118803
 10
1213.33910180539
 20
726.9772447008226
 10
1213.441593505929
 20
726.9258504961471
 10
1213.551714861591
 20
726.9065008430061
  0
LWPOLYLINE
  5
1B9
330
70
100
AcDbEntity
  8
Camada 1
 62
    18
420
        0
370
    35
100
AcDbPolyline
 90
       12
 70
     0
 43
0.0
 10
625.7363800868533
 20
793.0505031636003
 10
625.6414756544682
 20
793.1103111824013
 10
625.5465288351115
 20
793.1703311360688
 10
625.4526204965887
 20
793.2318770207594
 10
625.3599625737715
 20
793.2967714763117
 10
625.2688517754623
 20
793.3669219165067
 10
625.1795424235024
 20
793.4441933681528
 10
625.1787794579914
 20
793.4449139466932
 10
625.0932001596493
 20
793.530832340819
 10
625.0197011485925
 20
793.6252281295273
 10
624.968306943917
 20
793.7277622170386
 10
624.9489572907768
 20
793.8379259596777
  0
LWPOLYLINE
  5
1BA
330
70
100
AcDbEntity
  8
Camada 1
 62
    18
420
        0
370
    35
100
AcDbPolyline
 90
       12
 70
     0
 43
0.0
 10
625.7363800868533
 20
727.6939236390817
 10
625.6414756544682
 20
727.634094426794
 10
625.5465288351115
 20
727.5740744731292
 10
625.4526204965887
 20
727.5125497819253
 10
625.3599625737715
 20
727.4476341328872
 10
625.2688517754623
 20
727.3774624992047
 10
625.1795424235024
 20
727.3002122410444
 10
625.1787794579914
 20
727.2995128559923
 10
625.0932001596493
 20
727.2135944618667
 10
625.0197011485925
 20
727.119156286185
 10
624.968306943917
 20
727.0166433921586
 10
624.9489572907768
 20
726.9065008430061
  0
LWPOLYLINE
  5
1BB
330
70
100
AcDbEntity
  8
Camada 1
 62
    18
420
        0
370
    35
100
AcDbPolyline
 90
       14
 70
     0
 43
0.0
 10
1210.49671617481
 20
728.7962604505228
 10
1210.6338804192
 20
728.8008594370876
 10
1210.791983828219
 20
728.806687645866
 10
1210.95025678513
 20
728.8130244983167
 10
1211.10852974205
 20
728.8198276074727
 10
1211.11149683015
 20
728.8199547683907
 10
1211.269854561011
 20
728.8273301016807
 10
1211.42804274397
 20
728.8360194311308
 10
1211.58572228326
 20
728.846912883173
 10
1211.595979930709
 20
728.8477182356591
 10
1211.753235600279
 20
728.8614516148882
 10
1211.911339009301
 20
728.8766261511946
 10
1211.91922298626
 20
728.8773891167075
 10
1212.07452885507
 20
728.9079289307019
  0
LWPOLYLINE
  5
1BC
330
70
100
AcDbEntity
  8
Camada 1
 62
    18
420
        0
370
    35
100
AcDbPolyline
 90
       12
 70
     0
 43
0.0
 10
1195.285811843951
 20
728.3710343381153
 10
1195.52792623332
 20
728.371246272979
 10
1195.86040964896
 20
728.3722211733556
 10
1196.192977838549
 20
728.3739802327326
 10
1196.283346864829
 20
728.3745736503542
 10
1196.615915054419
 20
728.3772652231346
 10
1196.94839847006
 20
728.380825728861
 10
1197.28088188571
 20
728.3853823284516
 10
1197.613365301349
 20
728.3910621828226
 10
1197.945848716999
 20
728.3979924528957
 10
1198.278247358699
 20
728.4063214930784
 10
1198.61064600039
 20
728.4161552707973
  0
LWPOLYLINE
  5
1BD
330
70
100
AcDbEntity
  8
Camada 1
 62
    18
420
        0
370
    35
100
AcDbPolyline
 90
       12
 70
     0
 43
0.0
 10
1141.97991230321
 20
728.4213264814943
 10
1142.029716996399
 20
728.4196098090887
 10
1142.377629270189
 20
728.4088859049397
 10
1142.725541543979
 20
728.399984640624
 10
1143.02369151156
 20
728.3934782402793
 10
1143.371688559289
 20
728.3870566138812
 10
1143.71968560702
 20
728.3818430162109
 10
1144.06772504173
 20
728.3777526733238
 10
1144.41576447644
 20
728.3746796177856
 10
1144.76380391115
 20
728.3726026561126
 10
1145.111843345859
 20
728.3714158208695
 10
1145.459882780569
 20
728.3710343381153
  0
LWPOLYLINE
  5
1BE
330
70
100
AcDbEntity
  8
Camada 1
 62
    18
420
        0
370
    35
100
AcDbPolyline
 90
       12
 70
     0
 43
0.0
 10
1028.190006517359
 20
728.3710343381153
 10
1028.45378064989
 20
728.3712886599523
 10
1028.8018200846
 20
728.3723907212488
 10
1029.14985951931
 20
728.3743193285172
 10
1029.23412482149
 20
728.3749127461378
 10
1029.582164256189
 20
728.3778374472704
 10
1029.930203690899
 20
728.3817158552928
 10
1030.278243125609
 20
728.3867175180985
 10
1030.626240173349
 20
728.3930119835767
 10
1030.974194834111
 20
728.4007687996226
 10
1031.3221071079
 20
728.41013632064
 10
1031.669976994719
 20
728.4213264814943
  0
LWPOLYLINE
  5
1BF
330
70
100
AcDbEntity
  8
Camada 1
 62
    18
420
        0
370
    35
100
AcDbPolyline
 90
       12
 70
     0
 43
0.0
 10
974.4053037304329
 20
728.4213264814943
 10
974.4551084236245
 20
728.4196098090887
 10
974.8029783104394
 20
728.4088859049397
 10
975.1509329712007
 20
728.399984640624
 10
975.4490829387741
 20
728.3934782402793
 10
975.7970375995373
 20
728.3870566138812
 10
976.1450770342452
 20
728.3818430162109
 10
976.4930740819837
 20
728.3777526733238
 10
976.8411135166898
 20
728.3746796177856
 10
977.1891953383711
 20
728.3726026561126
 10
977.5372347730808
 20
728.3714158208695
 10
977.8852742077887
 20
728.3710343381153
  0
LWPOLYLINE
  5
1C0
330
70
100
AcDbEntity
  8
Camada 1
 62
    18
420
        0
370
    35
100
AcDbPolyline
 90
       12
 70
     0
 43
0.0
 10
860.6153979445807
 20
728.3710343381153
 10
860.8791720771113
 20
728.3712886599523
 10
861.2271691248443
 20
728.3723907212488
 10
861.5752509465256
 20
728.3743193285172
 10
861.6595162487101
 20
728.3749127461378
 10
862.0075556834144
 20
728.3778374472704
 10
862.3555951181243
 20
728.3817158552928
 10
862.703634552834
 20
728.3867175180985
 10
863.0516316005687
 20
728.3930119835767
 10
863.3995862613302
 20
728.4007687996226
 10
863.7474985351218
 20
728.41013632064
 10
864.0953684219402
 20
728.4213264814943
  0
LWPOLYLINE
  5
1C1
330
70
100
AcDbEntity
  8
Camada 1
 62
    18
420
        0
370
    35
100
AcDbPolyline
 90
       12
 70
     0
 43
0.0
 10
806.8306739641649
 20
728.4213264814943
 10
806.8804786573545
 20
728.4196098090887
 10
807.2283697376606
 20
728.4088859049397
 10
807.5763032049362
 20
728.399984640624
 10
807.8744319790221
 20
728.3934782402793
 10
808.2224290267568
 20
728.3870566138812
 10
808.570447267979
 20
728.3818430162109
 10
808.9184655091994
 20
728.3777526733238
 10
809.266504943911
 20
728.3746796177856
 10
809.6145655721066
 20
728.3726026561126
 10
809.9626262003003
 20
728.3714158208695
 10
810.3106656350101
 20
728.3710343381153
  0
LWPOLYLINE
  5
1C2
330
70
100
AcDbEntity
  8
Camada 1
 62
    18
420
        0
370
    35
100
AcDbPolyline
 90
       12
 70
     0
 43
0.0
 10
693.0407681783163
 20
728.3710343381153
 10
693.3045211173557
 20
728.3712886599523
 10
693.6525605520655
 20
728.3723907212488
 10
694.0005999867753
 20
728.3743193285172
 10
694.0848864824402
 20
728.3749127461378
 10
694.4329471106375
 20
728.3778374472704
 10
694.7809865453455
 20
728.3817158552928
 10
695.1290047865659
 20
728.3867175180985
 10
695.4770018343024
 20
728.3930119835767
 10
695.8249564950656
 20
728.4007687996226
 10
696.172889962343
 20
728.41013632064
 10
696.5207386556722
 20
728.4213264814943
  0
LWPOLYLINE
  5
1C3
330
70
100
AcDbEntity
  8
Camada 1
 62
    18
420
        0
370
    35
100
AcDbPolyline
 90
       12
 70
     0
 43
0.0
 10
639.8900049584908
 20
728.4161552707973
 10
639.9510633929949
 20
728.4142266635272
 10
640.283462034692
 20
728.4048167555392
 10
640.6158818698777
 20
728.3969327785726
 10
640.8872856575353
 20
728.3914012786054
 10
641.2197690731764
 20
728.385615456802
 10
641.5522524888201
 20
728.3809105028076
 10
641.8847782914371
 20
728.3771804491898
 10
642.2173040940552
 20
728.3744041024619
 10
642.5498298966703
 20
728.3724754951935
 10
642.8823556992901
 20
728.3713734338971
 10
643.2148815019045
 20
728.3710343381153
  0
LWPOLYLINE
  5
1C4
330
70
100
AcDbEntity
  8
Camada 1
 62
    18
420
        0
370
    35
100
AcDbPolyline
 90
       14
 70
     0
 43
0.0
 10
626.4261432973053
 20
728.9079289307019
 10
626.4334338566486
 20
728.9051313904884
 10
626.5893119495886
 20
728.8766261511946
 10
626.5996331774958
 20
728.8756300573314
 10
626.7576518125715
 20
728.8604979079955
 10
626.9149074821325
 20
728.846912883173
 10
626.9179169572107
 20
728.8466797548226
 10
627.0756388834761
 20
728.8358498832385
 10
627.2338270664413
 20
728.8271817472759
 10
627.3921847972997
 20
728.8198276074727
 10
627.5293702351773
 20
728.8138934312628
 10
627.6875796116319
 20
728.807514191837
 10
627.8457677945971
 20
728.8016012091129
 10
628.0039771710489
 20
728.7962604505228
  0
LWPOLYLINE
  5
1C5
330
70
100
AcDbEntity
  8
Camada 1
 62
    18
420
        0
370
    35
100
AcDbPolyline
 90
       14
 70
     0
 43
0.0
 10
628.0039771710489
 20
791.9481451586725
 10
627.8668341201392
 20
791.9435249786238
 10
627.7086459371739
 20
791.9377179633329
 10
627.5504577542106
 20
791.9313599173938
 10
627.3921847972997
 20
791.9245780017245
 10
627.3891541287339
 20
791.9244508408073
 10
627.2307963978773
 20
791.9170755075183
 10
627.0726294083961
 20
791.9083861780664
 10
626.9149074821325
 20
791.8974927260242
 10
626.9046922216594
 20
791.8966873735389
 10
626.7474577455823
 20
791.8829539943108
 10
626.5893119495886
 20
791.8677794580016
 10
626.581470359597
 20
791.8670164924897
 10
626.4261432973053
 20
791.8364978719819
  0
LWPOLYLINE
  5
1C6
330
70
100
AcDbEntity
  8
Camada 1
 62
    18
420
        0
370
    35
100
AcDbPolyline
 90
       12
 70
     0
 43
0.0
 10
643.2148815019045
 20
792.3733712710818
 10
642.9727459190562
 20
792.3731593362171
 10
642.6402413099249
 20
792.3721844358396
 10
642.3077155073096
 20
792.3704465699501
 10
642.2173252875436
 20
792.3698531523296
 10
641.8847994849238
 20
792.3671403860626
 10
641.5522736823086
 20
792.3635798803361
 10
641.2197690731764
 20
792.3590444742339
 10
640.887264464045
 20
792.3533222328869
 10
640.5548234353736
 20
792.3464131563014
 10
640.2224036001907
 20
792.3381053096073
 10
639.8900049584908
 20
792.3282715318873
  0
LWPOLYLINE
  5
1C7
330
70
100
AcDbEntity
  8
Camada 1
 62
    18
420
        0
370
    35
100
AcDbPolyline
 90
       12
 70
     0
 43
0.0
 10
696.5207386556722
 20
792.323057934218
 10
696.4709339624805
 20
792.3247958001084
 10
696.1230640756657
 20
792.3355197042592
 10
695.7751306083901
 20
792.3444209685722
 10
695.4769806408166
 20
792.3509485624036
 10
695.1290047865659
 20
792.357348995316
 10
694.7809865453455
 20
792.3625625929853
 10
694.4329471106375
 20
792.3666741293609
 10
694.0849076759259
 20
792.3697259914115
 10
693.7368682412198
 20
792.3718029530837
 10
693.3888076130243
 20
792.3729897883259
 10
693.0407681783163
 20
792.3733712710818
  0
LWPOLYLINE
  5
1C8
330
70
100
AcDbEntity
  8
Camada 1
 62
    18
420
        0
370
    35
100
AcDbPolyline
 90
       12
 70
     0
 43
0.0
 10
810.3106656350101
 20
792.3733712710818
 10
810.0468915024812
 20
792.3731169492457
 10
809.6988520677696
 20
792.3720148879483
 10
809.3508126330634
 20
792.3700650871933
 10
809.2665473308825
 20
792.3695140565468
 10
808.9184867026869
 20
792.3665893554144
 10
808.570447267979
 20
792.3626897539052
 10
808.2224290267568
 20
792.3576880911005
 10
807.8744319790221
 20
792.3514148191061
 10
807.5264561247713
 20
792.3436580030602
 10
807.1785438509833
 20
792.3342480950704
 10
806.8306739641649
 20
792.323057934218
  0
LWPOLYLINE
  5
1C9
330
70
100
AcDbEntity
  8
Camada 1
 62
    18
420
        0
370
    35
100
AcDbPolyline
 90
       12
 70
     0
 43
0.0
 10
864.0953684219402
 20
792.323057934218
 10
864.0455637287468
 20
792.3247958001084
 10
863.6976938419321
 20
792.3355197042592
 10
863.3497391811689
 20
792.3444209685722
 10
863.0515892135955
 20
792.3509485624036
 10
862.703634552834
 20
792.357348995316
 10
862.3555951181243
 20
792.3625625929853
 10
862.0075980703896
 20
792.3666741293609
 10
861.6595162487101
 20
792.3697259914115
 10
861.3114768139984
 20
792.3718029530837
 10
860.9634373792887
 20
792.3729897883259
 10
860.6153979445807
 20
792.3733712710818
  0
LWPOLYLINE
  5
1CA
330
70
100
AcDbEntity
  8
Camada 1
 62
    18
420
        0
370
    35
100
AcDbPolyline
 90
       12
 70
     0
 43
0.0
 10
977.8852742077887
 20
792.3733712710818
 10
977.62150007526
 20
792.3731169492457
 10
977.2735030275235
 20
792.3720148879483
 10
976.9254212058404
 20
792.3700650871933
 10
976.8411559036612
 20
792.3695140565468
 10
976.4931164689551
 20
792.3665893554144
 10
976.1450770342452
 20
792.3626897539052
 10
975.7970375995373
 20
792.3576880911005
 10
975.4490405518026
 20
792.3514148191061
 10
975.1010858910394
 20
792.3436580030602
 10
974.7531736172495
 20
792.3342480950704
 10
974.4053037304329
 20
792.323057934218
  0
LWPOLYLINE
  5
1CB
330
70
100
AcDbEntity
  8
Camada 1
 62
    18
420
        0
370
    35
100
AcDbPolyline
 90
       12
 70
     0
 43
0.0
 10
1031.669976994719
 20
792.323057934218
 10
1031.620172301529
 20
792.3247958001084
 10
1031.272302414711
 20
792.3355197042592
 10
1030.924390140921
 20
792.3444209685722
 10
1030.626240173349
 20
792.3509485624036
 10
1030.278243125609
 20
792.357348995316
 10
1029.93024607788
 20
792.3625625929853
 10
1029.58220664317
 20
792.3666741293609
 10
1029.23416720846
 20
792.3697259914115
 10
1028.88612777375
 20
792.3718029530837
 10
1028.538045952069
 20
792.3729897883259
 10
1028.190006517359
 20
792.3733712710818
  0
LWPOLYLINE
  5
1CC
330
70
100
AcDbEntity
  8
Camada 1
 62
    18
420
        0
370
    35
100
AcDbPolyline
 90
       12
 70
     0
 43
0.0
 10
1145.459882780569
 20
792.3733712710818
 10
1145.19615103501
 20
792.3731169492457
 10
1144.8481116003
 20
792.3720148879483
 10
1144.50007216559
 20
792.3700650871933
 10
1144.41576447644
 20
792.3695140565468
 10
1144.06772504173
 20
792.3665893554144
 10
1143.71968560702
 20
792.3626897539052
 10
1143.371688559289
 20
792.3576880911005
 10
1143.023649124579
 20
792.3514148191061
 10
1142.67569446382
 20
792.3436580030602
 10
1142.32778219003
 20
792.3342480950704
 10
1141.97991230321
 20
792.323057934218
  0
LWPOLYLINE
  5
1CD
330
70
100
AcDbEntity
  8
Camada 1
 62
    18
420
        0
370
    35
100
AcDbPolyline
 90
       12
 70
     0
 43
0.0
 10
1198.61064600039
 20
792.3282715318873
 10
1198.54960875938
 20
792.3301789456691
 10
1198.21721011768
 20
792.3395888536588
 10
1197.88481147598
 20
792.3474728306246
 10
1197.613365301349
 20
792.3530255240794
 10
1197.28088188571
 20
792.358790152396
 10
1196.94839847006
 20
792.3634951063913
 10
1196.615915054419
 20
792.3672251600082
 10
1196.283346864829
 20
792.3700227002218
 10
1195.950863449179
 20
792.3719301140045
 10
1195.618295259599
 20
792.3730321752992
 10
1195.285811843951
 20
792.3733712710818
  0
LWPOLYLINE
  5
1CE
330
70
100
AcDbEntity
  8
Camada 1
 62
    18
420
        0
370
    35
100
AcDbPolyline
 90
       14
 70
     0
 43
0.0
 10
1212.07452885507
 20
791.8364978719819
 10
1212.06723829572
 20
791.8392954121955
 10
1211.911339009301
 20
791.8677794580016
 10
1211.90108136184
 20
791.8687543583792
 10
1211.742977952819
 20
791.883886507715
 10
1211.58572228326
 20
791.8974927260242
 10
1211.582755195161
 20
791.8977046608888
 10
1211.42507565587
 20
791.9085557259586
 10
1211.2668874729
 20
791.9172026684354
 10
1211.10852974205
 20
791.9245780017245
 10
1210.97128072371
 20
791.9305121779353
 10
1210.81309254074
 20
791.9369126108477
 10
1210.654904357771
 20
791.9428044000842
 10
1210.49671617481
 20
791.9481451586725
  0
LWPOLYLINE
  5
1CF
330
70
100
AcDbEntity
  8
Camada 1
 62
    18
420
        0
370
    35
100
AcDbPolyline
 90
       12
 70
     0
 43
0.0
 10
625.4457961939469
 20
791.4435282459699
 10
625.4450544219244
 20
791.4425109586191
 10
625.4434437169502
 20
791.4388232919755
 10
625.4426383644658
 20
791.4347117556007
 10
625.4422568817099
 20
791.430473058308
 10
625.4420661403291
 20
791.4275483571764
 10
625.4417906250073
 20
791.4233944338302
 10
625.4415574966551
 20
791.419325284427
 10
625.4413667552771
 20
791.4152561350284
 10
625.4412184008733
 20
791.4112293725993
 10
625.4411336269277
 20
791.4072026101712
 10
625.4410912399525
 20
791.4031334607689
  0
LWPOLYLINE
  5
1D0
330
70
100
AcDbEntity
  8
Camada 1
 62
    18
420
        0
370
    35
100
AcDbPolyline
 90
       12
 70
     0
 43
0.0
 10
1213.05485476494
 20
729.3008561697406
 10
1213.05561773045
 20
729.3018734570924
 10
1213.05722843542
 20
729.3055611237369
 10
1213.05799140093
 20
729.3096726601106
 10
1213.05841527066
 20
729.3139325508891
 10
1213.058584818549
 20
729.316836058535
 10
1213.058923914341
 20
729.3209899818812
 10
1213.05909346223
 20
729.3250803247701
 10
1213.059347784059
 20
729.329128280684
 10
1213.059432558009
 20
729.3331762365978
 10
1213.05951733196
 20
729.3372029990259
 10
1213.059602105899
 20
729.3412721484282
  0
LWPOLYLINE
  5
1D1
330
70
100
AcDbEntity
  8
Camada 1
 62
    18
420
        0
370
    35
100
AcDbPolyline
 90
       12
 70
     0
 43
0.0
 10
1126.61857660544
 20
728.8862903810231
 10
1126.88235073796
 20
728.8860360591861
 10
1127.23039017267
 20
728.884912804403
 10
1127.57842960738
 20
728.8829841971346
 10
1127.66269490956
 20
728.8824119729997
 10
1128.01073434427
 20
728.8794872718672
 10
1128.35877377898
 20
728.8756088638456
 10
1128.706813213681
 20
728.8706072010399
 10
1129.054810261419
 20
728.8643127355599
 10
1129.40276492218
 20
728.856555919514
 10
1129.750677195979
 20
728.8471672050109
 10
1130.098547082791
 20
728.8359770441584
  0
LWPOLYLINE
  5
1D2
330
70
100
AcDbEntity
  8
Camada 1
 62
    18
420
        0
370
    35
100
AcDbPolyline
 90
       12
 70
     0
 43
0.0
 10
1043.551384602109
 20
728.8359770441584
 10
1043.601189295299
 20
728.8376937165613
 10
1043.949059182119
 20
728.8484388141987
 10
1044.296971455909
 20
728.8573400785117
 10
1044.595121423479
 20
728.8638464788573
 10
1044.943118471219
 20
728.8702469117688
 10
1045.29111551895
 20
728.8754817029248
 10
1045.63915495366
 20
728.8795720458146
 10
1045.98719438837
 20
728.8826239078644
 10
1046.33523382308
 20
728.884722063025
 10
1046.683315644759
 20
728.8859088982653
 10
1047.031355079471
 20
728.8862903810231
  0
LWPOLYLINE
  5
1D3
330
70
100
AcDbEntity
  8
Camada 1
 62
    18
420
        0
370
    35
100
AcDbPolyline
 90
       12
 70
     0
 43
0.0
 10
959.0439680326545
 20
728.8862903810231
 10
959.3076997782118
 20
728.8860360591861
 10
959.6557392129197
 20
728.884912804403
 10
960.003778647626
 20
728.8829841971346
 10
960.0880863367802
 20
728.8824119729997
 10
960.4361257714881
 20
728.8794872718672
 10
960.784165206198
 20
728.8756088638456
 10
961.1322046409059
 20
728.8706072010399
 10
961.4802016886423
 20
728.8643127355599
 10
961.8281563494056
 20
728.856555919514
 10
962.1760686231954
 20
728.8471672050109
 10
962.5239385100103
 20
728.8359770441584
  0
LWPOLYLINE
  5
1D4
330
70
100
AcDbEntity
  8
Camada 1
 62
    18
420
        0
370
    35
100
AcDbPolyline
 90
       12
 70
     0
 43
0.0
 10
875.9767336423593
 20
728.8359770441584
 10
876.0265383355489
 20
728.8376937165613
 10
876.3744082223638
 20
728.8484388141987
 10
876.7223628831271
 20
728.8573400785117
 10
877.0205128507022
 20
728.8638464788573
 10
877.3685098984369
 20
728.8702469117688
 10
877.7165069461734
 20
728.8754817029248
 10
878.0645463808795
 20
728.8795720458146
 10
878.4125858155894
 20
728.8826239078644
 10
878.7606252502992
 20
728.884722063025
 10
879.1086646850089
 20
728.8859088982653
 10
879.4567041197151
 20
728.8862903810231
  0
LWPOLYLINE
  5
1D5
330
70
100
AcDbEntity
  8
Camada 1
 62
    18
420
        0
370
    35
100
AcDbPolyline
 90
       12
 70
     0
 43
0.0
 10
791.4693382663863
 20
728.8862903810231
 10
791.7330912054312
 20
728.8860360591861
 10
792.081130640141
 20
728.884912804403
 10
792.4291700748471
 20
728.8829841971346
 10
792.513456570512
 20
728.8824119729997
 10
792.8614960052218
 20
728.8794872718672
 10
793.2095354399316
 20
728.8756088638456
 10
793.5575536811539
 20
728.8706072010399
 10
793.9055719223743
 20
728.8643127355599
 10
794.2535265831411
 20
728.856555919514
 10
794.6014388569274
 20
728.8471672050109
 10
794.9493087437477
 20
728.8359770441584
  0
LWPOLYLINE
  5
1D6
330
70
100
AcDbEntity
  8
Camada 1
 62
    18
420
        0
370
    35
100
AcDbPolyline
 90
       12
 70
     0
 43
0.0
 10
708.4021250695786
 20
728.8359770441584
 10
708.4519297627685
 20
728.8376937165613
 10
708.799799649585
 20
728.8484388141987
 10
709.1477331168626
 20
728.8573400785117
 10
709.4458830844342
 20
728.8638464788573
 10
709.7938801321706
 20
728.8702469117688
 10
710.1418771799053
 20
728.8754817029248
 10
710.4899166146169
 20
728.8795720458146
 10
710.8379560493231
 20
728.8826239078644
 10
711.185995484031
 20
728.884722063025
 10
711.5340561122266
 20
728.8859088982653
 10
711.8820955469345
 20
728.8862903810231
  0
LWPOLYLINE
  5
1D7
330
70
100
AcDbEntity
  8
Camada 1
 62
    18
420
        0
370
    35
100
AcDbPolyline
 90
       12
 70
     0
 43
0.0
 10
711.8820955469345
 20
791.8581152281749
 10
711.6183426078933
 20
791.8583695500119
 10
711.2703031731871
 20
791.8594716113075
 10
710.9222637384755
 20
791.8614214120643
 10
710.8379772428106
 20
791.862014829685
 10
710.4899378081008
 20
791.8648971438433
 10
710.1418983733928
 20
791.8687967453534
 10
709.793858938683
 20
791.8737984081581
 10
709.4458618909484
 20
791.8800716801507
 10
709.097907230187
 20
791.8878284961984
 10
708.7499949563953
 20
791.8972384041872
 10
708.4021250695786
 20
791.9084285650397
  0
LWPOLYLINE
  5
1D8
330
70
100
AcDbEntity
  8
Camada 1
 62
    18
420
        0
370
    35
100
AcDbPolyline
 90
       12
 70
     0
 43
0.0
 10
794.9493087437477
 20
791.9084285650397
 10
794.8995040505524
 20
791.9066906991502
 10
794.5516129702519
 20
791.8959667949994
 10
794.2036795029762
 20
791.8870655306837
 10
793.9055507288885
 20
791.8805803238265
 10
793.5575536811539
 20
791.8741375039425
 10
793.2095354399316
 20
791.8689239062723
 10
792.8615171987075
 20
791.8648123698967
 10
792.5134777640014
 20
791.8617605078471
 10
792.1654171358059
 20
791.8596835461721
 10
791.8173777010979
 20
791.8584967109309
 10
791.4693382663863
 20
791.8581152281749
  0
LWPOLYLINE
  5
1D9
330
70
100
AcDbEntity
  8
Camada 1
 62
    18
420
        0
370
    35
100
AcDbPolyline
 90
       12
 70
     0
 43
0.0
 10
879.4567041197151
 20
791.8581152281749
 10
879.1929723741596
 20
791.8583695500119
 10
878.8449329394534
 20
791.8594716113075
 10
878.4968935047436
 20
791.8614214120643
 10
878.4125858155894
 20
791.862014829685
 10
878.0645463808795
 20
791.8648971438433
 10
877.7165069461734
 20
791.8687967453534
 10
877.3684675114637
 20
791.8737984081581
 10
877.020470463729
 20
791.8800716801507
 10
876.6725158029657
 20
791.8878284961984
 10
876.3246035291777
 20
791.8972384041872
 10
875.9767336423593
 20
791.9084285650397
  0
LWPOLYLINE
  5
1DA
330
70
100
AcDbEntity
  8
Camada 1
 62
    18
420
        0
370
    35
100
AcDbPolyline
 90
       12
 70
     0
 43
0.0
 10
962.5239385100103
 20
791.9084285650397
 10
962.4741338168224
 20
791.9066906991502
 10
962.1262215430324
 20
791.8959667949994
 10
961.7783092692389
 20
791.8870655306837
 10
961.4801593016709
 20
791.8805803238265
 10
961.1321622539326
 20
791.8741375039425
 10
960.784165206198
 20
791.8689239062723
 10
960.4361257714881
 20
791.8648123698967
 10
960.0880863367802
 20
791.8617605078471
 10
959.7400469020703
 20
791.8596835461721
 10
959.3920074673624
 20
791.8584967109309
 10
959.0439680326545
 20
791.8581152281749
  0
LWPOLYLINE
  5
1DB
330
70
100
AcDbEntity
  8
Camada 1
 62
    18
420
        0
370
    35
100
AcDbPolyline
 90
       12
 70
     0
 43
0.0
 10
1047.031355079471
 20
791.8581152281749
 10
1046.76758094694
 20
791.8583695500119
 10
1046.41954151223
 20
791.8594716113075
 10
1046.07150207752
 20
791.8614214120643
 10
1045.98723677534
 20
791.862014829685
 10
1045.63915495366
 20
791.8648971438433
 10
1045.29111551895
 20
791.8687967453534
 10
1044.943118471219
 20
791.8737984081581
 10
1044.595121423479
 20
791.8800716801507
 10
1044.24716676272
 20
791.8878284961984
 10
1043.89921210196
 20
791.8972384041872
 10
1043.551384602109
 20
791.9084285650397
  0
LWPOLYLINE
  5
1DC
330
70
100
AcDbEntity
  8
Camada 1
 62
    18
420
        0
370
    35
100
AcDbPolyline
 90
       12
 70
     0
 43
0.0
 10
1130.098547082791
 20
791.9084285650397
 10
1130.048742389599
 20
791.9066906991502
 10
1129.700872502781
 20
791.8959667949994
 10
1129.352917842019
 20
791.8870655306837
 10
1129.054810261419
 20
791.8805803238265
 10
1128.706813213681
 20
791.8741375039425
 10
1128.35877377898
 20
791.8689239062723
 10
1128.01077673124
 20
791.8648123698967
 10
1127.66273729653
 20
791.8617605078471
 10
1127.314655474849
 20
791.8596835461721
 10
1126.966616040139
 20
791.8584967109309
 10
1126.61857660544
 20
791.8581152281749
  0
LWPOLYLINE
  5
1DD
330
70
100
AcDbEntity
  8
Camada 1
 62
    18
420
        0
370
    35
100
AcDbPolyline
 90
       13
 70
     0
 43
0.0
 10
1212.764334452489
 20
860.2302099741955
 10
1212.801465440771
 20
860.2354659588382
 10
1212.911671570389
 20
860.3065065254668
 10
1212.919640321299
 20
860.3144752763773
 10
1212.99873441278
 20
860.4167550420497
 10
1213.059432558009
 20
860.5286566505784
 10
1213.09317258846
 20
860.5999939260163
 10
1213.144291277809
 20
860.7170667452429
 10
1213.1915951396
 20
860.836046978251
 10
1213.23567759145
 20
860.9565955292573
 10
1213.27721682491
 20
861.0782037545869
 10
1213.31663670974
 20
861.2004477845093
 10
1213.35470021143
 20
861.3228613623242
  0
HATCH
  5
1DE
330
70
100
AcDbEntity
  8
Camada 1
 62
    18
420
        0
440
 33554687
100
AcDbHatch
 10
0.0
 20
0.0
 30
0.0
210
0.0
220
0.0
230
1.0
  2
SOLID
 70
     1
 71
     1
 91
        1
 92
        3
 72
     0
 73
     1
 93
       13
 10
1212.764334452489
 20
860.2302099741955
 10
1212.801465440771
 20
860.2354659588382
 10
1212.911671570389
 20
860.3065065254668
 10
1212.919640321299
 20
860.3144752763773
 10
1212.99873441278
 20
860.4167550420497
 10
1213.059432558009
 20
860.5286566505784
 10
1213.09317258846
 20
860.5999939260163
 10
1213.144291277809
 20
860.7170667452429
 10
1213.1915951396
 20
860.836046978251
 10
1213.23567759145
 20
860.9565955292573
 10
1213.27721682491
 20
861.0782037545869
 10
1213.31663670974
 20
861.2004477845093
 10
1213.35470021143
 20
861.3228613623242
 97
        0
 75
     2
 76
     1
 98
        1
 10
0.0
 20
0.0
450
        0
451
        0
460
0.0
461
0.0
452
        0
462
0.0
453
        0
470

  0
LWPOLYLINE
  5
1DF
330
70
100
AcDbEntity
  8
Camada 1
 62
    18
420
        0
370
    35
100
AcDbPolyline
 90
       13
 70
     0
 43
0.0
 10
625.7363800868533
 20
860.2302099741955
 10
625.6992279050819
 20
860.2354659588382
 10
625.5890217754695
 20
860.3065065254668
 10
625.5810742180474
 20
860.3144752763773
 10
625.5019377395929
 20
860.4167550420497
 10
625.4412819813324
 20
860.5286566505784
 10
625.4074783704218
 20
860.5999939260163
 10
625.3563808745593
 20
860.7170667452429
 10
625.3090770127691
 20
860.836046978251
 10
625.2649521739549
 20
860.9565955292573
 10
625.2234765209432
 20
861.0782037545869
 10
625.1840142491492
 20
861.2004477845093
 10
625.1459931344307
 20
861.3228613623242
  0
HATCH
  5
1E0
330
70
100
AcDbEntity
  8
Camada 1
 62
    18
420
        0
440
 33554687
100
AcDbHatch
 10
0.0
 20
0.0
 30
0.0
210
0.0
220
0.0
230
1.0
  2
SOLID
 70
     1
 71
     1
 91
        1
 92
        3
 72
     0
 73
     1
 93
       13
 10
625.7363800868533
 20
860.2302099741955
 10
625.6992279050819
 20
860.2354659588382
 10
625.5890217754695
 20
860.3065065254668
 10
625.5810742180474
 20
860.3144752763773
 10
625.5019377395929
 20
860.4167550420497
 10
625.4412819813324
 20
860.5286566505784
 10
625.4074783704218
 20
860.5999939260163
 10
625.3563808745593
 20
860.7170667452429
 10
625.3090770127691
 20
860.836046978251
 10
625.2649521739549
 20
860.9565955292573
 10
625.2234765209432
 20
861.0782037545869
 10
625.1840142491492
 20
861.2004477845093
 10
625.1459931344307
 20
861.3228613623242
 97
        0
 75
     2
 76
     1
 98
        1
 10
0.0
 20
0.0
450
        0
451
        0
460
0.0
461
0.0
452
        0
462
0.0
453
        0
470

  0
LINE
  5
1E1
330
70
100
AcDbEntity
  8
Camada 1
 62
    18
420
        0
370
    18
100
AcDbLine
 10
899.5646178198731
 20
758.1532235783506
 30
0.0
 11
899.5646178198731
 21
762.7176647580617
 31
0.0
  0
LINE
  5
1E2
330
70
100
AcDbEntity
  8
Camada 1
 62
    18
420
        0
370
    18
100
AcDbLine
 10
902.7766602413539
 20
762.0360822333859
 30
0.0
 11
902.7766602413539
 21
761.6652809942152
 31
0.0
  0
LINE
  5
1E3
330
70
100
AcDbEntity
  8
Camada 1
 62
    18
420
        0
370
    18
100
AcDbLine
 10
903.7739833273681
 20
761.3902743138606
 30
0.0
 11
903.7739833273681
 21
758.6994009180107
 31
0.0
  0
LINE
  5
1E4
330
70
100
AcDbEntity
  8
Camada 1
 62
    18
420
        0
370
    18
100
AcDbLine
 10
904.4859149246622
 20
758.4234193372804
 30
0.0
 11
904.4859149246622
 21
761.3902743138606
 31
0.0
  0
LINE
  5
1E5
330
70
100
AcDbEntity
  8
Camada 1
 62
    18
420
        0
370
    18
100
AcDbLine
 10
905.4832803976459
 20
761.3902743138606
 30
0.0
 11
905.4832803976459
 21
762.0360822333859
 31
0.0
  0
LINE
  5
1E6
330
70
100
AcDbEntity
  8
Camada 1
 62
    18
420
        0
370
    18
100
AcDbLine
 10
905.9141015904824
 20
762.0360822333859
 30
0.0
 11
905.9141015904824
 21
758.6994009180107
 31
0.0
  0
LINE
  5
1E7
330
70
100
AcDbEntity
  8
Camada 1
 62
    18
420
        0
370
    18
100
AcDbLine
 10
906.5905552914337
 20
758.4234193372804
 30
0.0
 11
906.5905552914337
 21
759.7567439576896
 31
0.0
  0
LINE
  5
1E8
330
70
100
AcDbEntity
  8
Camada 1
 62
    18
420
        0
370
    18
100
AcDbLine
 10
906.5905552914337
 20
760.3722028045995
 30
0.0
 11
906.5905552914337
 21
761.4151554669688
 31
0.0
  0
LINE
  5
1E9
330
70
100
AcDbEntity
  8
Camada 1
 62
    18
420
        0
370
    18
100
AcDbLine
 10
920.971395531451
 20
762.0360822333859
 30
0.0
 11
920.971395531451
 21
758.6994009180107
 31
0.0
  0
LINE
  5
1EA
330
70
100
AcDbEntity
  8
Camada 1
 62
    18
420
        0
370
    18
100
AcDbLine
 10
921.6284359988021
 20
758.4234193372804
 30
0.0
 11
921.6284359988021
 21
760.9337878089172
 31
0.0
  0
LINE
  5
1EB
330
70
100
AcDbEntity
  8
Camada 1
 62
    18
420
        0
370
    18
100
AcDbLine
 10
912.9895470464253
 20
758.4234193372804
 30
0.0
 11
913.314782289699
 21
760.9036082841921
 31
0.0
  0
LINE
  5
1EC
330
70
100
AcDbEntity
  8
Camada 1
 62
    18
420
        0
370
    18
100
AcDbLine
 10
912.8693799781759
 20
762.0360822333859
 30
0.0
 11
912.3079645217513
 21
758.4234193372804
 31
0.0
  0
LINE
  5
1ED
330
70
100
AcDbEntity
  8
Camada 1
 62
    18
420
        0
370
    18
100
AcDbLine
 10
909.3561781140451
 20
758.4234193372804
 30
0.0
 11
909.6366103269319
 21
759.2201884608857
 31
0.0
  0
LINE
  5
1EE
330
70
100
AcDbEntity
  8
Camada 1
 62
    18
420
        0
370
    18
100
AcDbLine
 10
909.8627024405287
 20
759.8512245203446
 30
0.0
 11
910.3681247057174
 21
761.2596800502706
 31
0.0
  0
LINE
  5
1EF
330
70
100
AcDbEntity
  8
Camada 1
 62
    18
420
        0
370
    18
100
AcDbLine
 10
914.7280063540783
 20
758.7240701362543
 30
0.0
 11
915.5397168856435
 21
760.8641672058829
 31
0.0
  0
LINE
  5
1F0
330
70
100
AcDbEntity
  8
Camada 1
 62
    18
420
        0
370
    18
100
AcDbLine
 10
915.3797484498136
 20
762.0360822333859
 30
0.0
 11
914.4425724783832
 21
759.5813678572012
 31
0.0
  0
LINE
  5
1F1
330
70
100
AcDbEntity
  8
Camada 1
 62
    18
420
        0
370
    18
100
AcDbLine
 10
910.0328013628878
 20
762.0360822333859
 30
0.0
 11
908.6493753404756
 21
758.4234193372804
 31
0.0
  0
LINE
  5
1F2
330
70
100
AcDbEntity
  8
Camada 1
 62
    18
420
        0
370
    18
100
AcDbLine
 10
937.2125152393165
 20
756.4296844851696
 30
0.0
 11
901.2883264609463
 21
756.4296844851696
 31
0.0
  0
LINE
  5
1F3
330
70
100
AcDbEntity
  8
Camada 1
 62
    18
420
        0
370
    18
100
AcDbLine
 10
904.0500072950726
 20
758.4234193372804
 30
0.0
 11
904.4859149246622
 21
758.4234193372804
 31
0.0
  0
LINE
  5
1F4
330
70
100
AcDbEntity
  8
Camada 1
 62
    18
420
        0
370
    18
100
AcDbLine
 10
906.1899136233241
 20
758.4234193372804
 30
0.0
 11
906.5905552914337
 21
758.4234193372804
 31
0.0
  0
LINE
  5
1F5
330
70
100
AcDbEntity
  8
Camada 1
 62
    18
420
        0
370
    18
100
AcDbLine
 10
907.9779233023291
 20
758.4234193372804
 30
0.0
 11
908.5197559772623
 21
758.4234193372804
 31
0.0
  0
LINE
  5
1F6
330
70
100
AcDbEntity
  8
Camada 1
 62
    18
420
        0
370
    18
100
AcDbLine
 10
908.6493753404756
 20
758.4234193372804
 30
0.0
 11
909.3561781140451
 21
758.4234193372804
 31
0.0
  0
LINE
  5
1F7
330
70
100
AcDbEntity
  8
Camada 1
 62
    18
420
        0
370
    18
100
AcDbLine
 10
911.6258733533978
 20
758.4234193372804
 30
0.0
 11
912.1127301244451
 21
758.4234193372804
 31
0.0
  0
LINE
  5
1F8
330
70
100
AcDbEntity
  8
Camada 1
 62
    18
420
        0
370
    18
100
AcDbLine
 10
912.3079645217513
 20
758.4234193372804
 30
0.0
 11
912.9895470464253
 21
758.4234193372804
 31
0.0
  0
LINE
  5
1F9
330
70
100
AcDbEntity
  8
Camada 1
 62
    18
420
        0
370
    18
100
AcDbLine
 10
916.156150632929
 20
758.4234193372804
 30
0.0
 11
916.5723907070768
 21
758.4234193372804
 31
0.0
  0
LINE
  5
1FA
330
70
100
AcDbEntity
  8
Camada 1
 62
    18
420
        0
370
    18
100
AcDbLine
 10
921.2475042731021
 20
758.4234193372804
 30
0.0
 11
921.6284359988021
 21
758.4234193372804
 31
0.0
  0
LINE
  5
1FB
330
70
100
AcDbEntity
  8
Camada 1
 62
    18
420
        0
370
    18
100
AcDbLine
 10
923.6274480290413
 20
758.4234193372804
 30
0.0
 11
924.0133390305727
 21
758.4234193372804
 31
0.0
  0
LINE
  5
1FC
330
70
100
AcDbEntity
  8
Camada 1
 62
    18
420
        0
370
    18
100
AcDbLine
 10
925.7172953422632
 20
758.4234193372804
 30
0.0
 11
926.1532453588243
 21
758.4234193372804
 31
0.0
  0
LINE
  5
1FD
330
70
100
AcDbEntity
  8
Camada 1
 62
    18
420
        0
370
    18
100
AcDbLine
 10
927.8864062948633
 20
758.4234193372804
 30
0.0
 11
928.3223563114207
 21
758.4234193372804
 31
0.0
  0
LINE
  5
1FE
330
70
100
AcDbEntity
  8
Camada 1
 62
    18
420
        0
370
    18
100
AcDbLine
 10
929.2844134359583
 20
758.4234193372804
 30
0.0
 11
929.665302774687
 21
758.4234193372804
 31
0.0
  0
LINE
  5
1FF
330
70
100
AcDbEntity
  8
Camada 1
 62
    18
420
        0
370
    18
100
AcDbLine
 10
931.6649506095201
 20
758.4234193372804
 30
0.0
 11
932.0511807068378
 21
758.4234193372804
 31
0.0
  0
LINE
  5
200
330
70
100
AcDbEntity
  8
Camada 1
 62
    18
420
        0
370
    18
100
AcDbLine
 10
932.4363935168021
 20
758.4234193372804
 30
0.0
 11
933.1431962903716
 21
758.4234193372804
 31
0.0
  0
LINE
  5
201
330
70
100
AcDbEntity
  8
Camada 1
 62
    18
420
        0
370
    18
100
AcDbLine
 10
935.4127219818328
 20
758.4234193372804
 30
0.0
 11
935.8994092049906
 21
758.4234193372804
 31
0.0
  0
LINE
  5
202
330
70
100
AcDbEntity
  8
Camada 1
 62
    18
420
        0
370
    18
100
AcDbLine
 10
914.402135306209
 20
758.7240701362543
 30
0.0
 11
914.7280063540783
 21
758.7240701362543
 31
0.0
  0
LINE
  5
203
330
70
100
AcDbEntity
  8
Camada 1
 62
    18
420
        0
370
    18
100
AcDbLine
 10
909.6366103269319
 20
759.2201884608857
 30
0.0
 11
911.0997662454209
 21
759.2201884608857
 31
0.0
  0
LINE
  5
204
330
70
100
AcDbEntity
  8
Camada 1
 62
    18
420
        0
370
    18
100
AcDbLine
 10
933.4243490818007
 20
759.2201884608857
 30
0.0
 11
934.8866148738579
 21
759.2201884608857
 31
0.0
  0
LINE
  5
205
330
70
100
AcDbEntity
  8
Camada 1
 62
    18
420
        0
370
    18
100
AcDbLine
 10
906.5905552914337
 20
759.7567439576896
 30
0.0
 11
907.0566424457465
 21
759.7567439576896
 31
0.0
  0
LINE
  5
206
330
70
100
AcDbEntity
  8
Camada 1
 62
    18
420
        0
370
    18
100
AcDbLine
 10
934.6612009518302
 20
759.8512245203446
 30
0.0
 11
933.6494239080456
 21
759.8512245203446
 31
0.0
  0
LINE
  5
207
330
70
100
AcDbEntity
  8
Camada 1
 62
    18
420
        0
370
    18
100
AcDbLine
 10
910.874691419176
 20
759.8512245203446
 30
0.0
 11
909.8627024405287
 21
759.8512245203446
 31
0.0
  0
LINE
  5
208
330
70
100
AcDbEntity
  8
Camada 1
 62
    18
420
        0
370
    18
100
AcDbLine
 10
907.0618136564444
 20
760.3722028045995
 30
0.0
 11
906.5905552914337
 21
760.3722028045995
 31
0.0
  0
LINE
  5
209
330
70
100
AcDbEntity
  8
Camada 1
 62
    18
420
        0
370
    18
100
AcDbLine
 10
903.0526418220871
 20
761.3902743138606
 30
0.0
 11
903.7739833273681
 21
761.3902743138606
 31
0.0
  0
LINE
  5
20A
330
70
100
AcDbEntity
  8
Camada 1
 62
    18
420
        0
370
    18
100
AcDbLine
 10
904.4859149246622
 20
761.3902743138606
 30
0.0
 11
905.4832803976459
 21
761.3902743138606
 31
0.0
  0
LINE
  5
20B
330
70
100
AcDbEntity
  8
Camada 1
 62
    18
420
        0
370
    18
100
AcDbLine
 10
924.7198027083577
 20
761.3902743138606
 30
0.0
 11
925.4411866006158
 21
761.3902743138606
 31
0.0
  0
LINE
  5
20C
330
70
100
AcDbEntity
  8
Camada 1
 62
    18
420
        0
370
    18
100
AcDbLine
 10
926.1532453588243
 20
761.3902743138606
 30
0.0
 11
927.1504412839185
 21
761.3902743138606
 31
0.0
  0
LINE
  5
20D
330
70
100
AcDbEntity
  8
Camada 1
 62
    18
420
        0
370
    18
100
AcDbLine
 10
906.5905552914337
 20
761.4151554669688
 30
0.0
 11
907.0618136564444
 21
761.4151554669688
 31
0.0
  0
LINE
  5
20E
330
70
100
AcDbEntity
  8
Camada 1
 62
    18
420
        0
370
    18
100
AcDbLine
 10
934.5067004355078
 20
762.0360822333859
 30
0.0
 11
933.8198195392161
 21
762.0360822333859
 31
0.0
  0
LINE
  5
20F
330
70
100
AcDbEntity
  8
Camada 1
 62
    18
420
        0
370
    18
100
AcDbLine
 10
932.0511807068378
 20
762.0360822333859
 30
0.0
 11
931.3941402394902
 21
762.0360822333859
 31
0.0
  0
LINE
  5
210
330
70
100
AcDbEntity
  8
Camada 1
 62
    18
420
        0
370
    18
100
AcDbLine
 10
929.6507216560003
 20
762.0360822333859
 30
0.0
 11
929.0095763034969
 21
762.0360822333859
 31
0.0
  0
LINE
  5
211
330
70
100
AcDbEntity
  8
Camada 1
 62
    18
420
        0
370
    18
100
AcDbLine
 10
928.3223563114207
 20
762.0360822333859
 30
0.0
 11
927.6115691623981
 21
762.0360822333859
 31
0.0
  0
LINE
  5
212
330
70
100
AcDbEntity
  8
Camada 1
 62
    18
420
        0
370
    18
100
AcDbLine
 10
927.1504412839185
 20
762.0360822333859
 30
0.0
 11
924.444287384329
 21
762.0360822333859
 31
0.0
  0
LINE
  5
213
330
70
100
AcDbEntity
  8
Camada 1
 62
    18
420
        0
370
    18
100
AcDbLine
 10
924.0133390305727
 20
762.0360822333859
 30
0.0
 11
923.3565952720345
 21
762.0360822333859
 31
0.0
  0
LINE
  5
214
330
70
100
AcDbEntity
  8
Camada 1
 62
    18
420
        0
370
    18
100
AcDbLine
 10
921.6131766885501
 20
762.0360822333859
 30
0.0
 11
920.971395531451
 21
762.0360822333859
 31
0.0
  0
LINE
  5
215
330
70
100
AcDbEntity
  8
Camada 1
 62
    18
420
        0
370
    18
100
AcDbLine
 10
916.0108057027592
 20
762.0360822333859
 30
0.0
 11
915.3797484498136
 21
762.0360822333859
 31
0.0
  0
LINE
  5
216
330
70
100
AcDbEntity
  8
Camada 1
 62
    18
420
        0
370
    18
100
AcDbLine
 10
913.5055660548459
 20
762.0360822333859
 30
0.0
 11
912.8693799781759
 21
762.0360822333859
 31
0.0
  0
LINE
  5
217
330
70
100
AcDbEntity
  8
Camada 1
 62
    18
420
        0
370
    18
100
AcDbLine
 10
910.7191736155037
 20
762.0360822333859
 30
0.0
 11
910.0328013628878
 21
762.0360822333859
 31
0.0
  0
LINE
  5
218
330
70
100
AcDbEntity
  8
Camada 1
 62
    18
420
        0
370
    18
100
AcDbLine
 10
907.1217912231368
 20
762.0360822333859
 30
0.0
 11
905.9141015904824
 21
762.0360822333859
 31
0.0
  0
LINE
  5
219
330
70
100
AcDbEntity
  8
Camada 1
 62
    18
420
        0
370
    18
100
AcDbLine
 10
905.4832803976459
 20
762.0360822333859
 30
0.0
 11
902.7766602413539
 21
762.0360822333859
 31
0.0
  0
LINE
  5
21A
330
70
100
AcDbEntity
  8
Camada 1
 62
    18
420
        0
370
    18
100
AcDbLine
 10
921.6284359988021
 20
760.9337878089172
 30
0.0
 11
923.1967963840961
 21
758.6741806691188
 31
0.0
  0
LINE
  5
21B
330
70
100
AcDbEntity
  8
Camada 1
 62
    18
420
        0
370
    18
100
AcDbLine
 10
923.3565952720345
 20
759.4807623769574
 30
0.0
 11
921.6131766885501
 21
762.0360822333859
 31
0.0
  0
LINE
  5
21C
330
70
100
AcDbEntity
  8
Camada 1
 62
    18
420
        0
370
    18
100
AcDbLine
 10
908.5197559772623
 20
758.4234193372804
 30
0.0
 11
907.6927861354452
 21
759.8865328687943
 31
0.0
  0
LINE
  5
21D
330
70
100
AcDbEntity
  8
Camada 1
 62
    18
420
        0
370
    18
100
AcDbLine
 10
907.0566424457465
 20
759.7567439576896
 30
0.0
 11
907.63246947297
 21
758.6287842211131
 31
0.0
  0
LINE
  5
21E
330
70
100
AcDbEntity
  8
Camada 1
 62
    18
420
        0
370
    18
100
AcDbLine
 10
912.1127301244451
 20
758.4234193372804
 30
0.0
 11
910.7191736155037
 21
762.0360822333859
 31
0.0
  0
LINE
  5
21F
330
70
100
AcDbEntity
  8
Camada 1
 62
    18
420
        0
370
    18
100
AcDbLine
 10
913.314782289699
 20
760.9036082841921
 30
0.0
 11
914.0513831052357
 21
758.9848347937049
 31
0.0
  0
LINE
  5
220
330
70
100
AcDbEntity
  8
Camada 1
 62
    18
420
        0
370
    18
100
AcDbLine
 10
914.4425724783832
 20
759.5813678572012
 30
0.0
 11
913.5055660548459
 21
762.0360822333859
 31
0.0
  0
LINE
  5
221
330
70
100
AcDbEntity
  8
Camada 1
 62
    18
420
        0
370
    18
100
AcDbLine
 10
911.0997662454209
 20
759.2201884608857
 30
0.0
 11
911.3003414013164
 21
758.6692213932856
 31
0.0
  0
LINE
  5
222
330
70
100
AcDbEntity
  8
Camada 1
 62
    18
420
        0
370
    18
100
AcDbLine
 10
910.3681247057174
 20
761.2596800502706
 30
0.0
 11
910.874691419176
 21
759.8512245203446
 31
0.0
  0
LINE
  5
223
330
70
100
AcDbEntity
  8
Camada 1
 62
    18
420
        0
370
    18
100
AcDbLine
 10
916.5723907070768
 20
758.4234193372804
 30
0.0
 11
916.0108057027592
 21
762.0360822333859
 31
0.0
  0
LINE
  5
224
330
70
100
AcDbEntity
  8
Camada 1
 62
    18
420
        0
370
    18
100
AcDbLine
 10
915.5397168856435
 20
760.8641672058829
 30
0.0
 11
915.8302795850595
 21
758.6887829812931
 31
0.0
  0
LINE
  5
225
330
70
100
AcDbEntity
  8
Camada 1
 62
    18
420
        0
370
    18
100
AcDbLine
 10
923.3565952720345
 20
762.0360822333859
 30
0.0
 11
923.3565952720345
 21
759.4807623769574
 31
0.0
  0
LINE
  5
226
330
70
100
AcDbEntity
  8
Camada 1
 62
    18
420
        0
370
    18
100
AcDbLine
 10
924.0133390305727
 20
758.4234193372804
 30
0.0
 11
924.0133390305727
 21
762.0360822333859
 31
0.0
  0
LINE
  5
227
330
70
100
AcDbEntity
  8
Camada 1
 62
    18
420
        0
370
    18
100
AcDbLine
 10
924.444287384329
 20
762.0360822333859
 30
0.0
 11
924.444287384329
 21
761.6652809942152
 31
0.0
  0
LINE
  5
228
330
70
100
AcDbEntity
  8
Camada 1
 62
    18
420
        0
370
    18
100
AcDbLine
 10
925.4411866006158
 20
761.3902743138606
 30
0.0
 11
925.4411866006158
 21
758.6994009180107
 31
0.0
  0
LINE
  5
229
330
70
100
AcDbEntity
  8
Camada 1
 62
    18
420
        0
370
    18
100
AcDbLine
 10
926.1532453588243
 20
758.4234193372804
 30
0.0
 11
926.1532453588243
 21
761.3902743138606
 31
0.0
  0
LINE
  5
22A
330
70
100
AcDbEntity
  8
Camada 1
 62
    18
420
        0
370
    18
100
AcDbLine
 10
927.1504412839185
 20
761.3902743138606
 30
0.0
 11
927.1504412839185
 21
762.0360822333859
 31
0.0
  0
LINE
  5
22B
330
70
100
AcDbEntity
  8
Camada 1
 62
    18
420
        0
370
    18
100
AcDbLine
 10
927.6115691623981
 20
762.0360822333859
 30
0.0
 11
927.6115691623981
 21
758.6994009180107
 31
0.0
  0
LINE
  5
22C
330
70
100
AcDbEntity
  8
Camada 1
 62
    18
420
        0
370
    18
100
AcDbLine
 10
928.3223563114207
 20
758.4234193372804
 30
0.0
 11
928.3223563114207
 21
762.0360822333859
 31
0.0
  0
LINE
  5
22D
330
70
100
AcDbEntity
  8
Camada 1
 62
    18
420
        0
370
    18
100
AcDbLine
 10
929.0095763034969
 20
762.0360822333859
 30
0.0
 11
929.0095763034969
 21
758.6994009180107
 31
0.0
  0
LINE
  5
22E
330
70
100
AcDbEntity
  8
Camada 1
 62
    18
420
        0
370
    18
100
AcDbLine
 10
929.665302774687
 20
758.4234193372804
 30
0.0
 11
929.665302774687
 21
760.9337878089172
 31
0.0
  0
LINE
  5
22F
330
70
100
AcDbEntity
  8
Camada 1
 62
    18
420
        0
370
    18
100
AcDbLine
 10
931.3941402394902
 20
762.0360822333859
 30
0.0
 11
931.3941402394902
 21
759.4807623769574
 31
0.0
  0
LINE
  5
230
330
70
100
AcDbEntity
  8
Camada 1
 62
    18
420
        0
370
    18
100
AcDbLine
 10
932.0511807068378
 20
758.4234193372804
 30
0.0
 11
932.0511807068378
 21
762.0360822333859
 31
0.0
  0
LINE
  5
231
330
70
100
AcDbEntity
  8
Camada 1
 62
    18
420
        0
370
    18
100
AcDbLine
 10
938.9360543324965
 20
762.7176647580617
 30
0.0
 11
938.9360543324965
 21
758.1532235783506
 31
0.0
  0
LINE
  5
232
330
70
100
AcDbEntity
  8
Camada 1
 62
    18
420
        0
370
    18
100
AcDbLine
 10
933.1431962903716
 20
758.4234193372804
 30
0.0
 11
933.4243490818007
 21
759.2201884608857
 31
0.0
  0
LINE
  5
233
330
70
100
AcDbEntity
  8
Camada 1
 62
    18
420
        0
370
    18
100
AcDbLine
 10
933.6494239080456
 20
759.8512245203446
 30
0.0
 11
934.1556515257217
 21
761.2596800502706
 31
0.0
  0
LINE
  5
234
330
70
100
AcDbEntity
  8
Camada 1
 62
    18
420
        0
370
    18
100
AcDbLine
 10
933.8198195392161
 20
762.0360822333859
 30
0.0
 11
932.4363935168021
 21
758.4234193372804
 31
0.0
  0
LINE
  5
235
330
70
100
AcDbEntity
  8
Camada 1
 62
    18
420
        0
370
    18
100
AcDbLine
 10
901.2883264609463
 20
764.4415005600558
 30
0.0
 11
937.2125152393165
 21
764.4415005600558
 31
0.0
  0
LINE
  5
236
330
70
100
AcDbEntity
  8
Camada 1
 62
    18
420
        0
370
    18
100
AcDbLine
 10
929.665302774687
 20
760.9337878089172
 30
0.0
 11
931.2343413515518
 21
758.6741806691188
 31
0.0
  0
LINE
  5
237
330
70
100
AcDbEntity
  8
Camada 1
 62
    18
420
        0
370
    18
100
AcDbLine
 10
931.3941402394902
 20
759.4807623769574
 30
0.0
 11
929.6507216560003
 21
762.0360822333859
 31
0.0
  0
LINE
  5
238
330
70
100
AcDbEntity
  8
Camada 1
 62
    18
420
        0
370
    18
100
AcDbLine
 10
935.8994092049906
 20
758.4234193372804
 30
0.0
 11
934.5067004355078
 21
762.0360822333859
 31
0.0
  0
LINE
  5
239
330
70
100
AcDbEntity
  8
Camada 1
 62
    18
420
        0
370
    18
100
AcDbLine
 10
934.8866148738579
 20
759.2201884608857
 30
0.0
 11
935.0878682213188
 21
758.6692213932856
 31
0.0
  0
LINE
  5
23A
330
70
100
AcDbEntity
  8
Camada 1
 62
    18
420
        0
370
    18
100
AcDbLine
 10
934.1556515257217
 20
761.2596800502706
 30
0.0
 11
934.6612009518302
 21
759.8512245203446
 31
0.0
  0
LWPOLYLINE
  5
23B
330
70
100
AcDbEntity
  8
Camada 1
 62
    18
420
        0
370
    18
100
AcDbPolyline
 90
       11
 70
     0
 43
0.0
 10
907.6076307068325
 20
760.8890483589911
 10
907.5992380861935
 20
760.7782700052448
 10
907.575374220436
 20
760.6830900575369
 10
907.5379465233417
 20
760.6026183894328
 10
907.4889895696106
 20
760.5359012940444
 10
907.430410773024
 20
760.4820062579683
 10
907.3642023213087
 20
760.4399795743102
 10
907.2922716282519
 20
760.4089311166399
 10
907.216568494603
 20
760.3879071780684
 10
907.1390851080904
 20
760.3759752451897
 10
907.0618136564444
 20
760.3722028045995
  0
LWPOLYLINE
  5
23C
330
70
100
AcDbEntity
  8
Camada 1
 62
    18
420
        0
370
    18
100
AcDbPolyline
 90
       11
 70
     0
 43
0.0
 10
907.0618136564444
 20
761.4151554669688
 10
907.1390851080904
 20
761.4113830263777
 10
907.216568494603
 20
761.3994087065275
 10
907.2922716282519
 20
761.3782364135495
 10
907.3642023213087
 20
761.3468700535813
 10
907.430410773024
 20
761.30433472625
 10
907.4889895696106
 20
761.2495919507137
 10
907.5379465233417
 20
761.1817092135697
 10
907.575374220436
 20
761.0996480339827
 10
907.5992380861935
 20
761.0024123180864
 10
907.6076307068325
 20
760.8890483589911
  0
LWPOLYLINE
  5
23D
330
70
100
AcDbEntity
  8
Camada 1
 62
    18
420
        0
370
    18
100
AcDbPolyline
 90
       11
 70
     0
 43
0.0
 10
927.6115691623981
 20
758.6994009180107
 10
927.6141547677489
 20
758.6452303666101
 10
927.6219539707671
 20
758.5973118937145
 10
927.6350939323746
 20
758.5554971449218
 10
927.6537018134913
 20
758.5197013462838
 10
927.67786238806
 20
758.4897337564243
 10
927.7077452039721
 20
758.4655307948824
 10
927.7434350351759
 20
758.4469017202809
 10
927.78501665562
 20
758.4337617586743
 10
927.8326172262168
 20
758.4259837491408
 10
927.8864062948633
 20
758.4234193372804
  0
LWPOLYLINE
  5
23E
330
70
100
AcDbEntity
  8
Camada 1
 62
    18
420
        0
370
    18
100
AcDbPolyline
 90
       11
 70
     0
 43
0.0
 10
902.7766602413539
 20
761.6652809942152
 10
902.7792034597295
 20
761.6114495385972
 10
902.7870450497212
 20
761.5637853875396
 10
902.8001850113305
 20
761.522161380124
 10
902.8188352794169
 20
761.4864715489202
 10
902.843080627932
 20
761.4565887330063
 10
902.8730482177943
 20
761.432406964951
 10
902.9088652099162
 20
761.4137990838353
 10
902.9506587652212
 20
761.400637928742
 10
902.9985560446293
 20
761.3928387257238
 10
903.0526418220871
 20
761.3902743138606
  0
LWPOLYLINE
  5
23F
330
70
100
AcDbEntity
  8
Camada 1
 62
    18
420
        0
370
    18
100
AcDbPolyline
 90
       11
 70
     0
 43
0.0
 10
903.7739833273681
 20
758.6994009180107
 10
903.7765689327171
 20
758.6452303666101
 10
903.7844105227087
 20
758.5973118937145
 10
903.7975504843162
 20
758.5554971449218
 10
903.8162007524043
 20
758.5197013462838
 10
903.8404461009177
 20
758.4897337564243
 10
903.8704136907782
 20
758.4655307948824
 10
903.9062306829036
 20
758.4469017202809
 10
903.9480242382106
 20
758.4337617586743
 10
903.9959215176185
 20
758.4259837491408
 10
904.0500072950726
 20
758.4234193372804
  0
LWPOLYLINE
  5
240
330
70
100
AcDbEntity
  8
Camada 1
 62
    18
420
        0
370
    18
100
AcDbPolyline
 90
       11
 70
     0
 43
0.0
 10
924.444287384329
 20
761.6652809942152
 10
924.4468729896762
 20
761.6114495385972
 10
924.454629805723
 20
761.5637853875396
 10
924.4677697673322
 20
761.522161380124
 10
924.4863776484471
 20
761.4864715489202
 10
924.5105806099873
 20
761.4565887330063
 10
924.5404634259012
 20
761.432406964951
 10
924.5762380310534
 20
761.4137990838353
 10
924.6179468124156
 20
761.400637928742
 10
924.6657593178751
 20
761.3928387257238
 10
924.7198027083577
 20
761.3902743138606
  0
LWPOLYLINE
  5
241
330
70
100
AcDbEntity
  8
Camada 1
 62
    18
420
        0
370
    18
100
AcDbPolyline
 90
       11
 70
     0
 43
0.0
 10
925.4411866006158
 20
758.6994009180107
 10
925.4437722059629
 20
758.6452303666101
 10
925.451571408983
 20
758.5973118937145
 10
925.4647113705905
 20
758.5554971449218
 10
925.4833616386749
 20
758.5197013462838
 10
925.5076493741634
 20
758.4897337564243
 10
925.5376169640257
 20
758.4655307948824
 10
925.5734339561477
 20
758.4469017202809
 10
925.6152698984278
 20
758.4337617586743
 10
925.6631671778359
 20
758.4259837491408
 10
925.7172953422632
 20
758.4234193372804
  0
LWPOLYLINE
  5
242
330
70
100
AcDbEntity
  8
Camada 1
 62
    18
420
        0
370
    18
100
AcDbPolyline
 90
       11
 70
     0
 43
0.0
 10
935.0878682213188
 20
758.6692213932856
 10
935.1071542939989
 20
758.6222142403094
 10
935.1289835850566
 20
758.5802723305969
 10
935.1534832554097
 20
758.5433320836901
 10
935.1808228529479
 20
758.511372306104
 10
935.2111295385894
 20
758.4844141913217
 10
935.2445728602306
 20
758.4623941588851
 10
935.2812799787862
 20
758.445312208797
 10
935.3214628291224
 20
758.4331259540795
 10
935.3652061851827
 20
758.4258353947362
 10
935.4127219818328
 20
758.4234193372804
  0
LWPOLYLINE
  5
243
330
70
100
AcDbEntity
  8
Camada 1
 62
    18
420
        0
370
    18
100
AcDbPolyline
 90
       11
 70
     0
 43
0.0
 10
911.3003414013164
 20
758.6692213932856
 10
911.3195850870251
 20
758.6222142403094
 10
911.3414143780792
 20
758.5802511371111
 10
911.3659988223789
 20
758.5433108902043
 10
911.3933808068905
 20
758.511372306104
 10
911.4237722664801
 20
758.4844141913217
 10
911.4573427490377
 20
758.4623941588851
 10
911.4941770285131
 20
758.445312208797
 10
911.5344446527924
 20
758.4331259540795
 10
911.5783151697742
 20
758.4258353947362
 10
911.6258733533978
 20
758.4234193372804
  0
LWPOLYLINE
  5
244
330
70
100
AcDbEntity
  8
Camada 1
 62
    18
420
        0
370
    18
100
AcDbPolyline
 90
       11
 70
     0
 43
0.0
 10
923.1967963840961
 20
758.6741806691188
 10
923.2343088551388
 20
758.6233374950916
 10
923.2719061001226
 20
758.5788311735178
 10
923.3100967627324
 20
758.5404709630183
 10
923.3492199387455
 20
758.5080025417574
 10
923.3896994978895
 20
758.4811715878932
 10
923.4320016968721
 20
758.4597449730781
 10
923.4765080184478
 20
758.4434895689601
 10
923.523642332344
 20
758.4321722471877
 10
923.5738285082861
 20
758.4255598794116
 10
923.6274480290413
 20
758.4234193372804
  0
LWPOLYLINE
  5
245
330
70
100
AcDbEntity
  8
Camada 1
 62
    18
420
        0
370
    18
100
AcDbPolyline
 90
       11
 70
     0
 43
0.0
 10
920.971395531451
 20
758.6994009180107
 10
920.9739811367999
 20
758.6452303666101
 10
920.9817803398182
 20
758.5973118937145
 10
920.9949626883989
 20
758.5554971449218
 10
921.0136129564888
 20
758.5197013462838
 10
921.0378583050005
 20
758.4897337564243
 10
921.0678258948609
 20
758.4655307948824
 10
921.1036428869883
 20
758.4469017202809
 10
921.1454788292648
 20
758.4337617586743
 10
921.1933761086729
 20
758.4259837491408
 10
921.2475042731021
 20
758.4234193372804
  0
LWPOLYLINE
  5
246
330
70
100
AcDbEntity
  8
Camada 1
 62
    18
420
        0
370
    18
100
AcDbPolyline
 90
       11
 70
     0
 43
0.0
 10
931.2343413515518
 20
758.6741806691188
 10
931.2718114356176
 20
758.6233374950916
 10
931.3094086806049
 20
758.5788523670035
 10
931.3475145692683
 20
758.540492156505
 10
931.386552971333
 20
758.5080025417574
 10
931.4269901435073
 20
758.4811715878932
 10
931.4692499555167
 20
758.4597449730781
 10
931.5137562770887
 20
758.4434895689601
 10
931.5609329779581
 20
758.4321934406752
 10
931.6111615408772
 20
758.4255598794116
 10
931.6649506095201
 20
758.4234193372804
  0
LWPOLYLINE
  5
247
330
70
100
AcDbEntity
  8
Camada 1
 62
    18
420
        0
370
    18
100
AcDbPolyline
 90
       11
 70
     0
 43
0.0
 10
929.0095763034969
 20
758.6994009180107
 10
929.012161908844
 20
758.6452303666101
 10
929.019961111866
 20
758.5973118937145
 10
929.0331010734735
 20
758.5554971449218
 10
929.05170895459
 20
758.5197013462838
 10
929.0758695291552
 20
758.4897337564243
 10
929.1057523450708
 20
758.4655307948824
 10
929.1413997893032
 20
758.4469017202809
 10
929.1830237967188
 20
758.4337617586743
 10
929.2306243673156
 20
758.4259837491408
 10
929.2844134359583
 20
758.4234193372804
  0
LWPOLYLINE
  5
248
330
70
100
AcDbEntity
  8
Camada 1
 62
    18
420
        0
370
    18
100
AcDbPolyline
 90
       11
 70
     0
 43
0.0
 10
907.6927861354452
 20
759.8865328687943
 10
907.7976091194978
 20
759.9445182477593
 10
907.8949296093378
 20
760.0129096285781
 10
907.9838998655123
 20
760.0912831415216
 10
908.0637569225073
 20
760.1791937233729
 10
908.1336106538911
 20
760.2762386978911
 10
908.192655707182
 20
760.3820153888327
 10
908.2400443429142
 20
760.4960787329801
 10
908.2748864346577
 20
760.6180260540923
 10
908.2964614038791
 20
760.7474334824409
 10
908.3037943501986
 20
760.8838771482942
  0
LWPOLYLINE
  5
249
330
70
100
AcDbEntity
  8
Camada 1
 62
    18
420
        0
370
    18
100
AcDbPolyline
 90
       11
 70
     0
 43
0.0
 10
907.63246947297
 20
758.6287842211131
 10
907.6557399211051
 20
758.586503215618
 10
907.6808330090807
 20
758.549690129631
 10
907.7080030587294
 20
758.5181330282848
 10
907.7374620049122
 20
758.4915563962604
 10
907.7695065564439
 20
758.4697271052028
 10
907.8044334221358
 20
758.4524120267615
 10
907.8424545368507
 20
758.4393568390996
 10
907.8838666094034
 20
758.4303496073516
 10
907.9289239616246
 20
758.4251148161956
 10
907.9779233023291
 20
758.4234193372804
  0
LWPOLYLINE
  5
24A
330
70
100
AcDbEntity
  8
Camada 1
 62
    18
420
        0
370
    18
100
AcDbPolyline
 90
       11
 70
     0
 43
0.0
 10
905.9141015904824
 20
758.6994009180107
 10
905.916644808858
 20
758.6452303666101
 10
905.9244440118781
 20
758.5973118937145
 10
905.9375839734856
 20
758.5554971449218
 10
905.9561918546005
 20
758.5197013462838
 10
905.9803948161443
 20
758.4897337564243
 10
906.0103200190296
 20
758.4655307948824
 10
906.0460946241802
 20
758.4469017202809
 10
906.087888179487
 20
758.4337617586743
 10
906.1357854588969
 20
758.4259837491408
 10
906.1899136233241
 20
758.4234193372804
  0
LWPOLYLINE
  5
24B
330
70
100
AcDbEntity
  8
Camada 1
 62
    18
420
        0
370
    18
100
AcDbPolyline
 90
       11
 70
     0
 43
0.0
 10
908.3037943501986
 20
760.8838771482942
 10
908.2892132315082
 20
761.0891148712099
 10
908.2467414846361
 20
761.2770375156851
 10
908.1781593624382
 20
761.4466489878541
 10
908.0853318917288
 20
761.5969320003687
 10
907.9700817123375
 20
761.7268904593657
 10
907.834231464105
 20
761.8354858840056
 10
907.6796461738377
 20
761.9217221804265
 10
907.5081484813708
 20
761.984582061279
 10
907.3216034135183
 20
762.023027045725
 10
907.1217912231368
 20
762.0360822333859
  0
LWPOLYLINE
  5
24C
330
70
100
AcDbEntity
  8
Camada 1
 62
    18
420
        0
370
    18
100
AcDbPolyline
 90
       11
 70
     0
 43
0.0
 10
914.0513831052357
 20
758.9848347937049
 10
914.0736362660227
 20
758.9348605526229
 10
914.0981783233492
 20
758.8902906505891
 10
914.1251788251029
 20
758.851082700633
 10
914.1548920931237
 20
758.8172155092633
 10
914.1875300622796
 20
758.7886254960239
 10
914.22330466743
 20
758.7653126609129
 10
914.2624702304164
 20
758.747213423474
 10
914.3051539121552
 20
758.7343489771901
 10
914.3516524214556
 20
758.7266345481166
 10
914.402135306209
 20
758.7240701362543
  0
LWPOLYLINE
  5
24D
330
70
100
AcDbEntity
  8
Camada 1
 62
    18
420
        0
370
    18
100
AcDbPolyline
 90
       11
 70
     0
 43
0.0
 10
915.8302795850595
 20
758.6887829812931
 10
915.8410458761863
 20
758.6352694279703
 10
915.8579582783822
 20
758.5883682424282
 10
915.8805081479805
 20
758.5478251028217
 10
915.9082716152479
 20
758.5134492677771
 10
915.9406976495374
 20
758.4849864154566
 10
915.9773623811197
 20
758.4622034175072
 10
916.0177147793474
 20
758.4448883390669
 10
916.0612885875179
 20
758.4328080517825
 10
916.107617548927
 20
758.4257294273038
 10
916.156150632929
 20
758.4234193372804
  0
LWPOLYLINE
  5
24E
330
70
100
AcDbEntity
  8
Camada 1
 62
    18
420
        0
370
    18
100
AcDbPolyline
 90
       11
 70
     0
 43
0.0
 10
899.5646178198731
 20
762.7176647580617
 10
899.5847516320118
 20
763.0191632964961
 10
899.6438814592492
 20
763.2970946779823
 10
899.7400575008214
 20
763.5495938757112
 10
899.8713299559785
 20
763.7746263149847
 10
900.0357914109372
 20
763.970369355964
 10
900.2315344519157
 20
764.1348308109236
 10
900.4565668911892
 20
764.2661032660798
 10
900.7090237019474
 20
764.3622793076529
 10
900.9869126964586
 20
764.4214091348876
 10
901.2883264609463
 20
764.4415005600558
  0
LWPOLYLINE
  5
24F
330
70
100
AcDbEntity
  8
Camada 1
 62
    18
420
        0
370
    18
100
AcDbPolyline
 90
       11
 70
     0
 43
0.0
 10
901.2883264609463
 20
756.4296844851696
 10
900.9869126964586
 20
756.4497759103369
 10
900.7090237019474
 20
756.5087997701393
 10
900.4565668911892
 20
756.6048486507934
 10
900.2315344519157
 20
756.7359939450307
 10
900.0357914109372
 20
756.9003494325571
 10
899.8713299559785
 20
757.0959865061049
 10
899.7400575008214
 20
757.3209977518908
 10
899.6438814592492
 20
757.5734969496206
 10
899.5847516320118
 20
757.8515342985392
 10
899.5646178198731
 20
758.1532235783506
  0
LWPOLYLINE
  5
250
330
70
100
AcDbEntity
  8
Camada 1
 62
    18
420
        0
370
    18
100
AcDbPolyline
 90
       11
 70
     0
 43
0.0
 10
938.9360543324965
 20
758.1532235783506
 10
938.915920520356
 20
757.8515342985392
 10
938.8567906931202
 20
757.5734969496206
 10
938.76061465155
 20
757.3209977518908
 10
938.6293421963946
 20
757.0959865061049
 10
938.4648807414324
 20
756.9003494325571
 10
938.2691800874253
 20
756.7359939450307
 10
938.0441476481538
 20
756.6048486507934
 10
937.7917332243706
 20
756.5087997701393
 10
937.5138866168308
 20
756.4497759103369
 10
937.2125152393165
 20
756.4296844851696
  0
LWPOLYLINE
  5
251
330
70
100
AcDbEntity
  8
Camada 1
 62
    18
420
        0
370
    18
100
AcDbPolyline
 90
       11
 70
     0
 43
0.0
 10
937.2125152393165
 20
764.4415005600558
 10
937.5138866168308
 20
764.4214091348876
 10
937.7917332243706
 20
764.3622793076529
 10
938.0441476481538
 20
764.2661032660798
 10
938.2691800874253
 20
764.1348308109236
 10
938.4648807414324
 20
763.970369355964
 10
938.6293421963946
 20
763.7746263149847
 10
938.76061465155
 20
763.5495938757112
 10
938.8567906931202
 20
763.2970946779823
 10
938.915920520356
 20
763.0191632964961
 10
938.9360543324965
 20
762.7176647580617
  0
LWPOLYLINE
  5
252
330
70
100
AcDbEntity
  8
Camada 1
 62
    18
420
        0
370
    18
100
AcDbPolyline
 90
       11
 70
     0
 43
0.0
 10
919.7789228220809
 20
760.2270062288353
 10
919.7640026076078
 20
760.0357774004724
 10
919.7208102821932
 20
759.8541916084505
 10
919.6517619032965
 20
759.6847072971987
 10
919.5591039804767
 20
759.5298041046362
 10
919.4453373451379
 20
759.3919616686753
 10
919.3127508938214
 20
759.2736384337476
 10
919.163718297008
 20
759.177314037769
 10
919.0006132251838
 20
759.1054469251703
 10
918.8258093488293
 20
759.0605167338671
 10
918.6416803384327
 20
759.0449819082887
  0
LWPOLYLINE
  5
253
330
70
100
AcDbEntity
  8
Camada 1
 62
    18
420
        0
370
    18
100
AcDbPolyline
 90
       11
 70
     0
 43
0.0
 10
918.6416803384327
 20
761.4151554669688
 10
918.8258093488293
 20
761.3994934804723
 10
919.0006132251838
 20
761.3541606129283
 10
919.163718297008
 20
761.2817000827062
 10
919.3127508938214
 20
761.1846339147023
 10
919.4453373451379
 20
761.0654841338027
 10
919.5591039804767
 20
760.9267939583832
 10
919.6517619032965
 20
760.7710642198472
 10
919.7208102821932
 20
760.6008593300558
 10
919.7640026076078
 20
760.4186589269284
 10
919.7789228220809
 20
760.2270062288353
  0
LWPOLYLINE
  5
254
330
70
100
AcDbEntity
  8
Camada 1
 62
    18
420
        0
370
    18
100
AcDbPolyline
 90
       11
 70
     0
 43
0.0
 10
917.5092275827209
 20
760.2270062288353
 10
917.5239782493045
 20
760.4186589269284
 10
917.5667890919594
 20
760.6008593300558
 10
917.6353288271821
 20
760.7710642198472
 10
917.7272661714633
 20
760.9267939583832
 10
917.8403122282615
 20
761.0654841338027
 10
917.9721781010394
 20
761.1846339147023
 10
918.1205325062856
 20
761.2817000827062
 10
918.2831289344376
 20
761.3541606129283
 10
918.4575937150075
 20
761.3994934804723
 10
918.6416803384327
 20
761.4151554669688
  0
LWPOLYLINE
  5
255
330
70
100
AcDbEntity
  8
Camada 1
 62
    18
420
        0
370
    18
100
AcDbPolyline
 90
       11
 70
     0
 43
0.0
 10
918.6416803384327
 20
759.0449819082887
 10
918.4575937150075
 20
759.0605167338671
 10
918.2831289344376
 20
759.1054469251703
 10
918.1205325062856
 20
759.177314037769
 10
917.9721781010394
 20
759.2736384337476
 10
917.8403122282615
 20
759.3919616686753
 10
917.7272661714633
 20
759.5298041046362
 10
917.6353288271821
 20
759.6847072971987
 10
917.5667890919594
 20
759.8541916084505
 10
917.5239782493045
 20
760.0357774004724
 10
917.5092275827209
 20
760.2270062288353
  0
LWPOLYLINE
  5
256
330
70
100
AcDbEntity
  8
Camada 1
 62
    18
420
        0
370
    18
100
AcDbPolyline
 90
       11
 70
     0
 43
0.0
 10
920.5109034575652
 20
760.2321350525589
 10
920.4865733351052
 20
760.5341634281549
 10
920.416126186099
 20
760.8211020413891
 10
920.3033768381102
 20
761.0890089037793
 10
920.1521825056806
 20
761.3339420268403
 10
919.9664004033365
 20
761.5520018090665
 10
919.7497605847056
 20
761.739225068487
 10
919.506205038264
 20
761.8917122035945
 10
919.2394638176283
 20
762.0054788389333
 10
918.9534789112876
 20
762.0766253729907
 10
918.6519803728533
 20
762.1012310107762
  0
LWPOLYLINE
  5
257
330
70
100
AcDbEntity
  8
Camada 1
 62
    18
420
        0
370
    18
100
AcDbPolyline
 90
       11
 70
     0
 43
0.0
 10
918.6312107561189
 20
758.3579314641056
 10
918.9347862562245
 20
758.3822827800531
 10
919.2232719939694
 20
758.452814703005
 10
919.4926412069253
 20
758.5658395663149
 10
919.7389942935824
 20
758.7175637359105
 10
919.9583044915089
 20
758.9042995451428
 10
920.1466721991982
 20
759.1222957469099
 10
920.3000706542225
 20
759.3678222875923
 10
920.4145578681
 20
759.6371067266009
 10
920.4861494653741
 20
759.9264613972927
 10
920.5109034575652
 20
760.2321350525589
  0
LWPOLYLINE
  5
258
330
70
100
AcDbEntity
  8
Camada 1
 62
    18
420
        0
370
    18
100
AcDbPolyline
 90
       11
 70
     0
 43
0.0
 10
916.7777555909124
 20
760.2228734989739
 10
916.8019161654811
 20
759.9209510908103
 10
916.8718970577829
 20
759.6343303798748
 10
916.9839258272331
 20
759.3668897741881
 10
917.1343148071791
 20
759.1225076817736
 10
917.3192491700611
 20
758.9050625106556
 10
917.5349988622638
 20
758.7184538623423
 10
917.7777914431917
 20
758.5665601448563
 10
918.0439392462067
 20
758.4532385727343
 10
918.3296698307113
 20
758.3824099409712
 10
918.6312107561189
 20
758.3579314641056
  0
LWPOLYLINE
  5
259
330
70
100
AcDbEntity
  8
Camada 1
 62
    18
420
        0
370
    18
100
AcDbPolyline
 90
       11
 70
     0
 43
0.0
 10
918.6519803728533
 20
762.1012310107762
 10
918.3485744206391
 20
762.0767525339106
 10
918.0605125526199
 20
762.0059027086608
 10
917.7917367572863
 20
761.8924327821341
 10
917.5461466361449
 20
761.7401151949188
 10
917.3275994037304
 20
761.5527647745794
 10
917.1400794354958
 20
761.334153961704
 10
916.9874015590139
 20
761.0880763903733
 10
916.8735501497286
 20
760.8183256946622
 10
916.8023400352103
 20
760.5286531216752
 10
916.7777555909124
 20
760.2228734989739
  0
LINE
  5
25A
330
70
100
AcDbEntity
  8
Camada 1
 62
    18
420
        0
370
    18
100
AcDbLine
 10
623.9646681989397
 20
721.2430962794314
 30
0.0
 11
623.9646681989397
 21
696.9676006590525
 31
0.0
  0
LINE
  5
25B
330
70
100
AcDbEntity
  8
Camada 1
 62
    18
420
        0
370
    18
100
AcDbLine
 10
1214.536025146921
 20
721.2430962794314
 30
0.0
 11
1214.536025146921
 21
696.9676006590525
 31
0.0
  0
LINE
  5
25C
330
70
100
AcDbEntity
  8
Camada 1
 62
    18
420
        0
370
    18
100
AcDbLine
 10
618.7066531500704
 20
794.8221938580291
 30
0.0
 11
600.27880859375
 21
794.8221938580291
 31
0.0
  0
LINE
  5
25D
330
70
100
AcDbEntity
  8
Camada 1
 62
    18
420
        0
370
    18
100
AcDbLine
 10
618.7066531500704
 20
725.9222117511671
 30
0.0
 11
600.27880859375
 21
725.9222117511671
 31
0.0
  0
LINE
  5
25E
330
70
100
AcDbEntity
  8
Camada 1
 62
    18
420
        0
370
    18
100
AcDbLine
 10
618.7066531500704
 20
889.7587979554073
 30
0.0
 11
600.27880859375
 21
889.7587979554073
 31
0.0
  0
LINE
  5
25F
330
70
100
AcDbEntity
  8
Camada 1
 62
    18
420
        0
370
    18
100
AcDbLine
 10
618.7066531500704
 20
860.2302099741955
 30
0.0
 11
600.27880859375
 21
860.2302099741955
 31
0.0
  0
MTEXT
  5
260
330
70
100
AcDbEntity
  8
Camada 1
100
AcDbMText
 10
599.8396606445322
 20
866.400878906249
 30
0.0
 40
0.2
 41
0.0
 46
0.0
 71
     7
 72
     1
  1
\C250;\c1776925;\FMyriad Pro|b0|i0|c1;\H12.036000;\W1.000000;33
 11
0.0000000000000001
 21
1.0
 31
0.0
 73
     1
 44
1.0
  0
MTEXT
  5
261
330
70
100
AcDbEntity
  8
Camada 1
100
AcDbMText
 10
599.2786254882822
 20
751.712402343749
 30
0.0
 40
0.2
 41
0.0
 46
0.0
 71
     7
 72
     1
  1
\C250;\c1776925;\FMyriad Pro|b0|i0|c1;\H12.036000;\W1.000000;70
 11
0.0000000000000001
 21
1.0
 31
0.0
 73
     1
 44
1.0
  0
MTEXT
  5
262
330
70
100
AcDbEntity
  8
Camada 1
100
AcDbMText
 10
902.7739363960245
 20
705.0416793034992
 30
0.0
 40
0.2
 41
0.0
 46
0.0
 71
     7
 72
     1
  1
\C250;\c1776925;\FMyriad Pro|b0|i0|c1;\H12.036000;\W1.000000;600
 11
0.9999891257579836
 21
-0.0046635143168473
 31
0.0
 73
     1
 44
1.0
  0
LINE
  5
263
330
70
100
AcDbEntity
  8
Camada 1
 62
   250
420
  1974045
370
    18
100
AcDbLine
 10
603.7977300407501
 20
889.7587979554073
 30
0.0
 11
603.7977300407501
 21
860.2302099741955
 31
0.0
  0
LINE
  5
264
330
70
100
AcDbEntity
  8
Camada 1
 62
   250
420
  1974045
370
    18
100
AcDbLine
 10
603.7977300407501
 20
794.8221938580291
 30
0.0
 11
603.7977300407501
 21
725.9222117511671
 31
0.0
  0
LINE
  5
265
330
70
100
AcDbEntity
  8
Camada 1
 62
   250
420
  1974045
370
    18
100
AcDbLine
 10
1214.536025146921
 20
700.1322395561165
 30
0.0
 11
623.9646681989397
 21
700.1322395561165
 31
0.0
  0
MTEXT
  5
266
330
70
100
AcDbEntity
  8
Camada 1
100
AcDbMText
 10
1290.302277565002
 20
652.3518295288085
 30
0.0
 40
0.2
 41
0.0
 46
0.0
 71
     7
 72
     1
  1
\C8;\c8485235;\FFrutiger Bold|b1|i0|c1;\H11.805467;\W1.000000;mm
 73
     1
 44
1.0
  0
INSERT
  5
268
330
70
100
AcDbEntity
  8
Camada 1
100
AcDbBlockReference
  2
Block_0
 10
0.0
 20
0.0
 30
0.0
  0
LINE
  5
26D
330
70
100
AcDbEntity
  8
Camada 1
 62
     8
420
  7567745
370
    35
100
AcDbLine
 10
1290.048044055409
 20
643.4488457762345
 30
0.0
 11
1317.125680771653
 21
643.4488457762345
 31
0.0
  0
LINE
  5
26E
330
70
100
AcDbEntity
  8
Camada 1
 62
     8
420
  7567745
370
    35
100
AcDbLine
 10
1289.725525596403
 20
647.0864452747091
 30
0.0
 11
1289.725525596403
 21
639.8157166422961
 31
0.0
  0
LINE
  5
26F
330
70
100
AcDbEntity
  8
Camada 1
 62
     8
420
  7567745
370
    35
100
AcDbLine
 10
1317.455862712739
 20
647.0864452747091
 30
0.0
 11
1317.455862712739
 21
639.8157166422961
 31
0.0
  0
ENDSEC
  0
SECTION
  2
OBJECTS
  0
DICTIONARY
  5
C
330
0
100
AcDbDictionary
281
     1
  3
ACAD_COLOR
350
63
  3
ACAD_DETAILVIEWSTYLE
350
6A
  3
ACAD_GROUP
350
D
  3
ACAD_LAYOUT
350
62
  3
ACAD_MATERIAL
350
10
  3
ACAD_MLEADERSTYLE
350
66
  3
ACAD_MLINESTYLE
350
5F
  3
ACAD_PLOTSETTINGS
350
61
  3
ACAD_PLOTSTYLENAME
350
E
  3
ACAD_SCALELIST
350
42
  3
ACAD_SECTIONVIEWSTYLE
350
68
  3
ACAD_TABLESTYLE
350
64
  3
ACAD_VISUALSTYLE
350
29
  3
ACDB_RECOMPOSE_DATA
350
278
  3
AcDbVariableDictionary
350
270
  0
DICTIONARY
  5
63
102
{ACAD_REACTORS
330
C
102
}
330
C
100
AcDbDictionary
281
     1
  0
DICTIONARY
  5
6A
102
{ACAD_REACTORS
330
C
102
}
330
C
100
AcDbDictionary
281
     1
  3
Imperial24
350
6B
  0
DICTIONARY
  5
D
102
{ACAD_REACTORS
330
C
102
}
330
C
100
AcDbDictionary
281
     1
  0
DICTIONARY
  5
62
102
{ACAD_REACTORS
330
C
102
}
330
C
100
AcDbDictionary
281
     1
  3
Layout1
350
6F
  3
Layout2
350
77
  3
Model
350
73
  0
DICTIONARY
  5
10
102
{ACAD_REACTORS
330
C
102
}
330
C
100
AcDbDictionary
281
     1
  3
ByBlock
350
19
  3
ByLayer
350
11
  3
Global
350
21
  0
DICTIONARY
  5
66
102
{ACAD_REACTORS
330
C
102
}
330
C
100
AcDbDictionary
281
     1
  3
Standard
350
67
  0
DICTIONARY
  5
5F
102
{ACAD_REACTORS
330
C
102
}
330
C
100
AcDbDictionary
281
     1
  3
Standard
350
60
  0
DICTIONARY
  5
61
102
{ACAD_REACTORS
330
C
102
}
330
C
100
AcDbDictionary
281
     1
  0
ACDBDICTIONARYWDFLT
  5
E
102
{ACAD_REACTORS
330
C
102
}
330
C
100
AcDbDictionary
281
     1
  3
Normal
350
F
100
AcDbDictionaryWithDefault
340
F
  0
DICTIONARY
  5
42
102
{ACAD_REACTORS
330
C
102
}
330
C
100
AcDbDictionary
281
     1
  3
A0
350
43
  3
A1
350
44
  3
A2
350
45
  3
A3
350
46
  3
A4
350
47
  3
A5
350
48
  3
A6
350
49
  3
A7
350
4A
  3
A8
350
4B
  3
A9
350
4C
  3
B0
350
4D
  3
B1
350
4E
  3
B2
350
4F
  3
B3
350
50
  3
B4
350
51
  3
B5
350
52
  3
B6
350
53
  0
DICTIONARY
  5
68
102
{ACAD_REACTORS
330
C
102
}
330
C
100
AcDbDictionary
281
     1
  3
Imperial24
350
69
  0
DICTIONARY
  5
64
102
{ACAD_REACTORS
330
C
102
}
330
C
100
AcDbDictionary
281
     1
  3
Standard
350
65
  0
DICTIONARY
  5
29
102
{ACAD_REACTORS
330
C
102
}
330
C
100
AcDbDictionary
281
     1
  3
2dWireframe
350
2F
  3
Basic
350
2E
  3
Brighten
350
35
  3
ColorChange
350
39
  3
Conceptual
350
32
  3
Dim
350
34
  3
EdgeColorOff
350
41
  3
Facepattern
350
38
  3
Flat
350
2A
  3
FlatWithEdges
350
2B
  3
Gouraud
350
2C
  3
GouraudWithEdges
350
2D
  3
Hidden
350
31
  3
JitterOff
350
3F
  3
Linepattern
350
37
  3
OverhangOff
350
40
  3
Realistic
350
33
  3
Shaded
350
3E
  3
Shaded with edges
350
3D
  3
Shades of Gray
350
3A
  3
Sketchy
350
3B
  3
Thicken
350
36
  3
Wireframe
350
30
  3
X-Ray
350
3C
  0
XRECORD
  5
278
102
{ACAD_REACTORS
330
C
102
}
330
C
100
AcDbXrecord
280
     1
 90
        1
330
65
  0
DICTIONARY
  5
270
102
{ACAD_REACTORS
330
C
102
}
330
C
100
AcDbDictionary
281
     1
  3
CANNOSCALE
350
275
  3
CMLEADERSTYLE
350
272
  3
CTABLESTYLE
350
271
  3
CVIEWDETAILSTYLE
350
273
  3
CVIEWSECTIONSTYLE
350
274
  0
ACDBDETAILVIEWSTYLE
  5
6B
102
{ACAD_REACTORS
330
6A
102
}
330
6A
100
AcDbModelDocViewStyle
 70
     0
  3
Imperial24
290
     1
300
Imperial24
 90
        0
100
AcDbDetailViewStyle
 70
     0
 71
     0
 90
        3
 71
     1
340
55
 62
   256
 40
0.24
340
0
 62
   256
 40
0.24
300

 40
0.36
280
     3
 71
     2
340
5D
 90
       25
 62
   256
 71
     3
340
55
 62
   256
 40
0.24
 90
        1
 40
0.75
 90
        1
300
%<\AcVar ViewType \f "%tc1">% %<\AcVar ViewDetailId>%\PSCALE %<\AcVar ViewScale \f "%sn">%
 71
     4
340
5D
 90
       25
 62
   256
340
5D
 90
       25
 62
   256
280
     0
  0
LAYOUT
  5
6F
102
{ACAD_REACTORS
330
62
102
}
330
62
100
AcDbPlotSettings
  1

  2

  4

  6

 40
0.0
 41
0.0
 42
0.0
 43
0.0
 44
0.0
 45
0.0
 46
0.0
 47
0.0
 48
0.0
 49
0.0
140
0.0
141
0.0
142
1.0
143
1.0
 70
   688
 72
     0
 73
     0
 74
     5
  7

 75
    16
147
1.0
 76
     0
 77
     2
 78
   300
148
0.0
149
0.0
100
AcDbLayout
  1
Layout1
 70
     1
 71
     1
 10
0.0
 20
0.0
 11
12.0
 21
9.0
 12
0.0
 22
0.0
 32
0.0
 14
0.0
 24
0.0
 34
0.0
 15
0.0
 25
0.0
 35
0.0
146
0.0
 13
0.0
 23
0.0
 33
0.0
 16
1.0
 26
0.0
 36
0.0
 17
0.0
 27
1.0
 37
0.0
 76
     0
330
6C
  0
LAYOUT
  5
77
102
{ACAD_REACTORS
330
62
102
}
330
62
100
AcDbPlotSettings
  1

  2

  4

  6

 40
0.0
 41
0.0
 42
0.0
 43
0.0
 44
0.0
 45
0.0
 46
0.0
 47
0.0
 48
0.0
 49
0.0
140
0.0
141
0.0
142
1.0
143
1.0
 70
   688
 72
     0
 73
     0
 74
     5
  7

 75
    16
147
1.0
 76
     0
 77
     2
 78
   300
148
0.0
149
0.0
100
AcDbLayout
  1
Layout2
 70
     1
 71
     2
 10
0.0
 20
0.0
 11
12.0
 21
9.0
 12
0.0
 22
0.0
 32
0.0
 14
0.0
 24
0.0
 34
0.0
 15
0.0
 25
0.0
 35
0.0
146
0.0
 13
0.0
 23
0.0
 33
0.0
 16
1.0
 26
0.0
 36
0.0
 17
0.0
 27
1.0
 37
0.0
 76
     0
330
74
  0
LAYOUT
  5
73
102
{ACAD_REACTORS
330
62
102
}
330
62
100
AcDbPlotSettings
  1

  2

  4

  6

 40
0.0
 41
0.0
 42
0.0
 43
0.0
 44
0.0
 45
0.0
 46
0.0
 47
0.0
 48
0.0
 49
0.0
140
0.0
141
0.0
142
1.0
143
1.0
 70
  1712
 72
     0
 73
     0
 74
     0
  7

 75
     0
147
1.0
 76
     0
 77
     2
 78
   300
148
0.0
149
0.0
100
AcDbLayout
  1
Model
 70
     1
 71
     0
 10
0.0
 20
0.0
 11
12.0
 21
9.0
 12
0.0
 22
0.0
 32
0.0
 14
0.0
 24
0.0
 34
0.0
 15
0.0
 25
0.0
 35
0.0
146
0.0
 13
0.0
 23
0.0
 33
0.0
 16
1.0
 26
0.0
 36
0.0
 17
0.0
 27
1.0
 37
0.0
 76
     0
330
70
  0
MATERIAL
  5
19
102
{ACAD_XDICTIONARY
360
1A
102
}
102
{ACAD_REACTORS
330
10
102
}
330
10
100
AcDbMaterial
  1
ByBlock
 72
     0
 43
0.0208333333333333
 43
0.0
 43
0.0
 43
0.0
 43
0.0
 43
0.0208333333333333
 43
0.0
 43
0.0
 43
0.0
 43
0.0
 43
1.0
 43
0.0
 43
0.0
 43
0.0
 43
0.0
 43
1.0
 77
     0
 47
0.0208333333333333
 47
0.0
 47
0.0
 47
0.0
 47
0.0
 47
0.0208333333333333
 47
0.0
 47
0.0
 47
0.0
 47
0.0
 47
1.0
 47
0.0
 47
0.0
 47
0.0
 47
0.0
 47
1.0
171
     0
 49
0.0208333333333333
 49
0.0
 49
0.0
 49
0.0
 49
0.0
 49
0.0208333333333333
 49
0.0
 49
0.0
 49
0.0
 49
0.0
 49
1.0
 49
0.0
 49
0.0
 49
0.0
 49
0.0
 49
1.0
175
     0
142
0.0208333333333333
142
0.0
142
0.0
142
0.0
142
0.0
142
0.0208333333333333
142
0.0
142
0.0
142
0.0
142
0.0
142
1.0
142
0.0
142
0.0
142
0.0
142
0.0
142
1.0
179
     0
144
0.0208333333333333
144
0.0
144
0.0
144
0.0
144
0.0
144
0.0208333333333333
144
0.0
144
0.0
144
0.0
144
0.0
144
1.0
144
0.0
144
0.0
144
0.0
144
0.0
144
1.0
147
0.0208333333333333
147
0.0
147
0.0
147
0.0
147
0.0
147
0.0208333333333333
147
0.0
147
0.0
147
0.0
147
0.0
147
1.0
147
0.0
147
0.0
147
0.0
147
0.0
147
1.0
  0
MATERIAL
  5
11
102
{ACAD_XDICTIONARY
360
12
102
}
102
{ACAD_REACTORS
330
10
102
}
330
10
100
AcDbMaterial
  1
ByLayer
 72
     0
 43
0.0208333333333333
 43
0.0
 43
0.0
 43
0.0
 43
0.0
 43
0.0208333333333333
 43
0.0
 43
0.0
 43
0.0
 43
0.0
 43
1.0
 43
0.0
 43
0.0
 43
0.0
 43
0.0
 43
1.0
 77
     0
 47
0.0208333333333333
 47
0.0
 47
0.0
 47
0.0
 47
0.0
 47
0.0208333333333333
 47
0.0
 47
0.0
 47
0.0
 47
0.0
 47
1.0
 47
0.0
 47
0.0
 47
0.0
 47
0.0
 47
1.0
171
     0
 49
0.0208333333333333
 49
0.0
 49
0.0
 49
0.0
 49
0.0
 49
0.0208333333333333
 49
0.0
 49
0.0
 49
0.0
 49
0.0
 49
1.0
 49
0.0
 49
0.0
 49
0.0
 49
0.0
 49
1.0
175
     0
142
0.0208333333333333
142
0.0
142
0.0
142
0.0
142
0.0
142
0.0208333333333333
142
0.0
142
0.0
142
0.0
142
0.0
142
1.0
142
0.0
142
0.0
142
0.0
142
0.0
142
1.0
179
     0
144
0.0208333333333333
144
0.0
144
0.0
144
0.0
144
0.0
144
0.0208333333333333
144
0.0
144
0.0
144
0.0
144
0.0
144
1.0
144
0.0
144
0.0
144
0.0
144
0.0
144
1.0
147
0.0208333333333333
147
0.0
147
0.0
147
0.0
147
0.0
147
0.0208333333333333
147
0.0
147
0.0
147
0.0
147
0.0
147
1.0
147
0.0
147
0.0
147
0.0
147
0.0
147
1.0
  0
MATERIAL
  5
21
102
{ACAD_XDICTIONARY
360
22
102
}
102
{ACAD_REACTORS
330
10
102
}
330
10
100
AcDbMaterial
  1
Global
 72
     0
 43
0.0208333333333333
 43
0.0
 43
0.0
 43
0.0
 43
0.0
 43
0.0208333333333333
 43
0.0
 43
0.0
 43
0.0
 43
0.0
 43
1.0
 43
0.0
 43
0.0
 43
0.0
 43
0.0
 43
1.0
 77
     0
 47
0.0208333333333333
 47
0.0
 47
0.0
 47
0.0
 47
0.0
 47
0.0208333333333333
 47
0.0
 47
0.0
 47
0.0
 47
0.0
 47
1.0
 47
0.0
 47
0.0
 47
0.0
 47
0.0
 47
1.0
171
     0
 49
0.0208333333333333
 49
0.0
 49
0.0
 49
0.0
 49
0.0
 49
0.0208333333333333
 49
0.0
 49
0.0
 49
0.0
 49
0.0
 49
1.0
 49
0.0
 49
0.0
 49
0.0
 49
0.0
 49
1.0
175
     0
142
0.0208333333333333
142
0.0
142
0.0
142
0.0
142
0.0
142
0.0208333333333333
142
0.0
142
0.0
142
0.0
142
0.0
142
1.0
142
0.0
142
0.0
142
0.0
142
0.0
142
1.0
179
     0
144
0.0208333333333333
144
0.0
144
0.0
144
0.0
144
0.0
144
0.0208333333333333
144
0.0
144
0.0
144
0.0
144
0.0
144
1.0
144
0.0
144
0.0
144
0.0
144
0.0
144
1.0
147
0.0208333333333333
147
0.0
147
0.0
147
0.0
147
0.0
147
0.0208333333333333
147
0.0
147
0.0
147
0.0
147
0.0
147
1.0
147
0.0
147
0.0
147
0.0
147
0.0
147
1.0
  0
MLEADERSTYLE
  5
67
102
{ACAD_REACTORS
330
66
102
}
330
66
100
AcDbMLeaderStyle
179
     2
170
     2
171
     1
172
     0
 90
        2
 40
0.0
 41
0.0
173
     1
 91
-1056964608
340
5B
 92
       -2
290
     1
 42
0.09
291
     1
 43
0.36
  3
Standard
 44
0.18
300

342
55
174
     1
178
     6
175
     1
176
     0
 93
-1056964608
 45
0.18
292
     0
297
     0
 46
0.18
 94
-1056964608
 47
1.0
 49
1.0
140
1.0
293
     1
141
0.0
294
     1
177
     0
142
1.0
295
     1
296
     0
143
0.125
271
     0
272
     9
273
     9
298
     1
  0
MLINESTYLE
  5
60
102
{ACAD_REACTORS
330
5F
102
}
330
5F
100
AcDbMlineStyle
  2
STANDARD
 70
     0
  3

 62
   256
 51
90.0
 52
90.0
 71
     2
 49
0.5
 62
   256
  6
BYLAYER
 49
-0.5
 62
   256
  6
BYLAYER
  0
ACDBPLACEHOLDER
  5
F
102
{ACAD_REACTORS
330
E
102
}
330
E
  0
SCALE
  5
43
102
{ACAD_REACTORS
330
42
102
}
330
42
100
AcDbScale
 70
     0
300
1:1
140
1.0
141
1.0
290
     1
  0
SCALE
  5
44
102
{ACAD_REACTORS
330
42
102
}
330
42
100
AcDbScale
 70
     0
300
1/128" = 1'-0"
140
0.0078125
141
12.0
290
     0
  0
SCALE
  5
45
102
{ACAD_REACTORS
330
42
102
}
330
42
100
AcDbScale
 70
     0
300
1/64" = 1'-0"
140
0.015625
141
12.0
290
     0
  0
SCALE
  5
46
102
{ACAD_REACTORS
330
42
102
}
330
42
100
AcDbScale
 70
     0
300
1/32" = 1'-0"
140
0.03125
141
12.0
290
     0
  0
SCALE
  5
47
102
{ACAD_REACTORS
330
42
102
}
330
42
100
AcDbScale
 70
     0
300
1/16" = 1'-0"
140
0.0625
141
12.0
290
     0
  0
SCALE
  5
48
102
{ACAD_REACTORS
330
42
102
}
330
42
100
AcDbScale
 70
     0
300
3/32" = 1'-0"
140
0.09375
141
12.0
290
     0
  0
SCALE
  5
49
102
{ACAD_REACTORS
330
42
102
}
330
42
100
AcDbScale
 70
     0
300
1/8" = 1'-0"
140
0.125
141
12.0
290
     0
  0
SCALE
  5
4A
102
{ACAD_REACTORS
330
42
102
}
330
42
100
AcDbScale
 70
     0
300
3/16" = 1'-0"
140
0.1875
141
12.0
290
     0
  0
SCALE
  5
4B
102
{ACAD_REACTORS
330
42
102
}
330
42
100
AcDbScale
 70
     0
300
1/4" = 1'-0"
140
0.25
141
12.0
290
     0
  0
SCALE
  5
4C
102
{ACAD_REACTORS
330
42
102
}
330
42
100
AcDbScale
 70
     0
300
3/8" = 1'-0"
140
0.375
141
12.0
290
     0
  0
SCALE
  5
4D
102
{ACAD_REACTORS
330
42
102
}
330
42
100
AcDbScale
 70
     0
300
1/2" = 1'-0"
140
0.5
141
12.0
290
     0
  0
SCALE
  5
4E
102
{ACAD_REACTORS
330
42
102
}
330
42
100
AcDbScale
 70
     0
300
3/4" = 1'-0"
140
0.75
141
12.0
290
     0
  0
SCALE
  5
4F
102
{ACAD_REACTORS
330
42
102
}
330
42
100
AcDbScale
 70
     0
300
1" = 1'-0"
140
1.0
141
12.0
290
     0
  0
SCALE
  5
50
102
{ACAD_REACTORS
330
42
102
}
330
42
100
AcDbScale
 70
     0
300
1-1/2" = 1'-0"
140
1.5
141
12.0
290
     0
  0
SCALE
  5
51
102
{ACAD_REACTORS
330
42
102
}
330
42
100
AcDbScale
 70
     0
300
3" = 1'-0"
140
3.0
141
12.0
290
     0
  0
SCALE
  5
52
102
{ACAD_REACTORS
330
42
102
}
330
42
100
AcDbScale
 70
     0
300
6" = 1'-0"
140
6.0
141
12.0
290
     0
  0
SCALE
  5
53
102
{ACAD_REACTORS
330
42
102
}
330
42
100
AcDbScale
 70
     0
300
1'-0" = 1'-0"
140
12.0
141
12.0
290
     0
  0
ACDBSECTIONVIEWSTYLE
  5
69
102
{ACAD_REACTORS
330
68
102
}
330
68
100
AcDbModelDocViewStyle
 70
     0
  3
Imperial24
290
     1
300
Imperial24
 90
        0
100
AcDbSectionViewStyle
 70
     0
 71
     0
 90
       78
 71
     1
340
55
 62
   256
 40
0.24
340
0
340
0
 62
   256
 40
0.24
300
I, O, Q, S, X, Z
 40
0.48
 90
        3
 40
0.18
 90
        1
 71
     2
340
5D
 90
       25
 62
   256
340
5D
 90
       50
 62
   256
 40
0.24
 40
0.0
 40
0.24
 71
     3
340
55
 62
   256
 40
0.24
 90
        1
 40
0.75
 90
        1
300
%<\AcVar ViewType \f "%tc1">% %<\AcVar ViewSectionStartId>%-%<\AcVar ViewSectionEndId>%\PSCALE %<\AcVar ViewScale \f "%sn">%
 71
     4
 62
   256
 62
   257
300
ANSI31
 40
1.0
 90
        0
290
     0
290
     0
 90
        6
 40
0.0
 40
1.570796326794896
 40
0.2617993877991494
 40
1.308996938995747
 40
-0.2617993877991494
 40
1.832595714594046
  0
TABLESTYLE
  5
65
102
{ACAD_XDICTIONARY
360
276
102
}
102
{ACAD_REACTORS
330
64
102
}
330
64
100
AcDbTableStyle
280
     0
  3
Standard
 70
     0
 71
     0
 40
0.06
 41
0.06
280
     0
281
     0
  7
Standard
140
0.18
170
     2
 62
     0
 63
     7
283
     0
 90
      512
 91
        0
  1

274
    -2
284
     1
 64
     0
275
    -2
285
     1
 65
     0
276
    -2
286
     1
 66
     0
277
    -2
287
     1
 67
     0
278
    -2
288
     1
 68
     0
279
    -2
289
     1
 69
     0
  7
Standard
140
0.25
170
     5
 62
     0
 63
     7
283
     0
 90
      512
 91
        0
  1

274
    -2
284
     1
 64
     0
275
    -2
285
     1
 65
     0
276
    -2
286
     1
 66
     0
277
    -2
287
     1
 67
     0
278
    -2
288
     1
 68
     0
279
    -2
289
     1
 69
     0
  7
Standard
140
0.18
170
     5
 62
     0
 63
     7
283
     0
 90
      512
 91
        0
  1

274
    -2
284
     1
 64
     0
275
    -2
285
     1
 65
     0
276
    -2
286
     1
 66
     0
277
    -2
287
     1
 67
     0
278
    -2
288
     1
 68
     0
279
    -2
289
     1
 69
     0
  0
VISUALSTYLE
  5
2F
102
{ACAD_REACTORS
330
29
102
}
330
29
100
AcDbVisualStyle
  2
2dWireframe
 70
     4
177
     3
291
     0
 70
    58
 90
        0
176
     1
 90
        2
176
     1
 90
        0
176
     1
 90
        0
176
     1
 40
0.6
176
     1
 40
30.0
176
     1
 62
     7
420
 16777215
176
     1
 90
        1
176
     1
 90
        4
176
     1
 62
     7
176
     1
 62
   257
176
     1
 90
        1
176
     1
 90
        1
176
     1
 40
1.0
176
     1
 90
        0
176
     1
 62
   257
176
     1
 40
1.0
176
     1
 90
        1
176
     1
 90
        6
176
     1
 90
        2
176
     1
 62
     7
176
     1
 90
        5
176
     1
 90
        0
176
     1
 90
        0
176
     1
290
     0
176
     1
 90
        1
176
     1
 40
0.0
176
     1
 90
        0
176
     1
290
     1
176
     1
290
     1
176
     1
290
     0
176
     1
290
     0
176
     1
290
     0
176
     1
290
     0
176
     1
290
     0
176
     1
290
     0
176
     1
290
     0
176
     1
 90
       50
176
     1
 40
0.0
176
     1
 40
1.0
176
     1
 90
        0
176
     1
 62
    18
420
        0
176
     1
 90
       50
176
     1
 90
        3
176
     1
 62
     5
420
      255
176
     1
290
     0
176
     1
 90
       50
176
     1
 90
       50
176
     1
 90
       50
176
     1
290
     0
176
     1
 90
       50
176
     1
 62
   256
176
     0
 40
1.0
176
     0
 90
        2
176
     1
  1
strokes_ogs.tif
176
     1
290
     0
176
     1
 40
1.0
176
     1
 40
1.0
176
     1
  0
VISUALSTYLE
  5
2E
102
{ACAD_REACTORS
330
29
102
}
330
29
100
AcDbVisualStyle
  2
Basic
 70
     7
177
     3
291
     1
 70
    58
 90
        1
176
     1
 90
        0
176
     1
 90
        1
176
     1
 90
        0
176
     1
 40
0.6
176
     1
 40
30.0
176
     1
 62
     7
420
 16777215
176
     1
 90
        0
176
     1
 90
        4
176
     1
 62
     7
176
     1
 62
   257
176
     1
 90
        1
176
     1
 90
        1
176
     1
 40
1.0
176
     1
 90
        8
176
     1
 62
     7
176
     1
 40
1.0
176
     1
 90
        1
176
     1
 90
        6
176
     1
 90
        2
176
     1
 62
     7
176
     1
 90
        5
176
     1
 90
        0
176
     1
 90
        0
176
     1
290
     0
176
     1
 90
        1
176
     1
 40
0.0
176
     1
 90
        0
176
     1
290
     0
176
     1
290
     1
176
     1
290
     1
176
     1
290
     0
176
     1
290
     0
176
     1
290
     0
176
     1
290
     0
176
     1
290
     0
176
     1
290
     0
176
     1
 90
       50
176
     1
 40
0.0
176
     1
 40
1.0
176
     1
 90
        0
176
     1
 62
    18
420
        0
176
     1
 90
       50
176
     1
 90
        3
176
     1
 62
     5
420
      255
176
     1
290
     0
176
     1
 90
       50
176
     1
 90
       50
176
     1
 90
       50
176
     1
290
     0
176
     1
 90
       50
176
     1
 62
   256
176
     0
 40
1.0
176
     0
 90
        2
176
     1
  1
strokes_ogs.tif
176
     1
290
     0
176
     1
 40
1.0
176
     1
 40
1.0
176
     1
  0
VISUALSTYLE
  5
35
102
{ACAD_REACTORS
330
29
102
}
330
29
100
AcDbVisualStyle
  2
Brighten
 70
    12
177
     3
291
     1
 70
    58
 90
        2
176
     1
 90
        2
176
     1
 90
        0
176
     1
 90
        0
176
     1
 40
0.6
176
     1
 40
30.0
176
     1
 62
     7
420
 16777215
176
     1
 90
        1
176
     1
 90
        4
176
     1
 62
     7
176
     1
 62
   257
176
     1
 90
        1
176
     1
 90
        1
176
     1
 40
1.0
176
     1
 90
        8
176
     1
 62
     7
176
     1
 40
1.0
176
     1
 90
        1
176
     1
 90
        6
176
     1
 90
        2
176
     1
 62
     7
176
     1
 90
        5
176
     1
 90
        0
176
     1
 90
        0
176
     1
290
     0
176
     1
 90
        1
176
     1
 40
50.0
176
     1
 90
        0
176
     1
290
     0
176
     1
290
     1
176
     1
290
     1
176
     1
290
     0
176
     1
290
     0
176
     1
290
     0
176
     1
290
     0
176
     1
290
     0
176
     1
290
     0
176
     1
 90
       50
176
     1
 40
0.0
176
     1
 40
1.0
176
     1
 90
        0
176
     1
 62
    18
420
        0
176
     1
 90
       50
176
     1
 90
        3
176
     1
 62
     5
420
      255
176
     1
290
     0
176
     1
 90
       50
176
     1
 90
       50
176
     1
 90
       50
176
     1
290
     0
176
     1
 90
       50
176
     1
 62
   256
176
     0
 40
1.0
176
     0
 90
        2
176
     1
  1
strokes_ogs.tif
176
     1
290
     0
176
     1
 40
1.0
176
     1
 40
1.0
176
     1
  0
VISUALSTYLE
  5
39
102
{ACAD_REACTORS
330
29
102
}
330
29
100
AcDbVisualStyle
  2
ColorChange
 70
    16
177
     3
291
     1
 70
    58
 90
        2
176
     1
 90
        2
176
     1
 90
        3
176
     1
 90
        0
176
     1
 40
0.6
176
     1
 40
30.0
176
     1
 62
     8
420
  8421504
176
     1
 90
        1
176
     1
 90
        4
176
     1
 62
     7
176
     1
 62
   257
176
     1
 90
        1
176
     1
 90
        1
176
     1
 40
1.0
176
     1
 90
        8
176
     1
 62
     8
420
  8421504
176
     1
 40
1.0
176
     1
 90
        1
176
     1
 90
        6
176
     1
 90
        2
176
     1
 62
     7
176
     1
 90
        5
176
     1
 90
        0
176
     1
 90
        0
176
     1
290
     0
176
     1
 90
        1
176
     1
 40
0.0
176
     1
 90
        0
176
     1
290
     0
176
     1
290
     1
176
     1
290
     1
176
     1
290
     0
176
     1
290
     0
176
     1
290
     0
176
     1
290
     0
176
     1
290
     0
176
     1
290
     0
176
     1
 90
       50
176
     1
 40
0.0
176
     1
 40
1.0
176
     1
 90
        0
176
     1
 62
    18
420
        0
176
     1
 90
       50
176
     1
 90
        3
176
     1
 62
     5
420
      255
176
     1
290
     0
176
     1
 90
       50
176
     1
 90
       50
176
     1
 90
       50
176
     1
290
     0
176
     1
 90
       50
176
     1
 62
   256
176
     0
 40
1.0
176
     0
 90
        2
176
     1
  1
strokes_ogs.tif
176
     1
290
     0
176
     1
 40
1.0
176
     1
 40
1.0
176
     1
  0
VISUALSTYLE
  5
32
102
{ACAD_REACTORS
330
29
102
}
330
29
100
AcDbVisualStyle
  2
Conceptual
 70
     9
177
     3
291
     0
 70
    58
 90
        3
176
     1
 90
        2
176
     1
 90
        0
176
     1
 90
        0
176
     1
 40
0.6
176
     1
 40
30.0
176
     1
 62
     7
420
 16777215
176
     1
 90
        2
176
     1
 90
        2
176
     1
 62
     7
176
     1
 62
   257
176
     1
 90
        1
176
     1
 90
        1
176
     1
 40
179.0
176
     1
 90
        8
176
     1
 62
     7
176
     1
 40
1.0
176
     1
 90
        1
176
     1
 90
        6
176
     1
 90
        2
176
     1
 62
     7
176
     1
 90
        3
176
     1
 90
        0
176
     1
 90
        0
176
     1
290
     0
176
     1
 90
        1
176
     1
 40
0.0
176
     1
 90
        0
176
     1
290
     0
176
     1
290
     1
176
     1
290
     1
176
     1
290
     0
176
     1
290
     0
176
     1
290
     0
176
     1
290
     0
176
     1
290
     0
176
     1
290
     0
176
     1
 90
       50
176
     1
 40
0.0
176
     1
 40
1.0
176
     1
 90
        0
176
     1
 62
    18
420
        0
176
     1
 90
       50
176
     1
 90
        3
176
     1
 62
     5
420
      255
176
     1
290
     0
176
     1
 90
       50
176
     1
 90
       50
176
     1
 90
       50
176
     1
290
     0
176
     1
 90
       50
176
     1
 62
   256
176
     0
 40
1.0
176
     0
 90
        2
176
     1
  1
strokes_ogs.tif
176
     1
290
     0
176
     1
 40
1.0
176
     1
 40
1.0
176
     1
  0
VISUALSTYLE
  5
34
102
{ACAD_REACTORS
330
29
102
}
330
29
100
AcDbVisualStyle
  2
Dim
 70
    11
177
     3
291
     1
 70
    58
 90
        2
176
     1
 90
        2
176
     1
 90
        0
176
     1
 90
        0
176
     1
 40
0.6
176
     1
 40
30.0
176
     1
 62
     7
420
 16777215
176
     1
 90
        1
176
     1
 90
        4
176
     1
 62
     7
176
     1
 62
   257
176
     1
 90
        1
176
     1
 90
        1
176
     1
 40
1.0
176
     1
 90
        8
176
     1
 62
     7
176
     1
 40
1.0
176
     1
 90
        1
176
     1
 90
        6
176
     1
 90
        2
176
     1
 62
     7
176
     1
 90
        5
176
     1
 90
        0
176
     1
 90
        0
176
     1
290
     0
176
     1
 90
        1
176
     1
 40
-50.0
176
     1
 90
        0
176
     1
290
     0
176
     1
290
     1
176
     1
290
     1
176
     1
290
     0
176
     1
290
     0
176
     1
290
     0
176
     1
290
     0
176
     1
290
     0
176
     1
290
     0
176
     1
 90
       50
176
     1
 40
0.0
176
     1
 40
1.0
176
     1
 90
        0
176
     1
 62
    18
420
        0
176
     1
 90
       50
176
     1
 90
        3
176
     1
 62
     5
420
      255
176
     1
290
     0
176
     1
 90
       50
176
     1
 90
       50
176
     1
 90
       50
176
     1
290
     0
176
     1
 90
       50
176
     1
 62
   256
176
     0
 40
1.0
176
     0
 90
        2
176
     1
  1
strokes_ogs.tif
176
     1
290
     0
176
     1
 40
1.0
176
     1
 40
1.0
176
     1
  0
VISUALSTYLE
  5
41
102
{ACAD_REACTORS
330
29
102
}
330
29
100
AcDbVisualStyle
  2
EdgeColorOff
 70
    22
177
     3
291
     1
 70
    58
 90
        2
176
     0
 90
        2
176
     0
 90
        0
176
     0
 90
        0
176
     0
 40
0.6
176
     0
 40
30.0
176
     0
 62
     7
420
 16777215
176
     0
 90
        1
176
     0
 90
        4
176
     0
 62
     7
176
     0
 62
   257
176
     0
 90
        1
176
     0
 90
        1
176
     0
 40
1.0
176
     0
 90
        8
176
     2
 62
     7
176
     0
 40
1.0
176
     0
 90
        1
176
     0
 90
        6
176
     0
 90
        2
176
     0
 62
     7
176
     0
 90
        5
176
     0
 90
        0
176
     0
 90
        0
176
     0
290
     0
176
     0
 90
        1
176
     0
 40
0.0
176
     0
 90
        0
176
     0
290
     0
176
     0
290
     1
176
     0
290
     1
176
     0
290
     0
176
     0
290
     0
176
     0
290
     0
176
     0
290
     0
176
     0
290
     0
176
     0
290
     0
176
     0
 90
       50
176
     0
 40
0.0
176
     0
 40
1.0
176
     0
 90
        0
176
     0
 62
    18
420
        0
176
     0
 90
       50
176
     0
 90
        3
176
     0
 62
     5
420
      255
176
     0
290
     0
176
     0
 90
       50
176
     0
 90
       50
176
     0
 90
       50
176
     0
290
     0
176
     0
 90
       50
176
     0
 62
   256
176
     0
 40
1.0
176
     0
 90
        2
176
     0
  1
strokes_ogs.tif
176
     0
290
     0
176
     0
 40
1.0
176
     0
 40
1.0
176
     0
  0
VISUALSTYLE
  5
38
102
{ACAD_REACTORS
330
29
102
}
330
29
100
AcDbVisualStyle
  2
Facepattern
 70
    15
177
     3
291
     1
 70
    58
 90
        2
176
     1
 90
        2
176
     1
 90
        0
176
     1
 90
        0
176
     1
 40
0.6
176
     1
 40
30.0
176
     1
 62
     7
420
 16777215
176
     1
 90
        1
176
     1
 90
        4
176
     1
 62
     7
176
     1
 62
   257
176
     1
 90
        1
176
     1
 90
        1
176
     1
 40
1.0
176
     1
 90
        8
176
     1
 62
     7
176
     1
 40
1.0
176
     1
 90
        1
176
     1
 90
        6
176
     1
 90
        2
176
     1
 62
     7
176
     1
 90
        5
176
     1
 90
        0
176
     1
 90
        0
176
     1
290
     0
176
     1
 90
        1
176
     1
 40
0.0
176
     1
 90
        0
176
     1
290
     0
176
     1
290
     1
176
     1
290
     1
176
     1
290
     0
176
     1
290
     0
176
     1
290
     0
176
     1
290
     0
176
     1
290
     0
176
     1
290
     0
176
     1
 90
       50
176
     1
 40
0.0
176
     1
 40
1.0
176
     1
 90
        0
176
     1
 62
    18
420
        0
176
     1
 90
       50
176
     1
 90
        3
176
     1
 62
     5
420
      255
176
     1
290
     0
176
     1
 90
       50
176
     1
 90
       50
176
     1
 90
       50
176
     1
290
     0
176
     1
 90
       50
176
     1
 62
   256
176
     0
 40
1.0
176
     0
 90
        2
176
     1
  1
strokes_ogs.tif
176
     1
290
     0
176
     1
 40
1.0
176
     1
 40
1.0
176
     1
  0
VISUALSTYLE
  5
2A
102
{ACAD_REACTORS
330
29
102
}
330
29
100
AcDbVisualStyle
  2
Flat
 70
     0
177
     3
291
     1
 70
    58
 90
        2
176
     1
 90
        1
176
     1
 90
        1
176
     1
 90
        2
176
     1
 40
0.6
176
     1
 40
30.0
176
     1
 62
     7
420
 16777215
176
     1
 90
        0
176
     1
 90
        0
176
     1
 62
     7
176
     1
 62
   257
176
     1
 90
        1
176
     1
 90
        1
176
     1
 40
1.0
176
     1
 90
        8
176
     1
 62
     7
176
     1
 40
1.0
176
     1
 90
        1
176
     1
 90
        6
176
     1
 90
        2
176
     1
 62
     7
176
     1
 90
        5
176
     1
 90
        0
176
     1
 90
        0
176
     1
290
     0
176
     1
 90
       13
176
     1
 40
0.0
176
     1
 90
        0
176
     1
290
     0
176
     1
290
     1
176
     1
290
     1
176
     1
290
     0
176
     1
290
     0
176
     1
290
     0
176
     1
290
     0
176
     1
290
     0
176
     1
290
     0
176
     1
 90
       50
176
     1
 40
0.0
176
     1
 40
1.0
176
     1
 90
        0
176
     1
 62
    18
420
        0
176
     1
 90
       50
176
     1
 90
        3
176
     1
 62
     5
420
      255
176
     1
290
     0
176
     1
 90
       50
176
     1
 90
       50
176
     1
 90
       50
176
     1
290
     0
176
     1
 90
       50
176
     1
 62
   256
176
     0
 40
1.0
176
     0
 90
        2
176
     1
  1
strokes_ogs.tif
176
     1
290
     0
176
     1
 40
1.0
176
     1
 40
1.0
176
     1
  0
VISUALSTYLE
  5
2B
102
{ACAD_REACTORS
330
29
102
}
330
29
100
AcDbVisualStyle
  2
FlatWithEdges
 70
     1
177
     3
291
     1
 70
    58
 90
        2
176
     1
 90
        1
176
     1
 90
        1
176
     1
 90
        2
176
     1
 40
0.6
176
     1
 40
30.0
176
     1
 62
     7
420
 16777215
176
     1
 90
        1
176
     1
 90
        0
176
     1
 62
     7
176
     1
 62
   257
176
     1
 90
        1
176
     1
 90
        1
176
     1
 40
1.0
176
     1
 90
        0
176
     1
 62
   257
176
     1
 40
1.0
176
     1
 90
        1
176
     1
 90
        6
176
     1
 90
        2
176
     1
 62
     7
176
     1
 90
        5
176
     1
 90
        0
176
     1
 90
        0
176
     1
290
     0
176
     1
 90
       13
176
     1
 40
0.0
176
     1
 90
        0
176
     1
290
     0
176
     1
290
     1
176
     1
290
     1
176
     1
290
     0
176
     1
290
     0
176
     1
290
     0
176
     1
290
     0
176
     1
290
     0
176
     1
290
     0
176
     1
 90
       50
176
     1
 40
0.0
176
     1
 40
1.0
176
     1
 90
        0
176
     1
 62
    18
420
        0
176
     1
 90
       50
176
     1
 90
        3
176
     1
 62
     5
420
      255
176
     1
290
     0
176
     1
 90
       50
176
     1
 90
       50
176
     1
 90
       50
176
     1
290
     0
176
     1
 90
       50
176
     1
 62
   256
176
     0
 40
1.0
176
     0
 90
        2
176
     1
  1
strokes_ogs.tif
176
     1
290
     0
176
     1
 40
1.0
176
     1
 40
1.0
176
     1
  0
VISUALSTYLE
  5
2C
102
{ACAD_REACTORS
330
29
102
}
330
29
100
AcDbVisualStyle
  2
Gouraud
 70
     2
177
     3
291
     1
 70
    58
 90
        2
176
     1
 90
        2
176
     1
 90
        1
176
     1
 90
        2
176
     1
 40
0.6
176
     1
 40
30.0
176
     1
 62
     7
420
 16777215
176
     1
 90
        0
176
     1
 90
        0
176
     1
 62
     7
176
     1
 62
   257
176
     1
 90
        1
176
     1
 90
        1
176
     1
 40
1.0
176
     1
 90
        0
176
     1
 62
     7
176
     1
 40
1.0
176
     1
 90
        1
176
     1
 90
        6
176
     1
 90
        2
176
     1
 62
     7
176
     1
 90
        5
176
     1
 90
        0
176
     1
 90
        0
176
     1
290
     0
176
     1
 90
       13
176
     1
 40
0.0
176
     1
 90
        0
176
     1
290
     0
176
     1
290
     1
176
     1
290
     1
176
     1
290
     0
176
     1
290
     0
176
     1
290
     0
176
     1
290
     0
176
     1
290
     0
176
     1
290
     0
176
     1
 90
       50
176
     1
 40
0.0
176
     1
 40
1.0
176
     1
 90
        0
176
     1
 62
    18
420
        0
176
     1
 90
       50
176
     1
 90
        3
176
     1
 62
     5
420
      255
176
     1
290
     0
176
     1
 90
       50
176
     1
 90
       50
176
     1
 90
       50
176
     1
290
     0
176
     1
 90
       50
176
     1
 62
   256
176
     0
 40
1.0
176
     0
 90
        2
176
     1
  1
strokes_ogs.tif
176
     1
290
     0
176
     1
 40
1.0
176
     1
 40
1.0
176
     1
  0
VISUALSTYLE
  5
2D
102
{ACAD_REACTORS
330
29
102
}
330
29
100
AcDbVisualStyle
  2
GouraudWithEdges
 70
     3
177
     3
291
     1
 70
    58
 90
        2
176
     1
 90
        2
176
     1
 90
        1
176
     1
 90
        2
176
     1
 40
0.6
176
     1
 40
30.0
176
     1
 62
     7
420
 16777215
176
     1
 90
        1
176
     1
 90
        0
176
     1
 62
     7
176
     1
 62
   257
176
     1
 90
        1
176
     1
 90
        1
176
     1
 40
1.0
176
     1
 90
        0
176
     1
 62
   257
176
     1
 40
1.0
176
     1
 90
        1
176
     1
 90
        6
176
     1
 90
        2
176
     1
 62
     7
176
     1
 90
        5
176
     1
 90
        0
176
     1
 90
        0
176
     1
290
     0
176
     1
 90
       13
176
     1
 40
0.0
176
     1
 90
        0
176
     1
290
     0
176
     1
290
     1
176
     1
290
     1
176
     1
290
     0
176
     1
290
     0
176
     1
290
     0
176
     1
290
     0
176
     1
290
     0
176
     1
290
     0
176
     1
 90
       50
176
     1
 40
0.0
176
     1
 40
1.0
176
     1
 90
        0
176
     1
 62
    18
420
        0
176
     1
 90
       50
176
     1
 90
        3
176
     1
 62
     5
420
      255
176
     1
290
     0
176
     1
 90
       50
176
     1
 90
       50
176
     1
 90
       50
176
     1
290
     0
176
     1
 90
       50
176
     1
 62
   256
176
     0
 40
1.0
176
     0
 90
        2
176
     1
  1
strokes_ogs.tif
176
     1
290
     0
176
     1
 40
1.0
176
     1
 40
1.0
176
     1
  0
VISUALSTYLE
  5
31
102
{ACAD_REACTORS
330
29
102
}
330
29
100
AcDbVisualStyle
  2
Hidden
 70
     6
177
     3
291
     0
 70
    58
 90
        1
176
     1
 90
        2
176
     1
 90
        2
176
     1
 90
        0
176
     1
 40
0.6
176
     1
 40
30.0
176
     1
 62
     7
420
 16777215
176
     1
 90
        2
176
     1
 90
        2
176
     1
 62
     7
176
     1
 62
   257
176
     1
 90
        2
176
     1
 90
        1
176
     1
 40
40.0
176
     1
 90
        0
176
     1
 62
   257
176
     1
 40
1.0
176
     1
 90
        1
176
     1
 90
        6
176
     1
 90
        2
176
     1
 62
     7
176
     1
 90
        3
176
     1
 90
        0
176
     1
 90
        0
176
     1
290
     0
176
     1
 90
        1
176
     1
 40
0.0
176
     1
 90
        0
176
     1
290
     0
176
     1
290
     1
176
     1
290
     1
176
     1
290
     0
176
     1
290
     0
176
     1
290
     0
176
     1
290
     0
176
     1
290
     0
176
     1
290
     0
176
     1
 90
       50
176
     1
 40
0.0
176
     1
 40
1.0
176
     1
 90
        0
176
     1
 62
    18
420
        0
176
     1
 90
       50
176
     1
 90
        3
176
     1
 62
     5
420
      255
176
     1
290
     0
176
     1
 90
       50
176
     1
 90
       50
176
     1
 90
       50
176
     1
290
     0
176
     1
 90
       50
176
     1
 62
   256
176
     0
 40
1.0
176
     0
 90
        2
176
     1
  1
strokes_ogs.tif
176
     1
290
     0
176
     1
 40
1.0
176
     1
 40
1.0
176
     1
  0
VISUALSTYLE
  5
3F
102
{ACAD_REACTORS
330
29
102
}
330
29
100
AcDbVisualStyle
  2
JitterOff
 70
    20
177
     3
291
     1
 70
    58
 90
        2
176
     0
 90
        2
176
     0
 90
        0
176
     0
 90
        0
176
     0
 40
0.6
176
     0
 40
30.0
176
     0
 62
     7
420
 16777215
176
     0
 90
        1
176
     0
 90
        4
176
     0
 62
     7
176
     0
 62
   257
176
     0
 90
        1
176
     0
 90
        1
176
     0
 40
1.0
176
     0
 90
       10
176
     2
 62
     7
176
     0
 40
1.0
176
     0
 90
        1
176
     0
 90
        6
176
     0
 90
        2
176
     0
 62
     7
176
     0
 90
        5
176
     0
 90
        0
176
     0
 90
        0
176
     0
290
     0
176
     0
 90
        1
176
     0
 40
0.0
176
     0
 90
        0
176
     0
290
     0
176
     0
290
     1
176
     0
290
     1
176
     0
290
     0
176
     0
290
     0
176
     0
290
     0
176
     0
290
     0
176
     0
290
     0
176
     0
290
     0
176
     0
 90
       50
176
     0
 40
0.0
176
     0
 40
1.0
176
     0
 90
        0
176
     0
 62
    18
420
        0
176
     0
 90
       50
176
     0
 90
        3
176
     0
 62
     5
420
      255
176
     0
290
     0
176
     0
 90
       50
176
     0
 90
       50
176
     0
 90
       50
176
     0
290
     0
176
     0
 90
       50
176
     0
 62
   256
176
     0
 40
1.0
176
     0
 90
        2
176
     0
  1
strokes_ogs.tif
176
     0
290
     0
176
     0
 40
1.0
176
     0
 40
1.0
176
     0
  0
VISUALSTYLE
  5
37
102
{ACAD_REACTORS
330
29
102
}
330
29
100
AcDbVisualStyle
  2
Linepattern
 70
    14
177
     3
291
     1
 70
    58
 90
        2
176
     1
 90
        2
176
     1
 90
        0
176
     1
 90
        0
176
     1
 40
0.6
176
     1
 40
30.0
176
     1
 62
     7
420
 16777215
176
     1
 90
        1
176
     1
 90
        4
176
     1
 62
     7
176
     1
 62
   257
176
     1
 90
        7
176
     1
 90
        7
176
     1
 40
1.0
176
     1
 90
        8
176
     1
 62
     7
176
     1
 40
1.0
176
     1
 90
        1
176
     1
 90
        6
176
     1
 90
        2
176
     1
 62
     7
176
     1
 90
        5
176
     1
 90
        0
176
     1
 90
        0
176
     1
290
     0
176
     1
 90
        1
176
     1
 40
0.0
176
     1
 90
        0
176
     1
290
     0
176
     1
290
     1
176
     1
290
     1
176
     1
290
     0
176
     1
290
     0
176
     1
290
     0
176
     1
290
     0
176
     1
290
     0
176
     1
290
     0
176
     1
 90
       50
176
     1
 40
0.0
176
     1
 40
1.0
176
     1
 90
        0
176
     1
 62
    18
420
        0
176
     1
 90
       50
176
     1
 90
        3
176
     1
 62
     5
420
      255
176
     1
290
     0
176
     1
 90
       50
176
     1
 90
       50
176
     1
 90
       50
176
     1
290
     0
176
     1
 90
       50
176
     1
 62
   256
176
     0
 40
1.0
176
     0
 90
        2
176
     1
  1
strokes_ogs.tif
176
     1
290
     0
176
     1
 40
1.0
176
     1
 40
1.0
176
     1
  0
VISUALSTYLE
  5
40
102
{ACAD_REACTORS
330
29
102
}
330
29
100
AcDbVisualStyle
  2
OverhangOff
 70
    21
177
     3
291
     1
 70
    58
 90
        2
176
     0
 90
        2
176
     0
 90
        0
176
     0
 90
        0
176
     0
 40
0.6
176
     0
 40
30.0
176
     0
 62
     7
420
 16777215
176
     0
 90
        1
176
     0
 90
        4
176
     0
 62
     7
176
     0
 62
   257
176
     0
 90
        1
176
     0
 90
        1
176
     0
 40
1.0
176
     0
 90
        9
176
     2
 62
     7
176
     0
 40
1.0
176
     0
 90
        1
176
     0
 90
        6
176
     0
 90
        2
176
     0
 62
     7
176
     0
 90
        5
176
     0
 90
        0
176
     0
 90
        0
176
     0
290
     0
176
     0
 90
        1
176
     0
 40
0.0
176
     0
 90
        0
176
     0
290
     0
176
     0
290
     1
176
     0
290
     1
176
     0
290
     0
176
     0
290
     0
176
     0
290
     0
176
     0
290
     0
176
     0
290
     0
176
     0
290
     0
176
     0
 90
       50
176
     0
 40
0.0
176
     0
 40
1.0
176
     0
 90
        0
176
     0
 62
    18
420
        0
176
     0
 90
       50
176
     0
 90
        3
176
     0
 62
     5
420
      255
176
     0
290
     0
176
     0
 90
       50
176
     0
 90
       50
176
     0
 90
       50
176
     0
290
     0
176
     0
 90
       50
176
     0
 62
   256
176
     0
 40
1.0
176
     0
 90
        2
176
     0
  1
strokes_ogs.tif
176
     0
290
     0
176
     0
 40
1.0
176
     0
 40
1.0
176
     0
  0
VISUALSTYLE
  5
33
102
{ACAD_REACTORS
330
29
102
}
330
29
100
AcDbVisualStyle
  2
Realistic
 70
     8
177
     3
291
     0
 70
    58
 90
        2
176
     1
 90
        3
176
     1
 90
        0
176
     1
 90
        2
176
     1
 40
0.6
176
     1
 40
30.0
176
     1
 62
     7
420
 16777215
176
     1
 90
        0
176
     1
 90
        0
176
     1
 62
     7
176
     1
 62
   257
176
     1
 90
        1
176
     1
 90
        1
176
     1
 40
1.0
176
     1
 90
        8
176
     1
 62
   257
176
     1
 40
1.0
176
     1
 90
        1
176
     1
 90
        6
176
     1
 90
        2
176
     1
 62
     7
176
     1
 90
        3
176
     1
 90
        0
176
     1
 90
        0
176
     1
290
     0
176
     1
 90
       13
176
     1
 40
0.0
176
     1
 90
        0
176
     1
290
     0
176
     1
290
     1
176
     1
290
     1
176
     1
290
     0
176
     1
290
     0
176
     1
290
     0
176
     1
290
     0
176
     1
290
     0
176
     1
290
     0
176
     1
 90
       50
176
     1
 40
0.0
176
     1
 40
1.0
176
     1
 90
        0
176
     1
 62
    18
420
        0
176
     1
 90
       50
176
     1
 90
        3
176
     1
 62
     5
420
      255
176
     1
290
     0
176
     1
 90
       50
176
     1
 90
       50
176
     1
 90
       50
176
     1
290
     0
176
     1
 90
       50
176
     1
 62
   256
176
     0
 40
1.0
176
     0
 90
        2
176
     1
  1
strokes_ogs.tif
176
     1
290
     0
176
     1
 40
1.0
176
     1
 40
1.0
176
     1
  0
VISUALSTYLE
  5
3E
102
{ACAD_REACTORS
330
29
102
}
330
29
100
AcDbVisualStyle
  2
Shaded
 70
    27
177
     3
291
     0
 70
    58
 90
        2
176
     1
 90
        2
176
     1
 90
        1
176
     1
 90
        2
176
     1
 40
0.6
176
     1
 40
30.0
176
     1
 62
     7
420
 16777215
176
     1
 90
        0
176
     1
 90
        4
176
     1
 62
     7
176
     1
 62
   257
176
     1
 90
        1
176
     1
 90
        1
176
     1
 40
1.0
176
     1
 90
        8
176
     1
 62
   257
176
     1
 40
1.0
176
     1
 90
        1
176
     1
 90
        6
176
     1
 90
        2
176
     1
 62
     8
420
  7895160
176
     1
 90
        3
176
     1
 90
        0
176
     1
 90
        0
176
     1
290
     0
176
     1
 90
        5
176
     1
 40
0.0
176
     1
 90
        0
176
     1
290
     0
176
     1
290
     1
176
     1
290
     1
176
     1
290
     0
176
     1
290
     0
176
     1
290
     0
176
     1
290
     0
176
     1
290
     0
176
     1
290
     0
176
     1
 90
       50
176
     1
 40
0.0
176
     1
 40
1.0
176
     1
 90
        0
176
     1
 62
    18
420
        0
176
     1
 90
       50
176
     1
 90
        3
176
     1
 62
     5
420
      255
176
     1
290
     0
176
     1
 90
       50
176
     1
 90
       50
176
     1
 90
       50
176
     1
290
     0
176
     1
 90
       50
176
     1
 62
   256
176
     0
 40
1.0
176
     0
 90
        2
176
     1
  1
strokes_ogs.tif
176
     1
290
     0
176
     1
 40
1.0
176
     1
 40
1.0
176
     1
  0
VISUALSTYLE
  5
3D
102
{ACAD_REACTORS
330
29
102
}
330
29
100
AcDbVisualStyle
  2
Shaded with edges
 70
    26
177
     3
291
     0
 70
    58
 90
        2
176
     1
 90
        2
176
     1
 90
        1
176
     1
 90
        2
176
     1
 40
0.6
176
     1
 40
30.0
176
     1
 62
     7
420
 16777215
176
     1
 90
        1
176
     1
 90
        2
176
     1
 62
     7
176
     1
 62
   257
176
     1
 90
        2
176
     1
 90
        1
176
     1
 40
1.0
176
     1
 90
        8
176
     1
 62
   257
176
     1
 40
1.0
176
     1
 90
        1
176
     1
 90
        6
176
     1
 90
        2
176
     1
 62
     7
176
     1
 90
        3
176
     1
 90
        0
176
     1
 90
        0
176
     1
290
     0
176
     1
 90
        5
176
     1
 40
0.0
176
     1
 90
        0
176
     1
290
     0
176
     1
290
     1
176
     1
290
     1
176
     1
290
     0
176
     1
290
     0
176
     1
290
     0
176
     1
290
     0
176
     1
290
     0
176
     1
290
     0
176
     1
 90
       50
176
     1
 40
0.0
176
     1
 40
1.0
176
     1
 90
        0
176
     1
 62
    18
420
        0
176
     1
 90
       50
176
     1
 90
        3
176
     1
 62
     5
420
      255
176
     1
290
     0
176
     1
 90
       50
176
     1
 90
       50
176
     1
 90
       50
176
     1
290
     0
176
     1
 90
       50
176
     1
 62
   256
176
     0
 40
1.0
176
     0
 90
        2
176
     1
  1
strokes_ogs.tif
176
     1
290
     0
176
     1
 40
1.0
176
     1
 40
1.0
176
     1
  0
VISUALSTYLE
  5
3A
102
{ACAD_REACTORS
330
29
102
}
330
29
100
AcDbVisualStyle
  2
Shades of Gray
 70
    23
177
     3
291
     0
 70
    58
 90
        2
176
     1
 90
        2
176
     1
 90
        3
176
     1
 90
        0
176
     1
 40
0.6
176
     1
 40
30.0
176
     1
 62
     7
420
 16777215
176
     1
 90
        2
176
     1
 90
        2
176
     1
 62
     7
176
     1
 62
     7
176
     1
 90
        1
176
     1
 90
        1
176
     1
 40
40.0
176
     1
 90
        8
176
     1
 62
     7
176
     1
 40
1.0
176
     1
 90
        1
176
     1
 90
        6
176
     1
 90
        2
176
     1
 62
     7
176
     1
 90
        3
176
     1
 90
        0
176
     1
 90
        0
176
     1
290
     0
176
     1
 90
        1
176
     1
 40
0.0
176
     1
 90
        0
176
     1
290
     0
176
     1
290
     1
176
     1
290
     1
176
     1
290
     0
176
     1
290
     0
176
     1
290
     0
176
     1
290
     0
176
     1
290
     0
176
     1
290
     0
176
     1
 90
       50
176
     1
 40
0.0
176
     1
 40
1.0
176
     1
 90
        0
176
     1
 62
    18
420
        0
176
     1
 90
       50
176
     1
 90
        3
176
     1
 62
     5
420
      255
176
     1
290
     0
176
     1
 90
       50
176
     1
 90
       50
176
     1
 90
       50
176
     1
290
     0
176
     1
 90
       50
176
     1
 62
   256
176
     0
 40
1.0
176
     0
 90
        2
176
     1
  1
strokes_ogs.tif
176
     1
290
     0
176
     1
 40
1.0
176
     1
 40
1.0
176
     1
  0
VISUALSTYLE
  5
3B
102
{ACAD_REACTORS
330
29
102
}
330
29
100
AcDbVisualStyle
  2
Sketchy
 70
    24
177
     3
291
     0
 70
    58
 90
        1
176
     1
 90
        2
176
     1
 90
        2
176
     1
 90
        0
176
     1
 40
0.6
176
     1
 40
30.0
176
     1
 62
     7
420
 16777215
176
     1
 90
        2
176
     1
 90
        2
176
     1
 62
     7
176
     1
 62
     7
176
     1
 90
        1
176
     1
 90
        1
176
     1
 40
40.0
176
     1
 90
       11
176
     1
 62
     7
176
     1
 40
1.0
176
     1
 90
        1
176
     1
 90
        6
176
     1
 90
        2
176
     1
 62
     7
176
     1
 90
        6
176
     1
 90
        0
176
     1
 90
        0
176
     1
290
     0
176
     1
 90
        1
176
     1
 40
0.0
176
     1
 90
        0
176
     1
290
     0
176
     1
290
     1
176
     1
290
     1
176
     1
290
     0
176
     1
290
     0
176
     1
290
     0
176
     1
290
     0
176
     1
290
     0
176
     1
290
     0
176
     1
 90
       50
176
     1
 40
0.0
176
     1
 40
1.0
176
     1
 90
        0
176
     1
 62
    18
420
        0
176
     1
 90
       50
176
     1
 90
        3
176
     1
 62
     5
420
      255
176
     1
290
     0
176
     1
 90
       50
176
     1
 90
       50
176
     1
 90
       50
176
     1
290
     0
176
     1
 90
       50
176
     1
 62
   256
176
     0
 40
1.0
176
     0
 90
        2
176
     1
  1
strokes_ogs.tif
176
     1
290
     0
176
     1
 40
1.0
176
     1
 40
1.0
176
     1
  0
VISUALSTYLE
  5
36
102
{ACAD_REACTORS
330
29
102
}
330
29
100
AcDbVisualStyle
  2
Thicken
 70
    13
177
     3
291
     1
 70
    58
 90
        2
176
     1
 90
        2
176
     1
 90
        0
176
     1
 90
        0
176
     1
 40
0.6
176
     1
 40
30.0
176
     1
 62
     7
420
 16777215
176
     1
 90
        1
176
     1
 90
        4
176
     1
 62
     7
176
     1
 62
   257
176
     1
 90
        1
176
     1
 90
        1
176
     1
 40
1.0
176
     1
 90
       12
176
     1
 62
     7
176
     1
 40
1.0
176
     1
 90
        1
176
     1
 90
        6
176
     1
 90
        2
176
     1
 62
     7
176
     1
 90
        5
176
     1
 90
        0
176
     1
 90
        0
176
     1
290
     0
176
     1
 90
        1
176
     1
 40
0.0
176
     1
 90
        0
176
     1
290
     0
176
     1
290
     1
176
     1
290
     1
176
     1
290
     0
176
     1
290
     0
176
     1
290
     0
176
     1
290
     0
176
     1
290
     0
176
     1
290
     0
176
     1
 90
       50
176
     1
 40
0.0
176
     1
 40
1.0
176
     1
 90
        0
176
     1
 62
    18
420
        0
176
     1
 90
       50
176
     1
 90
        3
176
     1
 62
     5
420
      255
176
     1
290
     0
176
     1
 90
       50
176
     1
 90
       50
176
     1
 90
       50
176
     1
290
     0
176
     1
 90
       50
176
     1
 62
   256
176
     0
 40
1.0
176
     0
 90
        2
176
     1
  1
strokes_ogs.tif
176
     1
290
     0
176
     1
 40
1.0
176
     1
 40
1.0
176
     1
  0
VISUALSTYLE
  5
30
102
{ACAD_REACTORS
330
29
102
}
330
29
100
AcDbVisualStyle
  2
Wireframe
 70
     5
177
     3
291
     0
 70
    58
 90
        0
176
     1
 90
        2
176
     1
 90
        0
176
     1
 90
        0
176
     1
 40
0.6
176
     1
 40
30.0
176
     1
 62
     7
420
 16777215
176
     1
 90
        1
176
     1
 90
        4
176
     1
 62
     7
176
     1
 62
   257
176
     1
 90
        1
176
     1
 90
        1
176
     1
 40
1.0
176
     1
 90
        0
176
     1
 62
   257
176
     1
 40
1.0
176
     1
 90
        1
176
     1
 90
        6
176
     1
 90
        2
176
     1
 62
     7
176
     1
 90
        3
176
     1
 90
        0
176
     1
 90
        0
176
     1
290
     0
176
     1
 90
        1
176
     1
 40
0.0
176
     1
 90
        0
176
     1
290
     0
176
     1
290
     1
176
     1
290
     1
176
     1
290
     0
176
     1
290
     0
176
     1
290
     0
176
     1
290
     0
176
     1
290
     0
176
     1
290
     0
176
     1
 90
       50
176
     1
 40
0.0
176
     1
 40
1.0
176
     1
 90
        0
176
     1
 62
    18
420
        0
176
     1
 90
       50
176
     1
 90
        3
176
     1
 62
     5
420
      255
176
     1
290
     0
176
     1
 90
       50
176
     1
 90
       50
176
     1
 90
       50
176
     1
290
     0
176
     1
 90
       50
176
     1
 62
   256
176
     0
 40
1.0
176
     0
 90
        2
176
     1
  1
strokes_ogs.tif
176
     1
290
     0
176
     1
 40
1.0
176
     1
 40
1.0
176
     1
  0
VISUALSTYLE
  5
3C
102
{ACAD_REACTORS
330
29
102
}
330
29
100
AcDbVisualStyle
  2
X-Ray
 70
    25
177
     3
291
     0
 70
    58
 90
        2
176
     1
 90
        2
176
     1
 90
        1
176
     1
 90
        1
176
     1
 40
0.5
176
     1
 40
30.0
176
     1
 62
     7
420
 16777215
176
     1
 90
        1
176
     1
 90
        0
176
     1
 62
     7
176
     1
 62
   257
176
     1
 90
        1
176
     1
 90
        1
176
     1
 40
1.0
176
     1
 90
        8
176
     1
 62
     7
176
     1
 40
1.0
176
     1
 90
        1
176
     1
 90
        6
176
     1
 90
        2
176
     1
 62
     7
176
     1
 90
        3
176
     1
 90
        0
176
     1
 90
        0
176
     1
290
     0
176
     1
 90
       13
176
     1
 40
0.0
176
     1
 90
        0
176
     1
290
     0
176
     1
290
     1
176
     1
290
     1
176
     1
290
     0
176
     1
290
     0
176
     1
290
     0
176
     1
290
     0
176
     1
290
     0
176
     1
290
     0
176
     1
 90
       50
176
     1
 40
0.0
176
     1
 40
1.0
176
     1
 90
        0
176
     1
 62
    18
420
        0
176
     1
 90
       50
176
     1
 90
        3
176
     1
 62
     5
420
      255
176
     1
290
     0
176
     1
 90
       50
176
     1
 90
       50
176
     1
 90
       50
176
     1
290
     0
176
     1
 90
       50
176
     1
 62
   256
176
     0
 40
1.0
176
     0
 90
        2
176
     1
  1
strokes_ogs.tif
176
     1
290
     0
176
     1
 40
1.0
176
     1
 40
1.0
176
     1
  0
DICTIONARYVAR
  5
275
102
{ACAD_REACTORS
330
270
102
}
330
270
100
DictionaryVariables
280
     0
  1
1:1
  0
DICTIONARYVAR
  5
272
102
{ACAD_REACTORS
330
270
102
}
330
270
100
DictionaryVariables
280
     0
  1
STANDARD
  0
DICTIONARYVAR
  5
271
102
{ACAD_REACTORS
330
270
102
}
330
270
100
DictionaryVariables
280
     0
  1
STANDARD
  0
DICTIONARYVAR
  5
273
102
{ACAD_REACTORS
330
270
102
}
330
270
100
DictionaryVariables
280
     0
  1
Imperial24
  0
DICTIONARYVAR
  5
274
102
{ACAD_REACTORS
330
270
102
}
330
270
100
DictionaryVariables
280
     0
  1
Imperial24
  0
DICTIONARY
  5
1A
330
19
100
AcDbDictionary
280
     1
281
     1
  3
BUMPTILE
360
1C
  3
DIFFUSETILE
360
1B
  3
OPACITYTILE
360
1F
  3
REFLECTIONTILE
360
1E
  3
REFRACTIONTILE
360
20
  3
SPECULARTILE
360
1D
  0
DICTIONARY
  5
12
330
11
100
AcDbDictionary
280
     1
281
     1
  3
BUMPTILE
360
14
  3
DIFFUSETILE
360
13
  3
OPACITYTILE
360
17
  3
REFLECTIONTILE
360
16
  3
REFRACTIONTILE
360
18
  3
SPECULARTILE
360
15
  0
DICTIONARY
  5
22
330
21
100
AcDbDictionary
280
     1
281
     1
  3
BUMPTILE
360
24
  3
DIFFUSETILE
360
23
  3
OPACITYTILE
360
27
  3
REFLECTIONTILE
360
26
  3
REFRACTIONTILE
360
28
  3
SPECULARTILE
360
25
  0
DICTIONARY
  5
276
330
65
100
AcDbDictionary
280
     1
281
     1
  3
ACAD_ROUNDTRIP_2008_TABLESTYLE_CELLSTYLEMAP
360
277
  0
XRECORD
  5
1C
102
{ACAD_REACTORS
330
1A
102
}
330
1A
100
AcDbXrecord
280
     1
270
     1
271
     1
  0
XRECORD
  5
1B
102
{ACAD_REACTORS
330
1A
102
}
330
1A
100
AcDbXrecord
280
     1
270
     1
271
     1
  0
XRECORD
  5
1F
102
{ACAD_REACTORS
330
1A
102
}
330
1A
100
AcDbXrecord
280
     1
270
     1
271
     1
  0
XRECORD
  5
1E
102
{ACAD_REACTORS
330
1A
102
}
330
1A
100
AcDbXrecord
280
     1
270
     1
271
     1
  0
XRECORD
  5
20
102
{ACAD_REACTORS
330
1A
102
}
330
1A
100
AcDbXrecord
280
     1
270
     1
271
     1
  0
XRECORD
  5
1D
102
{ACAD_REACTORS
330
1A
102
}
330
1A
100
AcDbXrecord
280
     1
270
     1
271
     1
  0
XRECORD
  5
14
102
{ACAD_REACTORS
330
12
102
}
330
12
100
AcDbXrecord
280
     1
270
     1
271
     1
  0
XRECORD
  5
13
102
{ACAD_REACTORS
330
12
102
}
330
12
100
AcDbXrecord
280
     1
270
     1
271
     1
  0
XRECORD
  5
17
102
{ACAD_REACTORS
330
12
102
}
330
12
100
AcDbXrecord
280
     1
270
     1
271
     1
  0
XRECORD
  5
16
102
{ACAD_REACTORS
330
12
102
}
330
12
100
AcDbXrecord
280
     1
270
     1
271
     1
  0
XRECORD
  5
18
102
{ACAD_REACTORS
330
12
102
}
330
12
100
AcDbXrecord
280
     1
270
     1
271
     1
  0
XRECORD
  5
15
102
{ACAD_REACTORS
330
12
102
}
330
12
100
AcDbXrecord
280
     1
270
     1
271
     1
  0
XRECORD
  5
24
102
{ACAD_REACTORS
330
22
102
}
330
22
100
AcDbXrecord
280
     1
270
     1
271
     1
  0
XRECORD
  5
23
102
{ACAD_REACTORS
330
22
102
}
330
22
100
AcDbXrecord
280
     1
270
     1
271
     1
  0
XRECORD
  5
27
102
{ACAD_REACTORS
330
22
102
}
330
22
100
AcDbXrecord
280
     1
270
     1
271
     1
  0
XRECORD
  5
26
102
{ACAD_REACTORS
330
22
102
}
330
22
100
AcDbXrecord
280
     1
270
     1
271
     1
  0
XRECORD
  5
28
102
{ACAD_REACTORS
330
22
102
}
330
22
100
AcDbXrecord
280
     1
270
     1
271
     1
  0
XRECORD
  5
25
102
{ACAD_REACTORS
330
22
102
}
330
22
100
AcDbXrecord
280
     1
270
     1
271
     1
  0
CELLSTYLEMAP
  5
277
102
{ACAD_REACTORS
330
276
102
}
330
276
100
AcDbCellStyleMap
 90
        3
300
CELLSTYLE
  1
TABLEFORMAT_BEGIN
 90
        5
170
     1
 91
        0
 92
    32768
 62
   257
 93
        1
300
CONTENTFORMAT
  1
CONTENTFORMAT_BEGIN
 90
        0
 91
        0
 92
      512
 93
        0
300

 40
0.0
140
1.0
 94
        5
 62
     0
340
55
144
0.25
309
CONTENTFORMAT_END
171
     0
 94
        0
309
TABLEFORMAT_END
  1
CELLSTYLE_BEGIN
 90
        1
 91
        1
300
_TITLE
309
CELLSTYLE_END
300
CELLSTYLE
  1
TABLEFORMAT_BEGIN
 90
        5
170
     1
 91
        0
 92
        0
 62
   257
 93
        1
300
CONTENTFORMAT
  1
CONTENTFORMAT_BEGIN
 90
        0
 91
        0
 92
      512
 93
        0
300

 40
0.0
140
1.0
 94
        5
 62
     0
340
55
144
0.18
309
CONTENTFORMAT_END
171
     0
 94
        0
309
TABLEFORMAT_END
  1
CELLSTYLE_BEGIN
 90
        2
 91
        1
300
_HEADER
309
CELLSTYLE_END
300
CELLSTYLE
  1
TABLEFORMAT_BEGIN
 90
        5
170
     1
 91
        0
 92
        0
 62
   257
 93
        1
300
CONTENTFORMAT
  1
CONTENTFORMAT_BEGIN
 90
        0
 91
        0
 92
      512
 93
        0
300

 40
0.0
140
1.0
 94
        2
 62
     0
340
55
144
0.18
309
CONTENTFORMAT_END
171
     0
 94
        0
309
TABLEFORMAT_END
  1
CELLSTYLE_BEGIN
 90
        3
 91
        2
300
_DATA
309
CELLSTYLE_END
  0
ENDSEC
  0
EOF
