  0
SECTION
  2
HEADER
  9
$ACADVER
  1
AC1032
  9
$ACADMAINTVER
 90
      251
  9
$DWGCODEPAGE
  3
ANSI_1252
  9
$REQUIREDVERSIONS
160
                 0
  9
$INSBASE
 10
0.0
 20
0.0
 30
0.0
  9
$EXTMIN
 10
1.000000000000000E+20
 20
1.000000000000000E+20
 30
1.000000000000000E+20
  9
$EXTMAX
 10
-1.000000000000000E+20
 20
-1.000000000000000E+20
 30
-1.000000000000000E+20
  9
$LIMMIN
 10
0.0
 20
0.0
  9
$LIMMAX
 10
12.0
 20
9.0
  9
$ORTHOMODE
 70
     0
  9
$REGENMODE
 70
     1
  9
$FILLMODE
 70
     1
  9
$QTEXTMODE
 70
     0
  9
$MIRRTEXT
 70
     0
  9
$LTSCALE
 40
1.0
  9
$ATTMODE
 70
     1
  9
$TEXTSIZE
 40
0.2
  9
$TRACEWID
 40
0.05
  9
$TEXTSTYLE
  7
Standard
  9
$CLAYER
  8
0
  9
$CELTYPE
  6
ByLayer
  9
$CECOLOR
 62
   256
  9
$CELTSCALE
 40
1.0
  9
$DISPSILH
 70
     0
  9
$DIMSCALE
 40
1.0
  9
$DIMASZ
 40
0.18
  9
$DIMEXO
 40
0.0625
  9
$DIMDLI
 40
0.38
  9
$DIMRND
 40
0.0
  9
$DIMDLE
 40
0.0
  9
$DIMEXE
 40
0.18
  9
$DIMTP
 40
0.0
  9
$DIMTM
 40
0.0
  9
$DIMTXT
 40
0.18
  9
$DIMCEN
 40
0.09
  9
$DIMTSZ
 40
0.0
  9
$DIMTOL
 70
     0
  9
$DIMLIM
 70
     0
  9
$DIMTIH
 70
     1
  9
$DIMTOH
 70
     1
  9
$DIMSE1
 70
     0
  9
$DIMSE2
 70
     0
  9
$DIMTAD
 70
     0
  9
$DIMZIN
 70
     0
  9
$DIMBLK
  1

  9
$DIMASO
 70
     1
  9
$DIMSHO
 70
     1
  9
$DIMPOST
  1

  9
$DIMAPOST
  1

  9
$DIMALT
 70
     0
  9
$DIMALTD
 70
     2
  9
$DIMALTF
 40
25.4
  9
$DIMLFAC
 40
1.0
  9
$DIMTOFL
 70
     0
  9
$DIMTVP
 40
0.0
  9
$DIMTIX
 70
     0
  9
$DIMSOXD
 70
     0
  9
$DIMSAH
 70
     0
  9
$DIMBLK1
  1

  9
$DIMBLK2
  1

  9
$DIMSTYLE
  2
Standard
  9
$DIMCLRD
 70
     0
  9
$DIMCLRE
 70
     0
  9
$DIMCLRT
 70
     0
  9
$DIMTFAC
 40
1.0
  9
$DIMGAP
 40
0.09
  9
$DIMJUST
 70
     0
  9
$DIMSD1
 70
     0
  9
$DIMSD2
 70
     0
  9
$DIMTOLJ
 70
     1
  9
$DIMTZIN
 70
     0
  9
$DIMALTZ
 70
     0
  9
$DIMALTTZ
 70
     0
  9
$DIMUPT
 70
     0
  9
$DIMDEC
 70
     4
  9
$DIMTDEC
 70
     4
  9
$DIMALTU
 70
     2
  9
$DIMALTTD
 70
     2
  9
$DIMTXSTY
  7
Standard
  9
$DIMAUNIT
 70
     0
  9
$DIMADEC
 70
     0
  9
$DIMALTRND
 40
0.0
  9
$DIMAZIN
 70
     0
  9
$DIMDSEP
 70
    46
  9
$DIMATFIT
 70
     3
  9
$DIMFRAC
 70
     0
  9
$DIMLDRBLK
  1

  9
$DIMLUNIT
 70
     2
  9
$DIMLWD
 70
    -2
  9
$DIMLWE
 70
    -2
  9
$DIMTMOVE
 70
     0
  9
$DIMFXL
 40
1.0
  9
$DIMFXLON
 70
     0
  9
$DIMJOGANG
 40
0.7853981633974483
  9
$DIMTFILL
 70
     0
  9
$DIMTFILLCLR
 70
     0
  9
$DIMARCSYM
 70
     0
  9
$DIMLTYPE
  6

  9
$DIMLTEX1
  6

  9
$DIMLTEX2
  6

  9
$DIMTXTDIRECTION
 70
     0
  9
$LUNITS
 70
     2
  9
$LUPREC
 70
     4
  9
$SKETCHINC
 40
0.1
  9
$FILLETRAD
 40
0.0
  9
$AUNITS
 70
     0
  9
$AUPREC
 70
     0
  9
$MENU
  1
.
  9
$ELEVATION
 40
0.0
  9
$PELEVATION
 40
0.0
  9
$THICKNESS
 40
0.0
  9
$LIMCHECK
 70
     0
  9
$CHAMFERA
 40
0.0
  9
$CHAMFERB
 40
0.0
  9
$CHAMFERC
 40
0.0
  9
$CHAMFERD
 40
0.0
  9
$SKPOLY
 70
     0
  9
$TDCREATE
 40
2460096.665196759
  9
$TDUCREATE
 40
2460096.790196759
  9
$TDUPDATE
 40
2460096.665196759
  9
$TDUUPDATE
 40
2460096.790196759
  9
$TDINDWG
 40
0.0000000000
  9
$TDUSRTIMER
 40
0.0000000000
  9
$USRTIMER
 70
     1
  9
$ANGBASE
 50
0.0
  9
$ANGDIR
 70
     0
  9
$PDMODE
 70
     0
  9
$PDSIZE
 40
0.0
  9
$PLINEWID
 40
0.0
  9
$SPLFRAME
 70
     0
  9
$SPLINETYPE
 70
     6
  9
$SPLINESEGS
 70
     8
  9
$HANDSEED
  5
14A
  9
$SURFTAB1
 70
     6
  9
$SURFTAB2
 70
     6
  9
$SURFTYPE
 70
     6
  9
$SURFU
 70
     6
  9
$SURFV
 70
     6
  9
$UCSBASE
  2

  9
$UCSNAME
  2

  9
$UCSORG
 10
0.0
 20
0.0
 30
0.0
  9
$UCSXDIR
 10
1.0
 20
0.0
 30
0.0
  9
$UCSYDIR
 10
0.0
 20
1.0
 30
0.0
  9
$UCSORTHOREF
  2

  9
$UCSORTHOVIEW
 70
     0
  9
$UCSORGTOP
 10
0.0
 20
0.0
 30
0.0
  9
$UCSORGBOTTOM
 10
0.0
 20
0.0
 30
0.0
  9
$UCSORGLEFT
 10
0.0
 20
0.0
 30
0.0
  9
$UCSORGRIGHT
 10
0.0
 20
0.0
 30
0.0
  9
$UCSORGFRONT
 10
0.0
 20
0.0
 30
0.0
  9
$UCSORGBACK
 10
0.0
 20
0.0
 30
0.0
  9
$PUCSBASE
  2

  9
$PUCSNAME
  2

  9
$PUCSORG
 10
0.0
 20
0.0
 30
0.0
  9
$PUCSXDIR
 10
1.0
 20
0.0
 30
0.0
  9
$PUCSYDIR
 10
0.0
 20
1.0
 30
0.0
  9
$PUCSORTHOREF
  2

  9
$PUCSORTHOVIEW
 70
     0
  9
$PUCSORGTOP
 10
0.0
 20
0.0
 30
0.0
  9
$PUCSORGBOTTOM
 10
0.0
 20
0.0
 30
0.0
  9
$PUCSORGLEFT
 10
0.0
 20
0.0
 30
0.0
  9
$PUCSORGRIGHT
 10
0.0
 20
0.0
 30
0.0
  9
$PUCSORGFRONT
 10
0.0
 20
0.0
 30
0.0
  9
$PUCSORGBACK
 10
0.0
 20
0.0
 30
0.0
  9
$USERI1
 70
     0
  9
$USERI2
 70
     0
  9
$USERI3
 70
     0
  9
$USERI4
 70
     0
  9
$USERI5
 70
     0
  9
$USERR1
 40
0.0
  9
$USERR2
 40
0.0
  9
$USERR3
 40
0.0
  9
$USERR4
 40
0.0
  9
$USERR5
 40
0.0
  9
$WORLDVIEW
 70
     1
  9
$SHADEDGE
 70
     3
  9
$SHADEDIF
 70
    70
  9
$TILEMODE
 70
     1
  9
$MAXACTVP
 70
    64
  9
$PINSBASE
 10
0.0
 20
0.0
 30
0.0
  9
$PLIMCHECK
 70
     0
  9
$PEXTMIN
 10
1.000000000000000E+20
 20
1.000000000000000E+20
 30
1.000000000000000E+20
  9
$PEXTMAX
 10
-1.000000000000000E+20
 20
-1.000000000000000E+20
 30
-1.000000000000000E+20
  9
$PLIMMIN
 10
0.0
 20
0.0
  9
$PLIMMAX
 10
12.0
 20
9.0
  9
$UNITMODE
 70
     0
  9
$VISRETAIN
 70
     1
  9
$PLINEGEN
 70
     0
  9
$PSLTSCALE
 70
     1
  9
$TREEDEPTH
 70
  3020
  9
$CMLSTYLE
  2
Standard
  9
$CMLJUST
 70
     0
  9
$CMLSCALE
 40
1.0
  9
$PROXYGRAPHICS
 70
     1
  9
$MEASUREMENT
 70
     0
  9
$CELWEIGHT
370
    -1
  9
$ENDCAPS
280
     0
  9
$JOINSTYLE
280
     0
  9
$LWDISPLAY
290
     1
  9
$INSUNITS
 70
     0
  9
$HYPERLINKBASE
  1

  9
$STYLESHEET
  1

  9
$XEDIT
290
     1
  9
$CEPSNTYPE
380
     0
  9
$PSTYLEMODE
290
     1
  9
$FINGERPRINTGUID
  2
{394991C0-B1E2-6E42-8FA2-5CDB7EABC91B}
  9
$VERSIONGUID
  2
{75C7E273-3922-1B40-86A8-DFAE2206381B}
  9
$EXTNAMES
290
     1
  9
$PSVPSCALE
 40
0.0
  9
$OLESTARTUP
290
     0
  9
$SORTENTS
280
   127
  9
$INDEXCTL
280
     0
  9
$HIDETEXT
280
     1
  9
$XCLIPFRAME
280
     2
  9
$HALOGAP
280
     0
  9
$OBSCOLOR
 70
   257
  9
$OBSLTYPE
280
     0
  9
$INTERSECTIONDISPLAY
280
     0
  9
$INTERSECTIONCOLOR
 70
   257
  9
$DIMASSOC
280
     2
  9
$PROJECTNAME
  1

  9
$CAMERADISPLAY
290
     0
  9
$LENSLENGTH
 40
50.0
  9
$CAMERAHEIGHT
 40
0.0
  9
$STEPSPERSEC
 40
2.0
  9
$STEPSIZE
 40
6.0
  9
$3DDWFPREC
 40
2.0
  9
$PSOLWIDTH
 40
0.25
  9
$PSOLHEIGHT
 40
4.0
  9
$LOFTANG1
 40
1.570796326794896
  9
$LOFTANG2
 40
1.570796326794896
  9
$LOFTMAG1
 40
0.0
  9
$LOFTMAG2
 40
0.0
  9
$LOFTPARAM
 70
     7
  9
$LOFTNORMALS
280
     1
  9
$LATITUDE
 40
37.795
  9
$LONGITUDE
 40
-122.394
  9
$NORTHDIRECTION
 40
0.0
  9
$TIMEZONE
 70
 -8000
  9
$LIGHTGLYPHDISPLAY
280
     1
  9
$TILEMODELIGHTSYNCH
280
     1
  9
$CMATERIAL
347
11
  9
$SOLIDHIST
280
     0
  9
$SHOWHIST
280
     1
  9
$DWFFRAME
280
     2
  9
$DGNFRAME
280
     0
  9
$REALWORLDSCALE
290
     1
  9
$INTERFERECOLOR
 62
     1
  9
$INTERFEREOBJVS
345
33
  9
$INTERFEREVPVS
346
30
  9
$CSHADOW
280
     0
  9
$SHADOWPLANELOCATION
 40
0.0
  0
ENDSEC
  0
SECTION
  2
CLASSES
  0
CLASS
  1
ACDBDICTIONARYWDFLT
  2
AcDbDictionaryWithDefault
  3
ObjectDBX Classes
 90
        0
 91
        1
280
     0
281
     0
  0
CLASS
  1
MATERIAL
  2
AcDbMaterial
  3
ObjectDBX Classes
 90
     1153
 91
        3
280
     0
281
     0
  0
CLASS
  1
VISUALSTYLE
  2
AcDbVisualStyle
  3
ObjectDBX Classes
 90
     4095
 91
       24
280
     0
281
     0
  0
CLASS
  1
SCALE
  2
AcDbScale
  3
ObjectDBX Classes
 90
     1153
 91
       17
280
     0
281
     0
  0
CLASS
  1
TABLESTYLE
  2
AcDbTableStyle
  3
ObjectDBX Classes
 90
     4095
 91
        1
280
     0
281
     0
  0
CLASS
  1
MLEADERSTYLE
  2
AcDbMLeaderStyle
  3
ACDB_MLEADERSTYLE_CLASS
 90
     4095
 91
        1
280
     0
281
     0
  0
CLASS
  1
ACDBSECTIONVIEWSTYLE
  2
AcDbSectionViewStyle
  3
ObjectDBX Classes
 90
     1025
 91
        1
280
     0
281
     0
  0
CLASS
  1
ACDBDETAILVIEWSTYLE
  2
AcDbDetailViewStyle
  3
ObjectDBX Classes
 90
     1025
 91
        1
280
     0
281
     0
  0
CLASS
  1
DICTIONARYVAR
  2
AcDbDictionaryVar
  3
ObjectDBX Classes
 90
        0
 91
        5
280
     0
281
     0
  0
CLASS
  1
CELLSTYLEMAP
  2
AcDbCellStyleMap
  3
ObjectDBX Classes
 90
     1152
 91
        1
280
     0
281
     0
  0
ENDSEC
  0
SECTION
  2
TABLES
  0
TABLE
  2
VPORT
  5
8
330
0
100
AcDbSymbolTable
 70
     1
  0
VPORT
  5
57
330
8
100
AcDbSymbolTableRecord
100
AcDbViewportTableRecord
  2
*Active
 70
     0
 10
0.0
 20
0.0
 11
1.0
 21
1.0
 12
0.0
 22
0.0
 13
0.0
 23
0.0
 14
1.0
 24
1.0
 15
0.0
 25
0.0
 16
0.0
 26
0.0
 36
1.0
 17
354.7496518994785
 27
432.3218695576874
 37
0.0
 40
589.8546386509187
 41
1.226894293024661
 42
50.0
 43
0.0
 44
0.0
 50
0.0
 51
0.0
 71
     0
 72
   100
 73
     1
 74
     1
 75
     0
 76
     0
 77
     0
 78
     0
281
     0
 65
     1
110
0.0
120
0.0
130
0.0
111
1.0
121
0.0
131
0.0
112
0.0
122
1.0
132
0.0
 79
     0
146
0.0
 60
     3
 61
     5
292
     1
282
     1
141
0.0
142
0.0
 63
   250
421
  3355443
  0
ENDTAB
  0
TABLE
  2
LTYPE
  5
5
330
0
100
AcDbSymbolTable
 70
     1
  0
LTYPE
  5
5B
330
5
100
AcDbSymbolTableRecord
100
AcDbLinetypeTableRecord
  2
ByBlock
 70
     0
  3

 72
    65
 73
     0
 40
0.0
  0
LTYPE
  5
5C
330
5
100
AcDbSymbolTableRecord
100
AcDbLinetypeTableRecord
  2
ByLayer
 70
     0
  3

 72
    65
 73
     0
 40
0.0
  0
LTYPE
  5
5D
330
5
100
AcDbSymbolTableRecord
100
AcDbLinetypeTableRecord
  2
Continuous
 70
     0
  3
Solid line
 72
    65
 73
     0
 40
0.0
  0
ENDTAB
  0
TABLE
  2
LAYER
  5
2
330
0
100
AcDbSymbolTable
 70
     2
  0
LAYER
  5
54
330
2
100
AcDbSymbolTableRecord
100
AcDbLayerTableRecord
  2
0
 70
     0
 62
     7
  6
Continuous
370
    -3
390
F
347
21
348
0
  0
LAYER
  5
78
330
2
100
AcDbSymbolTableRecord
100
AcDbLayerTableRecord
  2
Camada 1
 70
     0
 62
     7
  6
Continuous
370
     0
390
F
347
21
348
0
  0
ENDTAB
  0
TABLE
  2
STYLE
  5
3
330
0
100
AcDbSymbolTable
 70
     2
  0
STYLE
  5
55
330
3
100
AcDbSymbolTableRecord
100
AcDbTextStyleTableRecord
  2
Standard
 70
     0
 40
0.0
 41
1.0
 50
0.0
 71
     0
 42
0.2
  3
txt
  4

  0
STYLE
  5
5A
330
3
100
AcDbSymbolTableRecord
100
AcDbTextStyleTableRecord
  2
Annotative
 70
     0
 40
0.0
 41
1.0
 50
0.0
 71
     0
 42
0.2
  3
txt
  4

1001
AcadAnnotative
1000
AnnotativeData
1002
{
1070
     1
1070
     1
1002
}
  0
ENDTAB
  0
TABLE
  2
VIEW
  5
6
330
0
100
AcDbSymbolTable
 70
     0
  0
ENDTAB
  0
TABLE
  2
UCS
  5
7
330
0
100
AcDbSymbolTable
 70
     0
  0
ENDTAB
  0
TABLE
  2
APPID
  5
9
330
0
100
AcDbSymbolTable
 70
     2
  0
APPID
  5
56
330
9
100
AcDbSymbolTableRecord
100
AcDbRegAppTableRecord
  2
ACAD
 70
     0
  0
APPID
  5
5E
330
9
100
AcDbSymbolTableRecord
100
AcDbRegAppTableRecord
  2
AcadAnnotative
 70
     0
  0
ENDTAB
  0
TABLE
  2
DIMSTYLE
  5
A
330
0
100
AcDbSymbolTable
 70
     2
100
AcDbDimStyleTable
 71
     0
  0
DIMSTYLE
105
58
330
A
100
AcDbSymbolTableRecord
100
AcDbDimStyleTableRecord
  2
Standard
 70
     0
340
55
  0
DIMSTYLE
105
59
330
A
100
AcDbSymbolTableRecord
100
AcDbDimStyleTableRecord
  2
Annotative
 70
     0
340
55
1001
AcadAnnotative
1000
AnnotativeData
1002
{
1070
     1
1070
     1
1002
}
  0
ENDTAB
  0
TABLE
  2
BLOCK_RECORD
  5
1
330
0
100
AcDbSymbolTable
 70
     4
  0
BLOCK_RECORD
  5
70
330
1
100
AcDbSymbolTableRecord
100
AcDbBlockTableRecord
  2
*Model_Space
340
73
 70
     0
280
     1
281
     0
  0
BLOCK_RECORD
  5
6C
330
1
100
AcDbSymbolTableRecord
100
AcDbBlockTableRecord
  2
*Paper_Space
340
6F
 70
     0
280
     1
281
     0
  0
BLOCK_RECORD
  5
74
330
1
100
AcDbSymbolTableRecord
100
AcDbBlockTableRecord
  2
*Paper_Space0
340
77
 70
     0
280
     1
281
     0
  0
BLOCK_RECORD
  5
7A
330
1
100
AcDbSymbolTableRecord
100
AcDbBlockTableRecord
  2
Block_0
340
0
102
{BLKREFS
331
7B
102
}
 70
     0
280
     1
281
     0
  0
BLOCK_RECORD
  5
83
330
1
100
AcDbSymbolTableRecord
100
AcDbBlockTableRecord
  2
Block_1
340
0
102
{BLKREFS
331
84
102
}
 70
     0
280
     1
281
     0
  0
BLOCK_RECORD
  5
12E
330
1
100
AcDbSymbolTableRecord
100
AcDbBlockTableRecord
  2
Block_2
340
0
102
{BLKREFS
331
12F
102
}
 70
     0
280
     1
281
     0
  0
ENDTAB
  0
ENDSEC
  0
SECTION
  2
BLOCKS
  0
BLOCK
  5
71
330
70
100
AcDbEntity
  8
0
100
AcDbBlockBegin
  2
*Model_Space
 70
     0
 10
0.0
 20
0.0
 30
0.0
  3
*Model_Space
  1

  0
ENDBLK
  5
72
330
70
100
AcDbEntity
  8
0
100
AcDbBlockEnd
  0
BLOCK
  5
6D
330
6C
100
AcDbEntity
 67
     1
  8
0
100
AcDbBlockBegin
  2
*Paper_Space
 70
     0
 10
0.0
 20
0.0
 30
0.0
  3
*Paper_Space
  1

  0
ENDBLK
  5
6E
330
6C
100
AcDbEntity
 67
     1
  8
0
100
AcDbBlockEnd
  0
BLOCK
  5
75
330
74
100
AcDbEntity
 67
     1
  8
0
100
AcDbBlockBegin
  2
*Paper_Space0
 70
     0
 10
0.0
 20
0.0
 30
0.0
  3
*Paper_Space0
  1

  0
ENDBLK
  5
76
330
74
100
AcDbEntity
 67
     1
  8
0
100
AcDbBlockEnd
  0
BLOCK
  5
7C
330
7A
100
AcDbEntity
  8
0
100
AcDbBlockBegin
  2
Block_0
 70
     0
 10
0.0
 20
0.0
 30
0.0
  3
Block_0
  1

  0
SPLINE
  5
7E
330
7A
100
AcDbEntity
  8
Camada 1
 62
   149
420
  3752783
370
    18
100
AcDbSpline
210
0.0
220
0.0
230
1.0
 70
     9
 71
     3
 72
    29
 73
    25
 74
     0
 42
0.0000000001
 43
0.0000000001
 40
0.0
 40
0.0
 40
0.0
 40
0.0
 40
1.0
 40
1.0
 40
1.0
 40
2.0
 40
2.0
 40
2.0
 40
3.0
 40
3.0
 40
3.0
 40
4.0
 40
4.0
 40
4.0
 40
5.0
 40
5.0
 40
5.0
 40
6.0
 40
6.0
 40
6.0
 40
7.0
 40
7.0
 40
7.0
 40
8.0
 40
8.0
 40
8.0
 40
8.0
 10
677.3330957975613
 20
180.6645464093581
 30
0.0
 10
677.3330957975613
 20
178.1454814931603
 30
0.0
 10
675.2733346996592
 20
176.085722941938
 30
0.0
 10
672.7524922012398
 20
176.085722941938
 30
0.0
 10
672.7524922012398
 20
176.085722941938
 30
0.0
 10
645.8314321049674
 20
176.085722941938
 30
0.0
 10
645.8314321049674
 20
176.085722941938
 30
0.0
 10
643.3159274465851
 20
176.085722941938
 30
0.0
 10
641.2543870686749
 20
178.1454814931603
 30
0.0
 10
641.2543870686749
 20
180.6645464093581
 30
0.0
 10
641.2543870686749
 20
180.6645464093581
 30
0.0
 10
641.2543870686749
 20
207.5891637923105
 30
0.0
 10
641.2543870686749
 20
207.5891637923105
 30
0.0
 10
641.2543870686749
 20
210.104671846264
 30
0.0
 10
643.3159274465851
 20
212.166208828603
 30
0.0
 10
645.8314321049674
 20
212.166208828603
 30
0.0
 10
645.8314321049674
 20
212.166208828603
 30
0.0
 10
672.7524922012398
 20
212.166208828603
 30
0.0
 10
672.7524922012398
 20
212.166208828603
 30
0.0
 10
675.2733346996592
 20
212.166208828603
 30
0.0
 10
677.3330957975613
 20
210.104671846264
 30
0.0
 10
677.3330957975613
 20
207.5891637923105
 30
0.0
 10
677.3330957975613
 20
207.5891637923105
 30
0.0
 10
677.3330957975613
 20
180.6645464093581
 30
0.0
 10
677.3330957975613
 20
180.6645464093581
 30
0.0
  0
LWPOLYLINE
  5
7F
330
7A
100
AcDbEntity
  8
Camada 1
100
AcDbPolyline
 90
        4
 70
     1
 43
0.0
 10
640.5193203149374
 20
175.3510106010871
 10
678.2162808213525
 20
175.3510106010871
 10
678.2162808213525
 20
212.9002093725667
 10
640.5193203149374
 20
212.9002093725667
  0
ENDBLK
  5
7D
330
7A
100
AcDbEntity
  8
0
100
AcDbBlockEnd
  0
BLOCK
  5
85
330
83
100
AcDbEntity
  8
0
100
AcDbBlockBegin
  2
Block_1
 70
     0
 10
0.0
 20
0.0
 30
0.0
  3
Block_1
  1

  0
LWPOLYLINE
  5
87
330
83
100
AcDbEntity
  8
Camada 1
 62
    18
420
        0
370
    35
100
AcDbPolyline
 90
        3
 70
     0
 43
0.0
 10
315.4412168932358
 20
625.8234320600986
 10
316.5590646073943
 20
626.2028294838292
 10
318.0616561392162
 20
625.7703058634688
  0
LINE
  5
88
330
83
100
AcDbEntity
  8
Camada 1
 62
    18
420
        0
370
    35
100
AcDbLine
 10
315.4412168932358
 20
625.8234320600986
 30
0.0
 11
314.3025358397554
 21
624.7456499907339
 31
0.0
  0
LWPOLYLINE
  5
89
330
83
100
AcDbEntity
  8
Camada 1
 62
    18
420
        0
370
    35
100
AcDbPolyline
 90
        3
 70
     0
 43
0.0
 10
316.9227314318196
 20
624.6934814018613
 10
314.7547913501749
 20
625.0260838437525
 10
313.8601483220627
 20
623.5666097421917
  0
LINE
  5
8A
330
83
100
AcDbEntity
  8
Camada 1
 62
    18
420
        0
370
    35
100
AcDbLine
 10
313.8601466665678
 20
623.5666837863627
 30
0.0
 11
313.9818349365541
 21
498.6931204182574
 31
0.0
  0
LINE
  5
8B
330
83
100
AcDbEntity
  8
Camada 1
 62
    18
420
        0
370
    35
100
AcDbLine
 10
338.7438845386878
 20
613.332595415688
 30
0.0
 11
338.8414656092209
 21
515.2143208039333
 31
0.0
  0
LINE
  5
8C
330
83
100
AcDbEntity
  8
Camada 1
 62
    18
420
        0
370
    35
100
AcDbLine
 10
309.264422365728
 20
410.5834958228024
 30
0.0
 11
309.4840003574773
 21
410.58840518531
 31
0.0
  0
LINE
  5
8D
330
83
100
AcDbEntity
  8
Camada 1
 62
    18
420
        0
370
    35
100
AcDbLine
 10
341.2645316513845
 20
612.6136928692822
 30
0.0
 11
349.3606112707057
 21
516.8881292571204
 31
0.0
  0
LWPOLYLINE
  5
8E
330
83
100
AcDbEntity
  8
Camada 1
 62
    18
420
        0
370
    35
100
AcDbPolyline
 90
        3
 70
     0
 43
0.0
 10
341.2645316513845
 20
612.6136928692822
 10
340.8572709441178
 20
613.6192772645399
 10
339.8832605860698
 20
614.4057999903353
  0
LINE
  5
8F
330
83
100
AcDbEntity
  8
Camada 1
 62
    18
420
        0
370
    35
100
AcDbLine
 10
339.8827677105073
 20
614.4063075388385
 30
0.0
 11
318.0616124951612
 21
625.7706012124099
 31
0.0
  0
LINE
  5
90
330
83
100
AcDbEntity
  8
Camada 1
 62
    18
420
        0
370
    35
100
AcDbLine
 10
318.0616478617558
 20
625.7706760843284
 30
0.0
 11
316.9229403203972
 21
624.6940787217136
 31
0.0
  0
LINE
  5
91
330
83
100
AcDbEntity
  8
Camada 1
 62
    18
420
        0
370
    35
100
AcDbLine
 10
338.7438845386878
 20
613.332595415688
 30
0.0
 11
316.9228104424692
 21
624.6932609248379
 31
0.0
  0
LWPOLYLINE
  5
92
330
83
100
AcDbEntity
  8
Camada 1
 62
    18
420
        0
370
    35
100
AcDbPolyline
 90
        3
 70
     0
 43
0.0
 10
339.3584274501009
 20
612.5339611896833
 10
339.1760380918422
 20
612.9813340425471
 10
338.7434131845257
 20
613.3321403899572
  0
LWPOLYLINE
  5
93
330
83
100
AcDbEntity
  8
Camada 1
 62
    18
420
        0
370
    35
100
AcDbPolyline
 90
        3
 70
     0
 43
0.0
 10
349.3611188192081
 20
516.8886221326838
 10
349.410366476648
 20
516.2051389834514
 10
349.4477761507496
 20
515.4000461764144
  0
LINE
  5
94
330
83
100
AcDbEntity
  8
Camada 1
 62
    18
420
        0
370
    35
100
AcDbLine
 10
347.4550121346874
 20
516.809001519342
 30
0.0
 11
349.361216641526
 21
516.8892169692972
 31
0.0
  0
LWPOLYLINE
  5
95
330
83
100
AcDbEntity
  8
Camada 1
 62
    18
420
        0
370
    35
100
AcDbPolyline
 90
        3
 70
     0
 43
0.0
 10
349.6385556255282
 20
513.220583505973
 10
349.6756784571389
 20
513.0793998716872
 10
349.7187782173169
 20
512.6725465763947
  0
LINE
  5
96
330
83
100
AcDbEntity
  8
Camada 1
 62
    18
420
        0
370
    35
100
AcDbLine
 10
349.6385556255282
 20
513.220583505973
 30
0.0
 11
347.7323149243493
 21
513.1403302061853
 31
0.0
  0
LWPOLYLINE
  5
97
330
83
100
AcDbEntity
  8
Camada 1
 62
    18
420
        0
370
    35
100
AcDbPolyline
 90
        3
 70
     0
 43
0.0
 10
347.8088903135504
 20
512.5930636654584
 10
347.7322967139335
 20
513.1411446920756
 10
347.697730606782
 20
512.569909686812
  0
LINE
  5
98
330
83
100
AcDbEntity
  8
Camada 1
 62
    18
420
        0
370
    35
100
AcDbLine
 10
347.7051081888112
 20
505.6231114493329
 30
0.0
 11
347.6978300845949
 21
512.5704304792552
 31
0.0
  0
LWPOLYLINE
  5
99
330
83
100
AcDbEntity
  8
Camada 1
 62
    18
420
        0
370
    35
100
AcDbPolyline
 90
        3
 70
     0
 43
0.0
 10
347.5379019976208
 20
515.3646789189888
 10
347.4996954549588
 20
516.1490852586975
 10
347.4546189634275
 20
516.8083630386727
  0
LINE
  5
9A
330
83
100
AcDbEntity
  8
Camada 1
 62
    18
420
        0
370
    35
100
AcDbLine
 10
339.3584274501009
 20
612.5339611896833
 30
0.0
 11
347.4545070694239
 21
516.8083975775207
 31
0.0
  0
LINE
  5
9B
330
83
100
AcDbEntity
  8
Camada 1
 62
    18
420
        0
370
    35
100
AcDbLine
 10
339.3584274501009
 20
612.5339611896833
 30
0.0
 11
339.45371602468
 21
515.2239721794075
 31
0.0
  0
LINE
  5
9C
330
83
100
AcDbEntity
  8
Camada 1
 62
    18
420
        0
370
    35
100
AcDbLine
 10
348.2942932192582
 20
506.8598834933863
 30
0.0
 11
348.2952120910122
 21
506.6547732345425
 31
0.0
  0
LINE
  5
9D
330
83
100
AcDbEntity
  8
Camada 1
 62
    18
420
        0
370
    35
100
AcDbLine
 10
350.3334653547317
 20
382.4848278918434
 30
0.0
 11
350.2117578631442
 21
506.7611853518656
 31
0.0
  0
LINE
  5
9E
330
83
100
AcDbEntity
  8
Camada 1
 62
    18
420
        0
370
    35
100
AcDbLine
 10
311.342114522613
 20
484.554267986311
 30
0.0
 11
311.3434855762207
 21
484.8176572556394
 31
0.0
  0
LINE
  5
9F
330
83
100
AcDbEntity
  8
Camada 1
 62
    18
420
        0
370
    35
100
AcDbLine
 10
346.1444168934395
 20
352.5922337313968
 30
0.0
 11
345.0608718492458
 21
351.762078425967
 31
0.0
  0
LINE
  5
A0
330
83
100
AcDbEntity
  8
Camada 1
 62
    18
420
        0
370
    35
100
AcDbLine
 10
349.0512374691207
 20
504.668854684648
 30
0.0
 11
349.1741746227053
 21
380.8245661924793
 31
0.0
  0
LINE
  5
A1
330
83
100
AcDbEntity
  8
Camada 1
 62
    18
420
        0
370
    35
100
AcDbLine
 10
324.6112418907869
 20
486.0104230958596
 30
0.0
 11
324.705296632259
 21
389.5160403536174
 31
0.0
  0
LWPOLYLINE
  5
A2
330
83
100
AcDbEntity
  8
Camada 1
 62
    18
420
        0
370
    35
100
AcDbPolyline
 90
        3
 70
     0
 43
0.0
 10
311.3429039835464
 20
484.8171627245855
 10
311.9012992472471
 20
485.7909248872584
 10
313.2500545228631
 20
486.211895884724
  0
LINE
  5
A3
330
83
100
AcDbEntity
  8
Camada 1
 62
    18
420
        0
370
    35
100
AcDbLine
 10
311.3595860926362
 20
484.3758636770508
 30
0.0
 11
311.3424202131901
 21
484.8172630301414
 31
0.0
  0
LWPOLYLINE
  5
A4
330
83
100
AcDbEntity
  8
Camada 1
 62
    18
420
        0
370
    35
100
AcDbPolyline
 90
        3
 70
     0
 43
0.0
 10
307.2353695996808
 20
486.1040507109537
 10
308.5676065277221
 20
485.7429847577077
 10
309.1455574554384
 20
484.8116308507424
  0
LINE
  5
A5
330
83
100
AcDbEntity
  8
Camada 1
 62
    18
420
        0
370
    35
100
AcDbLine
 10
309.1920461331465
 20
483.4712451829736
 30
0.0
 11
309.1450819625461
 21
484.8113609354395
 31
0.0
  0
LINE
  5
A6
330
83
100
AcDbEntity
  8
Camada 1
 62
    18
420
        0
370
    35
100
AcDbLine
 10
321.4382512624033
 20
486.3542243436504
 30
0.0
 11
313.2498481175244
 21
486.2111874986131
 31
0.0
  0
LWPOLYLINE
  5
A7
330
83
100
AcDbEntity
  8
Camada 1
 62
    18
420
        0
370
    35
100
AcDbPolyline
 90
        3
 70
     0
 43
0.0
 10
323.205449657411
 20
486.9195268846515
 10
322.4025858668247
 20
486.5107239823073
 10
321.438727583045
 20
486.3544572368655
  0
LINE
  5
A8
330
83
100
AcDbEntity
  8
Camada 1
 62
    18
420
        0
370
    35
100
AcDbLine
 10
313.2500989946639
 20
486.2115635136969
 30
0.0
 11
313.2970269709258
 21
484.8714099113976
 31
0.0
  0
LWPOLYLINE
  5
A9
330
83
100
AcDbEntity
  8
Camada 1
 62
    18
420
        0
370
    35
100
AcDbPolyline
 90
        3
 70
     0
 43
0.0
 10
324.6112418907869
 20
486.0104230958596
 10
323.1914329371939
 20
485.2916868877109
 10
321.485050188483
 20
485.0132159223903
  0
LINE
  5
AA
330
83
100
AcDbEntity
  8
Camada 1
 62
    18
420
        0
370
    35
100
AcDbLine
 10
349.0512374691207
 20
504.668854684648
 30
0.0
 11
324.6108617369755
 21
486.0108590834297
 31
0.0
  0
LWPOLYLINE
  5
AB
330
83
100
AcDbEntity
  8
Camada 1
 62
    18
420
        0
370
    35
100
AcDbPolyline
 90
        3
 70
     0
 43
0.0
 10
350.2039145187045
 20
506.9396938088711
 10
349.954327959731
 20
505.7239973416463
 10
349.0518380999601
 20
504.6684977077275
  0
LINE
  5
AC
330
83
100
AcDbEntity
  8
Camada 1
 62
    18
420
        0
370
    35
100
AcDbLine
 10
349.7182516306529
 20
512.6729052088076
 30
0.0
 11
350.2032613650972
 21
506.9390865560653
 31
0.0
  0
LINE
  5
AD
330
83
100
AcDbEntity
  8
Camada 1
 62
    18
420
        0
370
    35
100
AcDbLine
 10
349.7182516306529
 20
512.6729052088076
 30
0.0
 11
347.8083827650498
 21
512.5925707898959
 31
0.0
  0
LINE
  5
AE
330
83
100
AcDbEntity
  8
Camada 1
 62
    18
420
        0
370
    35
100
AcDbLine
 10
347.8088903135504
 20
512.5930636654584
 30
0.0
 11
348.2938735601201
 21
506.860429719467
 31
0.0
  0
LWPOLYLINE
  5
AF
330
83
100
AcDbEntity
  8
Camada 1
 62
    18
420
        0
370
    35
100
AcDbPolyline
 90
        3
 70
     0
 43
0.0
 10
348.2942932192582
 20
506.8598834933863
 10
348.1542839733374
 20
506.1721689057567
 10
347.6456615740389
 20
505.5782225945185
  0
LINE
  5
B0
330
83
100
AcDbEntity
  8
Camada 1
 62
    18
420
        0
370
    35
100
AcDbLine
 10
347.6454082136588
 20
505.5779576456943
 30
0.0
 11
323.2050324815118
 21
486.9199620444751
 31
0.0
  0
LINE
  5
B1
330
83
100
AcDbEntity
  8
Camada 1
 62
    18
420
        0
370
    35
100
AcDbLine
 10
307.2353695996808
 20
486.1040507109537
 30
0.0
 11
178.4286849613718
 21
483.8370793911372
 31
0.0
  0
LINE
  5
B2
330
83
100
AcDbEntity
  8
Camada 1
 62
    18
420
        0
370
    35
100
AcDbLine
 10
307.2822321839958
 20
484.7668218534463
 30
0.0
 11
307.2353218168937
 21
486.1045311703255
 31
0.0
  0
LINE
  5
B3
330
83
100
AcDbEntity
  8
Camada 1
 62
    18
420
        0
370
    35
100
AcDbLine
 10
321.4850789331085
 20
485.0135869709957
 30
0.0
 11
321.5760111797536
 21
391.5365351892288
 31
0.0
  0
LINE
  5
B4
330
83
100
AcDbEntity
  8
Camada 1
 62
    18
420
        0
370
    35
100
AcDbLine
 10
321.4850789331085
 20
485.0135869709957
 30
0.0
 11
313.2966757882314
 21
484.8705501259591
 31
0.0
  0
LWPOLYLINE
  5
B5
330
83
100
AcDbEntity
  8
Camada 1
 62
    18
420
        0
370
    35
100
AcDbPolyline
 90
        3
 70
     0
 43
0.0
 10
313.296926665369
 20
484.8709261410412
 10
312.0641737420556
 20
484.5265558486107
 10
311.4150705384727
 20
483.7000392113522
  0
LINE
  5
B6
330
83
100
AcDbEntity
  8
Camada 1
 62
    18
420
        0
370
    35
100
AcDbLine
 10
309.2673027119381
 20
409.2452836028496
 30
0.0
 11
309.4966624370754
 21
409.2467446483405
 31
0.0
  0
LINE
  5
B7
330
83
100
AcDbEntity
  8
Camada 1
 62
    18
420
        0
370
    35
100
AcDbLine
 10
309.1927977266641
 20
483.4376291289336
 30
0.0
 11
309.2676334274729
 21
409.2454021188205
 31
0.0
  0
LWPOLYLINE
  5
B8
330
83
100
AcDbEntity
  8
Camada 1
 62
    18
420
        0
370
    35
100
AcDbPolyline
 90
        3
 70
     0
 43
0.0
 10
309.1927977266641
 20
483.4376291289336
 10
308.632627926243
 20
484.3887898600496
 10
307.2817600020862
 20
484.7664038498005
  0
LINE
  5
B9
330
83
100
AcDbEntity
  8
Camada 1
 62
    18
420
        0
370
    35
100
AcDbLine
 10
307.2822321839958
 20
484.7668218534463
 30
0.0
 11
180.4507631231345
 21
482.5343081079172
 31
0.0
  0
LWPOLYLINE
  5
BA
330
83
100
AcDbEntity
  8
Camada 1
 62
    18
420
        0
370
    35
100
AcDbPolyline
 90
        3
 70
     0
 43
0.0
 10
345.186281592476
 20
226.8860795028886
 10
345.0726664541599
 20
226.2123266932686
 10
344.7405087365296
 20
225.7060375495494
  0
LINE
  5
BB
330
83
100
AcDbEntity
  8
Camada 1
 62
    18
420
        0
370
    35
100
AcDbLine
 10
343.6018423559872
 20
224.6292559042522
 30
0.0
 11
344.740487215131
 21
225.7070001237844
 31
0.0
  0
LINE
  5
BC
330
83
100
AcDbEntity
  8
Camada 1
 62
    18
420
        0
370
    35
100
AcDbLine
 10
489.503083767453
 20
489.6297264190643
 30
0.0
 11
489.4771902123102
 21
516.1385441716165
 31
0.0
  0
LINE
  5
BD
330
83
100
AcDbEntity
  8
Camada 1
 62
    18
420
        0
370
    35
100
AcDbLine
 10
335.7072733551758
 20
496.4623414690004
 30
0.0
 11
335.6916671018225
 21
513.2832740077201
 31
0.0
  0
LINE
  5
BE
330
83
100
AcDbEntity
  8
Camada 1
 62
    18
420
        0
370
    35
100
AcDbLine
 10
311.2595511441359
 20
485.5333680402181
 30
0.0
 11
311.2516061315418
 21
494.6277671637217
 31
0.0
  0
LINE
  5
BF
330
83
100
AcDbEntity
  8
Camada 1
 62
    18
420
        0
370
    35
100
AcDbLine
 10
308.6859944405369
 20
493.444667078731
 30
0.0
 11
308.6916010623318
 21
485.6476735590049
 31
0.0
  0
LINE
  5
C0
330
83
100
AcDbEntity
  8
Camada 1
 62
    18
420
        0
370
    35
100
AcDbLine
 10
337.4737270450041
 20
497.8097765181164
 30
0.0
 11
337.4586220694073
 21
513.8478673348654
 31
0.0
  0
LINE
  5
C1
330
83
100
AcDbEntity
  8
Camada 1
 62
    18
420
        0
370
    35
100
AcDbLine
 10
488.323116462714
 20
488.7269270399793
 30
0.0
 11
488.2955986352207
 21
516.5028671577529
 31
0.0
  0
LINE
  5
C2
330
83
100
AcDbEntity
  8
Camada 1
 62
    18
420
        0
370
    35
100
AcDbLine
 10
308.7020792186231
 20
485.6412405247156
 30
0.0
 11
308.6930853800477
 21
493.2633637548642
 31
0.0
  0
LINE
  5
C3
330
83
100
AcDbEntity
  8
Camada 1
 62
    18
420
        0
370
    35
100
AcDbLine
 10
309.3642501319773
 20
411.9981596752622
 30
0.0
 11
309.3654639157376
 21
410.5853845212277
 31
0.0
  0
LINE
  5
C4
330
83
100
AcDbEntity
  8
Camada 1
 62
    18
420
        0
370
    35
100
AcDbLine
 10
309.4930096507123
 20
410.4571495526543
 30
0.0
 11
309.3638807388634
 21
411.998114375714
 31
0.0
  0
LINE
  5
C5
330
83
100
AcDbEntity
  8
Camada 1
 62
    18
420
        0
370
    35
100
AcDbLine
 10
309.5060698189409
 20
399.3198908967097
 30
0.0
 11
309.4924963079866
 21
410.4569158316917
 31
0.0
  0
LINE
  5
C6
330
83
100
AcDbEntity
  8
Camada 1
 62
    18
420
        0
370
    35
100
AcDbLine
 10
345.0409057546931
 20
371.1884969491912
 30
0.0
 11
345.186731651731
 21
226.8858302812405
 31
0.0
  0
LINE
  5
C7
330
83
100
AcDbEntity
  8
Camada 1
 62
    18
420
        0
370
    35
100
AcDbLine
 10
344.0473651625398
 20
225.8088848204206
 30
0.0
 11
345.1860100216818
 21
226.8866290399528
 31
0.0
  0
LINE
  5
C8
330
83
100
AcDbEntity
  8
Camada 1
 62
    18
420
        0
370
    35
100
AcDbLine
 10
489.4768694297272
 20
516.1379813906123
 30
0.0
 11
506.4963907504206
 21
502.6028746147495
 31
0.0
  0
LINE
  5
C9
330
83
100
AcDbEntity
  8
Camada 1
 62
    18
420
        0
370
    35
100
AcDbLine
 10
490.9097398047051
 20
517.0263221781306
 30
0.0
 11
507.7946036988359
 21
503.5962521176706
 31
0.0
  0
LWPOLYLINE
  5
CA
330
83
100
AcDbEntity
  8
Camada 1
 62
    18
420
        0
370
    35
100
AcDbPolyline
 90
        3
 70
     0
 43
0.0
 10
488.2486648647354
 20
517.8432799146531
 10
489.7096722886162
 20
517.6404783212555
 10
490.9092190122646
 20
517.0264216559417
  0
LINE
  5
CB
330
83
100
AcDbEntity
  8
Camada 1
 62
    18
420
        0
370
    35
100
AcDbLine
 10
488.2486648647354
 20
517.8432799146531
 30
0.0
 11
337.4126268685159
 21
515.1893752536579
 31
0.0
  0
LWPOLYLINE
  5
CC
330
83
100
AcDbEntity
  8
Camada 1
 62
    18
420
        0
370
    35
100
AcDbPolyline
 90
        3
 70
     0
 43
0.0
 10
337.4121563420995
 20
515.1888832058403
 10
335.7021189410898
 20
514.9115158281474
 10
334.2859646397938
 20
514.191676032372
  0
LINE
  5
CD
330
83
100
AcDbEntity
  8
Camada 1
 62
    18
420
        0
370
    35
100
AcDbLine
 10
334.2859933844193
 20
514.1920470809773
 30
0.0
 11
309.8456176522704
 21
495.5340514797572
 31
0.0
  0
LWPOLYLINE
  5
CE
330
83
100
AcDbEntity
  8
Camada 1
 62
    18
420
        0
370
    35
100
AcDbPolyline
 90
        3
 70
     0
 43
0.0
 10
309.8461113555804
 20
495.5335069091679
 10
308.93873540821
 20
494.4778609906689
 10
308.6940349368342
 20
493.2623108080251
  0
LINE
  5
CF
330
83
100
AcDbEntity
  8
Camada 1
 62
    18
420
        0
370
    35
100
AcDbLine
 10
308.6934688448455
 20
493.2627796789493
 30
0.0
 11
317.047807943356
 21
394.455212376497
 31
0.0
  0
LINE
  5
D0
330
83
100
AcDbEntity
  8
Camada 1
 62
    18
420
        0
370
    35
100
AcDbLine
 10
310.599575529368
 20
493.342400292292
 30
0.0
 11
319.0721983299991
 21
393.152566871584
 31
0.0
  0
LWPOLYLINE
  5
D1
330
83
100
AcDbEntity
  8
Camada 1
 62
    18
420
        0
370
    35
100
AcDbPolyline
 90
        3
 70
     0
 43
0.0
 10
311.2517509089012
 20
494.62791856305
 10
310.7395452699602
 20
494.030225118433
 10
310.5995730461291
 20
493.3425113585498
  0
LINE
  5
D2
330
83
100
AcDbEntity
  8
Camada 1
 62
    18
420
        0
370
    35
100
AcDbLine
 10
335.6918251231218
 20
513.2828330536731
 30
0.0
 11
311.2513947597272
 21
494.6272809101274
 31
0.0
  0
LWPOLYLINE
  5
D3
330
83
100
AcDbEntity
  8
Camada 1
 62
    18
420
        0
370
    35
100
AcDbPolyline
 90
        3
 70
     0
 43
0.0
 10
337.4590210348888
 20
513.848246660932
 10
336.4914983923445
 20
513.6918609465356
 10
335.6922989605227
 20
513.283177013147
  0
LINE
  5
D4
330
83
100
AcDbEntity
  8
Camada 1
 62
    18
420
        0
370
    35
100
AcDbLine
 10
488.2954900522017
 20
516.5027536082561
 30
0.0
 11
337.459479371606
 21
513.8476272184252
 31
0.0
  0
LWPOLYLINE
  5
D5
330
83
100
AcDbEntity
  8
Camada 1
 62
    18
420
        0
370
    35
100
AcDbPolyline
 90
        3
 70
     0
 43
0.0
 10
488.2954900522017
 20
516.5027536082561
 10
488.9444141997009
 20
516.412844934749
 10
489.477306245044
 20
516.1383245223414
  0
LWPOLYLINE
  5
D6
330
83
100
AcDbEntity
  8
Camada 1
 62
    18
420
        0
370
    35
100
AcDbPolyline
 90
        3
 70
     0
 43
0.0
 10
342.613736542462
 20
375.1153157600893
 10
344.3581748906618
 20
373.2559878297816
 10
345.0403882732389
 20
371.1884483386602
  0
LINE
  5
D7
330
83
100
AcDbEntity
  8
Camada 1
 62
    18
420
        0
370
    35
100
AcDbLine
 10
345.0409057546931
 20
371.1884969491912
 30
0.0
 11
343.9021435820869
 21
370.1143430442462
 31
0.0
  0
LINE
  5
D8
330
83
100
AcDbEntity
  8
Camada 1
 62
    18
420
        0
370
    35
100
AcDbLine
 10
343.9020242383703
 20
370.1147107818706
 30
0.0
 11
344.0479320822742
 21
225.8083789274133
 31
0.0
  0
LWPOLYLINE
  5
D9
330
83
100
AcDbEntity
  8
Camada 1
 62
    18
420
        0
370
    35
100
AcDbPolyline
 90
        3
 70
     0
 43
0.0
 10
343.9020242383703
 20
370.1147107818706
 10
343.5594949573824
 20
371.5368193368304
 10
342.6177164622968
 20
372.9989793502573
  0
LWPOLYLINE
  5
DA
330
83
100
AcDbEntity
  8
Camada 1
 62
    18
420
        0
370
    35
100
AcDbPolyline
 90
        3
 70
     0
 43
0.0
 10
342.7639069670076
 20
224.2632656428468
 10
343.7071583265606
 20
224.7431398018707
 10
344.0474704345761
 20
225.8091464582612
  0
LINE
  5
DB
330
83
100
AcDbEntity
  8
Camada 1
 62
    18
420
        0
370
    35
100
AcDbLine
 10
346.155027679375
 20
342.9213573821926
 30
0.0
 11
345.0712664385301
 21
343.6217145390583
 31
0.0
  0
LINE
  5
DC
330
83
100
AcDbEntity
  8
Camada 1
 62
    18
420
        0
370
    35
100
AcDbLine
 10
345.0788477007918
 20
335.8722512087006
 30
0.0
 11
346.1625727472929
 21
335.1718562020033
 31
0.0
  0
LINE
  5
DD
330
83
100
AcDbEntity
  8
Camada 1
 62
    18
420
        0
370
    35
100
AcDbLine
 10
346.1549158522503
 20
344.2831893182156
 30
0.0
 11
345.0674894248987
 21
344.9834645282135
 31
0.0
  0
LWPOLYLINE
  5
DE
330
83
100
AcDbEntity
  8
Camada 1
 62
    18
420
        0
370
    35
100
AcDbPolyline
 90
        3
 70
     0
 43
0.0
 10
346.2340405448904
 20
265.0582787720669
 10
345.7007420457194
 20
264.9152685344416
 10
345.1470953764038
 20
264.8142518683235
  0
LINE
  5
DF
330
83
100
AcDbEntity
  8
Camada 1
 62
    18
420
        0
370
    35
100
AcDbLine
 10
346.2275204758916
 20
270.0234244651474
 30
0.0
 11
345.1437592350485
 21
270.7237816220149
 31
0.0
  0
LINE
  5
E0
330
83
100
AcDbEntity
  8
Camada 1
 62
    18
420
        0
370
    35
100
AcDbLine
 10
346.2274061655298
 20
271.3853674674283
 30
0.0
 11
345.1399797381782
 21
272.0856426774262
 31
0.0
  0
LINE
  5
E1
330
83
100
AcDbEntity
  8
Camada 1
 62
    18
420
        0
370
    35
100
AcDbLine
 10
138.1476787422889
 20
354.1376238895718
 30
0.0
 11
138.0129087239638
 21
488.7693871191886
 31
0.0
  0
LWPOLYLINE
  5
E2
330
83
100
AcDbEntity
  8
Camada 1
 62
    18
420
        0
370
    35
100
AcDbPolyline
 90
        3
 70
     0
 43
0.0
 10
138.4044951036476
 20
352.7544917649066
 10
138.2135955095809
 20
353.474811676042
 10
138.1478165970511
 20
354.1372565658257
  0
LWPOLYLINE
  5
E3
330
83
100
AcDbEntity
  8
Camada 1
 62
    18
420
        0
370
    35
100
AcDbPolyline
 90
        3
 70
     0
 43
0.0
 10
302.7595032371446
 20
640.1594437121048
 10
306.2381092533542
 20
641.9497537529869
 10
308.9798987421273
 20
641.6263515567443
  0
LINE
  5
E4
330
83
100
AcDbEntity
  8
Camada 1
 62
    18
420
        0
370
    35
100
AcDbLine
 10
310.3888274668716
 20
640.7210960346356
 30
0.0
 11
308.9800418639934
 21
641.6265770002446
 31
0.0
  0
LWPOLYLINE
  5
E5
330
83
100
AcDbEntity
  8
Camada 1
 62
    18
420
        0
370
    35
100
AcDbPolyline
 90
        3
 70
     0
 43
0.0
 10
531.6602619615332
 20
524.5949573557709
 10
531.2681231733986
 20
523.1333096358302
 10
530.1468922467611
 20
521.8714555670703
  0
LINE
  5
E6
330
83
100
AcDbEntity
  8
Camada 1
 62
    18
420
        0
370
    35
100
AcDbLine
 10
531.6602619615332
 20
524.5949573557709
 30
0.0
 11
531.6564857756457
 21
525.9566703228393
 31
0.0
  0
LINE
  5
E7
330
83
100
AcDbEntity
  8
Camada 1
 62
    18
420
        0
370
    35
100
AcDbLine
 10
315.4577622982324
 20
625.837210679716
 30
0.0
 11
315.4401022232014
 21
642.1519375976104
 31
0.0
  0
LINE
  5
E8
330
83
100
AcDbEntity
  8
Camada 1
 62
    18
420
        0
370
    35
100
AcDbLine
 10
335.1758423918291
 20
654.4117346275416
 30
0.0
 11
529.8033464773434
 21
528.9154514543488
 31
0.0
  0
LWPOLYLINE
  5
E9
330
83
100
AcDbEntity
  8
Camada 1
 62
    18
420
        0
370
    35
100
AcDbPolyline
 90
        3
 70
     0
 43
0.0
 10
335.1758423918291
 20
654.4117346275416
 10
331.0570767251848
 20
655.4653861740098
 10
327.0770636671004
 20
654.1699141675945
  0
LINE
  5
EA
330
83
100
AcDbEntity
  8
Camada 1
 62
    18
420
        0
370
    35
100
AcDbLine
 10
318.4106043710017
 20
647.5546426433175
 30
0.0
 11
327.0780920080451
 21
654.1703075653458
 31
0.0
  0
LWPOLYLINE
  5
EB
330
83
100
AcDbEntity
  8
Camada 1
 62
    18
420
        0
370
    35
100
AcDbPolyline
 90
        3
 70
     0
 43
0.0
 10
530.1433061377829
 20
523.2329505403531
 10
531.6529503935562
 20
526.1214219162866
 10
529.8038294199541
 20
528.9153881708771
  0
LINE
  5
EC
330
83
100
AcDbEntity
  8
Camada 1
 62
    18
420
        0
370
    35
100
AcDbLine
 10
346.2775642182259
 20
220.7417382563253
 30
0.0
 11
344.451695594471
 21
219.3463406915143
 31
0.0
  0
LINE
  5
ED
330
83
100
AcDbEntity
  8
Camada 1
 62
    18
420
        0
370
    35
100
AcDbLine
 10
344.4513756396373
 20
219.3457408884242
 30
0.0
 11
342.7653947586732
 21
220.4343757849165
 31
0.0
  0
LWPOLYLINE
  5
EE
330
83
100
AcDbEntity
  8
Camada 1
 62
    18
420
        0
370
    35
100
AcDbPolyline
 90
        3
 70
     0
 43
0.0
 10
519.6476247123537
 20
349.3386524528469
 10
520.0693087278123
 20
349.9112457100982
 10
520.2157092588277
 20
350.7471544447508
  0
LINE
  5
EF
330
83
100
AcDbEntity
  8
Camada 1
 62
    18
420
        0
370
    35
100
AcDbLine
 10
347.1157564096393
 20
217.6254740454969
 30
0.0
 11
519.6470249092635
 21
349.3389724076806
 31
0.0
  0
LWPOLYLINE
  5
F0
330
83
100
AcDbEntity
  8
Camada 1
 62
    18
420
        0
370
    35
100
AcDbPolyline
 90
        3
 70
     0
 43
0.0
 10
139.0016573800221
 20
348.3620499067019
 10
138.5609004672615
 20
348.9117305832442
 10
138.4067494410192
 20
349.7809604153445
  0
LINE
  5
F1
330
83
100
AcDbEntity
  8
Camada 1
 62
    18
420
        0
370
    35
100
AcDbLine
 10
139.0016573800221
 20
348.3620499067019
 30
0.0
 11
342.0674185635871
 21
217.4250755187604
 31
0.0
  0
LINE
  5
F2
330
83
100
AcDbEntity
  8
Camada 1
 62
    18
420
        0
370
    35
100
AcDbLine
 10
318.4106043710017
 20
647.5546426433175
 30
0.0
 11
521.4799937189891
 21
516.6177493744998
 31
0.0
  0
LWPOLYLINE
  5
F3
330
83
100
AcDbEntity
  8
Camada 1
 62
    18
420
        0
370
    35
100
AcDbPolyline
 90
        3
 70
     0
 43
0.0
 10
315.4401342788097
 20
642.1521605578718
 10
316.3091412844114
 20
645.029938434076
 10
318.410762392301
 20
647.5542016892713
  0
LINE
  5
F4
330
83
100
AcDbEntity
  8
Camada 1
 62
    18
420
        0
370
    35
100
AcDbLine
 10
518.5058634067645
 20
511.2149632096698
 30
0.0
 11
315.4401038786927
 21
642.1518635534384
 31
0.0
  0
LINE
  5
F5
330
83
100
AcDbEntity
  8
Camada 1
 62
    18
420
        0
370
    35
100
AcDbLine
 10
521.4797764860704
 20
515.2557248783304
 30
0.0
 11
530.1472632953664
 21
521.8714268224458
 31
0.0
  0
LINE
  5
F6
330
83
100
AcDbEntity
  8
Camada 1
 62
    18
420
        0
370
    35
100
AcDbLine
 10
530.1467894579655
 20
521.8710828629728
 30
0.0
 11
530.143013272078
 21
523.2327958300402
 31
0.0
  0
LINE
  5
F7
330
83
100
AcDbEntity
  8
Camada 1
 62
    18
420
        0
370
    35
100
AcDbLine
 10
521.4795140873684
 20
516.6176645696277
 30
0.0
 11
530.14337273224
 21
523.233285394619
 31
0.0
  0
LWPOLYLINE
  5
F8
330
83
100
AcDbEntity
  8
Camada 1
 62
    18
420
        0
370
    35
100
AcDbPolyline
 90
        3
 70
     0
 43
0.0
 10
518.5058634067645
 20
511.2149632096698
 10
519.3748704123682
 20
514.0927410858739
 10
521.4788979558433
 20
516.6170581445685
  0
LINE
  5
F9
330
83
100
AcDbEntity
  8
Camada 1
 62
    18
420
        0
370
    35
100
AcDbLine
 10
518.5131695474956
 20
506.5194906075739
 30
0.0
 11
518.5064853325129
 21
511.2153104801282
 31
0.0
  0
LINE
  5
FA
330
83
100
AcDbEntity
  8
Camada 1
 62
    18
420
        0
370
    35
100
AcDbLine
 10
519.8080966207635
 20
504.69104228195
 30
0.0
 11
519.8015984368794
 21
512.2015439229699
 31
0.0
  0
LWPOLYLINE
  5
FB
330
83
100
AcDbEntity
  8
Camada 1
 62
    18
420
        0
370
    35
100
AcDbPolyline
 90
        3
 70
     0
 43
0.0
 10
519.8019736242131
 20
512.2013300679164
 10
520.2910878548719
 20
513.8301618225732
 10
521.480247012485
 20
515.2562169261482
  0
LWPOLYLINE
  5
FC
330
83
100
AcDbEntity
  8
Camada 1
 62
    18
420
        0
370
    35
100
AcDbPolyline
 90
        3
 70
     0
 43
0.0
 10
510.8906573815838
 20
505.9579905903383
 10
514.3704842988845
 20
507.7483649689302
 10
517.1110528865646
 20
507.4248984349769
  0
LINE
  5
FD
330
83
100
AcDbEntity
  8
Camada 1
 62
    18
420
        0
370
    35
100
AcDbLine
 10
518.5165385573164
 20
506.5195659324754
 30
0.0
 11
517.1101593900239
 21
507.4251007015837
 31
0.0
  0
LINE
  5
FE
330
83
100
AcDbEntity
  8
Camada 1
 62
    18
420
        0
370
    35
100
AcDbLine
 10
302.7595032371446
 20
640.1594437121048
 30
0.0
 11
145.7493217143164
 21
520.2944059235979
 31
0.0
  0
LINE
  5
FF
330
83
100
AcDbEntity
  8
Camada 1
 62
    18
420
        0
370
    35
100
AcDbLine
 10
304.1685496501177
 20
639.2538944965481
 30
0.0
 11
302.7597640472377
 21
640.1593754621562
 31
0.0
  0
LWPOLYLINE
  5
100
330
83
100
AcDbEntity
  8
Camada 1
 62
    18
420
        0
370
    35
100
AcDbPolyline
 90
        3
 70
     0
 43
0.0
 10
138.4909250937417
 20
509.456985547089
 10
141.3325794222619
 20
515.4702760896697
 10
145.748319107638
 20
520.2953465625587
  0
LINE
  5
101
330
83
100
AcDbEntity
  8
Camada 1
 62
    18
420
        0
370
    35
100
AcDbLine
 10
145.7489567605607
 20
520.2949904133848
 30
0.0
 11
147.1541599515485
 21
519.3857252923107
 31
0.0
  0
LINE
  5
102
330
83
100
AcDbEntity
  8
Camada 1
 62
    18
420
        0
370
    35
100
AcDbLine
 10
312.0732845091552
 20
497.235090626611
 30
0.0
 11
311.9351861422401
 21
637.0106436084106
 31
0.0
  0
LWPOLYLINE
  5
103
330
83
100
AcDbEntity
  8
Camada 1
 62
    18
420
        0
370
    35
100
AcDbPolyline
 90
        4
 70
     0
 43
0.0
 10
311.9347081661071
 20
637.0104847593674
 10
310.8901273220527
 20
640.3006331140877
 10
308.0474111895092
 20
641.1206414794105
 10
304.1687463489943
 20
639.2533803260757
  0
LINE
  5
104
330
83
100
AcDbEntity
  8
Camada 1
 62
    18
420
        0
370
    35
100
AcDbLine
 10
304.1685496501177
 20
639.2538944965481
 30
0.0
 11
147.1547752553242
 21
519.3863687394569
 31
0.0
  0
LWPOLYLINE
  5
105
330
83
100
AcDbEntity
  8
Camada 1
 62
    18
420
        0
370
    35
100
AcDbPolyline
 90
        3
 70
     0
 43
0.0
 10
147.1546370999349
 20
519.3859211634408
 10
142.7776981916186
 20
514.6163160388414
 10
139.9274757830726
 20
508.6598764426244
  0
LWPOLYLINE
  5
106
330
83
100
AcDbEntity
  8
Camada 1
 62
    18
420
        0
370
    35
100
AcDbPolyline
 90
        3
 70
     0
 43
0.0
 10
128.2413559586812
 20
495.0699462794564
 10
126.8725992380068
 20
496.4108454122778
 10
126.3886461783313
 20
498.0252551984758
  0
LINE
  5
107
330
83
100
AcDbEntity
  8
Camada 1
 62
    18
420
        0
370
    35
100
AcDbLine
 10
126.3886606175256
 20
499.3872381199544
 30
0.0
 11
126.3887539336056
 21
498.0254057700567
 31
0.0
  0
LINE
  5
108
330
83
100
AcDbEntity
  8
Camada 1
 62
    18
420
        0
370
    35
100
AcDbLine
 10
346.2787221952331
 20
219.9394649057103
 30
0.0
 11
346.1280574500779
 21
372.001471976484
 31
0.0
  0
LWPOLYLINE
  5
109
330
83
100
AcDbEntity
  8
Camada 1
 62
    18
420
        0
370
    35
100
AcDbPolyline
 90
        3
 70
     0
 43
0.0
 10
344.4513756396373
 20
219.3457408884242
 10
345.7425338331705
 20
219.0310943674122
 10
346.2781439135433
 20
219.938822286309
  0
LWPOLYLINE
  5
10A
330
83
100
AcDbEntity
  8
Camada 1
 62
    18
420
        0
370
    35
100
AcDbPolyline
 90
        3
 70
     0
 43
0.0
 10
344.4513742920226
 20
217.9873141565622
 10
346.7396549926307
 20
217.4279358382992
 10
347.6845094621331
 20
219.0305832494341
  0
LINE
  5
10B
330
83
100
AcDbEntity
  8
Camada 1
 62
    18
420
        0
370
    35
100
AcDbLine
 10
353.8800570273634
 20
386.0934620058251
 30
0.0
 11
510.890239377939
 21
505.9584627722479
 31
0.0
  0
LINE
  5
10C
330
83
100
AcDbEntity
  8
Camada 1
 62
    18
420
        0
370
    35
100
AcDbLine
 10
512.2962623960557
 20
505.0522903502151
 30
0.0
 11
510.8911049576017
 21
505.9578524349481
 31
0.0
  0
LINE
  5
10D
330
83
100
AcDbEntity
  8
Camada 1
 62
    18
420
        0
370
    35
100
AcDbLine
 10
138.4068682576198
 20
349.7814445995755
 30
0.0
 11
138.2694495080232
 21
488.6029952672451
 31
0.0
  0
LINE
  5
10E
330
83
100
AcDbEntity
  8
Camada 1
 62
    18
420
        0
370
    35
100
AcDbLine
 10
138.4068682576198
 20
349.7814445995755
 30
0.0
 11
341.4762576056073
 21
218.8445513307561
 31
0.0
  0
LINE
  5
10F
330
83
100
AcDbEntity
  8
Camada 1
 62
    18
420
        0
370
    35
100
AcDbLine
 10
353.8800570273634
 20
386.0934620058251
 30
0.0
 11
355.285260218352
 21
385.1841968847511
 31
0.0
  0
LWPOLYLINE
  5
110
330
83
100
AcDbEntity
  8
Camada 1
 62
    18
420
        0
370
    35
100
AcDbPolyline
 90
        4
 70
     0
 43
0.0
 10
346.128461382039
 20
372.0016291700376
 10
347.1615333503651
 20
376.8784890156603
 10
349.99928170559
 20
382.0360174926718
 10
353.8799575495505
 20
386.092941213381
  0
LINE
  5
111
330
83
100
AcDbEntity
  8
Camada 1
 62
    18
420
        0
370
    35
100
AcDbLine
 10
347.5342881542638
 20
371.0926372752492
 30
0.0
 11
346.1290487689366
 21
372.0018645464916
 31
0.0
  0
LINE
  5
112
330
83
100
AcDbEntity
  8
Camada 1
 62
    18
420
        0
370
    35
100
AcDbLine
 10
355.2857727333321
 20
385.1844676277997
 30
0.0
 11
512.2959004526601
 21
505.0519118518941
 31
0.0
  0
LWPOLYLINE
  5
113
330
83
100
AcDbEntity
  8
Camada 1
 62
    18
420
        0
370
    35
100
AcDbPolyline
 90
        4
 70
     0
 43
0.0
 10
355.2857727333321
 20
385.1844676277997
 10
351.405043085866
 20
381.1299503426744
 10
348.5673493618888
 20
375.9699784079912
 10
347.5342403714767
 20
371.0931177346211
  0
LINE
  5
114
330
83
100
AcDbEntity
  8
Camada 1
 62
    18
420
        0
370
    35
100
AcDbLine
 10
347.6844379012
 20
219.030470527683
 30
0.0
 11
347.5337731560448
 21
371.0924775984586
 31
0.0
  0
LINE
  5
115
330
83
100
AcDbEntity
  8
Camada 1
 62
    18
420
        0
370
    35
100
AcDbLine
 10
347.6844379012
 20
219.030470527683
 30
0.0
 11
520.2156525973223
 21
350.7463753254524
 31
0.0
  0
LINE
  5
116
330
83
100
AcDbEntity
  8
Camada 1
 62
    18
420
        0
370
    35
100
AcDbLine
 10
520.2161222959948
 20
350.746904395357
 30
0.0
 11
520.0654575508378
 21
502.8089114661343
 31
0.0
  0
LWPOLYLINE
  5
117
330
83
100
AcDbEntity
  8
Camada 1
 62
    18
420
        0
370
    35
100
AcDbPolyline
 90
        4
 70
     0
 43
0.0
 10
520.0658244607147
 20
502.8090678319395
 10
519.021243616662
 20
506.0992161866615
 10
516.178526656371
 20
506.9192615740694
 10
512.2962336514319
 20
505.0519193016088
  0
LINE
  5
118
330
83
100
AcDbEntity
  8
Camada 1
 62
    18
420
        0
370
    35
100
AcDbLine
 10
340.1102224308561
 20
376.7246127337858
 30
0.0
 11
341.3170857558398
 21
375.945666772619
 31
0.0
  0
LWPOLYLINE
  5
119
330
83
100
AcDbEntity
  8
Camada 1
 62
    18
420
        0
370
    35
100
AcDbPolyline
 90
        3
 70
     0
 43
0.0
 10
138.9530458353147
 20
509.2920416368042
 10
137.9016491556949
 20
509.4129556004791
 10
136.5684524539547
 20
508.7301591481791
  0
LINE
  5
11A
330
83
100
AcDbEntity
  8
Camada 1
 62
    18
420
        0
370
    35
100
AcDbLine
 10
342.018808674371
 20
378.3549932046917
 30
0.0
 11
138.9530483185535
 21
509.2919305705463
 31
0.0
  0
LINE
  5
11B
330
83
100
AcDbEntity
  8
Camada 1
 62
    18
420
        0
370
    35
100
AcDbLine
 10
339.6348191679535
 20
376.4308082536227
 30
0.0
 11
330.9709243287398
 21
369.8151495787988
 31
0.0
  0
LWPOLYLINE
  5
11C
330
83
100
AcDbEntity
  8
Camada 1
 62
    18
420
        0
370
    35
100
AcDbPolyline
 90
        3
 70
     0
 43
0.0
 10
341.3175990985656
 20
375.9459004935816
 10
340.8258788807288
 20
376.820917509056
 10
339.6342038641778
 20
376.4301648064775
  0
LINE
  5
11D
330
83
100
AcDbEntity
  8
Camada 1
 62
    18
420
        0
370
    35
100
AcDbLine
 10
341.4760404395693
 20
218.8443242317626
 30
0.0
 11
341.3170865835855
 21
375.9456297505331
 31
0.0
  0
LWPOLYLINE
  5
11E
330
83
100
AcDbEntity
  8
Camada 1
 62
    18
420
        0
370
    35
100
AcDbPolyline
 90
        3
 70
     0
 43
0.0
 10
344.4513742920226
 20
217.9873141565622
 10
342.3500124197435
 20
217.2970105299864
 10
341.4755196471269
 20
218.8444237095755
  0
LINE
  5
11F
330
83
100
AcDbEntity
  8
Camada 1
 62
    18
420
        0
370
    35
100
AcDbLine
 10
344.4513742920226
 20
217.9873141565622
 30
0.0
 11
344.4513444117729
 21
219.3454809060786
 31
0.0
  0
LWPOLYLINE
  5
120
330
83
100
AcDbEntity
  8
Camada 1
 62
    18
420
        0
370
    35
100
AcDbPolyline
 90
        3
 70
     0
 43
0.0
 10
344.4513756396373
 20
219.3457408884242
 10
343.263248496125
 20
218.9586604473043
 10
342.767899286122
 20
219.8336333657426
  0
LINE
  5
121
330
83
100
AcDbEntity
  8
Camada 1
 62
    18
420
        0
370
    35
100
AcDbLine
 10
342.7685195563754
 20
219.8340546803702
 30
0.0
 11
342.613312006024
 21
376.9318139815878
 31
0.0
  0
LWPOLYLINE
  5
122
330
83
100
AcDbEntity
  8
Camada 1
 62
    18
420
        0
370
    35
100
AcDbPolyline
 90
        3
 70
     0
 43
0.0
 10
342.6135603999246
 20
376.9323010629305
 10
341.7402531618045
 20
378.4797037083117
 10
339.6351811782315
 20
377.7929841491205
  0
LINE
  5
123
330
83
100
AcDbEntity
  8
Camada 1
 62
    18
420
        0
370
    35
100
AcDbLine
 10
322.8727650465171
 20
369.5737874555707
 30
0.0
 11
128.2415966022399
 21
495.069951659806
 31
0.0
  0
LINE
  5
124
330
83
100
AcDbEntity
  8
Camada 1
 62
    18
420
        0
370
    35
100
AcDbLine
 10
128.2412416483203
 20
496.4318892817382
 30
0.0
 11
128.2413349644002
 21
495.0700569318423
 31
0.0
  0
LINE
  5
125
330
83
100
AcDbEntity
  8
Camada 1
 62
    18
420
        0
370
    35
100
AcDbLine
 10
322.8727650465171
 20
369.5737874555707
 30
0.0
 11
322.8689888606314
 21
370.9355004226381
 31
0.0
  0
LWPOLYLINE
  5
126
330
83
100
AcDbEntity
  8
Camada 1
 62
    18
420
        0
370
    35
100
AcDbPolyline
 90
        3
 70
     0
 43
0.0
 10
330.9710271175354
 20
369.8155222828973
 10
326.9921987662019
 20
368.5200767643582
 10
322.8722475650593
 20
369.5737388450361
  0
LINE
  5
127
330
83
100
AcDbEntity
  8
Camada 1
 62
    18
420
        0
370
    35
100
AcDbLine
 10
330.9676573468496
 20
371.1772813772586
 30
0.0
 11
330.971397338395
 21
369.8155305603614
 31
0.0
  0
LINE
  5
128
330
83
100
AcDbEntity
  8
Camada 1
 62
    18
420
        0
370
    35
100
AcDbLine
 10
322.8692471874874
 20
370.9355432389475
 30
0.0
 11
128.2417254186766
 21
496.4317889761805
 31
0.0
  0
LWPOLYLINE
  5
129
330
83
100
AcDbEntity
  8
Camada 1
 62
    18
420
        0
370
    35
100
AcDbPolyline
 90
        3
 70
     0
 43
0.0
 10
322.8692471874874
 20
370.9355432389475
 10
326.9880586066629
 20
369.8781886561373
 10
330.9679905456233
 20
371.1772888269752
  0
LINE
  5
12A
330
83
100
AcDbEntity
  8
Camada 1
 62
    18
420
        0
370
    35
100
AcDbLine
 10
339.6347073408287
 20
377.7926401896475
 30
0.0
 11
330.9671843371944
 21
371.1769003956979
 31
0.0
  0
LINE
  5
12B
330
83
100
AcDbEntity
  8
Camada 1
 62
    18
420
        0
370
    35
100
AcDbLine
 10
339.6347073408287
 20
377.7926401896475
 30
0.0
 11
136.5689469850112
 21
508.729577555503
 31
0.0
  0
LINE
  5
12C
330
83
100
AcDbEntity
  8
Camada 1
 62
    18
420
        0
370
    35
100
AcDbLine
 10
136.5689630128154
 20
508.7296890356347
 30
0.0
 11
127.9014400091782
 21
502.1139492416868
 31
0.0
  0
LWPOLYLINE
  5
12D
330
83
100
AcDbEntity
  8
Camada 1
 62
    18
420
        0
370
    35
100
AcDbPolyline
 90
        3
 70
     0
 43
0.0
 10
127.9019121910887
 20
502.1143672453327
 10
126.3959780466066
 20
499.2223118020147
 10
128.2413527145791
 20
496.4318917649761
  0
ENDBLK
  5
86
330
83
100
AcDbEntity
  8
0
100
AcDbBlockEnd
  0
BLOCK
  5
130
330
12E
100
AcDbEntity
  8
0
100
AcDbBlockBegin
  2
Block_2
 70
     0
 10
0.0
 20
0.0
 30
0.0
  3
Block_2
  1

  0
LINE
  5
132
330
12E
100
AcDbEntity
  8
Camada 1
 62
    18
420
        0
370
    18
100
AcDbLine
 10
358.026499909578
 20
677.670332780347
 30
0.0
 11
560.1950700287889
 21
546.3415758069577
 31
0.0
  0
LINE
  5
133
330
12E
100
AcDbEntity
  8
Camada 1
 62
    18
420
        0
370
    18
100
AcDbLine
 10
529.4014329376004
 20
344.745861514788
 30
0.0
 11
563.3827482437627
 21
322.6463831539422
 31
0.0
  0
LINE
  5
134
330
12E
100
AcDbEntity
  8
Camada 1
 62
    18
420
        0
370
    18
100
AcDbLine
 10
294.2892630101296
 20
681.5211979711948
 30
0.0
 11
325.9648047698174
 21
660.9212611547164
 31
0.0
  0
LINE
  5
135
330
12E
100
AcDbEntity
  8
Camada 1
 62
    18
420
        0
370
    18
100
AcDbLine
 10
540.3998229274038
 20
521.4651526443913
 30
0.0
 11
565.5181775088204
 21
505.1296305199111
 31
0.0
  0
LINE
  5
136
330
12E
100
AcDbEntity
  8
Camada 1
 62
    18
420
        0
370
    18
100
AcDbLine
 10
338.0225023652965
 20
662.2395217535986
 30
0.0
 11
362.8717166577207
 21
681.4674249343206
 31
0.0
  0
LINE
  5
137
330
12E
100
AcDbEntity
  8
Camada 1
 62
    18
420
        0
370
    18
100
AcDbLine
 10
538.5126839862314
 20
529.0750346959039
 30
0.0
 11
564.2449824598152
 21
548.9862534516014
 31
0.0
  0
LINE
  5
138
330
12E
100
AcDbEntity
  8
Camada 1
 62
    18
420
        0
370
    18
100
AcDbLine
 10
355.6984482137305
 20
209.9458592291194
 30
0.0
 11
396.9433866682666
 21
183.122541144181
 31
0.0
  0
LINE
  5
139
330
12E
100
AcDbEntity
  8
Camada 1
 62
    18
420
        0
370
    18
100
AcDbLine
 10
88.31906022428938
 20
522.0613738212132
 30
0.0
 11
115.2141602028068
 21
504.5703594148535
 31
0.0
  0
LINE
  5
13A
330
12E
100
AcDbEntity
  8
Camada 1
 62
    18
420
        0
370
    18
100
AcDbLine
 10
559.48235964189
 20
509.1340490250631
 30
0.0
 11
559.48235964189
 21
325.0638380504479
 31
0.0
  0
MTEXT
  5
13B
330
12E
100
AcDbEntity
  8
Camada 1
100
AcDbMText
 10
555.5870895385742
 20
400.7531433105468
 30
0.0
 40
0.2
 41
0.0
 46
0.0
 71
     7
 72
     1
  1
\C18;\c0;\FTramontina SmCd Titulos|b0|i0|c1;\H22.234624;\W1.000000;120
 11
0.0000000000000001
 21
1.0
 31
0.0
 73
     1
 44
1.0
  0
MTEXT
  5
13C
330
12E
100
AcDbEntity
  8
Camada 1
100
AcDbMText
 10
441.0600888892076
 20
628.047883886029
 30
0.0
 40
0.2
 41
0.0
 46
0.0
 71
     7
 72
     1
  1
\C18;\c0;\FTramontina SmCd Titulos|b0|i0|c1;\H22.234624;\W1.000000;150
 11
0.838312753761175
 21
-0.5451896247007603
 31
0.0
 73
     1
 44
1.0
  0
MTEXT
  5
13D
330
12E
100
AcDbEntity
  8
Camada 1
100
AcDbMText
 10
463.6494818009595
 20
256.8535990236778
 30
0.0
 40
0.2
 41
0.0
 46
0.0
 71
     7
 72
     1
  1
\C18;\c0;\FTramontina SmCd Titulos|b0|i0|c1;\H22.234625;\W1.000000;140
 11
0.7922205227136633
 21
0.6102349083683189
 31
0.0
 73
     1
 44
1.0
  0
MTEXT
  5
13E
330
12E
100
AcDbEntity
  8
Camada 1
100
AcDbMText
 10
182.7368620986089
 20
593.8331102341035
 30
0.0
 40
0.2
 41
0.0
 46
0.0
 71
     7
 72
     1
  1
\C18;\c0;\FTramontina SmCd Titulos|b0|i0|c1;\H22.234625;\W1.000000;160
 11
0.7922205227136633
 21
0.6102349083683189
 31
0.0
 73
     1
 44
1.0
  0
LINE
  5
13F
330
12E
100
AcDbEntity
  8
Camada 1
 62
    18
420
        0
370
    18
100
AcDbLine
 10
385.2200051994842
 20
190.9279906802148
 30
0.0
 11
559.5723546688896
 21
325.2287302031
 31
0.0
  0
LINE
  5
140
330
12E
100
AcDbEntity
  8
Camada 1
 62
    18
420
        0
370
    18
100
AcDbLine
 10
93.06698233485168
 20
518.9736018026805
 30
0.0
 11
299.6033937026041
 21
678.0651941561409
 31
0.0
  0
ENDBLK
  5
131
330
12E
100
AcDbEntity
  8
0
100
AcDbBlockEnd
  0
ENDSEC
  0
SECTION
  2
ENTITIES
  0
MTEXT
  5
79
330
70
100
AcDbEntity
  8
Camada 1
100
AcDbMText
 10
648.3447265625
 20
195.2109375
 30
0.0
 40
0.2
 41
0.0
 46
0.0
 71
     7
 72
     1
  1
\C8;\c8485235;\FFrutiger Bold|b1|i0|c1;\H9.720578;\W1.000000;mm
 73
     1
 44
1.0
  0
INSERT
  5
7B
330
70
100
AcDbEntity
  8
Camada 1
100
AcDbBlockReference
  2
Block_0
 10
0.0
 20
0.0
 30
0.0
  0
LINE
  5
80
330
70
100
AcDbEntity
  8
Camada 1
 62
     8
420
  7567745
370
    18
100
AcDbLine
 10
648.135516817907
 20
187.880091797746
 30
0.0
 11
670.4311387240413
 21
187.880091797746
 31
0.0
  0
LINE
  5
81
330
70
100
AcDbEntity
  8
Camada 1
 62
     8
420
  7567745
370
    18
100
AcDbLine
 10
647.8699563594782
 20
190.8752772311673
 30
0.0
 11
647.8699563594782
 21
184.8885872452865
 31
0.0
  0
LINE
  5
82
330
70
100
AcDbEntity
  8
Camada 1
 62
     8
420
  7567745
370
    18
100
AcDbLine
 10
670.7030092641489
 20
190.8752772311673
 30
0.0
 11
670.7030092641489
 21
184.8885872452865
 31
0.0
  0
INSERT
  5
84
330
70
100
AcDbEntity
  8
Camada 1
100
AcDbBlockReference
  2
Block_1
 10
0.0
 20
0.0
 30
0.0
  0
INSERT
  5
12F
330
70
100
AcDbEntity
  8
Camada 1
100
AcDbBlockReference
  2
Block_2
 10
0.0
 20
0.0
 30
0.0
  0
ENDSEC
  0
SECTION
  2
OBJECTS
  0
DICTIONARY
  5
C
330
0
100
AcDbDictionary
281
     1
  3
ACAD_COLOR
350
63
  3
ACAD_DETAILVIEWSTYLE
350
6A
  3
ACAD_GROUP
350
D
  3
ACAD_LAYOUT
350
62
  3
ACAD_MATERIAL
350
10
  3
ACAD_MLEADERSTYLE
350
66
  3
ACAD_MLINESTYLE
350
5F
  3
ACAD_PLOTSETTINGS
350
61
  3
ACAD_PLOTSTYLENAME
350
E
  3
ACAD_SCALELIST
350
42
  3
ACAD_SECTIONVIEWSTYLE
350
68
  3
ACAD_TABLESTYLE
350
64
  3
ACAD_VISUALSTYLE
350
29
  3
ACDB_RECOMPOSE_DATA
350
149
  3
AcDbVariableDictionary
350
141
  0
DICTIONARY
  5
63
102
{ACAD_REACTORS
330
C
102
}
330
C
100
AcDbDictionary
281
     1
  0
DICTIONARY
  5
6A
102
{ACAD_REACTORS
330
C
102
}
330
C
100
AcDbDictionary
281
     1
  3
Imperial24
350
6B
  0
DICTIONARY
  5
D
102
{ACAD_REACTORS
330
C
102
}
330
C
100
AcDbDictionary
281
     1
  0
DICTIONARY
  5
62
102
{ACAD_REACTORS
330
C
102
}
330
C
100
AcDbDictionary
281
     1
  3
Layout1
350
6F
  3
Layout2
350
77
  3
Model
350
73
  0
DICTIONARY
  5
10
102
{ACAD_REACTORS
330
C
102
}
330
C
100
AcDbDictionary
281
     1
  3
ByBlock
350
19
  3
ByLayer
350
11
  3
Global
350
21
  0
DICTIONARY
  5
66
102
{ACAD_REACTORS
330
C
102
}
330
C
100
AcDbDictionary
281
     1
  3
Standard
350
67
  0
DICTIONARY
  5
5F
102
{ACAD_REACTORS
330
C
102
}
330
C
100
AcDbDictionary
281
     1
  3
Standard
350
60
  0
DICTIONARY
  5
61
102
{ACAD_REACTORS
330
C
102
}
330
C
100
AcDbDictionary
281
     1
  0
ACDBDICTIONARYWDFLT
  5
E
102
{ACAD_REACTORS
330
C
102
}
330
C
100
AcDbDictionary
281
     1
  3
Normal
350
F
100
AcDbDictionaryWithDefault
340
F
  0
DICTIONARY
  5
42
102
{ACAD_REACTORS
330
C
102
}
330
C
100
AcDbDictionary
281
     1
  3
A0
350
43
  3
A1
350
44
  3
A2
350
45
  3
A3
350
46
  3
A4
350
47
  3
A5
350
48
  3
A6
350
49
  3
A7
350
4A
  3
A8
350
4B
  3
A9
350
4C
  3
B0
350
4D
  3
B1
350
4E
  3
B2
350
4F
  3
B3
350
50
  3
B4
350
51
  3
B5
350
52
  3
B6
350
53
  0
DICTIONARY
  5
68
102
{ACAD_REACTORS
330
C
102
}
330
C
100
AcDbDictionary
281
     1
  3
Imperial24
350
69
  0
DICTIONARY
  5
64
102
{ACAD_REACTORS
330
C
102
}
330
C
100
AcDbDictionary
281
     1
  3
Standard
350
65
  0
DICTIONARY
  5
29
102
{ACAD_REACTORS
330
C
102
}
330
C
100
AcDbDictionary
281
     1
  3
2dWireframe
350
2F
  3
Basic
350
2E
  3
Brighten
350
35
  3
ColorChange
350
39
  3
Conceptual
350
32
  3
Dim
350
34
  3
EdgeColorOff
350
41
  3
Facepattern
350
38
  3
Flat
350
2A
  3
FlatWithEdges
350
2B
  3
Gouraud
350
2C
  3
GouraudWithEdges
350
2D
  3
Hidden
350
31
  3
JitterOff
350
3F
  3
Linepattern
350
37
  3
OverhangOff
350
40
  3
Realistic
350
33
  3
Shaded
350
3E
  3
Shaded with edges
350
3D
  3
Shades of Gray
350
3A
  3
Sketchy
350
3B
  3
Thicken
350
36
  3
Wireframe
350
30
  3
X-Ray
350
3C
  0
XRECORD
  5
149
102
{ACAD_REACTORS
330
C
102
}
330
C
100
AcDbXrecord
280
     1
 90
        1
330
65
  0
DICTIONARY
  5
141
102
{ACAD_REACTORS
330
C
102
}
330
C
100
AcDbDictionary
281
     1
  3
CANNOSCALE
350
146
  3
CMLEADERSTYLE
350
143
  3
CTABLESTYLE
350
142
  3
CVIEWDETAILSTYLE
350
144
  3
CVIEWSECTIONSTYLE
350
145
  0
ACDBDETAILVIEWSTYLE
  5
6B
102
{ACAD_REACTORS
330
6A
102
}
330
6A
100
AcDbModelDocViewStyle
 70
     0
  3
Imperial24
290
     1
300
Imperial24
 90
        0
100
AcDbDetailViewStyle
 70
     0
 71
     0
 90
        3
 71
     1
340
55
 62
   256
 40
0.24
340
0
 62
   256
 40
0.24
300

 40
0.36
280
     3
 71
     2
340
5D
 90
       25
 62
   256
 71
     3
340
55
 62
   256
 40
0.24
 90
        1
 40
0.75
 90
        1
300
%<\AcVar ViewType \f "%tc1">% %<\AcVar ViewDetailId>%\PSCALE %<\AcVar ViewScale \f "%sn">%
 71
     4
340
5D
 90
       25
 62
   256
340
5D
 90
       25
 62
   256
280
     0
  0
LAYOUT
  5
6F
102
{ACAD_REACTORS
330
62
102
}
330
62
100
AcDbPlotSettings
  1

  2

  4

  6

 40
0.0
 41
0.0
 42
0.0
 43
0.0
 44
0.0
 45
0.0
 46
0.0
 47
0.0
 48
0.0
 49
0.0
140
0.0
141
0.0
142
1.0
143
1.0
 70
   688
 72
     0
 73
     0
 74
     5
  7

 75
    16
147
1.0
 76
     0
 77
     2
 78
   300
148
0.0
149
0.0
100
AcDbLayout
  1
Layout1
 70
     1
 71
     1
 10
0.0
 20
0.0
 11
12.0
 21
9.0
 12
0.0
 22
0.0
 32
0.0
 14
0.0
 24
0.0
 34
0.0
 15
0.0
 25
0.0
 35
0.0
146
0.0
 13
0.0
 23
0.0
 33
0.0
 16
1.0
 26
0.0
 36
0.0
 17
0.0
 27
1.0
 37
0.0
 76
     0
330
6C
  0
LAYOUT
  5
77
102
{ACAD_REACTORS
330
62
102
}
330
62
100
AcDbPlotSettings
  1

  2

  4

  6

 40
0.0
 41
0.0
 42
0.0
 43
0.0
 44
0.0
 45
0.0
 46
0.0
 47
0.0
 48
0.0
 49
0.0
140
0.0
141
0.0
142
1.0
143
1.0
 70
   688
 72
     0
 73
     0
 74
     5
  7

 75
    16
147
1.0
 76
     0
 77
     2
 78
   300
148
0.0
149
0.0
100
AcDbLayout
  1
Layout2
 70
     1
 71
     2
 10
0.0
 20
0.0
 11
12.0
 21
9.0
 12
0.0
 22
0.0
 32
0.0
 14
0.0
 24
0.0
 34
0.0
 15
0.0
 25
0.0
 35
0.0
146
0.0
 13
0.0
 23
0.0
 33
0.0
 16
1.0
 26
0.0
 36
0.0
 17
0.0
 27
1.0
 37
0.0
 76
     0
330
74
  0
LAYOUT
  5
73
102
{ACAD_REACTORS
330
62
102
}
330
62
100
AcDbPlotSettings
  1

  2

  4

  6

 40
0.0
 41
0.0
 42
0.0
 43
0.0
 44
0.0
 45
0.0
 46
0.0
 47
0.0
 48
0.0
 49
0.0
140
0.0
141
0.0
142
1.0
143
1.0
 70
  1712
 72
     0
 73
     0
 74
     0
  7

 75
     0
147
1.0
 76
     0
 77
     2
 78
   300
148
0.0
149
0.0
100
AcDbLayout
  1
Model
 70
     1
 71
     0
 10
0.0
 20
0.0
 11
12.0
 21
9.0
 12
0.0
 22
0.0
 32
0.0
 14
0.0
 24
0.0
 34
0.0
 15
0.0
 25
0.0
 35
0.0
146
0.0
 13
0.0
 23
0.0
 33
0.0
 16
1.0
 26
0.0
 36
0.0
 17
0.0
 27
1.0
 37
0.0
 76
     0
330
70
  0
MATERIAL
  5
19
102
{ACAD_XDICTIONARY
360
1A
102
}
102
{ACAD_REACTORS
330
10
102
}
330
10
100
AcDbMaterial
  1
ByBlock
 72
     0
 43
0.0208333333333333
 43
0.0
 43
0.0
 43
0.0
 43
0.0
 43
0.0208333333333333
 43
0.0
 43
0.0
 43
0.0
 43
0.0
 43
1.0
 43
0.0
 43
0.0
 43
0.0
 43
0.0
 43
1.0
 77
     0
 47
0.0208333333333333
 47
0.0
 47
0.0
 47
0.0
 47
0.0
 47
0.0208333333333333
 47
0.0
 47
0.0
 47
0.0
 47
0.0
 47
1.0
 47
0.0
 47
0.0
 47
0.0
 47
0.0
 47
1.0
171
     0
 49
0.0208333333333333
 49
0.0
 49
0.0
 49
0.0
 49
0.0
 49
0.0208333333333333
 49
0.0
 49
0.0
 49
0.0
 49
0.0
 49
1.0
 49
0.0
 49
0.0
 49
0.0
 49
0.0
 49
1.0
175
     0
142
0.0208333333333333
142
0.0
142
0.0
142
0.0
142
0.0
142
0.0208333333333333
142
0.0
142
0.0
142
0.0
142
0.0
142
1.0
142
0.0
142
0.0
142
0.0
142
0.0
142
1.0
179
     0
144
0.0208333333333333
144
0.0
144
0.0
144
0.0
144
0.0
144
0.0208333333333333
144
0.0
144
0.0
144
0.0
144
0.0
144
1.0
144
0.0
144
0.0
144
0.0
144
0.0
144
1.0
147
0.0208333333333333
147
0.0
147
0.0
147
0.0
147
0.0
147
0.0208333333333333
147
0.0
147
0.0
147
0.0
147
0.0
147
1.0
147
0.0
147
0.0
147
0.0
147
0.0
147
1.0
  0
MATERIAL
  5
11
102
{ACAD_XDICTIONARY
360
12
102
}
102
{ACAD_REACTORS
330
10
102
}
330
10
100
AcDbMaterial
  1
ByLayer
 72
     0
 43
0.0208333333333333
 43
0.0
 43
0.0
 43
0.0
 43
0.0
 43
0.0208333333333333
 43
0.0
 43
0.0
 43
0.0
 43
0.0
 43
1.0
 43
0.0
 43
0.0
 43
0.0
 43
0.0
 43
1.0
 77
     0
 47
0.0208333333333333
 47
0.0
 47
0.0
 47
0.0
 47
0.0
 47
0.0208333333333333
 47
0.0
 47
0.0
 47
0.0
 47
0.0
 47
1.0
 47
0.0
 47
0.0
 47
0.0
 47
0.0
 47
1.0
171
     0
 49
0.0208333333333333
 49
0.0
 49
0.0
 49
0.0
 49
0.0
 49
0.0208333333333333
 49
0.0
 49
0.0
 49
0.0
 49
0.0
 49
1.0
 49
0.0
 49
0.0
 49
0.0
 49
0.0
 49
1.0
175
     0
142
0.0208333333333333
142
0.0
142
0.0
142
0.0
142
0.0
142
0.0208333333333333
142
0.0
142
0.0
142
0.0
142
0.0
142
1.0
142
0.0
142
0.0
142
0.0
142
0.0
142
1.0
179
     0
144
0.0208333333333333
144
0.0
144
0.0
144
0.0
144
0.0
144
0.0208333333333333
144
0.0
144
0.0
144
0.0
144
0.0
144
1.0
144
0.0
144
0.0
144
0.0
144
0.0
144
1.0
147
0.0208333333333333
147
0.0
147
0.0
147
0.0
147
0.0
147
0.0208333333333333
147
0.0
147
0.0
147
0.0
147
0.0
147
1.0
147
0.0
147
0.0
147
0.0
147
0.0
147
1.0
  0
MATERIAL
  5
21
102
{ACAD_XDICTIONARY
360
22
102
}
102
{ACAD_REACTORS
330
10
102
}
330
10
100
AcDbMaterial
  1
Global
 72
     0
 43
0.0208333333333333
 43
0.0
 43
0.0
 43
0.0
 43
0.0
 43
0.0208333333333333
 43
0.0
 43
0.0
 43
0.0
 43
0.0
 43
1.0
 43
0.0
 43
0.0
 43
0.0
 43
0.0
 43
1.0
 77
     0
 47
0.0208333333333333
 47
0.0
 47
0.0
 47
0.0
 47
0.0
 47
0.0208333333333333
 47
0.0
 47
0.0
 47
0.0
 47
0.0
 47
1.0
 47
0.0
 47
0.0
 47
0.0
 47
0.0
 47
1.0
171
     0
 49
0.0208333333333333
 49
0.0
 49
0.0
 49
0.0
 49
0.0
 49
0.0208333333333333
 49
0.0
 49
0.0
 49
0.0
 49
0.0
 49
1.0
 49
0.0
 49
0.0
 49
0.0
 49
0.0
 49
1.0
175
     0
142
0.0208333333333333
142
0.0
142
0.0
142
0.0
142
0.0
142
0.0208333333333333
142
0.0
142
0.0
142
0.0
142
0.0
142
1.0
142
0.0
142
0.0
142
0.0
142
0.0
142
1.0
179
     0
144
0.0208333333333333
144
0.0
144
0.0
144
0.0
144
0.0
144
0.0208333333333333
144
0.0
144
0.0
144
0.0
144
0.0
144
1.0
144
0.0
144
0.0
144
0.0
144
0.0
144
1.0
147
0.0208333333333333
147
0.0
147
0.0
147
0.0
147
0.0
147
0.0208333333333333
147
0.0
147
0.0
147
0.0
147
0.0
147
1.0
147
0.0
147
0.0
147
0.0
147
0.0
147
1.0
  0
MLEADERSTYLE
  5
67
102
{ACAD_REACTORS
330
66
102
}
330
66
100
AcDbMLeaderStyle
179
     2
170
     2
171
     1
172
     0
 90
        2
 40
0.0
 41
0.0
173
     1
 91
-1056964608
340
5B
 92
       -2
290
     1
 42
0.09
291
     1
 43
0.36
  3
Standard
 44
0.18
300

342
55
174
     1
178
     6
175
     1
176
     0
 93
-1056964608
 45
0.18
292
     0
297
     0
 46
0.18
 94
-1056964608
 47
1.0
 49
1.0
140
1.0
293
     1
141
0.0
294
     1
177
     0
142
1.0
295
     1
296
     0
143
0.125
271
     0
272
     9
273
     9
298
     1
  0
MLINESTYLE
  5
60
102
{ACAD_REACTORS
330
5F
102
}
330
5F
100
AcDbMlineStyle
  2
STANDARD
 70
     0
  3

 62
   256
 51
90.0
 52
90.0
 71
     2
 49
0.5
 62
   256
  6
BYLAYER
 49
-0.5
 62
   256
  6
BYLAYER
  0
ACDBPLACEHOLDER
  5
F
102
{ACAD_REACTORS
330
E
102
}
330
E
  0
SCALE
  5
43
102
{ACAD_REACTORS
330
42
102
}
330
42
100
AcDbScale
 70
     0
300
1:1
140
1.0
141
1.0
290
     1
  0
SCALE
  5
44
102
{ACAD_REACTORS
330
42
102
}
330
42
100
AcDbScale
 70
     0
300
1/128" = 1'-0"
140
0.0078125
141
12.0
290
     0
  0
SCALE
  5
45
102
{ACAD_REACTORS
330
42
102
}
330
42
100
AcDbScale
 70
     0
300
1/64" = 1'-0"
140
0.015625
141
12.0
290
     0
  0
SCALE
  5
46
102
{ACAD_REACTORS
330
42
102
}
330
42
100
AcDbScale
 70
     0
300
1/32" = 1'-0"
140
0.03125
141
12.0
290
     0
  0
SCALE
  5
47
102
{ACAD_REACTORS
330
42
102
}
330
42
100
AcDbScale
 70
     0
300
1/16" = 1'-0"
140
0.0625
141
12.0
290
     0
  0
SCALE
  5
48
102
{ACAD_REACTORS
330
42
102
}
330
42
100
AcDbScale
 70
     0
300
3/32" = 1'-0"
140
0.09375
141
12.0
290
     0
  0
SCALE
  5
49
102
{ACAD_REACTORS
330
42
102
}
330
42
100
AcDbScale
 70
     0
300
1/8" = 1'-0"
140
0.125
141
12.0
290
     0
  0
SCALE
  5
4A
102
{ACAD_REACTORS
330
42
102
}
330
42
100
AcDbScale
 70
     0
300
3/16" = 1'-0"
140
0.1875
141
12.0
290
     0
  0
SCALE
  5
4B
102
{ACAD_REACTORS
330
42
102
}
330
42
100
AcDbScale
 70
     0
300
1/4" = 1'-0"
140
0.25
141
12.0
290
     0
  0
SCALE
  5
4C
102
{ACAD_REACTORS
330
42
102
}
330
42
100
AcDbScale
 70
     0
300
3/8" = 1'-0"
140
0.375
141
12.0
290
     0
  0
SCALE
  5
4D
102
{ACAD_REACTORS
330
42
102
}
330
42
100
AcDbScale
 70
     0
300
1/2" = 1'-0"
140
0.5
141
12.0
290
     0
  0
SCALE
  5
4E
102
{ACAD_REACTORS
330
42
102
}
330
42
100
AcDbScale
 70
     0
300
3/4" = 1'-0"
140
0.75
141
12.0
290
     0
  0
SCALE
  5
4F
102
{ACAD_REACTORS
330
42
102
}
330
42
100
AcDbScale
 70
     0
300
1" = 1'-0"
140
1.0
141
12.0
290
     0
  0
SCALE
  5
50
102
{ACAD_REACTORS
330
42
102
}
330
42
100
AcDbScale
 70
     0
300
1-1/2" = 1'-0"
140
1.5
141
12.0
290
     0
  0
SCALE
  5
51
102
{ACAD_REACTORS
330
42
102
}
330
42
100
AcDbScale
 70
     0
300
3" = 1'-0"
140
3.0
141
12.0
290
     0
  0
SCALE
  5
52
102
{ACAD_REACTORS
330
42
102
}
330
42
100
AcDbScale
 70
     0
300
6" = 1'-0"
140
6.0
141
12.0
290
     0
  0
SCALE
  5
53
102
{ACAD_REACTORS
330
42
102
}
330
42
100
AcDbScale
 70
     0
300
1'-0" = 1'-0"
140
12.0
141
12.0
290
     0
  0
ACDBSECTIONVIEWSTYLE
  5
69
102
{ACAD_REACTORS
330
68
102
}
330
68
100
AcDbModelDocViewStyle
 70
     0
  3
Imperial24
290
     1
300
Imperial24
 90
        0
100
AcDbSectionViewStyle
 70
     0
 71
     0
 90
       78
 71
     1
340
55
 62
   256
 40
0.24
340
0
340
0
 62
   256
 40
0.24
300
I, O, Q, S, X, Z
 40
0.48
 90
        3
 40
0.18
 90
        1
 71
     2
340
5D
 90
       25
 62
   256
340
5D
 90
       50
 62
   256
 40
0.24
 40
0.0
 40
0.24
 71
     3
340
55
 62
   256
 40
0.24
 90
        1
 40
0.75
 90
        1
300
%<\AcVar ViewType \f "%tc1">% %<\AcVar ViewSectionStartId>%-%<\AcVar ViewSectionEndId>%\PSCALE %<\AcVar ViewScale \f "%sn">%
 71
     4
 62
   256
 62
   257
300
ANSI31
 40
1.0
 90
        0
290
     0
290
     0
 90
        6
 40
0.0
 40
1.570796326794896
 40
0.2617993877991494
 40
1.308996938995747
 40
-0.2617993877991494
 40
1.832595714594046
  0
TABLESTYLE
  5
65
102
{ACAD_XDICTIONARY
360
147
102
}
102
{ACAD_REACTORS
330
64
102
}
330
64
100
AcDbTableStyle
280
     0
  3
Standard
 70
     0
 71
     0
 40
0.06
 41
0.06
280
     0
281
     0
  7
Standard
140
0.18
170
     2
 62
     0
 63
     7
283
     0
 90
      512
 91
        0
  1

274
    -2
284
     1
 64
     0
275
    -2
285
     1
 65
     0
276
    -2
286
     1
 66
     0
277
    -2
287
     1
 67
     0
278
    -2
288
     1
 68
     0
279
    -2
289
     1
 69
     0
  7
Standard
140
0.25
170
     5
 62
     0
 63
     7
283
     0
 90
      512
 91
        0
  1

274
    -2
284
     1
 64
     0
275
    -2
285
     1
 65
     0
276
    -2
286
     1
 66
     0
277
    -2
287
     1
 67
     0
278
    -2
288
     1
 68
     0
279
    -2
289
     1
 69
     0
  7
Standard
140
0.18
170
     5
 62
     0
 63
     7
283
     0
 90
      512
 91
        0
  1

274
    -2
284
     1
 64
     0
275
    -2
285
     1
 65
     0
276
    -2
286
     1
 66
     0
277
    -2
287
     1
 67
     0
278
    -2
288
     1
 68
     0
279
    -2
289
     1
 69
     0
  0
VISUALSTYLE
  5
2F
102
{ACAD_REACTORS
330
29
102
}
330
29
100
AcDbVisualStyle
  2
2dWireframe
 70
     4
177
     3
291
     0
 70
    58
 90
        0
176
     1
 90
        2
176
     1
 90
        0
176
     1
 90
        0
176
     1
 40
0.6
176
     1
 40
30.0
176
     1
 62
     7
420
 16777215
176
     1
 90
        1
176
     1
 90
        4
176
     1
 62
     7
176
     1
 62
   257
176
     1
 90
        1
176
     1
 90
        1
176
     1
 40
1.0
176
     1
 90
        0
176
     1
 62
   257
176
     1
 40
1.0
176
     1
 90
        1
176
     1
 90
        6
176
     1
 90
        2
176
     1
 62
     7
176
     1
 90
        5
176
     1
 90
        0
176
     1
 90
        0
176
     1
290
     0
176
     1
 90
        1
176
     1
 40
0.0
176
     1
 90
        0
176
     1
290
     1
176
     1
290
     1
176
     1
290
     0
176
     1
290
     0
176
     1
290
     0
176
     1
290
     0
176
     1
290
     0
176
     1
290
     0
176
     1
290
     0
176
     1
 90
       50
176
     1
 40
0.0
176
     1
 40
1.0
176
     1
 90
        0
176
     1
 62
    18
420
        0
176
     1
 90
       50
176
     1
 90
        3
176
     1
 62
     5
420
      255
176
     1
290
     0
176
     1
 90
       50
176
     1
 90
       50
176
     1
 90
       50
176
     1
290
     0
176
     1
 90
       50
176
     1
 62
   256
176
     0
 40
1.0
176
     0
 90
        2
176
     1
  1
strokes_ogs.tif
176
     1
290
     0
176
     1
 40
1.0
176
     1
 40
1.0
176
     1
  0
VISUALSTYLE
  5
2E
102
{ACAD_REACTORS
330
29
102
}
330
29
100
AcDbVisualStyle
  2
Basic
 70
     7
177
     3
291
     1
 70
    58
 90
        1
176
     1
 90
        0
176
     1
 90
        1
176
     1
 90
        0
176
     1
 40
0.6
176
     1
 40
30.0
176
     1
 62
     7
420
 16777215
176
     1
 90
        0
176
     1
 90
        4
176
     1
 62
     7
176
     1
 62
   257
176
     1
 90
        1
176
     1
 90
        1
176
     1
 40
1.0
176
     1
 90
        8
176
     1
 62
     7
176
     1
 40
1.0
176
     1
 90
        1
176
     1
 90
        6
176
     1
 90
        2
176
     1
 62
     7
176
     1
 90
        5
176
     1
 90
        0
176
     1
 90
        0
176
     1
290
     0
176
     1
 90
        1
176
     1
 40
0.0
176
     1
 90
        0
176
     1
290
     0
176
     1
290
     1
176
     1
290
     1
176
     1
290
     0
176
     1
290
     0
176
     1
290
     0
176
     1
290
     0
176
     1
290
     0
176
     1
290
     0
176
     1
 90
       50
176
     1
 40
0.0
176
     1
 40
1.0
176
     1
 90
        0
176
     1
 62
    18
420
        0
176
     1
 90
       50
176
     1
 90
        3
176
     1
 62
     5
420
      255
176
     1
290
     0
176
     1
 90
       50
176
     1
 90
       50
176
     1
 90
       50
176
     1
290
     0
176
     1
 90
       50
176
     1
 62
   256
176
     0
 40
1.0
176
     0
 90
        2
176
     1
  1
strokes_ogs.tif
176
     1
290
     0
176
     1
 40
1.0
176
     1
 40
1.0
176
     1
  0
VISUALSTYLE
  5
35
102
{ACAD_REACTORS
330
29
102
}
330
29
100
AcDbVisualStyle
  2
Brighten
 70
    12
177
     3
291
     1
 70
    58
 90
        2
176
     1
 90
        2
176
     1
 90
        0
176
     1
 90
        0
176
     1
 40
0.6
176
     1
 40
30.0
176
     1
 62
     7
420
 16777215
176
     1
 90
        1
176
     1
 90
        4
176
     1
 62
     7
176
     1
 62
   257
176
     1
 90
        1
176
     1
 90
        1
176
     1
 40
1.0
176
     1
 90
        8
176
     1
 62
     7
176
     1
 40
1.0
176
     1
 90
        1
176
     1
 90
        6
176
     1
 90
        2
176
     1
 62
     7
176
     1
 90
        5
176
     1
 90
        0
176
     1
 90
        0
176
     1
290
     0
176
     1
 90
        1
176
     1
 40
50.0
176
     1
 90
        0
176
     1
290
     0
176
     1
290
     1
176
     1
290
     1
176
     1
290
     0
176
     1
290
     0
176
     1
290
     0
176
     1
290
     0
176
     1
290
     0
176
     1
290
     0
176
     1
 90
       50
176
     1
 40
0.0
176
     1
 40
1.0
176
     1
 90
        0
176
     1
 62
    18
420
        0
176
     1
 90
       50
176
     1
 90
        3
176
     1
 62
     5
420
      255
176
     1
290
     0
176
     1
 90
       50
176
     1
 90
       50
176
     1
 90
       50
176
     1
290
     0
176
     1
 90
       50
176
     1
 62
   256
176
     0
 40
1.0
176
     0
 90
        2
176
     1
  1
strokes_ogs.tif
176
     1
290
     0
176
     1
 40
1.0
176
     1
 40
1.0
176
     1
  0
VISUALSTYLE
  5
39
102
{ACAD_REACTORS
330
29
102
}
330
29
100
AcDbVisualStyle
  2
ColorChange
 70
    16
177
     3
291
     1
 70
    58
 90
        2
176
     1
 90
        2
176
     1
 90
        3
176
     1
 90
        0
176
     1
 40
0.6
176
     1
 40
30.0
176
     1
 62
     8
420
  8421504
176
     1
 90
        1
176
     1
 90
        4
176
     1
 62
     7
176
     1
 62
   257
176
     1
 90
        1
176
     1
 90
        1
176
     1
 40
1.0
176
     1
 90
        8
176
     1
 62
     8
420
  8421504
176
     1
 40
1.0
176
     1
 90
        1
176
     1
 90
        6
176
     1
 90
        2
176
     1
 62
     7
176
     1
 90
        5
176
     1
 90
        0
176
     1
 90
        0
176
     1
290
     0
176
     1
 90
        1
176
     1
 40
0.0
176
     1
 90
        0
176
     1
290
     0
176
     1
290
     1
176
     1
290
     1
176
     1
290
     0
176
     1
290
     0
176
     1
290
     0
176
     1
290
     0
176
     1
290
     0
176
     1
290
     0
176
     1
 90
       50
176
     1
 40
0.0
176
     1
 40
1.0
176
     1
 90
        0
176
     1
 62
    18
420
        0
176
     1
 90
       50
176
     1
 90
        3
176
     1
 62
     5
420
      255
176
     1
290
     0
176
     1
 90
       50
176
     1
 90
       50
176
     1
 90
       50
176
     1
290
     0
176
     1
 90
       50
176
     1
 62
   256
176
     0
 40
1.0
176
     0
 90
        2
176
     1
  1
strokes_ogs.tif
176
     1
290
     0
176
     1
 40
1.0
176
     1
 40
1.0
176
     1
  0
VISUALSTYLE
  5
32
102
{ACAD_REACTORS
330
29
102
}
330
29
100
AcDbVisualStyle
  2
Conceptual
 70
     9
177
     3
291
     0
 70
    58
 90
        3
176
     1
 90
        2
176
     1
 90
        0
176
     1
 90
        0
176
     1
 40
0.6
176
     1
 40
30.0
176
     1
 62
     7
420
 16777215
176
     1
 90
        2
176
     1
 90
        2
176
     1
 62
     7
176
     1
 62
   257
176
     1
 90
        1
176
     1
 90
        1
176
     1
 40
179.0
176
     1
 90
        8
176
     1
 62
     7
176
     1
 40
1.0
176
     1
 90
        1
176
     1
 90
        6
176
     1
 90
        2
176
     1
 62
     7
176
     1
 90
        3
176
     1
 90
        0
176
     1
 90
        0
176
     1
290
     0
176
     1
 90
        1
176
     1
 40
0.0
176
     1
 90
        0
176
     1
290
     0
176
     1
290
     1
176
     1
290
     1
176
     1
290
     0
176
     1
290
     0
176
     1
290
     0
176
     1
290
     0
176
     1
290
     0
176
     1
290
     0
176
     1
 90
       50
176
     1
 40
0.0
176
     1
 40
1.0
176
     1
 90
        0
176
     1
 62
    18
420
        0
176
     1
 90
       50
176
     1
 90
        3
176
     1
 62
     5
420
      255
176
     1
290
     0
176
     1
 90
       50
176
     1
 90
       50
176
     1
 90
       50
176
     1
290
     0
176
     1
 90
       50
176
     1
 62
   256
176
     0
 40
1.0
176
     0
 90
        2
176
     1
  1
strokes_ogs.tif
176
     1
290
     0
176
     1
 40
1.0
176
     1
 40
1.0
176
     1
  0
VISUALSTYLE
  5
34
102
{ACAD_REACTORS
330
29
102
}
330
29
100
AcDbVisualStyle
  2
Dim
 70
    11
177
     3
291
     1
 70
    58
 90
        2
176
     1
 90
        2
176
     1
 90
        0
176
     1
 90
        0
176
     1
 40
0.6
176
     1
 40
30.0
176
     1
 62
     7
420
 16777215
176
     1
 90
        1
176
     1
 90
        4
176
     1
 62
     7
176
     1
 62
   257
176
     1
 90
        1
176
     1
 90
        1
176
     1
 40
1.0
176
     1
 90
        8
176
     1
 62
     7
176
     1
 40
1.0
176
     1
 90
        1
176
     1
 90
        6
176
     1
 90
        2
176
     1
 62
     7
176
     1
 90
        5
176
     1
 90
        0
176
     1
 90
        0
176
     1
290
     0
176
     1
 90
        1
176
     1
 40
-50.0
176
     1
 90
        0
176
     1
290
     0
176
     1
290
     1
176
     1
290
     1
176
     1
290
     0
176
     1
290
     0
176
     1
290
     0
176
     1
290
     0
176
     1
290
     0
176
     1
290
     0
176
     1
 90
       50
176
     1
 40
0.0
176
     1
 40
1.0
176
     1
 90
        0
176
     1
 62
    18
420
        0
176
     1
 90
       50
176
     1
 90
        3
176
     1
 62
     5
420
      255
176
     1
290
     0
176
     1
 90
       50
176
     1
 90
       50
176
     1
 90
       50
176
     1
290
     0
176
     1
 90
       50
176
     1
 62
   256
176
     0
 40
1.0
176
     0
 90
        2
176
     1
  1
strokes_ogs.tif
176
     1
290
     0
176
     1
 40
1.0
176
     1
 40
1.0
176
     1
  0
VISUALSTYLE
  5
41
102
{ACAD_REACTORS
330
29
102
}
330
29
100
AcDbVisualStyle
  2
EdgeColorOff
 70
    22
177
     3
291
     1
 70
    58
 90
        2
176
     0
 90
        2
176
     0
 90
        0
176
     0
 90
        0
176
     0
 40
0.6
176
     0
 40
30.0
176
     0
 62
     7
420
 16777215
176
     0
 90
        1
176
     0
 90
        4
176
     0
 62
     7
176
     0
 62
   257
176
     0
 90
        1
176
     0
 90
        1
176
     0
 40
1.0
176
     0
 90
        8
176
     2
 62
     7
176
     0
 40
1.0
176
     0
 90
        1
176
     0
 90
        6
176
     0
 90
        2
176
     0
 62
     7
176
     0
 90
        5
176
     0
 90
        0
176
     0
 90
        0
176
     0
290
     0
176
     0
 90
        1
176
     0
 40
0.0
176
     0
 90
        0
176
     0
290
     0
176
     0
290
     1
176
     0
290
     1
176
     0
290
     0
176
     0
290
     0
176
     0
290
     0
176
     0
290
     0
176
     0
290
     0
176
     0
290
     0
176
     0
 90
       50
176
     0
 40
0.0
176
     0
 40
1.0
176
     0
 90
        0
176
     0
 62
    18
420
        0
176
     0
 90
       50
176
     0
 90
        3
176
     0
 62
     5
420
      255
176
     0
290
     0
176
     0
 90
       50
176
     0
 90
       50
176
     0
 90
       50
176
     0
290
     0
176
     0
 90
       50
176
     0
 62
   256
176
     0
 40
1.0
176
     0
 90
        2
176
     0
  1
strokes_ogs.tif
176
     0
290
     0
176
     0
 40
1.0
176
     0
 40
1.0
176
     0
  0
VISUALSTYLE
  5
38
102
{ACAD_REACTORS
330
29
102
}
330
29
100
AcDbVisualStyle
  2
Facepattern
 70
    15
177
     3
291
     1
 70
    58
 90
        2
176
     1
 90
        2
176
     1
 90
        0
176
     1
 90
        0
176
     1
 40
0.6
176
     1
 40
30.0
176
     1
 62
     7
420
 16777215
176
     1
 90
        1
176
     1
 90
        4
176
     1
 62
     7
176
     1
 62
   257
176
     1
 90
        1
176
     1
 90
        1
176
     1
 40
1.0
176
     1
 90
        8
176
     1
 62
     7
176
     1
 40
1.0
176
     1
 90
        1
176
     1
 90
        6
176
     1
 90
        2
176
     1
 62
     7
176
     1
 90
        5
176
     1
 90
        0
176
     1
 90
        0
176
     1
290
     0
176
     1
 90
        1
176
     1
 40
0.0
176
     1
 90
        0
176
     1
290
     0
176
     1
290
     1
176
     1
290
     1
176
     1
290
     0
176
     1
290
     0
176
     1
290
     0
176
     1
290
     0
176
     1
290
     0
176
     1
290
     0
176
     1
 90
       50
176
     1
 40
0.0
176
     1
 40
1.0
176
     1
 90
        0
176
     1
 62
    18
420
        0
176
     1
 90
       50
176
     1
 90
        3
176
     1
 62
     5
420
      255
176
     1
290
     0
176
     1
 90
       50
176
     1
 90
       50
176
     1
 90
       50
176
     1
290
     0
176
     1
 90
       50
176
     1
 62
   256
176
     0
 40
1.0
176
     0
 90
        2
176
     1
  1
strokes_ogs.tif
176
     1
290
     0
176
     1
 40
1.0
176
     1
 40
1.0
176
     1
  0
VISUALSTYLE
  5
2A
102
{ACAD_REACTORS
330
29
102
}
330
29
100
AcDbVisualStyle
  2
Flat
 70
     0
177
     3
291
     1
 70
    58
 90
        2
176
     1
 90
        1
176
     1
 90
        1
176
     1
 90
        2
176
     1
 40
0.6
176
     1
 40
30.0
176
     1
 62
     7
420
 16777215
176
     1
 90
        0
176
     1
 90
        0
176
     1
 62
     7
176
     1
 62
   257
176
     1
 90
        1
176
     1
 90
        1
176
     1
 40
1.0
176
     1
 90
        8
176
     1
 62
     7
176
     1
 40
1.0
176
     1
 90
        1
176
     1
 90
        6
176
     1
 90
        2
176
     1
 62
     7
176
     1
 90
        5
176
     1
 90
        0
176
     1
 90
        0
176
     1
290
     0
176
     1
 90
       13
176
     1
 40
0.0
176
     1
 90
        0
176
     1
290
     0
176
     1
290
     1
176
     1
290
     1
176
     1
290
     0
176
     1
290
     0
176
     1
290
     0
176
     1
290
     0
176
     1
290
     0
176
     1
290
     0
176
     1
 90
       50
176
     1
 40
0.0
176
     1
 40
1.0
176
     1
 90
        0
176
     1
 62
    18
420
        0
176
     1
 90
       50
176
     1
 90
        3
176
     1
 62
     5
420
      255
176
     1
290
     0
176
     1
 90
       50
176
     1
 90
       50
176
     1
 90
       50
176
     1
290
     0
176
     1
 90
       50
176
     1
 62
   256
176
     0
 40
1.0
176
     0
 90
        2
176
     1
  1
strokes_ogs.tif
176
     1
290
     0
176
     1
 40
1.0
176
     1
 40
1.0
176
     1
  0
VISUALSTYLE
  5
2B
102
{ACAD_REACTORS
330
29
102
}
330
29
100
AcDbVisualStyle
  2
FlatWithEdges
 70
     1
177
     3
291
     1
 70
    58
 90
        2
176
     1
 90
        1
176
     1
 90
        1
176
     1
 90
        2
176
     1
 40
0.6
176
     1
 40
30.0
176
     1
 62
     7
420
 16777215
176
     1
 90
        1
176
     1
 90
        0
176
     1
 62
     7
176
     1
 62
   257
176
     1
 90
        1
176
     1
 90
        1
176
     1
 40
1.0
176
     1
 90
        0
176
     1
 62
   257
176
     1
 40
1.0
176
     1
 90
        1
176
     1
 90
        6
176
     1
 90
        2
176
     1
 62
     7
176
     1
 90
        5
176
     1
 90
        0
176
     1
 90
        0
176
     1
290
     0
176
     1
 90
       13
176
     1
 40
0.0
176
     1
 90
        0
176
     1
290
     0
176
     1
290
     1
176
     1
290
     1
176
     1
290
     0
176
     1
290
     0
176
     1
290
     0
176
     1
290
     0
176
     1
290
     0
176
     1
290
     0
176
     1
 90
       50
176
     1
 40
0.0
176
     1
 40
1.0
176
     1
 90
        0
176
     1
 62
    18
420
        0
176
     1
 90
       50
176
     1
 90
        3
176
     1
 62
     5
420
      255
176
     1
290
     0
176
     1
 90
       50
176
     1
 90
       50
176
     1
 90
       50
176
     1
290
     0
176
     1
 90
       50
176
     1
 62
   256
176
     0
 40
1.0
176
     0
 90
        2
176
     1
  1
strokes_ogs.tif
176
     1
290
     0
176
     1
 40
1.0
176
     1
 40
1.0
176
     1
  0
VISUALSTYLE
  5
2C
102
{ACAD_REACTORS
330
29
102
}
330
29
100
AcDbVisualStyle
  2
Gouraud
 70
     2
177
     3
291
     1
 70
    58
 90
        2
176
     1
 90
        2
176
     1
 90
        1
176
     1
 90
        2
176
     1
 40
0.6
176
     1
 40
30.0
176
     1
 62
     7
420
 16777215
176
     1
 90
        0
176
     1
 90
        0
176
     1
 62
     7
176
     1
 62
   257
176
     1
 90
        1
176
     1
 90
        1
176
     1
 40
1.0
176
     1
 90
        0
176
     1
 62
     7
176
     1
 40
1.0
176
     1
 90
        1
176
     1
 90
        6
176
     1
 90
        2
176
     1
 62
     7
176
     1
 90
        5
176
     1
 90
        0
176
     1
 90
        0
176
     1
290
     0
176
     1
 90
       13
176
     1
 40
0.0
176
     1
 90
        0
176
     1
290
     0
176
     1
290
     1
176
     1
290
     1
176
     1
290
     0
176
     1
290
     0
176
     1
290
     0
176
     1
290
     0
176
     1
290
     0
176
     1
290
     0
176
     1
 90
       50
176
     1
 40
0.0
176
     1
 40
1.0
176
     1
 90
        0
176
     1
 62
    18
420
        0
176
     1
 90
       50
176
     1
 90
        3
176
     1
 62
     5
420
      255
176
     1
290
     0
176
     1
 90
       50
176
     1
 90
       50
176
     1
 90
       50
176
     1
290
     0
176
     1
 90
       50
176
     1
 62
   256
176
     0
 40
1.0
176
     0
 90
        2
176
     1
  1
strokes_ogs.tif
176
     1
290
     0
176
     1
 40
1.0
176
     1
 40
1.0
176
     1
  0
VISUALSTYLE
  5
2D
102
{ACAD_REACTORS
330
29
102
}
330
29
100
AcDbVisualStyle
  2
GouraudWithEdges
 70
     3
177
     3
291
     1
 70
    58
 90
        2
176
     1
 90
        2
176
     1
 90
        1
176
     1
 90
        2
176
     1
 40
0.6
176
     1
 40
30.0
176
     1
 62
     7
420
 16777215
176
     1
 90
        1
176
     1
 90
        0
176
     1
 62
     7
176
     1
 62
   257
176
     1
 90
        1
176
     1
 90
        1
176
     1
 40
1.0
176
     1
 90
        0
176
     1
 62
   257
176
     1
 40
1.0
176
     1
 90
        1
176
     1
 90
        6
176
     1
 90
        2
176
     1
 62
     7
176
     1
 90
        5
176
     1
 90
        0
176
     1
 90
        0
176
     1
290
     0
176
     1
 90
       13
176
     1
 40
0.0
176
     1
 90
        0
176
     1
290
     0
176
     1
290
     1
176
     1
290
     1
176
     1
290
     0
176
     1
290
     0
176
     1
290
     0
176
     1
290
     0
176
     1
290
     0
176
     1
290
     0
176
     1
 90
       50
176
     1
 40
0.0
176
     1
 40
1.0
176
     1
 90
        0
176
     1
 62
    18
420
        0
176
     1
 90
       50
176
     1
 90
        3
176
     1
 62
     5
420
      255
176
     1
290
     0
176
     1
 90
       50
176
     1
 90
       50
176
     1
 90
       50
176
     1
290
     0
176
     1
 90
       50
176
     1
 62
   256
176
     0
 40
1.0
176
     0
 90
        2
176
     1
  1
strokes_ogs.tif
176
     1
290
     0
176
     1
 40
1.0
176
     1
 40
1.0
176
     1
  0
VISUALSTYLE
  5
31
102
{ACAD_REACTORS
330
29
102
}
330
29
100
AcDbVisualStyle
  2
Hidden
 70
     6
177
     3
291
     0
 70
    58
 90
        1
176
     1
 90
        2
176
     1
 90
        2
176
     1
 90
        0
176
     1
 40
0.6
176
     1
 40
30.0
176
     1
 62
     7
420
 16777215
176
     1
 90
        2
176
     1
 90
        2
176
     1
 62
     7
176
     1
 62
   257
176
     1
 90
        2
176
     1
 90
        1
176
     1
 40
40.0
176
     1
 90
        0
176
     1
 62
   257
176
     1
 40
1.0
176
     1
 90
        1
176
     1
 90
        6
176
     1
 90
        2
176
     1
 62
     7
176
     1
 90
        3
176
     1
 90
        0
176
     1
 90
        0
176
     1
290
     0
176
     1
 90
        1
176
     1
 40
0.0
176
     1
 90
        0
176
     1
290
     0
176
     1
290
     1
176
     1
290
     1
176
     1
290
     0
176
     1
290
     0
176
     1
290
     0
176
     1
290
     0
176
     1
290
     0
176
     1
290
     0
176
     1
 90
       50
176
     1
 40
0.0
176
     1
 40
1.0
176
     1
 90
        0
176
     1
 62
    18
420
        0
176
     1
 90
       50
176
     1
 90
        3
176
     1
 62
     5
420
      255
176
     1
290
     0
176
     1
 90
       50
176
     1
 90
       50
176
     1
 90
       50
176
     1
290
     0
176
     1
 90
       50
176
     1
 62
   256
176
     0
 40
1.0
176
     0
 90
        2
176
     1
  1
strokes_ogs.tif
176
     1
290
     0
176
     1
 40
1.0
176
     1
 40
1.0
176
     1
  0
VISUALSTYLE
  5
3F
102
{ACAD_REACTORS
330
29
102
}
330
29
100
AcDbVisualStyle
  2
JitterOff
 70
    20
177
     3
291
     1
 70
    58
 90
        2
176
     0
 90
        2
176
     0
 90
        0
176
     0
 90
        0
176
     0
 40
0.6
176
     0
 40
30.0
176
     0
 62
     7
420
 16777215
176
     0
 90
        1
176
     0
 90
        4
176
     0
 62
     7
176
     0
 62
   257
176
     0
 90
        1
176
     0
 90
        1
176
     0
 40
1.0
176
     0
 90
       10
176
     2
 62
     7
176
     0
 40
1.0
176
     0
 90
        1
176
     0
 90
        6
176
     0
 90
        2
176
     0
 62
     7
176
     0
 90
        5
176
     0
 90
        0
176
     0
 90
        0
176
     0
290
     0
176
     0
 90
        1
176
     0
 40
0.0
176
     0
 90
        0
176
     0
290
     0
176
     0
290
     1
176
     0
290
     1
176
     0
290
     0
176
     0
290
     0
176
     0
290
     0
176
     0
290
     0
176
     0
290
     0
176
     0
290
     0
176
     0
 90
       50
176
     0
 40
0.0
176
     0
 40
1.0
176
     0
 90
        0
176
     0
 62
    18
420
        0
176
     0
 90
       50
176
     0
 90
        3
176
     0
 62
     5
420
      255
176
     0
290
     0
176
     0
 90
       50
176
     0
 90
       50
176
     0
 90
       50
176
     0
290
     0
176
     0
 90
       50
176
     0
 62
   256
176
     0
 40
1.0
176
     0
 90
        2
176
     0
  1
strokes_ogs.tif
176
     0
290
     0
176
     0
 40
1.0
176
     0
 40
1.0
176
     0
  0
VISUALSTYLE
  5
37
102
{ACAD_REACTORS
330
29
102
}
330
29
100
AcDbVisualStyle
  2
Linepattern
 70
    14
177
     3
291
     1
 70
    58
 90
        2
176
     1
 90
        2
176
     1
 90
        0
176
     1
 90
        0
176
     1
 40
0.6
176
     1
 40
30.0
176
     1
 62
     7
420
 16777215
176
     1
 90
        1
176
     1
 90
        4
176
     1
 62
     7
176
     1
 62
   257
176
     1
 90
        7
176
     1
 90
        7
176
     1
 40
1.0
176
     1
 90
        8
176
     1
 62
     7
176
     1
 40
1.0
176
     1
 90
        1
176
     1
 90
        6
176
     1
 90
        2
176
     1
 62
     7
176
     1
 90
        5
176
     1
 90
        0
176
     1
 90
        0
176
     1
290
     0
176
     1
 90
        1
176
     1
 40
0.0
176
     1
 90
        0
176
     1
290
     0
176
     1
290
     1
176
     1
290
     1
176
     1
290
     0
176
     1
290
     0
176
     1
290
     0
176
     1
290
     0
176
     1
290
     0
176
     1
290
     0
176
     1
 90
       50
176
     1
 40
0.0
176
     1
 40
1.0
176
     1
 90
        0
176
     1
 62
    18
420
        0
176
     1
 90
       50
176
     1
 90
        3
176
     1
 62
     5
420
      255
176
     1
290
     0
176
     1
 90
       50
176
     1
 90
       50
176
     1
 90
       50
176
     1
290
     0
176
     1
 90
       50
176
     1
 62
   256
176
     0
 40
1.0
176
     0
 90
        2
176
     1
  1
strokes_ogs.tif
176
     1
290
     0
176
     1
 40
1.0
176
     1
 40
1.0
176
     1
  0
VISUALSTYLE
  5
40
102
{ACAD_REACTORS
330
29
102
}
330
29
100
AcDbVisualStyle
  2
OverhangOff
 70
    21
177
     3
291
     1
 70
    58
 90
        2
176
     0
 90
        2
176
     0
 90
        0
176
     0
 90
        0
176
     0
 40
0.6
176
     0
 40
30.0
176
     0
 62
     7
420
 16777215
176
     0
 90
        1
176
     0
 90
        4
176
     0
 62
     7
176
     0
 62
   257
176
     0
 90
        1
176
     0
 90
        1
176
     0
 40
1.0
176
     0
 90
        9
176
     2
 62
     7
176
     0
 40
1.0
176
     0
 90
        1
176
     0
 90
        6
176
     0
 90
        2
176
     0
 62
     7
176
     0
 90
        5
176
     0
 90
        0
176
     0
 90
        0
176
     0
290
     0
176
     0
 90
        1
176
     0
 40
0.0
176
     0
 90
        0
176
     0
290
     0
176
     0
290
     1
176
     0
290
     1
176
     0
290
     0
176
     0
290
     0
176
     0
290
     0
176
     0
290
     0
176
     0
290
     0
176
     0
290
     0
176
     0
 90
       50
176
     0
 40
0.0
176
     0
 40
1.0
176
     0
 90
        0
176
     0
 62
    18
420
        0
176
     0
 90
       50
176
     0
 90
        3
176
     0
 62
     5
420
      255
176
     0
290
     0
176
     0
 90
       50
176
     0
 90
       50
176
     0
 90
       50
176
     0
290
     0
176
     0
 90
       50
176
     0
 62
   256
176
     0
 40
1.0
176
     0
 90
        2
176
     0
  1
strokes_ogs.tif
176
     0
290
     0
176
     0
 40
1.0
176
     0
 40
1.0
176
     0
  0
VISUALSTYLE
  5
33
102
{ACAD_REACTORS
330
29
102
}
330
29
100
AcDbVisualStyle
  2
Realistic
 70
     8
177
     3
291
     0
 70
    58
 90
        2
176
     1
 90
        3
176
     1
 90
        0
176
     1
 90
        2
176
     1
 40
0.6
176
     1
 40
30.0
176
     1
 62
     7
420
 16777215
176
     1
 90
        0
176
     1
 90
        0
176
     1
 62
     7
176
     1
 62
   257
176
     1
 90
        1
176
     1
 90
        1
176
     1
 40
1.0
176
     1
 90
        8
176
     1
 62
   257
176
     1
 40
1.0
176
     1
 90
        1
176
     1
 90
        6
176
     1
 90
        2
176
     1
 62
     7
176
     1
 90
        3
176
     1
 90
        0
176
     1
 90
        0
176
     1
290
     0
176
     1
 90
       13
176
     1
 40
0.0
176
     1
 90
        0
176
     1
290
     0
176
     1
290
     1
176
     1
290
     1
176
     1
290
     0
176
     1
290
     0
176
     1
290
     0
176
     1
290
     0
176
     1
290
     0
176
     1
290
     0
176
     1
 90
       50
176
     1
 40
0.0
176
     1
 40
1.0
176
     1
 90
        0
176
     1
 62
    18
420
        0
176
     1
 90
       50
176
     1
 90
        3
176
     1
 62
     5
420
      255
176
     1
290
     0
176
     1
 90
       50
176
     1
 90
       50
176
     1
 90
       50
176
     1
290
     0
176
     1
 90
       50
176
     1
 62
   256
176
     0
 40
1.0
176
     0
 90
        2
176
     1
  1
strokes_ogs.tif
176
     1
290
     0
176
     1
 40
1.0
176
     1
 40
1.0
176
     1
  0
VISUALSTYLE
  5
3E
102
{ACAD_REACTORS
330
29
102
}
330
29
100
AcDbVisualStyle
  2
Shaded
 70
    27
177
     3
291
     0
 70
    58
 90
        2
176
     1
 90
        2
176
     1
 90
        1
176
     1
 90
        2
176
     1
 40
0.6
176
     1
 40
30.0
176
     1
 62
     7
420
 16777215
176
     1
 90
        0
176
     1
 90
        4
176
     1
 62
     7
176
     1
 62
   257
176
     1
 90
        1
176
     1
 90
        1
176
     1
 40
1.0
176
     1
 90
        8
176
     1
 62
   257
176
     1
 40
1.0
176
     1
 90
        1
176
     1
 90
        6
176
     1
 90
        2
176
     1
 62
     8
420
  7895160
176
     1
 90
        3
176
     1
 90
        0
176
     1
 90
        0
176
     1
290
     0
176
     1
 90
        5
176
     1
 40
0.0
176
     1
 90
        0
176
     1
290
     0
176
     1
290
     1
176
     1
290
     1
176
     1
290
     0
176
     1
290
     0
176
     1
290
     0
176
     1
290
     0
176
     1
290
     0
176
     1
290
     0
176
     1
 90
       50
176
     1
 40
0.0
176
     1
 40
1.0
176
     1
 90
        0
176
     1
 62
    18
420
        0
176
     1
 90
       50
176
     1
 90
        3
176
     1
 62
     5
420
      255
176
     1
290
     0
176
     1
 90
       50
176
     1
 90
       50
176
     1
 90
       50
176
     1
290
     0
176
     1
 90
       50
176
     1
 62
   256
176
     0
 40
1.0
176
     0
 90
        2
176
     1
  1
strokes_ogs.tif
176
     1
290
     0
176
     1
 40
1.0
176
     1
 40
1.0
176
     1
  0
VISUALSTYLE
  5
3D
102
{ACAD_REACTORS
330
29
102
}
330
29
100
AcDbVisualStyle
  2
Shaded with edges
 70
    26
177
     3
291
     0
 70
    58
 90
        2
176
     1
 90
        2
176
     1
 90
        1
176
     1
 90
        2
176
     1
 40
0.6
176
     1
 40
30.0
176
     1
 62
     7
420
 16777215
176
     1
 90
        1
176
     1
 90
        2
176
     1
 62
     7
176
     1
 62
   257
176
     1
 90
        2
176
     1
 90
        1
176
     1
 40
1.0
176
     1
 90
        8
176
     1
 62
   257
176
     1
 40
1.0
176
     1
 90
        1
176
     1
 90
        6
176
     1
 90
        2
176
     1
 62
     7
176
     1
 90
        3
176
     1
 90
        0
176
     1
 90
        0
176
     1
290
     0
176
     1
 90
        5
176
     1
 40
0.0
176
     1
 90
        0
176
     1
290
     0
176
     1
290
     1
176
     1
290
     1
176
     1
290
     0
176
     1
290
     0
176
     1
290
     0
176
     1
290
     0
176
     1
290
     0
176
     1
290
     0
176
     1
 90
       50
176
     1
 40
0.0
176
     1
 40
1.0
176
     1
 90
        0
176
     1
 62
    18
420
        0
176
     1
 90
       50
176
     1
 90
        3
176
     1
 62
     5
420
      255
176
     1
290
     0
176
     1
 90
       50
176
     1
 90
       50
176
     1
 90
       50
176
     1
290
     0
176
     1
 90
       50
176
     1
 62
   256
176
     0
 40
1.0
176
     0
 90
        2
176
     1
  1
strokes_ogs.tif
176
     1
290
     0
176
     1
 40
1.0
176
     1
 40
1.0
176
     1
  0
VISUALSTYLE
  5
3A
102
{ACAD_REACTORS
330
29
102
}
330
29
100
AcDbVisualStyle
  2
Shades of Gray
 70
    23
177
     3
291
     0
 70
    58
 90
        2
176
     1
 90
        2
176
     1
 90
        3
176
     1
 90
        0
176
     1
 40
0.6
176
     1
 40
30.0
176
     1
 62
     7
420
 16777215
176
     1
 90
        2
176
     1
 90
        2
176
     1
 62
     7
176
     1
 62
     7
176
     1
 90
        1
176
     1
 90
        1
176
     1
 40
40.0
176
     1
 90
        8
176
     1
 62
     7
176
     1
 40
1.0
176
     1
 90
        1
176
     1
 90
        6
176
     1
 90
        2
176
     1
 62
     7
176
     1
 90
        3
176
     1
 90
        0
176
     1
 90
        0
176
     1
290
     0
176
     1
 90
        1
176
     1
 40
0.0
176
     1
 90
        0
176
     1
290
     0
176
     1
290
     1
176
     1
290
     1
176
     1
290
     0
176
     1
290
     0
176
     1
290
     0
176
     1
290
     0
176
     1
290
     0
176
     1
290
     0
176
     1
 90
       50
176
     1
 40
0.0
176
     1
 40
1.0
176
     1
 90
        0
176
     1
 62
    18
420
        0
176
     1
 90
       50
176
     1
 90
        3
176
     1
 62
     5
420
      255
176
     1
290
     0
176
     1
 90
       50
176
     1
 90
       50
176
     1
 90
       50
176
     1
290
     0
176
     1
 90
       50
176
     1
 62
   256
176
     0
 40
1.0
176
     0
 90
        2
176
     1
  1
strokes_ogs.tif
176
     1
290
     0
176
     1
 40
1.0
176
     1
 40
1.0
176
     1
  0
VISUALSTYLE
  5
3B
102
{ACAD_REACTORS
330
29
102
}
330
29
100
AcDbVisualStyle
  2
Sketchy
 70
    24
177
     3
291
     0
 70
    58
 90
        1
176
     1
 90
        2
176
     1
 90
        2
176
     1
 90
        0
176
     1
 40
0.6
176
     1
 40
30.0
176
     1
 62
     7
420
 16777215
176
     1
 90
        2
176
     1
 90
        2
176
     1
 62
     7
176
     1
 62
     7
176
     1
 90
        1
176
     1
 90
        1
176
     1
 40
40.0
176
     1
 90
       11
176
     1
 62
     7
176
     1
 40
1.0
176
     1
 90
        1
176
     1
 90
        6
176
     1
 90
        2
176
     1
 62
     7
176
     1
 90
        6
176
     1
 90
        0
176
     1
 90
        0
176
     1
290
     0
176
     1
 90
        1
176
     1
 40
0.0
176
     1
 90
        0
176
     1
290
     0
176
     1
290
     1
176
     1
290
     1
176
     1
290
     0
176
     1
290
     0
176
     1
290
     0
176
     1
290
     0
176
     1
290
     0
176
     1
290
     0
176
     1
 90
       50
176
     1
 40
0.0
176
     1
 40
1.0
176
     1
 90
        0
176
     1
 62
    18
420
        0
176
     1
 90
       50
176
     1
 90
        3
176
     1
 62
     5
420
      255
176
     1
290
     0
176
     1
 90
       50
176
     1
 90
       50
176
     1
 90
       50
176
     1
290
     0
176
     1
 90
       50
176
     1
 62
   256
176
     0
 40
1.0
176
     0
 90
        2
176
     1
  1
strokes_ogs.tif
176
     1
290
     0
176
     1
 40
1.0
176
     1
 40
1.0
176
     1
  0
VISUALSTYLE
  5
36
102
{ACAD_REACTORS
330
29
102
}
330
29
100
AcDbVisualStyle
  2
Thicken
 70
    13
177
     3
291
     1
 70
    58
 90
        2
176
     1
 90
        2
176
     1
 90
        0
176
     1
 90
        0
176
     1
 40
0.6
176
     1
 40
30.0
176
     1
 62
     7
420
 16777215
176
     1
 90
        1
176
     1
 90
        4
176
     1
 62
     7
176
     1
 62
   257
176
     1
 90
        1
176
     1
 90
        1
176
     1
 40
1.0
176
     1
 90
       12
176
     1
 62
     7
176
     1
 40
1.0
176
     1
 90
        1
176
     1
 90
        6
176
     1
 90
        2
176
     1
 62
     7
176
     1
 90
        5
176
     1
 90
        0
176
     1
 90
        0
176
     1
290
     0
176
     1
 90
        1
176
     1
 40
0.0
176
     1
 90
        0
176
     1
290
     0
176
     1
290
     1
176
     1
290
     1
176
     1
290
     0
176
     1
290
     0
176
     1
290
     0
176
     1
290
     0
176
     1
290
     0
176
     1
290
     0
176
     1
 90
       50
176
     1
 40
0.0
176
     1
 40
1.0
176
     1
 90
        0
176
     1
 62
    18
420
        0
176
     1
 90
       50
176
     1
 90
        3
176
     1
 62
     5
420
      255
176
     1
290
     0
176
     1
 90
       50
176
     1
 90
       50
176
     1
 90
       50
176
     1
290
     0
176
     1
 90
       50
176
     1
 62
   256
176
     0
 40
1.0
176
     0
 90
        2
176
     1
  1
strokes_ogs.tif
176
     1
290
     0
176
     1
 40
1.0
176
     1
 40
1.0
176
     1
  0
VISUALSTYLE
  5
30
102
{ACAD_REACTORS
330
29
102
}
330
29
100
AcDbVisualStyle
  2
Wireframe
 70
     5
177
     3
291
     0
 70
    58
 90
        0
176
     1
 90
        2
176
     1
 90
        0
176
     1
 90
        0
176
     1
 40
0.6
176
     1
 40
30.0
176
     1
 62
     7
420
 16777215
176
     1
 90
        1
176
     1
 90
        4
176
     1
 62
     7
176
     1
 62
   257
176
     1
 90
        1
176
     1
 90
        1
176
     1
 40
1.0
176
     1
 90
        0
176
     1
 62
   257
176
     1
 40
1.0
176
     1
 90
        1
176
     1
 90
        6
176
     1
 90
        2
176
     1
 62
     7
176
     1
 90
        3
176
     1
 90
        0
176
     1
 90
        0
176
     1
290
     0
176
     1
 90
        1
176
     1
 40
0.0
176
     1
 90
        0
176
     1
290
     0
176
     1
290
     1
176
     1
290
     1
176
     1
290
     0
176
     1
290
     0
176
     1
290
     0
176
     1
290
     0
176
     1
290
     0
176
     1
290
     0
176
     1
 90
       50
176
     1
 40
0.0
176
     1
 40
1.0
176
     1
 90
        0
176
     1
 62
    18
420
        0
176
     1
 90
       50
176
     1
 90
        3
176
     1
 62
     5
420
      255
176
     1
290
     0
176
     1
 90
       50
176
     1
 90
       50
176
     1
 90
       50
176
     1
290
     0
176
     1
 90
       50
176
     1
 62
   256
176
     0
 40
1.0
176
     0
 90
        2
176
     1
  1
strokes_ogs.tif
176
     1
290
     0
176
     1
 40
1.0
176
     1
 40
1.0
176
     1
  0
VISUALSTYLE
  5
3C
102
{ACAD_REACTORS
330
29
102
}
330
29
100
AcDbVisualStyle
  2
X-Ray
 70
    25
177
     3
291
     0
 70
    58
 90
        2
176
     1
 90
        2
176
     1
 90
        1
176
     1
 90
        1
176
     1
 40
0.5
176
     1
 40
30.0
176
     1
 62
     7
420
 16777215
176
     1
 90
        1
176
     1
 90
        0
176
     1
 62
     7
176
     1
 62
   257
176
     1
 90
        1
176
     1
 90
        1
176
     1
 40
1.0
176
     1
 90
        8
176
     1
 62
     7
176
     1
 40
1.0
176
     1
 90
        1
176
     1
 90
        6
176
     1
 90
        2
176
     1
 62
     7
176
     1
 90
        3
176
     1
 90
        0
176
     1
 90
        0
176
     1
290
     0
176
     1
 90
       13
176
     1
 40
0.0
176
     1
 90
        0
176
     1
290
     0
176
     1
290
     1
176
     1
290
     1
176
     1
290
     0
176
     1
290
     0
176
     1
290
     0
176
     1
290
     0
176
     1
290
     0
176
     1
290
     0
176
     1
 90
       50
176
     1
 40
0.0
176
     1
 40
1.0
176
     1
 90
        0
176
     1
 62
    18
420
        0
176
     1
 90
       50
176
     1
 90
        3
176
     1
 62
     5
420
      255
176
     1
290
     0
176
     1
 90
       50
176
     1
 90
       50
176
     1
 90
       50
176
     1
290
     0
176
     1
 90
       50
176
     1
 62
   256
176
     0
 40
1.0
176
     0
 90
        2
176
     1
  1
strokes_ogs.tif
176
     1
290
     0
176
     1
 40
1.0
176
     1
 40
1.0
176
     1
  0
DICTIONARYVAR
  5
146
102
{ACAD_REACTORS
330
141
102
}
330
141
100
DictionaryVariables
280
     0
  1
1:1
  0
DICTIONARYVAR
  5
143
102
{ACAD_REACTORS
330
141
102
}
330
141
100
DictionaryVariables
280
     0
  1
STANDARD
  0
DICTIONARYVAR
  5
142
102
{ACAD_REACTORS
330
141
102
}
330
141
100
DictionaryVariables
280
     0
  1
STANDARD
  0
DICTIONARYVAR
  5
144
102
{ACAD_REACTORS
330
141
102
}
330
141
100
DictionaryVariables
280
     0
  1
Imperial24
  0
DICTIONARYVAR
  5
145
102
{ACAD_REACTORS
330
141
102
}
330
141
100
DictionaryVariables
280
     0
  1
Imperial24
  0
DICTIONARY
  5
1A
330
19
100
AcDbDictionary
280
     1
281
     1
  3
BUMPTILE
360
1C
  3
DIFFUSETILE
360
1B
  3
OPACITYTILE
360
1F
  3
REFLECTIONTILE
360
1E
  3
REFRACTIONTILE
360
20
  3
SPECULARTILE
360
1D
  0
DICTIONARY
  5
12
330
11
100
AcDbDictionary
280
     1
281
     1
  3
BUMPTILE
360
14
  3
DIFFUSETILE
360
13
  3
OPACITYTILE
360
17
  3
REFLECTIONTILE
360
16
  3
REFRACTIONTILE
360
18
  3
SPECULARTILE
360
15
  0
DICTIONARY
  5
22
330
21
100
AcDbDictionary
280
     1
281
     1
  3
BUMPTILE
360
24
  3
DIFFUSETILE
360
23
  3
OPACITYTILE
360
27
  3
REFLECTIONTILE
360
26
  3
REFRACTIONTILE
360
28
  3
SPECULARTILE
360
25
  0
DICTIONARY
  5
147
330
65
100
AcDbDictionary
280
     1
281
     1
  3
ACAD_ROUNDTRIP_2008_TABLESTYLE_CELLSTYLEMAP
360
148
  0
XRECORD
  5
1C
102
{ACAD_REACTORS
330
1A
102
}
330
1A
100
AcDbXrecord
280
     1
270
     1
271
     1
  0
XRECORD
  5
1B
102
{ACAD_REACTORS
330
1A
102
}
330
1A
100
AcDbXrecord
280
     1
270
     1
271
     1
  0
XRECORD
  5
1F
102
{ACAD_REACTORS
330
1A
102
}
330
1A
100
AcDbXrecord
280
     1
270
     1
271
     1
  0
XRECORD
  5
1E
102
{ACAD_REACTORS
330
1A
102
}
330
1A
100
AcDbXrecord
280
     1
270
     1
271
     1
  0
XRECORD
  5
20
102
{ACAD_REACTORS
330
1A
102
}
330
1A
100
AcDbXrecord
280
     1
270
     1
271
     1
  0
XRECORD
  5
1D
102
{ACAD_REACTORS
330
1A
102
}
330
1A
100
AcDbXrecord
280
     1
270
     1
271
     1
  0
XRECORD
  5
14
102
{ACAD_REACTORS
330
12
102
}
330
12
100
AcDbXrecord
280
     1
270
     1
271
     1
  0
XRECORD
  5
13
102
{ACAD_REACTORS
330
12
102
}
330
12
100
AcDbXrecord
280
     1
270
     1
271
     1
  0
XRECORD
  5
17
102
{ACAD_REACTORS
330
12
102
}
330
12
100
AcDbXrecord
280
     1
270
     1
271
     1
  0
XRECORD
  5
16
102
{ACAD_REACTORS
330
12
102
}
330
12
100
AcDbXrecord
280
     1
270
     1
271
     1
  0
XRECORD
  5
18
102
{ACAD_REACTORS
330
12
102
}
330
12
100
AcDbXrecord
280
     1
270
     1
271
     1
  0
XRECORD
  5
15
102
{ACAD_REACTORS
330
12
102
}
330
12
100
AcDbXrecord
280
     1
270
     1
271
     1
  0
XRECORD
  5
24
102
{ACAD_REACTORS
330
22
102
}
330
22
100
AcDbXrecord
280
     1
270
     1
271
     1
  0
XRECORD
  5
23
102
{ACAD_REACTORS
330
22
102
}
330
22
100
AcDbXrecord
280
     1
270
     1
271
     1
  0
XRECORD
  5
27
102
{ACAD_REACTORS
330
22
102
}
330
22
100
AcDbXrecord
280
     1
270
     1
271
     1
  0
XRECORD
  5
26
102
{ACAD_REACTORS
330
22
102
}
330
22
100
AcDbXrecord
280
     1
270
     1
271
     1
  0
XRECORD
  5
28
102
{ACAD_REACTORS
330
22
102
}
330
22
100
AcDbXrecord
280
     1
270
     1
271
     1
  0
XRECORD
  5
25
102
{ACAD_REACTORS
330
22
102
}
330
22
100
AcDbXrecord
280
     1
270
     1
271
     1
  0
CELLSTYLEMAP
  5
148
102
{ACAD_REACTORS
330
147
102
}
330
147
100
AcDbCellStyleMap
 90
        3
300
CELLSTYLE
  1
TABLEFORMAT_BEGIN
 90
        5
170
     1
 91
        0
 92
    32768
 62
   257
 93
        1
300
CONTENTFORMAT
  1
CONTENTFORMAT_BEGIN
 90
        0
 91
        0
 92
      512
 93
        0
300

 40
0.0
140
1.0
 94
        5
 62
     0
340
55
144
0.25
309
CONTENTFORMAT_END
171
     0
 94
        0
309
TABLEFORMAT_END
  1
CELLSTYLE_BEGIN
 90
        1
 91
        1
300
_TITLE
309
CELLSTYLE_END
300
CELLSTYLE
  1
TABLEFORMAT_BEGIN
 90
        5
170
     1
 91
        0
 92
        0
 62
   257
 93
        1
300
CONTENTFORMAT
  1
CONTENTFORMAT_BEGIN
 90
        0
 91
        0
 92
      512
 93
        0
300

 40
0.0
140
1.0
 94
        5
 62
     0
340
55
144
0.18
309
CONTENTFORMAT_END
171
     0
 94
        0
309
TABLEFORMAT_END
  1
CELLSTYLE_BEGIN
 90
        2
 91
        1
300
_HEADER
309
CELLSTYLE_END
300
CELLSTYLE
  1
TABLEFORMAT_BEGIN
 90
        5
170
     1
 91
        0
 92
        0
 62
   257
 93
        1
300
CONTENTFORMAT
  1
CONTENTFORMAT_BEGIN
 90
        0
 91
        0
 92
      512
 93
        0
300

 40
0.0
140
1.0
 94
        2
 62
     0
340
55
144
0.18
309
CONTENTFORMAT_END
171
     0
 94
        0
309
TABLEFORMAT_END
  1
CELLSTYLE_BEGIN
 90
        3
 91
        2
300
_DATA
309
CELLSTYLE_END
  0
ENDSEC
  0
EOF
