  0
SECTION
  2
HEADER
  9
$ACADVER
  1
AC1032
  9
$ACADMAINTVER
 90
      228
  9
$DWGCODEPAGE
  3
ANSI_1252
  9
$REQUIREDVERSIONS
160
                 0
  9
$INSBASE
 10
0.0
 20
0.0
 30
0.0
  9
$EXTMIN
 10
1.000000000000000E+20
 20
1.000000000000000E+20
 30
1.000000000000000E+20
  9
$EXTMAX
 10
-1.000000000000000E+20
 20
-1.000000000000000E+20
 30
-1.000000000000000E+20
  9
$LIMMIN
 10
0.0
 20
0.0
  9
$LIMMAX
 10
12.0
 20
9.0
  9
$ORTHOMODE
 70
     0
  9
$REGENMODE
 70
     1
  9
$FILLMODE
 70
     1
  9
$QTEXTMODE
 70
     0
  9
$MIRRTEXT
 70
     0
  9
$LTSCALE
 40
1.0
  9
$ATTMODE
 70
     1
  9
$TEXTSIZE
 40
0.2
  9
$TRACEWID
 40
0.05
  9
$TEXTSTYLE
  7
Standard
  9
$CLAYER
  8
0
  9
$CELTYPE
  6
ByLayer
  9
$CECOLOR
 62
   256
  9
$CELTSCALE
 40
1.0
  9
$DISPSILH
 70
     0
  9
$DIMSCALE
 40
1.0
  9
$DIMASZ
 40
0.18
  9
$DIMEXO
 40
0.0625
  9
$DIMDLI
 40
0.38
  9
$DIMRND
 40
0.0
  9
$DIMDLE
 40
0.0
  9
$DIMEXE
 40
0.18
  9
$DIMTP
 40
0.0
  9
$DIMTM
 40
0.0
  9
$DIMTXT
 40
0.18
  9
$DIMCEN
 40
0.09
  9
$DIMTSZ
 40
0.0
  9
$DIMTOL
 70
     0
  9
$DIMLIM
 70
     0
  9
$DIMTIH
 70
     1
  9
$DIMTOH
 70
     1
  9
$DIMSE1
 70
     0
  9
$DIMSE2
 70
     0
  9
$DIMTAD
 70
     0
  9
$DIMZIN
 70
     0
  9
$DIMBLK
  1

  9
$DIMASO
 70
     1
  9
$DIMSHO
 70
     1
  9
$DIMPOST
  1

  9
$DIMAPOST
  1

  9
$DIMALT
 70
     0
  9
$DIMALTD
 70
     2
  9
$DIMALTF
 40
25.4
  9
$DIMLFAC
 40
1.0
  9
$DIMTOFL
 70
     0
  9
$DIMTVP
 40
0.0
  9
$DIMTIX
 70
     0
  9
$DIMSOXD
 70
     0
  9
$DIMSAH
 70
     0
  9
$DIMBLK1
  1

  9
$DIMBLK2
  1

  9
$DIMSTYLE
  2
Standard
  9
$DIMCLRD
 70
     0
  9
$DIMCLRE
 70
     0
  9
$DIMCLRT
 70
     0
  9
$DIMTFAC
 40
1.0
  9
$DIMGAP
 40
0.09
  9
$DIMJUST
 70
     0
  9
$DIMSD1
 70
     0
  9
$DIMSD2
 70
     0
  9
$DIMTOLJ
 70
     1
  9
$DIMTZIN
 70
     0
  9
$DIMALTZ
 70
     0
  9
$DIMALTTZ
 70
     0
  9
$DIMUPT
 70
     0
  9
$DIMDEC
 70
     4
  9
$DIMTDEC
 70
     4
  9
$DIMALTU
 70
     2
  9
$DIMALTTD
 70
     2
  9
$DIMTXSTY
  7
Standard
  9
$DIMAUNIT
 70
     0
  9
$DIMADEC
 70
     0
  9
$DIMALTRND
 40
0.0
  9
$DIMAZIN
 70
     0
  9
$DIMDSEP
 70
    46
  9
$DIMATFIT
 70
     3
  9
$DIMFRAC
 70
     0
  9
$DIMLDRBLK
  1

  9
$DIMLUNIT
 70
     2
  9
$DIMLWD
 70
    -2
  9
$DIMLWE
 70
    -2
  9
$DIMTMOVE
 70
     0
  9
$DIMFXL
 40
1.0
  9
$DIMFXLON
 70
     0
  9
$DIMJOGANG
 40
0.7853981633974483
  9
$DIMTFILL
 70
     0
  9
$DIMTFILLCLR
 70
     0
  9
$DIMARCSYM
 70
     0
  9
$DIMLTYPE
  6

  9
$DIMLTEX1
  6

  9
$DIMLTEX2
  6

  9
$DIMTXTDIRECTION
 70
     0
  9
$LUNITS
 70
     2
  9
$LUPREC
 70
     4
  9
$SKETCHINC
 40
0.1
  9
$FILLETRAD
 40
0.0
  9
$AUNITS
 70
     0
  9
$AUPREC
 70
     0
  9
$MENU
  1
.
  9
$ELEVATION
 40
0.0
  9
$PELEVATION
 40
0.0
  9
$THICKNESS
 40
0.0
  9
$LIMCHECK
 70
     0
  9
$CHAMFERA
 40
0.0
  9
$CHAMFERB
 40
0.0
  9
$CHAMFERC
 40
0.0
  9
$CHAMFERD
 40
0.0
  9
$SKPOLY
 70
     0
  9
$TDCREATE
 40
2459958.650752315
  9
$TDUCREATE
 40
2459958.775752315
  9
$TDUPDATE
 40
2459958.650752315
  9
$TDUUPDATE
 40
2459958.775752315
  9
$TDINDWG
 40
0.0000000000
  9
$TDUSRTIMER
 40
0.0000000000
  9
$USRTIMER
 70
     1
  9
$ANGBASE
 50
0.0
  9
$ANGDIR
 70
     0
  9
$PDMODE
 70
     0
  9
$PDSIZE
 40
0.0
  9
$PLINEWID
 40
0.0
  9
$SPLFRAME
 70
     0
  9
$SPLINETYPE
 70
     6
  9
$SPLINESEGS
 70
     8
  9
$HANDSEED
  5
287
  9
$SURFTAB1
 70
     6
  9
$SURFTAB2
 70
     6
  9
$SURFTYPE
 70
     6
  9
$SURFU
 70
     6
  9
$SURFV
 70
     6
  9
$UCSBASE
  2

  9
$UCSNAME
  2

  9
$UCSORG
 10
0.0
 20
0.0
 30
0.0
  9
$UCSXDIR
 10
1.0
 20
0.0
 30
0.0
  9
$UCSYDIR
 10
0.0
 20
1.0
 30
0.0
  9
$UCSORTHOREF
  2

  9
$UCSORTHOVIEW
 70
     0
  9
$UCSORGTOP
 10
0.0
 20
0.0
 30
0.0
  9
$UCSORGBOTTOM
 10
0.0
 20
0.0
 30
0.0
  9
$UCSORGLEFT
 10
0.0
 20
0.0
 30
0.0
  9
$UCSORGRIGHT
 10
0.0
 20
0.0
 30
0.0
  9
$UCSORGFRONT
 10
0.0
 20
0.0
 30
0.0
  9
$UCSORGBACK
 10
0.0
 20
0.0
 30
0.0
  9
$PUCSBASE
  2

  9
$PUCSNAME
  2

  9
$PUCSORG
 10
0.0
 20
0.0
 30
0.0
  9
$PUCSXDIR
 10
1.0
 20
0.0
 30
0.0
  9
$PUCSYDIR
 10
0.0
 20
1.0
 30
0.0
  9
$PUCSORTHOREF
  2

  9
$PUCSORTHOVIEW
 70
     0
  9
$PUCSORGTOP
 10
0.0
 20
0.0
 30
0.0
  9
$PUCSORGBOTTOM
 10
0.0
 20
0.0
 30
0.0
  9
$PUCSORGLEFT
 10
0.0
 20
0.0
 30
0.0
  9
$PUCSORGRIGHT
 10
0.0
 20
0.0
 30
0.0
  9
$PUCSORGFRONT
 10
0.0
 20
0.0
 30
0.0
  9
$PUCSORGBACK
 10
0.0
 20
0.0
 30
0.0
  9
$USERI1
 70
     0
  9
$USERI2
 70
     0
  9
$USERI3
 70
     0
  9
$USERI4
 70
     0
  9
$USERI5
 70
     0
  9
$USERR1
 40
0.0
  9
$USERR2
 40
0.0
  9
$USERR3
 40
0.0
  9
$USERR4
 40
0.0
  9
$USERR5
 40
0.0
  9
$WORLDVIEW
 70
     1
  9
$SHADEDGE
 70
     3
  9
$SHADEDIF
 70
    70
  9
$TILEMODE
 70
     1
  9
$MAXACTVP
 70
    64
  9
$PINSBASE
 10
0.0
 20
0.0
 30
0.0
  9
$PLIMCHECK
 70
     0
  9
$PEXTMIN
 10
1.000000000000000E+20
 20
1.000000000000000E+20
 30
1.000000000000000E+20
  9
$PEXTMAX
 10
-1.000000000000000E+20
 20
-1.000000000000000E+20
 30
-1.000000000000000E+20
  9
$PLIMMIN
 10
0.0
 20
0.0
  9
$PLIMMAX
 10
12.0
 20
9.0
  9
$UNITMODE
 70
     0
  9
$VISRETAIN
 70
     1
  9
$PLINEGEN
 70
     0
  9
$PSLTSCALE
 70
     1
  9
$TREEDEPTH
 70
  3020
  9
$CMLSTYLE
  2
Standard
  9
$CMLJUST
 70
     0
  9
$CMLSCALE
 40
1.0
  9
$PROXYGRAPHICS
 70
     1
  9
$MEASUREMENT
 70
     0
  9
$CELWEIGHT
370
    -1
  9
$ENDCAPS
280
     0
  9
$JOINSTYLE
280
     0
  9
$LWDISPLAY
290
     1
  9
$INSUNITS
 70
     0
  9
$HYPERLINKBASE
  1

  9
$STYLESHEET
  1

  9
$XEDIT
290
     1
  9
$CEPSNTYPE
380
     0
  9
$PSTYLEMODE
290
     1
  9
$FINGERPRINTGUID
  2
{1196058C-20BC-B541-AEBB-1AF65EF98ACA}
  9
$VERSIONGUID
  2
{81524853-5CD3-A84B-8F52-F8CD0B82B1C9}
  9
$EXTNAMES
290
     1
  9
$PSVPSCALE
 40
0.0
  9
$OLESTARTUP
290
     0
  9
$SORTENTS
280
   127
  9
$INDEXCTL
280
     0
  9
$HIDETEXT
280
     1
  9
$XCLIPFRAME
280
     2
  9
$HALOGAP
280
     0
  9
$OBSCOLOR
 70
   257
  9
$OBSLTYPE
280
     0
  9
$INTERSECTIONDISPLAY
280
     0
  9
$INTERSECTIONCOLOR
 70
   257
  9
$DIMASSOC
280
     2
  9
$PROJECTNAME
  1

  9
$CAMERADISPLAY
290
     0
  9
$LENSLENGTH
 40
50.0
  9
$CAMERAHEIGHT
 40
0.0
  9
$STEPSPERSEC
 40
2.0
  9
$STEPSIZE
 40
6.0
  9
$3DDWFPREC
 40
2.0
  9
$PSOLWIDTH
 40
0.25
  9
$PSOLHEIGHT
 40
4.0
  9
$LOFTANG1
 40
1.570796326794896
  9
$LOFTANG2
 40
1.570796326794896
  9
$LOFTMAG1
 40
0.0
  9
$LOFTMAG2
 40
0.0
  9
$LOFTPARAM
 70
     7
  9
$LOFTNORMALS
280
     1
  9
$LATITUDE
 40
37.795
  9
$LONGITUDE
 40
-122.394
  9
$NORTHDIRECTION
 40
0.0
  9
$TIMEZONE
 70
 -8000
  9
$LIGHTGLYPHDISPLAY
280
     1
  9
$TILEMODELIGHTSYNCH
280
     1
  9
$CMATERIAL
347
11
  9
$SOLIDHIST
280
     0
  9
$SHOWHIST
280
     1
  9
$DWFFRAME
280
     2
  9
$DGNFRAME
280
     0
  9
$REALWORLDSCALE
290
     1
  9
$INTERFERECOLOR
 62
     1
  9
$INTERFEREOBJVS
345
33
  9
$INTERFEREVPVS
346
30
  9
$CSHADOW
280
     0
  9
$SHADOWPLANELOCATION
 40
0.0
  0
ENDSEC
  0
SECTION
  2
CLASSES
  0
CLASS
  1
ACDBDICTIONARYWDFLT
  2
AcDbDictionaryWithDefault
  3
ObjectDBX Classes
 90
        0
 91
        1
280
     0
281
     0
  0
CLASS
  1
MATERIAL
  2
AcDbMaterial
  3
ObjectDBX Classes
 90
     1153
 91
        3
280
     0
281
     0
  0
CLASS
  1
VISUALSTYLE
  2
AcDbVisualStyle
  3
ObjectDBX Classes
 90
     4095
 91
       24
280
     0
281
     0
  0
CLASS
  1
SCALE
  2
AcDbScale
  3
ObjectDBX Classes
 90
     1153
 91
       17
280
     0
281
     0
  0
CLASS
  1
TABLESTYLE
  2
AcDbTableStyle
  3
ObjectDBX Classes
 90
     4095
 91
        1
280
     0
281
     0
  0
CLASS
  1
MLEADERSTYLE
  2
AcDbMLeaderStyle
  3
ACDB_MLEADERSTYLE_CLASS
 90
     4095
 91
        1
280
     0
281
     0
  0
CLASS
  1
ACDBSECTIONVIEWSTYLE
  2
AcDbSectionViewStyle
  3
ObjectDBX Classes
 90
     1025
 91
        1
280
     0
281
     0
  0
CLASS
  1
ACDBDETAILVIEWSTYLE
  2
AcDbDetailViewStyle
  3
ObjectDBX Classes
 90
     1025
 91
        1
280
     0
281
     0
  0
CLASS
  1
DICTIONARYVAR
  2
AcDbDictionaryVar
  3
ObjectDBX Classes
 90
        0
 91
        5
280
     0
281
     0
  0
CLASS
  1
CELLSTYLEMAP
  2
AcDbCellStyleMap
  3
ObjectDBX Classes
 90
     1152
 91
        1
280
     0
281
     0
  0
ENDSEC
  0
SECTION
  2
TABLES
  0
TABLE
  2
VPORT
  5
8
330
0
100
AcDbSymbolTable
 70
     1
  0
VPORT
  5
57
330
8
100
AcDbSymbolTableRecord
100
AcDbViewportTableRecord
  2
*Active
 70
     0
 10
0.0
 20
0.0
 11
1.0
 21
1.0
 12
0.0
 22
0.0
 13
0.0
 23
0.0
 14
1.0
 24
1.0
 15
0.0
 25
0.0
 16
0.0
 26
0.0
 36
1.0
 17
252.4528148148152
 27
-330.722777777778
 37
0.0
 40
544.1144666666671
 41
0.7598714992609182
 42
50.0
 43
0.0
 44
0.0
 50
0.0
 51
0.0
 71
     0
 72
   100
 73
     1
 74
     1
 75
     0
 76
     0
 77
     0
 78
     0
281
     0
 65
     1
110
0.0
120
0.0
130
0.0
111
1.0
121
0.0
131
0.0
112
0.0
122
1.0
132
0.0
 79
     0
146
0.0
 60
     3
 61
     5
292
     1
282
     1
141
0.0
142
0.0
 63
   250
421
  3355443
  0
ENDTAB
  0
TABLE
  2
LTYPE
  5
5
330
0
100
AcDbSymbolTable
 70
     1
  0
LTYPE
  5
5B
330
5
100
AcDbSymbolTableRecord
100
AcDbLinetypeTableRecord
  2
ByBlock
 70
     0
  3

 72
    65
 73
     0
 40
0.0
  0
LTYPE
  5
5C
330
5
100
AcDbSymbolTableRecord
100
AcDbLinetypeTableRecord
  2
ByLayer
 70
     0
  3

 72
    65
 73
     0
 40
0.0
  0
LTYPE
  5
5D
330
5
100
AcDbSymbolTableRecord
100
AcDbLinetypeTableRecord
  2
Continuous
 70
     0
  3
Solid line
 72
    65
 73
     0
 40
0.0
  0
ENDTAB
  0
TABLE
  2
LAYER
  5
2
330
0
100
AcDbSymbolTable
 70
     2
  0
LAYER
  5
54
330
2
100
AcDbSymbolTableRecord
100
AcDbLayerTableRecord
  2
0
 70
     0
 62
     7
  6
Continuous
370
    -3
390
F
347
21
348
0
  0
LAYER
  5
78
330
2
100
AcDbSymbolTableRecord
100
AcDbLayerTableRecord
  2
Camada 1
 70
     0
 62
     7
  6
Continuous
370
     0
390
F
347
21
348
0
  0
ENDTAB
  0
TABLE
  2
STYLE
  5
3
330
0
100
AcDbSymbolTable
 70
     2
  0
STYLE
  5
55
330
3
100
AcDbSymbolTableRecord
100
AcDbTextStyleTableRecord
  2
Standard
 70
     0
 40
0.0
 41
1.0
 50
0.0
 71
     0
 42
0.2
  3
txt
  4

  0
STYLE
  5
5A
330
3
100
AcDbSymbolTableRecord
100
AcDbTextStyleTableRecord
  2
Annotative
 70
     0
 40
0.0
 41
1.0
 50
0.0
 71
     0
 42
0.2
  3
txt
  4

1001
AcadAnnotative
1000
AnnotativeData
1002
{
1070
     1
1070
     1
1002
}
  0
ENDTAB
  0
TABLE
  2
VIEW
  5
6
330
0
100
AcDbSymbolTable
 70
     0
  0
ENDTAB
  0
TABLE
  2
UCS
  5
7
330
0
100
AcDbSymbolTable
 70
     0
  0
ENDTAB
  0
TABLE
  2
APPID
  5
9
330
0
100
AcDbSymbolTable
 70
     2
  0
APPID
  5
56
330
9
100
AcDbSymbolTableRecord
100
AcDbRegAppTableRecord
  2
ACAD
 70
     0
  0
APPID
  5
5E
330
9
100
AcDbSymbolTableRecord
100
AcDbRegAppTableRecord
  2
AcadAnnotative
 70
     0
  0
ENDTAB
  0
TABLE
  2
DIMSTYLE
  5
A
330
0
100
AcDbSymbolTable
 70
     2
100
AcDbDimStyleTable
 71
     0
  0
DIMSTYLE
105
58
330
A
100
AcDbSymbolTableRecord
100
AcDbDimStyleTableRecord
  2
Standard
 70
     0
340
55
  0
DIMSTYLE
105
59
330
A
100
AcDbSymbolTableRecord
100
AcDbDimStyleTableRecord
  2
Annotative
 70
     0
340
55
1001
AcadAnnotative
1000
AnnotativeData
1002
{
1070
     1
1070
     1
1002
}
  0
ENDTAB
  0
TABLE
  2
BLOCK_RECORD
  5
1
330
0
100
AcDbSymbolTable
 70
     4
  0
BLOCK_RECORD
  5
70
330
1
100
AcDbSymbolTableRecord
100
AcDbBlockTableRecord
  2
*Model_Space
340
73
 70
     0
280
     1
281
     0
  0
BLOCK_RECORD
  5
6C
330
1
100
AcDbSymbolTableRecord
100
AcDbBlockTableRecord
  2
*Paper_Space
340
6F
 70
     0
280
     1
281
     0
  0
BLOCK_RECORD
  5
74
330
1
100
AcDbSymbolTableRecord
100
AcDbBlockTableRecord
  2
*Paper_Space0
340
77
 70
     0
280
     1
281
     0
  0
BLOCK_RECORD
  5
84
330
1
100
AcDbSymbolTableRecord
100
AcDbBlockTableRecord
  2
Block_0
340
0
102
{BLKREFS
331
85
102
}
 70
     0
280
     1
281
     0
  0
BLOCK_RECORD
  5
EF
330
1
100
AcDbSymbolTableRecord
100
AcDbBlockTableRecord
  2
Block_1
340
0
102
{BLKREFS
331
F0
102
}
 70
     0
280
     1
281
     0
  0
BLOCK_RECORD
  5
140
330
1
100
AcDbSymbolTableRecord
100
AcDbBlockTableRecord
  2
Block_2
340
0
102
{BLKREFS
331
141
102
}
 70
     0
280
     1
281
     0
  0
ENDTAB
  0
ENDSEC
  0
SECTION
  2
BLOCKS
  0
BLOCK
  5
71
330
70
100
AcDbEntity
  8
0
100
AcDbBlockBegin
  2
*Model_Space
 70
     0
 10
0.0
 20
0.0
 30
0.0
  3
*Model_Space
  1

  0
ENDBLK
  5
72
330
70
100
AcDbEntity
  8
0
100
AcDbBlockEnd
  0
BLOCK
  5
6D
330
6C
100
AcDbEntity
 67
     1
  8
0
100
AcDbBlockBegin
  2
*Paper_Space
 70
     0
 10
0.0
 20
0.0
 30
0.0
  3
*Paper_Space
  1

  0
ENDBLK
  5
6E
330
6C
100
AcDbEntity
 67
     1
  8
0
100
AcDbBlockEnd
  0
BLOCK
  5
75
330
74
100
AcDbEntity
 67
     1
  8
0
100
AcDbBlockBegin
  2
*Paper_Space0
 70
     0
 10
0.0
 20
0.0
 30
0.0
  3
*Paper_Space0
  1

  0
ENDBLK
  5
76
330
74
100
AcDbEntity
 67
     1
  8
0
100
AcDbBlockEnd
  0
BLOCK
  5
86
330
84
100
AcDbEntity
  8
0
100
AcDbBlockBegin
  2
Block_0
 70
     0
 10
0.0
 20
0.0
 30
0.0
  3
Block_0
  1

  0
SPLINE
  5
88
330
84
100
AcDbEntity
  8
Camada 1
 62
   250
370
    35
100
AcDbSpline
210
0.0
220
0.0
230
1.0
 70
     8
 71
     3
 72
     8
 73
     4
 74
     0
 42
0.0000000001
 43
0.0000000001
 40
0.0
 40
0.0
 40
0.0
 40
0.0
 40
1.0
 40
1.0
 40
1.0
 40
1.0
 10
249.3560339663472
 20
-437.5515479477926
 30
0.0
 10
249.4625991087533
 20
-437.5515479477926
 30
0.0
 10
249.5487646381844
 20
-437.4651471446704
 30
0.0
 10
249.5487646381844
 20
-437.3588034363274
 30
0.0
  0
HATCH
  5
89
330
84
100
AcDbEntity
  8
Camada 1
 62
     7
440
 33554687
100
AcDbHatch
 10
0.0
 20
0.0
 30
0.0
210
0.0
220
0.0
230
1.0
  2
SOLID
 70
     1
 71
     1
 91
        1
 92
        1
 93
        2
 72
     4
 94
        3
 73
     0
 74
     0
 95
        8
 96
        4
 40
0.0
 40
0.0
 40
0.0
 40
0.0
 40
1.0
 40
1.0
 40
1.0
 40
1.0
 10
249.3560339663472
 20
-437.5515479477926
 10
249.4625991087533
 20
-437.5515479477926
 10
249.5487646381844
 20
-437.4651471446704
 10
249.5487646381844
 20
-437.3588034363274
 97
        0
 72
     1
 10
249.5487646381844
 20
-437.3588034363274
 11
249.3560339663472
 21
-437.5515479477926
 97
        0
 75
     2
 76
     1
 98
        1
 10
0.0
 20
0.0
450
        0
451
        0
460
0.0
461
0.0
452
        0
462
0.0
453
        0
470

  0
SPLINE
  5
8A
330
84
100
AcDbEntity
  8
Camada 1
 62
   250
370
    35
100
AcDbSpline
210
0.0
220
0.0
230
1.0
 70
     8
 71
     3
 72
     8
 73
     4
 74
     0
 42
0.0000000001
 43
0.0000000001
 40
0.0
 40
0.0
 40
0.0
 40
0.0
 40
1.0
 40
1.0
 40
1.0
 40
1.0
 10
249.5487646381844
 20
-431.9597012557587
 30
0.0
 10
249.5487646381844
 20
-431.8531222737256
 30
0.0
 10
249.4625991087533
 20
-431.7667353102315
 30
0.0
 10
249.3560339663472
 20
-431.7667353102315
 30
0.0
  0
HATCH
  5
8B
330
84
100
AcDbEntity
  8
Camada 1
 62
     7
440
 33554687
100
AcDbHatch
 10
0.0
 20
0.0
 30
0.0
210
0.0
220
0.0
230
1.0
  2
SOLID
 70
     1
 71
     1
 91
        1
 92
        1
 93
        2
 72
     4
 94
        3
 73
     0
 74
     0
 95
        8
 96
        4
 40
0.0
 40
0.0
 40
0.0
 40
0.0
 40
1.0
 40
1.0
 40
1.0
 40
1.0
 10
249.5487646381844
 20
-431.9597012557587
 10
249.5487646381844
 20
-431.8531222737256
 10
249.4625991087533
 20
-431.7667353102315
 10
249.3560339663472
 20
-431.7667353102315
 97
        0
 72
     1
 10
249.3560339663472
 20
-431.7667353102315
 11
249.5487646381844
 21
-431.9597012557587
 97
        0
 75
     2
 76
     1
 98
        1
 10
0.0
 20
0.0
450
        0
451
        0
460
0.0
461
0.0
452
        0
462
0.0
453
        0
470

  0
SPLINE
  5
8C
330
84
100
AcDbEntity
  8
Camada 1
 62
   250
370
    35
100
AcDbSpline
210
0.0
220
0.0
230
1.0
 70
     8
 71
     3
 72
     8
 73
     4
 74
     0
 42
0.0000000001
 43
0.0000000001
 40
0.0
 40
0.0
 40
0.0
 40
0.0
 40
1.0
 40
1.0
 40
1.0
 40
1.0
 10
166.3774112366782
 20
-426.9369954619487
 30
0.0
 10
166.0214283025252
 20
-426.9369954619487
 30
0.0
 10
165.735723003846
 20
-427.2247351860751
 30
0.0
 10
165.735723003846
 20
-427.579818544349
 30
0.0
  0
HATCH
  5
8D
330
84
100
AcDbEntity
  8
Camada 1
 62
     7
440
 33554687
100
AcDbHatch
 10
0.0
 20
0.0
 30
0.0
210
0.0
220
0.0
230
1.0
  2
SOLID
 70
     1
 71
     1
 91
        1
 92
        1
 93
        2
 72
     4
 94
        3
 73
     0
 74
     0
 95
        8
 96
        4
 40
0.0
 40
0.0
 40
0.0
 40
0.0
 40
1.0
 40
1.0
 40
1.0
 40
1.0
 10
166.3774112366782
 20
-426.9369954619487
 10
166.0214283025252
 20
-426.9369954619487
 10
165.735723003846
 20
-427.2247351860751
 10
165.735723003846
 20
-427.579818544349
 97
        0
 72
     1
 10
165.735723003846
 20
-427.5798185443491
 11
166.3774112366782
 21
-426.9369954619487
 97
        0
 75
     2
 76
     1
 98
        1
 10
0.0
 20
0.0
450
        0
451
        0
460
0.0
461
0.0
452
        0
462
0.0
453
        0
470

  0
SPLINE
  5
8E
330
84
100
AcDbEntity
  8
Camada 1
 62
   250
370
    35
100
AcDbSpline
210
0.0
220
0.0
230
1.0
 70
     8
 71
     3
 72
     8
 73
     4
 74
     0
 42
0.0000000001
 43
0.0000000001
 40
0.0
 40
0.0
 40
0.0
 40
0.0
 40
1.0
 40
1.0
 40
1.0
 40
1.0
 10
166.3774112366782
 20
-426.5515202786446
 30
0.0
 10
165.8082980177132
 20
-426.5515202786446
 30
0.0
 10
165.3479919610354
 20
-427.0118124956971
 30
0.0
 10
165.3479919610354
 20
-427.579818544349
 30
0.0
  0
HATCH
  5
8F
330
84
100
AcDbEntity
  8
Camada 1
 62
     7
440
 33554687
100
AcDbHatch
 10
0.0
 20
0.0
 30
0.0
210
0.0
220
0.0
230
1.0
  2
SOLID
 70
     1
 71
     1
 91
        1
 92
        1
 93
        2
 72
     4
 94
        3
 73
     0
 74
     0
 95
        8
 96
        4
 40
0.0
 40
0.0
 40
0.0
 40
0.0
 40
1.0
 40
1.0
 40
1.0
 40
1.0
 10
166.3774112366782
 20
-426.5515202786446
 10
165.8082980177132
 20
-426.5515202786446
 10
165.3479919610354
 20
-427.0118124956971
 10
165.3479919610354
 20
-427.579818544349
 97
        0
 72
     1
 10
165.3479919610354
 20
-427.579818544349
 11
166.3774112366782
 21
-426.5515202786446
 97
        0
 75
     2
 76
     1
 98
        1
 10
0.0
 20
0.0
450
        0
451
        0
460
0.0
461
0.0
452
        0
462
0.0
453
        0
470

  0
SPLINE
  5
90
330
84
100
AcDbEntity
  8
Camada 1
 62
   250
370
    35
100
AcDbSpline
210
0.0
220
0.0
230
1.0
 70
     8
 71
     3
 72
     8
 73
     4
 74
     0
 42
0.0000000001
 43
0.0000000001
 40
0.0
 40
0.0
 40
0.0
 40
0.0
 40
1.0
 40
1.0
 40
1.0
 40
1.0
 10
248.1361260387448
 20
-427.579818544349
 30
0.0
 10
248.1361260387448
 20
-427.0118124956971
 30
0.0
 10
247.6758199820661
 20
-426.5515202786446
 30
0.0
 10
247.1066790838431
 20
-426.5515202786446
 30
0.0
  0
HATCH
  5
91
330
84
100
AcDbEntity
  8
Camada 1
 62
     7
440
 33554687
100
AcDbHatch
 10
0.0
 20
0.0
 30
0.0
210
0.0
220
0.0
230
1.0
  2
SOLID
 70
     1
 71
     1
 91
        1
 92
        1
 93
        2
 72
     4
 94
        3
 73
     0
 74
     0
 95
        8
 96
        4
 40
0.0
 40
0.0
 40
0.0
 40
0.0
 40
1.0
 40
1.0
 40
1.0
 40
1.0
 10
248.1361260387448
 20
-427.579818544349
 10
248.1361260387448
 20
-427.0118124956971
 10
247.6758199820661
 20
-426.5515202786446
 10
247.1066790838431
 20
-426.5515202786446
 97
        0
 72
     1
 10
247.1066790838431
 20
-426.5515202786446
 11
248.1361260387448
 21
-427.579818544349
 97
        0
 75
     2
 76
     1
 98
        1
 10
0.0
 20
0.0
450
        0
451
        0
460
0.0
461
0.0
452
        0
462
0.0
453
        0
470

  0
SPLINE
  5
92
330
84
100
AcDbEntity
  8
Camada 1
 62
   250
370
    35
100
AcDbSpline
210
0.0
220
0.0
230
1.0
 70
     8
 71
     3
 72
     8
 73
     4
 74
     0
 42
0.0000000001
 43
0.0000000001
 40
0.0
 40
0.0
 40
0.0
 40
0.0
 40
1.0
 40
1.0
 40
1.0
 40
1.0
 10
247.7506646950697
 20
-427.579818544349
 30
0.0
 10
247.7506646950697
 20
-427.2247351860751
 30
0.0
 10
247.4626896972541
 20
-426.9369954619487
 30
0.0
 10
247.1066790838431
 20
-426.9369954619487
 30
0.0
  0
HATCH
  5
93
330
84
100
AcDbEntity
  8
Camada 1
 62
     7
440
 33554687
100
AcDbHatch
 10
0.0
 20
0.0
 30
0.0
210
0.0
220
0.0
230
1.0
  2
SOLID
 70
     1
 71
     1
 91
        1
 92
        1
 93
        2
 72
     4
 94
        3
 73
     0
 74
     0
 95
        8
 96
        4
 40
0.0
 40
0.0
 40
0.0
 40
0.0
 40
1.0
 40
1.0
 40
1.0
 40
1.0
 10
247.7506646950697
 20
-427.579818544349
 10
247.7506646950697
 20
-427.2247351860751
 10
247.4626896972541
 20
-426.9369954619487
 10
247.1066790838431
 20
-426.9369954619487
 97
        0
 72
     1
 10
247.1066790838431
 20
-426.9369954619487
 11
247.7506646950697
 21
-427.579818544349
 97
        0
 75
     2
 76
     1
 98
        1
 10
0.0
 20
0.0
450
        0
451
        0
460
0.0
461
0.0
452
        0
462
0.0
453
        0
470

  0
SPLINE
  5
94
330
84
100
AcDbEntity
  8
Camada 1
 62
   250
370
    35
100
AcDbSpline
210
0.0
220
0.0
230
1.0
 70
     8
 71
     3
 72
     8
 73
     4
 74
     0
 42
0.0000000001
 43
0.0000000001
 40
0.0
 40
0.0
 40
0.0
 40
0.0
 40
1.0
 40
1.0
 40
1.0
 40
1.0
 10
250.3197150047927
 20
-432.2075274901835
 30
0.0
 10
250.3197150047927
 20
-431.5331777331866
 30
0.0
 10
249.7732434186819
 20
-430.9864985526437
 30
0.0
 10
249.0998070771893
 20
-430.9864985526437
 30
0.0
  0
HATCH
  5
95
330
84
100
AcDbEntity
  8
Camada 1
 62
     7
440
 33554687
100
AcDbHatch
 10
0.0
 20
0.0
 30
0.0
210
0.0
220
0.0
230
1.0
  2
SOLID
 70
     1
 71
     1
 91
        1
 92
        1
 93
        2
 72
     4
 94
        3
 73
     0
 74
     0
 95
        8
 96
        4
 40
0.0
 40
0.0
 40
0.0
 40
0.0
 40
1.0
 40
1.0
 40
1.0
 40
1.0
 10
250.3197150047927
 20
-432.2075274901835
 10
250.3197150047927
 20
-431.5331777331866
 10
249.7732434186819
 20
-430.9864985526437
 10
249.0998070771893
 20
-430.9864985526437
 97
        0
 72
     1
 10
249.0998070771893
 20
-430.9864985526437
 11
250.3197150047927
 21
-432.2075274901835
 97
        0
 75
     2
 76
     1
 98
        1
 10
0.0
 20
0.0
450
        0
451
        0
460
0.0
461
0.0
452
        0
462
0.0
453
        0
470

  0
SPLINE
  5
96
330
84
100
AcDbEntity
  8
Camada 1
 62
   250
370
    35
100
AcDbSpline
210
0.0
220
0.0
230
1.0
 70
     8
 71
     3
 72
     8
 73
     4
 74
     0
 42
0.0000000001
 43
0.0000000001
 40
0.0
 40
0.0
 40
0.0
 40
0.0
 40
1.0
 40
1.0
 40
1.0
 40
1.0
 10
249.5487646381844
 20
-435.7854037077722
 30
0.0
 10
250.0158797922741
 20
-435.6008245773464
 30
0.0
 10
250.3197150047927
 20
-435.1509536008452
 30
0.0
 10
250.3197150047927
 20
-434.650069752277
 30
0.0
  0
HATCH
  5
97
330
84
100
AcDbEntity
  8
Camada 1
 62
     7
440
 33554687
100
AcDbHatch
 10
0.0
 20
0.0
 30
0.0
210
0.0
220
0.0
230
1.0
  2
SOLID
 70
     1
 71
     1
 91
        1
 92
        1
 93
        2
 72
     4
 94
        3
 73
     0
 74
     0
 95
        8
 96
        4
 40
0.0
 40
0.0
 40
0.0
 40
0.0
 40
1.0
 40
1.0
 40
1.0
 40
1.0
 10
249.5487646381844
 20
-435.7854037077722
 10
250.0158797922741
 20
-435.6008245773464
 10
250.3197150047927
 20
-435.1509536008452
 10
250.3197150047927
 20
-434.650069752277
 97
        0
 72
     1
 10
250.3197150047927
 20
-434.650069752277
 11
249.5487646381844
 21
-435.7854037077722
 97
        0
 75
     2
 76
     1
 98
        1
 10
0.0
 20
0.0
450
        0
451
        0
460
0.0
461
0.0
452
        0
462
0.0
453
        0
470

  0
SPLINE
  5
98
330
84
100
AcDbEntity
  8
Camada 1
 62
   250
370
    35
100
AcDbSpline
210
0.0
220
0.0
230
1.0
 70
     8
 71
     3
 72
     8
 73
     4
 74
     0
 42
0.0000000001
 43
0.0000000001
 40
0.0
 40
0.0
 40
0.0
 40
0.0
 40
1.0
 40
1.0
 40
1.0
 40
1.0
 10
163.1644029949875
 20
-434.650069752277
 30
0.0
 10
163.1644029949875
 20
-435.1509536008452
 30
0.0
 10
163.4682382075052
 20
-435.6008245773464
 30
0.0
 10
163.9353533615949
 20
-435.7854037077722
 30
0.0
  0
HATCH
  5
99
330
84
100
AcDbEntity
  8
Camada 1
 62
     7
440
 33554687
100
AcDbHatch
 10
0.0
 20
0.0
 30
0.0
210
0.0
220
0.0
230
1.0
  2
SOLID
 70
     1
 71
     1
 91
        1
 92
        1
 93
        2
 72
     4
 94
        3
 73
     0
 74
     0
 95
        8
 96
        4
 40
0.0
 40
0.0
 40
0.0
 40
0.0
 40
1.0
 40
1.0
 40
1.0
 40
1.0
 10
163.1644029949875
 20
-434.650069752277
 10
163.1644029949875
 20
-435.1509536008452
 10
163.4682382075052
 20
-435.6008245773464
 10
163.9353533615949
 20
-435.7854037077722
 97
        0
 72
     1
 10
163.9353533615949
 20
-435.7854037077723
 11
163.1644029949875
 21
-434.650069752277
 97
        0
 75
     2
 76
     1
 98
        1
 10
0.0
 20
0.0
450
        0
451
        0
460
0.0
461
0.0
452
        0
462
0.0
453
        0
470

  0
SPLINE
  5
9A
330
84
100
AcDbEntity
  8
Camada 1
 62
   250
370
    35
100
AcDbSpline
210
0.0
220
0.0
230
1.0
 70
     8
 71
     3
 72
     8
 73
     4
 74
     0
 42
0.0000000001
 43
0.0000000001
 40
0.0
 40
0.0
 40
0.0
 40
0.0
 40
1.0
 40
1.0
 40
1.0
 40
1.0
 10
164.384310922589
 20
-430.9864985526437
 30
0.0
 10
163.7108745810983
 20
-430.9864985526437
 30
0.0
 10
163.1644029949875
 20
-431.5331777331866
 30
0.0
 10
163.1644029949875
 20
-432.2075274901835
 30
0.0
  0
HATCH
  5
9B
330
84
100
AcDbEntity
  8
Camada 1
 62
     7
440
 33554687
100
AcDbHatch
 10
0.0
 20
0.0
 30
0.0
210
0.0
220
0.0
230
1.0
  2
SOLID
 70
     1
 71
     1
 91
        1
 92
        1
 93
        2
 72
     4
 94
        3
 73
     0
 74
     0
 95
        8
 96
        4
 40
0.0
 40
0.0
 40
0.0
 40
0.0
 40
1.0
 40
1.0
 40
1.0
 40
1.0
 10
164.384310922589
 20
-430.9864985526437
 10
163.7108745810983
 20
-430.9864985526437
 10
163.1644029949875
 20
-431.5331777331866
 10
163.1644029949875
 20
-432.2075274901835
 97
        0
 72
     1
 10
163.1644029949875
 20
-432.2075274901835
 11
164.384310922589
 21
-430.9864985526437
 97
        0
 75
     2
 76
     1
 98
        1
 10
0.0
 20
0.0
450
        0
451
        0
460
0.0
461
0.0
452
        0
462
0.0
453
        0
470

  0
SPLINE
  5
9C
330
84
100
AcDbEntity
  8
Camada 1
 62
   250
370
    35
100
AcDbSpline
210
0.0
220
0.0
230
1.0
 70
     8
 71
     3
 72
     8
 73
     4
 74
     0
 42
0.0000000001
 43
0.0000000001
 40
0.0
 40
0.0
 40
0.0
 40
0.0
 40
1.0
 40
1.0
 40
1.0
 40
1.0
 10
164.128084033432
 20
-431.7667353102315
 30
0.0
 10
164.0215188910261
 20
-431.7667353102315
 30
0.0
 10
163.9353533615949
 20
-431.8531222737256
 30
0.0
 10
163.9353533615949
 20
-431.9597012557587
 30
0.0
  0
HATCH
  5
9D
330
84
100
AcDbEntity
  8
Camada 1
 62
     7
440
 33554687
100
AcDbHatch
 10
0.0
 20
0.0
 30
0.0
210
0.0
220
0.0
230
1.0
  2
SOLID
 70
     1
 71
     1
 91
        1
 92
        1
 93
        2
 72
     4
 94
        3
 73
     0
 74
     0
 95
        8
 96
        4
 40
0.0
 40
0.0
 40
0.0
 40
0.0
 40
1.0
 40
1.0
 40
1.0
 40
1.0
 10
164.128084033432
 20
-431.7667353102315
 10
164.0215188910261
 20
-431.7667353102315
 10
163.9353533615949
 20
-431.8531222737256
 10
163.9353533615949
 20
-431.9597012557587
 97
        0
 72
     1
 10
163.9353533615949
 20
-431.9597012557587
 11
164.128084033432
 21
-431.7667353102315
 97
        0
 75
     2
 76
     1
 98
        1
 10
0.0
 20
0.0
450
        0
451
        0
460
0.0
461
0.0
452
        0
462
0.0
453
        0
470

  0
SPLINE
  5
9E
330
84
100
AcDbEntity
  8
Camada 1
 62
   250
370
    35
100
AcDbSpline
210
0.0
220
0.0
230
1.0
 70
     8
 71
     3
 72
     8
 73
     4
 74
     0
 42
0.0000000001
 43
0.0000000001
 40
0.0
 40
0.0
 40
0.0
 40
0.0
 40
1.0
 40
1.0
 40
1.0
 40
1.0
 10
163.9353533615949
 20
-437.3588034363274
 30
0.0
 10
163.9353533615949
 20
-437.4651471446704
 30
0.0
 10
164.0215188910261
 20
-437.5515479477926
 30
0.0
 10
164.128084033432
 20
-437.5515479477926
 30
0.0
  0
HATCH
  5
9F
330
84
100
AcDbEntity
  8
Camada 1
 62
     7
440
 33554687
100
AcDbHatch
 10
0.0
 20
0.0
 30
0.0
210
0.0
220
0.0
230
1.0
  2
SOLID
 70
     1
 71
     1
 91
        1
 92
        1
 93
        2
 72
     4
 94
        3
 73
     0
 74
     0
 95
        8
 96
        4
 40
0.0
 40
0.0
 40
0.0
 40
0.0
 40
1.0
 40
1.0
 40
1.0
 40
1.0
 10
163.9353533615949
 20
-437.3588034363274
 10
163.9353533615949
 20
-437.4651471446704
 10
164.0215188910261
 20
-437.5515479477926
 10
164.128084033432
 20
-437.5515479477926
 97
        0
 72
     1
 10
164.128084033432
 20
-437.5515479477926
 11
163.9353533615949
 21
-437.3588034363274
 97
        0
 75
     2
 76
     1
 98
        1
 10
0.0
 20
0.0
450
        0
451
        0
460
0.0
461
0.0
452
        0
462
0.0
453
        0
470

  0
LINE
  5
A0
330
84
100
AcDbEntity
  8
Camada 1
 62
   250
370
    35
100
AcDbLine
 10
164.128084033432
 20
-437.5515479477926
 30
0.0
 11
164.5770415944271
 21
-437.5515479477926
 31
0.0
  0
LINE
  5
A1
330
84
100
AcDbEntity
  8
Camada 1
 62
   250
370
    35
100
AcDbLine
 10
164.5770415944271
 20
-431.7667353102315
 30
0.0
 11
164.128084033432
 21
-431.7667353102315
 31
0.0
  0
LWPOLYLINE
  5
A2
330
84
100
AcDbEntity
  8
Camada 1
 62
   250
370
    35
100
AcDbPolyline
 90
       15
 70
     0
 43
0.0
 10
163.9353533615949
 20
-437.3588034363274
 10
163.9353533615949
 20
-437.2907816603619
 10
163.9353533615949
 20
-437.0910204570519
 10
163.9353533615949
 20
-436.7692629251268
 10
163.9353533615949
 20
-436.3418398266786
 10
163.9353533615949
 20
-435.8298427561167
 10
163.9353533615949
 20
-435.2593455742644
 10
163.9353533615949
 20
-434.6586918410721
 10
163.9353533615949
 20
-434.0580242682517
 10
163.9353533615949
 20
-433.4875270864013
 10
163.9353533615949
 20
-432.9757514499014
 10
163.9353533615949
 20
-432.5483421910794
 10
163.9353533615949
 20
-432.2268060932201
 10
163.9353533615949
 20
-432.0272663239702
 10
163.9353533615949
 20
-431.9597012557587
  0
HATCH
  5
A3
330
84
100
AcDbEntity
  8
Camada 1
 62
     7
440
 33554687
100
AcDbHatch
 10
0.0
 20
0.0
 30
0.0
210
0.0
220
0.0
230
1.0
  2
SOLID
 70
     1
 71
     1
 91
        1
 92
        3
 72
     0
 73
     1
 93
       15
 10
163.9353533615949
 20
-437.3588034363274
 10
163.9353533615949
 20
-437.2907816603619
 10
163.9353533615949
 20
-437.0910204570519
 10
163.9353533615949
 20
-436.7692629251268
 10
163.9353533615949
 20
-436.3418398266786
 10
163.9353533615949
 20
-435.8298427561167
 10
163.9353533615949
 20
-435.2593455742644
 10
163.9353533615949
 20
-434.6586918410721
 10
163.9353533615949
 20
-434.0580242682517
 10
163.9353533615949
 20
-433.4875270864013
 10
163.9353533615949
 20
-432.9757514499014
 10
163.9353533615949
 20
-432.5483421910794
 10
163.9353533615949
 20
-432.2268060932201
 10
163.9353533615949
 20
-432.0272663239702
 10
163.9353533615949
 20
-431.9597012557587
 97
        0
 75
     2
 76
     1
 98
        1
 10
0.0
 20
0.0
450
        0
451
        0
460
0.0
461
0.0
452
        0
462
0.0
453
        0
470

  0
LWPOLYLINE
  5
A4
330
84
100
AcDbEntity
  8
Camada 1
 62
   250
370
    35
100
AcDbPolyline
 90
       15
 70
     0
 43
0.0
 10
164.128084033432
 20
-431.7667353102315
 10
164.128084033432
 20
-431.8392964844697
 10
164.128084033432
 20
-432.0531187507258
 10
164.128084033432
 20
-432.3977808684503
 10
164.128084033432
 20
-432.8558033863646
 10
164.128084033432
 20
-433.4043093979216
 10
164.128084033432
 20
-434.0156196453535
 10
164.128084033432
 20
-434.6591347091962
 10
164.128084033432
 20
-435.3028712071045
 10
164.128084033432
 20
-435.9141952941663
 10
164.128084033432
 20
-436.4624660320314
 10
164.128084033432
 20
-436.920502389572
 10
164.128084033432
 20
-437.2651645072965
 10
164.128084033432
 20
-437.4789867735544
 10
164.128084033432
 20
-437.5515479477926
  0
HATCH
  5
A5
330
84
100
AcDbEntity
  8
Camada 1
 62
     7
440
 33554687
100
AcDbHatch
 10
0.0
 20
0.0
 30
0.0
210
0.0
220
0.0
230
1.0
  2
SOLID
 70
     1
 71
     1
 91
        1
 92
        3
 72
     0
 73
     1
 93
       15
 10
164.128084033432
 20
-431.7667353102315
 10
164.128084033432
 20
-431.8392964844697
 10
164.128084033432
 20
-432.0531187507258
 10
164.128084033432
 20
-432.3977808684503
 10
164.128084033432
 20
-432.8558033863646
 10
164.128084033432
 20
-433.4043093979216
 10
164.128084033432
 20
-434.0156196453535
 10
164.128084033432
 20
-434.6591347091962
 10
164.128084033432
 20
-435.3028712071045
 10
164.128084033432
 20
-435.9141952941663
 10
164.128084033432
 20
-436.4624660320314
 10
164.128084033432
 20
-436.920502389572
 10
164.128084033432
 20
-437.2651645072965
 10
164.128084033432
 20
-437.4789867735544
 10
164.128084033432
 20
-437.5515479477926
 97
        0
 75
     2
 76
     1
 98
        1
 10
0.0
 20
0.0
450
        0
451
        0
460
0.0
461
0.0
452
        0
462
0.0
453
        0
470

  0
LINE
  5
A6
330
84
100
AcDbEntity
  8
Camada 1
 62
   250
370
    35
100
AcDbLine
 10
164.5770415944271
 20
-430.9864985526437
 30
0.0
 11
164.384310922589
 21
-430.9864985526437
 31
0.0
  0
LWPOLYLINE
  5
A7
330
84
100
AcDbEntity
  8
Camada 1
 62
   250
370
    35
100
AcDbPolyline
 90
        4
 70
     0
 43
0.0
 10
164.384310922589
 20
-431.7667353102315
 10
164.384310922589
 20
-431.344308317808
 10
164.384310922589
 20
-431.0776463484726
 10
164.384310922589
 20
-430.9864985526437
  0
HATCH
  5
A8
330
84
100
AcDbEntity
  8
Camada 1
 62
     7
440
 33554687
100
AcDbHatch
 10
0.0
 20
0.0
 30
0.0
210
0.0
220
0.0
230
1.0
  2
SOLID
 70
     1
 71
     1
 91
        1
 92
        3
 72
     0
 73
     1
 93
        4
 10
164.384310922589
 20
-431.7667353102315
 10
164.384310922589
 20
-431.344308317808
 10
164.384310922589
 20
-431.0776463484726
 10
164.384310922589
 20
-430.9864985526437
 97
        0
 75
     2
 76
     1
 98
        1
 10
0.0
 20
0.0
450
        0
451
        0
460
0.0
461
0.0
452
        0
462
0.0
453
        0
470

  0
LWPOLYLINE
  5
A9
330
84
100
AcDbEntity
  8
Camada 1
 62
   250
370
    35
100
AcDbPolyline
 90
        3
 70
     0
 43
0.0
 10
163.1644029949875
 20
-434.650069752277
 10
163.1644029949875
 20
-434.6410047953595
 10
163.1644029949875
 20
-434.6142389530978
  0
HATCH
  5
AA
330
84
100
AcDbEntity
  8
Camada 1
 62
     7
440
 33554687
100
AcDbHatch
 10
0.0
 20
0.0
 30
0.0
210
0.0
220
0.0
230
1.0
  2
SOLID
 70
     1
 71
     1
 91
        1
 92
        3
 72
     0
 73
     1
 93
        3
 10
163.1644029949875
 20
-434.650069752277
 10
163.1644029949875
 20
-434.6410047953595
 10
163.1644029949875
 20
-434.6142389530978
 97
        0
 75
     2
 76
     1
 98
        1
 10
0.0
 20
0.0
450
        0
451
        0
460
0.0
461
0.0
452
        0
462
0.0
453
        0
470

  0
LWPOLYLINE
  5
AB
330
84
100
AcDbEntity
  8
Camada 1
 62
   250
370
    35
100
AcDbPolyline
 90
        9
 70
     0
 43
0.0
 10
163.1644029949875
 20
-434.6142389530978
 10
163.1644029949875
 20
-434.4332996450702
 10
163.1644029949875
 20
-434.1217419196346
 10
163.1644029949875
 20
-433.7201712479382
 10
163.1644029949875
 20
-433.2809567856783
 10
163.1644029949875
 20
-432.8607994923913
 10
163.1644029949875
 20
-432.5145458173465
 10
163.1644029949875
 20
-432.2868977618327
 10
163.1644029949875
 20
-432.2075274901835
  0
HATCH
  5
AC
330
84
100
AcDbEntity
  8
Camada 1
 62
     7
440
 33554687
100
AcDbHatch
 10
0.0
 20
0.0
 30
0.0
210
0.0
220
0.0
230
1.0
  2
SOLID
 70
     1
 71
     1
 91
        1
 92
        3
 72
     0
 73
     1
 93
        9
 10
163.1644029949875
 20
-434.6142389530978
 10
163.1644029949875
 20
-434.4332996450702
 10
163.1644029949875
 20
-434.1217419196346
 10
163.1644029949875
 20
-433.7201712479382
 10
163.1644029949875
 20
-433.2809567856783
 10
163.1644029949875
 20
-432.8607994923913
 10
163.1644029949875
 20
-432.5145458173465
 10
163.1644029949875
 20
-432.2868977618327
 10
163.1644029949875
 20
-432.2075274901835
 97
        0
 75
     2
 76
     1
 98
        1
 10
0.0
 20
0.0
450
        0
451
        0
460
0.0
461
0.0
452
        0
462
0.0
453
        0
470

  0
LINE
  5
AD
330
84
100
AcDbEntity
  8
Camada 1
 62
   250
370
    35
100
AcDbLine
 10
248.9070764053531
 20
-428.2961162164956
 30
0.0
 11
248.9070764053531
 21
-428.2868298255143
 31
0.0
  0
LINE
  5
AE
330
84
100
AcDbEntity
  8
Camada 1
 62
   250
370
    35
100
AcDbLine
 10
248.52158738242
 20
-428.2961162164956
 30
0.0
 11
248.52158738242
 21
-428.2868298255143
 31
0.0
  0
LINE
  5
AF
330
84
100
AcDbEntity
  8
Camada 1
 62
   250
370
    35
100
AcDbLine
 10
248.52158738242
 20
-428.2868298255143
 30
0.0
 11
248.9070764053531
 21
-428.2868298255143
 31
0.0
  0
LINE
  5
B0
330
84
100
AcDbEntity
  8
Camada 1
 62
   250
370
    35
100
AcDbLine
 10
164.5770415944271
 20
-428.2961162164956
 30
0.0
 11
164.5770415944271
 21
-428.2868298255143
 31
0.0
  0
LINE
  5
B1
330
84
100
AcDbEntity
  8
Camada 1
 62
   250
370
    35
100
AcDbLine
 10
164.9625029381013
 20
-428.2961162164956
 30
0.0
 11
164.9625029381013
 21
-428.2868298255143
 31
0.0
  0
LINE
  5
B2
330
84
100
AcDbEntity
  8
Camada 1
 62
   250
370
    35
100
AcDbLine
 10
164.9625029381013
 20
-428.2868298255143
 30
0.0
 11
164.5770415944271
 21
-428.2868298255143
 31
0.0
  0
LINE
  5
B3
330
84
100
AcDbEntity
  8
Camada 1
 62
   250
370
    35
100
AcDbLine
 10
164.5770415944271
 20
-498.3466641384985
 30
0.0
 11
164.5770415944271
 21
-498.3351011285649
 31
0.0
  0
LWPOLYLINE
  5
B4
330
84
100
AcDbEntity
  8
Camada 1
 62
   250
370
    35
100
AcDbPolyline
 90
        9
 70
     0
 43
0.0
 10
164.5770415944271
 20
-498.3466641384985
 10
164.5974412074011
 20
-498.5473387573147
 10
164.6563980264472
 20
-498.7402977830297
 10
164.7516423524257
 20
-498.9180678160428
 10
164.8786071078066
 20
-499.0740750326385
 10
165.0350779519685
 20
-499.2017317694626
 10
165.2119484091054
 20
-499.2969691756261
 10
165.4046790809434
 20
-499.3554692869202
 10
165.6064885493279
 20
-499.3751976778931
  0
HATCH
  5
B5
330
84
100
AcDbEntity
  8
Camada 1
 62
     7
440
 33554687
100
AcDbHatch
 10
0.0
 20
0.0
 30
0.0
210
0.0
220
0.0
230
1.0
  2
SOLID
 70
     1
 71
     1
 91
        1
 92
        3
 72
     0
 73
     1
 93
        9
 10
164.5770415944271
 20
-498.3466641384985
 10
164.5974412074011
 20
-498.5473387573147
 10
164.6563980264472
 20
-498.7402977830297
 10
164.7516423524257
 20
-498.9180678160428
 10
164.8786071078066
 20
-499.0740750326385
 10
165.0350779519685
 20
-499.2017317694626
 10
165.2119484091054
 20
-499.2969691756261
 10
165.4046790809434
 20
-499.3554692869202
 10
165.6064885493279
 20
-499.3751976778931
 97
        0
 75
     2
 76
     1
 98
        1
 10
0.0
 20
0.0
450
        0
451
        0
460
0.0
461
0.0
452
        0
462
0.0
453
        0
470

  0
LINE
  5
B6
330
84
100
AcDbEntity
  8
Camada 1
 62
   250
370
    35
100
AcDbLine
 10
248.9070764053531
 20
-498.3351011285649
 30
0.0
 11
248.9070764053531
 21
-498.3466641384985
 31
0.0
  0
LWPOLYLINE
  5
B7
330
84
100
AcDbEntity
  8
Camada 1
 62
   250
370
    35
100
AcDbPolyline
 90
        9
 70
     0
 43
0.0
 10
247.8776294504514
 20
-499.3751976778931
 10
248.0794389188368
 20
-499.3554692869202
 10
248.2721695906739
 20
-499.2969691756261
 10
248.4490400478108
 20
-499.2017317694626
 10
248.6054832127138
 20
-499.0740750326385
 10
248.7324756473536
 20
-498.9180678160428
 10
248.827719973332
 20
-498.7402977830297
 10
248.8866491131203
 20
-498.5473387573147
 10
248.9070764053531
 20
-498.3466641384985
  0
HATCH
  5
B8
330
84
100
AcDbEntity
  8
Camada 1
 62
     7
440
 33554687
100
AcDbHatch
 10
0.0
 20
0.0
 30
0.0
210
0.0
220
0.0
230
1.0
  2
SOLID
 70
     1
 71
     1
 91
        1
 92
        3
 72
     0
 73
     1
 93
        9
 10
247.8776294504514
 20
-499.3751976778931
 10
248.0794389188368
 20
-499.3554692869202
 10
248.2721695906739
 20
-499.2969691756261
 10
248.4490400478108
 20
-499.2017317694626
 10
248.6054832127138
 20
-499.0740750326385
 10
248.7324756473536
 20
-498.9180678160428
 10
248.827719973332
 20
-498.7402977830297
 10
248.8866491131203
 20
-498.5473387573147
 10
248.9070764053531
 20
-498.3466641384985
 97
        0
 75
     2
 76
     1
 98
        1
 10
0.0
 20
0.0
450
        0
451
        0
460
0.0
461
0.0
452
        0
462
0.0
453
        0
470

  0
LWPOLYLINE
  5
B9
330
84
100
AcDbEntity
  8
Camada 1
 62
   250
370
    35
100
AcDbPolyline
 90
        4
 70
     0
 43
0.0
 10
247.8776294504514
 20
-498.7813392024836
 10
247.8776294504514
 20
-499.0947099193035
 10
247.8776294504514
 20
-499.3024081497788
 10
247.8776294504514
 20
-499.3751976778931
  0
HATCH
  5
BA
330
84
100
AcDbEntity
  8
Camada 1
 62
     7
440
 33554687
100
AcDbHatch
 10
0.0
 20
0.0
 30
0.0
210
0.0
220
0.0
230
1.0
  2
SOLID
 70
     1
 71
     1
 91
        1
 92
        3
 72
     0
 73
     1
 93
        4
 10
247.8776294504514
 20
-498.7813392024836
 10
247.8776294504514
 20
-499.0947099193035
 10
247.8776294504514
 20
-499.3024081497788
 10
247.8776294504514
 20
-499.3751976778931
 97
        0
 75
     2
 76
     1
 98
        1
 10
0.0
 20
0.0
450
        0
451
        0
460
0.0
461
0.0
452
        0
462
0.0
453
        0
470

  0
LWPOLYLINE
  5
BB
330
84
100
AcDbEntity
  8
Camada 1
 62
   250
370
    35
100
AcDbPolyline
 90
        4
 70
     0
 43
0.0
 10
165.6064885493279
 20
-499.3751976778931
 10
165.6064885493279
 20
-499.3024081497788
 10
165.6064885493279
 20
-499.0947099193035
 10
165.6064885493279
 20
-498.7813392024836
  0
HATCH
  5
BC
330
84
100
AcDbEntity
  8
Camada 1
 62
     7
440
 33554687
100
AcDbHatch
 10
0.0
 20
0.0
 30
0.0
210
0.0
220
0.0
230
1.0
  2
SOLID
 70
     1
 71
     1
 91
        1
 92
        3
 72
     0
 73
     1
 93
        4
 10
165.6064885493279
 20
-499.3751976778931
 10
165.6064885493279
 20
-499.3024081497788
 10
165.6064885493279
 20
-499.0947099193035
 10
165.6064885493279
 20
-498.7813392024836
 97
        0
 75
     2
 76
     1
 98
        1
 10
0.0
 20
0.0
450
        0
451
        0
460
0.0
461
0.0
452
        0
462
0.0
453
        0
470

  0
LINE
  5
BD
330
84
100
AcDbEntity
  8
Camada 1
 62
   250
370
    35
100
AcDbLine
 10
247.8776294504514
 20
-499.3751976778931
 30
0.0
 11
165.6064885493279
 21
-499.3751976778931
 31
0.0
  0
LINE
  5
BE
330
84
100
AcDbEntity
  8
Camada 1
 62
   250
370
    35
100
AcDbLine
 10
165.6064885493279
 20
-428.5033646590327
 30
0.0
 11
247.8776294504514
 21
-428.5033646590327
 31
0.0
  0
LWPOLYLINE
  5
BF
330
84
100
AcDbEntity
  8
Camada 1
 62
   250
370
    35
100
AcDbPolyline
 90
        3
 70
     0
 43
0.0
 10
164.9806605311978
 20
-428.2958947824336
 10
165.2096787099681
 20
-428.4453212554945
 10
165.6064885493279
 20
-428.5033646590327
  0
HATCH
  5
C0
330
84
100
AcDbEntity
  8
Camada 1
 62
     7
440
 33554687
100
AcDbHatch
 10
0.0
 20
0.0
 30
0.0
210
0.0
220
0.0
230
1.0
  2
SOLID
 70
     1
 71
     1
 91
        1
 92
        3
 72
     0
 73
     1
 93
        3
 10
164.9806605311978
 20
-428.2958947824336
 10
165.2096787099681
 20
-428.4453212554945
 10
165.6064885493279
 20
-428.5033646590327
 97
        0
 75
     2
 76
     1
 98
        1
 10
0.0
 20
0.0
450
        0
451
        0
460
0.0
461
0.0
452
        0
462
0.0
453
        0
470

  0
LINE
  5
C1
330
84
100
AcDbEntity
  8
Camada 1
 62
   250
370
    35
100
AcDbLine
 10
164.9806605311978
 20
-428.2958947824336
 30
0.0
 11
164.5883900901108
 21
-428.2958947824336
 31
0.0
  0
LINE
  5
C2
330
84
100
AcDbEntity
  8
Camada 1
 62
   250
370
    35
100
AcDbLine
 10
248.5034574685824
 20
-428.2958947824336
 30
0.0
 11
248.8957279096676
 21
-428.2958947824336
 31
0.0
  0
LWPOLYLINE
  5
C3
330
84
100
AcDbEntity
  8
Camada 1
 62
   250
370
    35
100
AcDbPolyline
 90
        3
 70
     0
 43
0.0
 10
247.8776294504514
 20
-428.5033646590327
 10
248.2744392898112
 20
-428.4453212554945
 10
248.5034574685824
 20
-428.2958947824336
  0
HATCH
  5
C4
330
84
100
AcDbEntity
  8
Camada 1
 62
     7
440
 33554687
100
AcDbHatch
 10
0.0
 20
0.0
 30
0.0
210
0.0
220
0.0
230
1.0
  2
SOLID
 70
     1
 71
     1
 91
        1
 92
        3
 72
     0
 73
     1
 93
        3
 10
247.8776294504514
 20
-428.5033646590327
 10
248.2744392898112
 20
-428.4453212554945
 10
248.5034574685824
 20
-428.2958947824336
 97
        0
 75
     2
 76
     1
 98
        1
 10
0.0
 20
0.0
450
        0
451
        0
460
0.0
461
0.0
452
        0
462
0.0
453
        0
470

  0
LWPOLYLINE
  5
C5
330
84
100
AcDbEntity
  8
Camada 1
 62
   250
370
    35
100
AcDbPolyline
 90
        4
 70
     0
 43
0.0
 10
164.5883900901108
 20
-428.2958947824336
 10
164.7697722662633
 20
-428.4849994715023
 10
165.1371036961009
 20
-428.6183304561709
 10
165.6064885493279
 20
-428.6661740532217
  0
HATCH
  5
C6
330
84
100
AcDbEntity
  8
Camada 1
 62
     7
440
 33554687
100
AcDbHatch
 10
0.0
 20
0.0
 30
0.0
210
0.0
220
0.0
230
1.0
  2
SOLID
 70
     1
 71
     1
 91
        1
 92
        3
 72
     0
 73
     1
 93
        4
 10
164.5883900901108
 20
-428.2958947824336
 10
164.7697722662633
 20
-428.4849994715023
 10
165.1371036961009
 20
-428.6183304561709
 10
165.6064885493279
 20
-428.6661740532217
 97
        0
 75
     2
 76
     1
 98
        1
 10
0.0
 20
0.0
450
        0
451
        0
460
0.0
461
0.0
452
        0
462
0.0
453
        0
470

  0
LINE
  5
C7
330
84
100
AcDbEntity
  8
Camada 1
 62
   250
370
    35
100
AcDbLine
 10
164.5883900901108
 20
-428.2958947824336
 30
0.0
 11
164.5770415944271
 21
-428.2958947824336
 31
0.0
  0
LINE
  5
C8
330
84
100
AcDbEntity
  8
Camada 1
 62
   250
370
    35
100
AcDbLine
 10
164.5770415944271
 20
-498.3351011285649
 30
0.0
 11
164.5770415944271
 21
-428.2958947824336
 31
0.0
  0
LWPOLYLINE
  5
C9
330
84
100
AcDbEntity
  8
Camada 1
 62
   250
370
    35
100
AcDbPolyline
 90
       17
 70
     0
 43
0.0
 10
164.5770415944271
 20
-498.3351011285649
 10
164.5815809926998
 20
-498.3784122471588
 10
164.5974412074011
 20
-498.421266657997
 10
164.6223802186514
 20
-498.4634429270208
 10
164.6563980264472
 20
-498.5042559926005
 10
164.6994946307914
 20
-498.543705854734
 10
164.7516423524257
 20
-498.5808929375434
 10
164.8105991714719
 20
-498.6160386750944
 10
164.8786071078066
 20
-498.6482365716929
 10
164.9534518208111
 20
-498.6777149812168
 10
165.0350779519685
 20
-498.7037957618485
 10
165.1212434813997
 20
-498.7264650739598
 10
165.2119484091054
 20
-498.7452869692424
 10
165.3071650558258
 20
-498.7604828817565
 10
165.4046790809434
 20
-498.7715891839362
 10
165.5044351259375
 20
-498.7786197154073
 10
165.6064885493279
 20
-498.7813392024836
  0
HATCH
  5
CA
330
84
100
AcDbEntity
  8
Camada 1
 62
     7
440
 33554687
100
AcDbHatch
 10
0.0
 20
0.0
 30
0.0
210
0.0
220
0.0
230
1.0
  2
SOLID
 70
     1
 71
     1
 91
        1
 92
        3
 72
     0
 73
     1
 93
       17
 10
164.5770415944271
 20
-498.3351011285649
 10
164.5815809926998
 20
-498.3784122471588
 10
164.5974412074011
 20
-498.421266657997
 10
164.6223802186514
 20
-498.4634429270208
 10
164.6563980264472
 20
-498.5042559926005
 10
164.6994946307914
 20
-498.543705854734
 10
164.7516423524257
 20
-498.5808929375434
 10
164.8105991714719
 20
-498.6160386750944
 10
164.8786071078066
 20
-498.6482365716929
 10
164.9534518208111
 20
-498.6777149812168
 10
165.0350779519685
 20
-498.7037957618485
 10
165.1212434813997
 20
-498.7264650739598
 10
165.2119484091054
 20
-498.7452869692424
 10
165.3071650558258
 20
-498.7604828817565
 10
165.4046790809434
 20
-498.7715891839362
 10
165.5044351259375
 20
-498.7786197154073
 10
165.6064885493279
 20
-498.7813392024836
 97
        0
 75
     2
 76
     1
 98
        1
 10
0.0
 20
0.0
450
        0
451
        0
460
0.0
461
0.0
452
        0
462
0.0
453
        0
470

  0
LINE
  5
CB
330
84
100
AcDbEntity
  8
Camada 1
 62
   250
370
    35
100
AcDbLine
 10
165.6064885493279
 20
-428.6661740532217
 30
0.0
 11
247.8776294504514
 21
-428.6661740532217
 31
0.0
  0
LINE
  5
CC
330
84
100
AcDbEntity
  8
Camada 1
 62
   250
370
    35
100
AcDbLine
 10
165.6064885493279
 20
-498.7813392024836
 30
0.0
 11
165.6064885493279
 21
-428.6661740532217
 31
0.0
  0
LINE
  5
CD
330
84
100
AcDbEntity
  8
Camada 1
 62
   250
370
    35
100
AcDbLine
 10
165.6064885493279
 20
-498.7813392024836
 30
0.0
 11
247.8776294504514
 21
-498.7813392024836
 31
0.0
  0
LINE
  5
CE
330
84
100
AcDbEntity
  8
Camada 1
 62
   250
370
    35
100
AcDbLine
 10
248.9070764053531
 20
-498.3351011285649
 30
0.0
 11
248.9070764053531
 21
-428.2958947824336
 31
0.0
  0
LINE
  5
CF
330
84
100
AcDbEntity
  8
Camada 1
 62
   250
370
    35
100
AcDbLine
 10
248.8957279096676
 20
-428.2958947824336
 30
0.0
 11
248.9070764053531
 21
-428.2958947824336
 31
0.0
  0
LWPOLYLINE
  5
D0
330
84
100
AcDbEntity
  8
Camada 1
 62
   250
370
    35
100
AcDbPolyline
 90
        4
 70
     0
 43
0.0
 10
247.8776294504514
 20
-428.6661740532217
 10
248.3469866244204
 20
-428.6183304561709
 10
248.714345733516
 20
-428.4849994715023
 10
248.8957279096676
 20
-428.2958947824336
  0
HATCH
  5
D1
330
84
100
AcDbEntity
  8
Camada 1
 62
     7
440
 33554687
100
AcDbHatch
 10
0.0
 20
0.0
 30
0.0
210
0.0
220
0.0
230
1.0
  2
SOLID
 70
     1
 71
     1
 91
        1
 92
        3
 72
     0
 73
     1
 93
        4
 10
247.8776294504514
 20
-428.6661740532217
 10
248.3469866244204
 20
-428.6183304561709
 10
248.714345733516
 20
-428.4849994715023
 10
248.8957279096676
 20
-428.2958947824336
 97
        0
 75
     2
 76
     1
 98
        1
 10
0.0
 20
0.0
450
        0
451
        0
460
0.0
461
0.0
452
        0
462
0.0
453
        0
470

  0
LINE
  5
D2
330
84
100
AcDbEntity
  8
Camada 1
 62
   250
370
    35
100
AcDbLine
 10
247.8776294504514
 20
-428.6661740532217
 30
0.0
 11
247.8776294504514
 21
-498.7813392024836
 31
0.0
  0
LWPOLYLINE
  5
D3
330
84
100
AcDbEntity
  8
Camada 1
 62
   250
370
    35
100
AcDbPolyline
 90
       17
 70
     0
 43
0.0
 10
247.8776294504514
 20
-498.7813392024836
 10
247.9796551945838
 20
-498.7786197154073
 10
248.0794389188368
 20
-498.7715891839362
 10
248.1769252646955
 20
-498.7604828817565
 10
248.2721695906739
 20
-498.7452869692424
 10
248.3628745183796
 20
-498.7264650739598
 10
248.4490400478108
 20
-498.7037957618485
 10
248.5306661789673
 20
-498.6777149812168
 10
248.6054832127138
 20
-498.6482365716929
 10
248.6735188283073
 20
-498.6160386750944
 10
248.7324756473536
 20
-498.5808929375434
 10
248.7846233689879
 20
-498.543705854734
 10
248.827719973332
 20
-498.5042559926005
 10
248.8617101018717
 20
-498.4634429270208
 10
248.8866491131203
 20
-498.421266657997
 10
248.9025370070795
 20
-498.3784122471588
 10
248.9070764053531
 20
-498.3351011285649
  0
HATCH
  5
D4
330
84
100
AcDbEntity
  8
Camada 1
 62
     7
440
 33554687
100
AcDbHatch
 10
0.0
 20
0.0
 30
0.0
210
0.0
220
0.0
230
1.0
  2
SOLID
 70
     1
 71
     1
 91
        1
 92
        3
 72
     0
 73
     1
 93
       17
 10
247.8776294504514
 20
-498.7813392024836
 10
247.9796551945838
 20
-498.7786197154073
 10
248.0794389188368
 20
-498.7715891839362
 10
248.1769252646955
 20
-498.7604828817565
 10
248.2721695906739
 20
-498.7452869692424
 10
248.3628745183796
 20
-498.7264650739598
 10
248.4490400478108
 20
-498.7037957618485
 10
248.5306661789673
 20
-498.6777149812168
 10
248.6054832127138
 20
-498.6482365716929
 10
248.6735188283073
 20
-498.6160386750944
 10
248.7324756473536
 20
-498.5808929375434
 10
248.7846233689879
 20
-498.543705854734
 10
248.827719973332
 20
-498.5042559926005
 10
248.8617101018717
 20
-498.4634429270208
 10
248.8866491131203
 20
-498.421266657997
 10
248.9025370070795
 20
-498.3784122471588
 10
248.9070764053531
 20
-498.3351011285649
 97
        0
 75
     2
 76
     1
 98
        1
 10
0.0
 20
0.0
450
        0
451
        0
460
0.0
461
0.0
452
        0
462
0.0
453
        0
470

  0
LWPOLYLINE
  5
D5
330
84
100
AcDbEntity
  8
Camada 1
 62
   250
370
    35
100
AcDbPolyline
 90
       10
 70
     0
 43
0.0
 10
250.3197150047927
 20
-432.2075274901835
 10
250.3197150047927
 20
-432.2812235139918
 10
250.3197150047927
 20
-432.4934680625537
 10
250.3197150047927
 20
-432.8183948694913
 10
250.3197150047927
 20
-433.2170177002353
 10
250.3197150047927
 20
-433.6412576840429
 10
250.3197150047927
 20
-434.0396590807231
 10
250.3197150047927
 20
-434.3645858876607
 10
250.3197150047927
 20
-434.5765951625344
 10
250.3197150047927
 20
-434.650069752277
  0
HATCH
  5
D6
330
84
100
AcDbEntity
  8
Camada 1
 62
     7
440
 33554687
100
AcDbHatch
 10
0.0
 20
0.0
 30
0.0
210
0.0
220
0.0
230
1.0
  2
SOLID
 70
     1
 71
     1
 91
        1
 92
        3
 72
     0
 73
     1
 93
       10
 10
250.3197150047927
 20
-432.2075274901835
 10
250.3197150047927
 20
-432.2812235139918
 10
250.3197150047927
 20
-432.4934680625537
 10
250.3197150047927
 20
-432.8183948694913
 10
250.3197150047927
 20
-433.2170177002353
 10
250.3197150047927
 20
-433.6412576840429
 10
250.3197150047927
 20
-434.0396590807231
 10
250.3197150047927
 20
-434.3645858876607
 10
250.3197150047927
 20
-434.5765951625344
 10
250.3197150047927
 20
-434.650069752277
 97
        0
 75
     2
 76
     1
 98
        1
 10
0.0
 20
0.0
450
        0
451
        0
460
0.0
461
0.0
452
        0
462
0.0
453
        0
470

  0
LWPOLYLINE
  5
D7
330
84
100
AcDbEntity
  8
Camada 1
 62
   250
370
    35
100
AcDbPolyline
 90
        4
 70
     0
 43
0.0
 10
249.0998070771893
 20
-430.9864985526437
 10
249.0998070771893
 20
-431.0776463484726
 10
249.0998070771893
 20
-431.344308317808
 10
249.0998070771893
 20
-431.7669567442935
  0
HATCH
  5
D8
330
84
100
AcDbEntity
  8
Camada 1
 62
     7
440
 33554687
100
AcDbHatch
 10
0.0
 20
0.0
 30
0.0
210
0.0
220
0.0
230
1.0
  2
SOLID
 70
     1
 71
     1
 91
        1
 92
        3
 72
     0
 73
     1
 93
        4
 10
249.0998070771893
 20
-430.9864985526437
 10
249.0998070771893
 20
-431.0776463484726
 10
249.0998070771893
 20
-431.344308317808
 10
249.0998070771893
 20
-431.7669567442935
 97
        0
 75
     2
 76
     1
 98
        1
 10
0.0
 20
0.0
450
        0
451
        0
460
0.0
461
0.0
452
        0
462
0.0
453
        0
470

  0
LINE
  5
D9
330
84
100
AcDbEntity
  8
Camada 1
 62
   250
370
    35
100
AcDbLine
 10
249.0998070771893
 20
-430.9864985526437
 30
0.0
 11
248.9070764053531
 21
-430.9864985526437
 31
0.0
  0
LWPOLYLINE
  5
DA
330
84
100
AcDbEntity
  8
Camada 1
 62
   250
370
    35
100
AcDbPolyline
 90
        4
 70
     0
 43
0.0
 10
166.3774112366782
 20
-426.9369954619487
 10
166.3774112366782
 20
-427.031769240546
 10
166.3774112366782
 20
-427.2809655982309
 10
166.3774112366782
 20
-427.5929800314188
  0
HATCH
  5
DB
330
84
100
AcDbEntity
  8
Camada 1
 62
     7
440
 33554687
100
AcDbHatch
 10
0.0
 20
0.0
 30
0.0
210
0.0
220
0.0
230
1.0
  2
SOLID
 70
     1
 71
     1
 91
        1
 92
        3
 72
     0
 73
     1
 93
        4
 10
166.3774112366782
 20
-426.9369954619487
 10
166.3774112366782
 20
-427.031769240546
 10
166.3774112366782
 20
-427.2809655982309
 10
166.3774112366782
 20
-427.5929800314188
 97
        0
 75
     2
 76
     1
 98
        1
 10
0.0
 20
0.0
450
        0
451
        0
460
0.0
461
0.0
452
        0
462
0.0
453
        0
470

  0
LWPOLYLINE
  5
DC
330
84
100
AcDbEntity
  8
Camada 1
 62
   250
370
    35
100
AcDbPolyline
 90
        4
 70
     0
 43
0.0
 10
247.1066790838431
 20
-426.9369954619487
 10
247.1066790838431
 20
-427.031769240546
 10
247.1066790838431
 20
-427.2809655982309
 10
247.1066790838431
 20
-427.5929800314188
  0
HATCH
  5
DD
330
84
100
AcDbEntity
  8
Camada 1
 62
     7
440
 33554687
100
AcDbHatch
 10
0.0
 20
0.0
 30
0.0
210
0.0
220
0.0
230
1.0
  2
SOLID
 70
     1
 71
     1
 91
        1
 92
        3
 72
     0
 73
     1
 93
        4
 10
247.1066790838431
 20
-426.9369954619487
 10
247.1066790838431
 20
-427.031769240546
 10
247.1066790838431
 20
-427.2809655982309
 10
247.1066790838431
 20
-427.5929800314188
 97
        0
 75
     2
 76
     1
 98
        1
 10
0.0
 20
0.0
450
        0
451
        0
460
0.0
461
0.0
452
        0
462
0.0
453
        0
470

  0
LINE
  5
DE
330
84
100
AcDbEntity
  8
Camada 1
 62
   250
370
    35
100
AcDbLine
 10
166.3774112366782
 20
-427.5929800314188
 30
0.0
 11
166.3774112366782
 21
-428.5033646590327
 31
0.0
  0
LINE
  5
DF
330
84
100
AcDbEntity
  8
Camada 1
 62
   250
370
    35
100
AcDbLine
 10
247.1066790838431
 20
-427.5929800314188
 30
0.0
 11
247.1066790838431
 21
-428.5033646590327
 31
0.0
  0
LINE
  5
E0
330
84
100
AcDbEntity
  8
Camada 1
 62
   250
370
    35
100
AcDbLine
 10
166.3774112366782
 20
-427.5929800314188
 30
0.0
 11
247.1066790838431
 21
-427.5929800314188
 31
0.0
  0
LINE
  5
E1
330
84
100
AcDbEntity
  8
Camada 1
 62
   250
370
    35
100
AcDbLine
 10
247.1066790838431
 20
-426.9369954619487
 30
0.0
 11
166.3774112366782
 21
-426.9369954619487
 31
0.0
  0
LINE
  5
E2
330
84
100
AcDbEntity
  8
Camada 1
 62
   250
370
    35
100
AcDbLine
 10
247.1066790838431
 20
-426.5515202786446
 30
0.0
 11
166.3774112366782
 21
-426.5515202786446
 31
0.0
  0
LINE
  5
E3
330
84
100
AcDbEntity
  8
Camada 1
 62
   250
370
    35
100
AcDbLine
 10
165.3479919610354
 20
-428.4806953469196
 30
0.0
 11
165.3479919610354
 21
-427.579818544349
 31
0.0
  0
LINE
  5
E4
330
84
100
AcDbEntity
  8
Camada 1
 62
   250
370
    35
100
AcDbLine
 10
165.735723003846
 20
-427.579818544349
 30
0.0
 11
165.735723003846
 21
-428.5033646590327
 31
0.0
  0
LINE
  5
E5
330
84
100
AcDbEntity
  8
Camada 1
 62
   250
370
    35
100
AcDbLine
 10
165.3479919610354
 20
-427.579818544349
 30
0.0
 11
165.735723003846
 21
-427.579818544349
 31
0.0
  0
LINE
  5
E6
330
84
100
AcDbEntity
  8
Camada 1
 62
   250
370
    35
100
AcDbLine
 10
248.1361260387448
 20
-427.579818544349
 30
0.0
 11
248.1361260387448
 21
-428.4806953469196
 31
0.0
  0
LINE
  5
E7
330
84
100
AcDbEntity
  8
Camada 1
 62
   250
370
    35
100
AcDbLine
 10
247.7506646950697
 20
-428.5033646590327
 30
0.0
 11
247.7506646950697
 21
-427.579818544349
 31
0.0
  0
LINE
  5
E8
330
84
100
AcDbEntity
  8
Camada 1
 62
   250
370
    35
100
AcDbLine
 10
247.7506646950697
 20
-427.579818544349
 30
0.0
 11
248.1361260387448
 21
-427.579818544349
 31
0.0
  0
LWPOLYLINE
  5
E9
330
84
100
AcDbEntity
  8
Camada 1
 62
   250
370
    35
100
AcDbPolyline
 90
       15
 70
     0
 43
0.0
 10
249.5487646381844
 20
-431.9597012557587
 10
249.5487646381844
 20
-432.0275015976622
 10
249.5487646381844
 20
-432.227262800974
 10
249.5487646381844
 20
-432.5490203328954
 10
249.5487646381844
 20
-432.9766648654076
 10
249.5487646381844
 20
-433.4884405019056
 10
249.5487646381844
 20
-434.0591591178217
 10
249.5487646381844
 20
-434.6598128510122
 10
249.5487646381844
 20
-435.2602451501424
 10
249.5487646381844
 20
-435.8307423319947
 10
249.5487646381844
 20
-436.3425179684927
 10
249.5487646381844
 20
-436.7699410669429
 10
249.5487646381844
 20
-437.0914633251759
 10
249.5487646381844
 20
-437.2910030944222
 10
249.5487646381844
 20
-437.3588034363274
  0
HATCH
  5
EA
330
84
100
AcDbEntity
  8
Camada 1
 62
     7
440
 33554687
100
AcDbHatch
 10
0.0
 20
0.0
 30
0.0
210
0.0
220
0.0
230
1.0
  2
SOLID
 70
     1
 71
     1
 91
        1
 92
        3
 72
     0
 73
     1
 93
       15
 10
249.5487646381844
 20
-431.9597012557587
 10
249.5487646381844
 20
-432.0275015976622
 10
249.5487646381844
 20
-432.227262800974
 10
249.5487646381844
 20
-432.5490203328954
 10
249.5487646381844
 20
-432.9766648654076
 10
249.5487646381844
 20
-433.4884405019056
 10
249.5487646381844
 20
-434.0591591178217
 10
249.5487646381844
 20
-434.6598128510122
 10
249.5487646381844
 20
-435.2602451501424
 10
249.5487646381844
 20
-435.8307423319947
 10
249.5487646381844
 20
-436.3425179684927
 10
249.5487646381844
 20
-436.7699410669429
 10
249.5487646381844
 20
-437.0914633251759
 10
249.5487646381844
 20
-437.2910030944222
 10
249.5487646381844
 20
-437.3588034363274
 97
        0
 75
     2
 76
     1
 98
        1
 10
0.0
 20
0.0
450
        0
451
        0
460
0.0
461
0.0
452
        0
462
0.0
453
        0
470

  0
LWPOLYLINE
  5
EB
330
84
100
AcDbEntity
  8
Camada 1
 62
   250
370
    35
100
AcDbPolyline
 90
       15
 70
     0
 43
0.0
 10
249.3560339663472
 20
-437.5515479477926
 10
249.3560339663472
 20
-437.4789867735544
 10
249.3560339663472
 20
-437.2651645072965
 10
249.3560339663472
 20
-436.920502389572
 10
249.3560339663472
 20
-436.4624660320314
 10
249.3560339663472
 20
-435.9141952941663
 10
249.3560339663472
 20
-435.3028712071045
 10
249.3560339663472
 20
-434.6591347091962
 10
249.3560339663472
 20
-434.0156196453535
 10
249.3560339663472
 20
-433.4043093979216
 10
249.3560339663472
 20
-432.8558033863646
 10
249.3560339663472
 20
-432.3977808684503
 10
249.3560339663472
 20
-432.0531187507258
 10
249.3560339663472
 20
-431.8392964844697
 10
249.3560339663472
 20
-431.7667353102315
  0
HATCH
  5
EC
330
84
100
AcDbEntity
  8
Camada 1
 62
     7
440
 33554687
100
AcDbHatch
 10
0.0
 20
0.0
 30
0.0
210
0.0
220
0.0
230
1.0
  2
SOLID
 70
     1
 71
     1
 91
        1
 92
        3
 72
     0
 73
     1
 93
       15
 10
249.3560339663472
 20
-437.5515479477926
 10
249.3560339663472
 20
-437.4789867735544
 10
249.3560339663472
 20
-437.2651645072965
 10
249.3560339663472
 20
-436.920502389572
 10
249.3560339663472
 20
-436.4624660320314
 10
249.3560339663472
 20
-435.9141952941663
 10
249.3560339663472
 20
-435.3028712071045
 10
249.3560339663472
 20
-434.6591347091962
 10
249.3560339663472
 20
-434.0156196453535
 10
249.3560339663472
 20
-433.4043093979216
 10
249.3560339663472
 20
-432.8558033863646
 10
249.3560339663472
 20
-432.3977808684503
 10
249.3560339663472
 20
-432.0531187507258
 10
249.3560339663472
 20
-431.8392964844697
 10
249.3560339663472
 20
-431.7667353102315
 97
        0
 75
     2
 76
     1
 98
        1
 10
0.0
 20
0.0
450
        0
451
        0
460
0.0
461
0.0
452
        0
462
0.0
453
        0
470

  0
LINE
  5
ED
330
84
100
AcDbEntity
  8
Camada 1
 62
   250
370
    35
100
AcDbLine
 10
249.3560339663472
 20
-431.7667353102315
 30
0.0
 11
248.9070764053531
 21
-431.7667353102315
 31
0.0
  0
LINE
  5
EE
330
84
100
AcDbEntity
  8
Camada 1
 62
   250
370
    35
100
AcDbLine
 10
248.9070764053531
 20
-437.5515479477926
 30
0.0
 11
249.3560339663472
 21
-437.5515479477926
 31
0.0
  0
ENDBLK
  5
87
330
84
100
AcDbEntity
  8
0
100
AcDbBlockEnd
  0
BLOCK
  5
F1
330
EF
100
AcDbEntity
  8
0
100
AcDbBlockBegin
  2
Block_1
 70
     0
 10
0.0
 20
0.0
 30
0.0
  3
Block_1
  1

  0
SPLINE
  5
F3
330
EF
100
AcDbEntity
  8
Camada 1
 62
   250
370
    35
100
AcDbSpline
210
0.0
220
0.0
230
1.0
 70
     8
 71
     3
 72
     8
 73
     4
 74
     0
 42
0.0000000001
 43
0.0000000001
 40
0.0
 40
0.0
 40
0.0
 40
0.0
 40
1.0
 40
1.0
 40
1.0
 40
1.0
 10
302.5963298973147
 20
-161.0946920590622
 30
0.0
 10
302.9319132184919
 20
-160.6706735093175
 30
0.0
 10
303.1269135894654
 20
-160.153680332729
 30
0.0
 10
303.1518526007149
 20
-159.6162875431664
 30
0.0
  0
HATCH
  5
F4
330
EF
100
AcDbEntity
  8
Camada 1
 62
     7
440
 33554687
100
AcDbHatch
 10
0.0
 20
0.0
 30
0.0
210
0.0
220
0.0
230
1.0
  2
SOLID
 70
     1
 71
     1
 91
        1
 92
        1
 93
        2
 72
     4
 94
        3
 73
     0
 74
     0
 95
        8
 96
        4
 40
0.0
 40
0.0
 40
0.0
 40
0.0
 40
1.0
 40
1.0
 40
1.0
 40
1.0
 10
302.5963298973147
 20
-161.0946920590622
 10
302.9319132184919
 20
-160.6706735093175
 10
303.1269135894654
 20
-160.153680332729
 10
303.1518526007149
 20
-159.6162875431664
 97
        0
 72
     1
 10
303.1518526007149
 20
-159.6162875431664
 11
302.5963298973147
 21
-161.0946920590622
 97
        0
 75
     2
 76
     1
 98
        1
 10
0.0
 20
0.0
450
        0
451
        0
460
0.0
461
0.0
452
        0
462
0.0
453
        0
470

  0
SPLINE
  5
F5
330
EF
100
AcDbEntity
  8
Camada 1
 62
   250
370
    35
100
AcDbSpline
210
0.0
220
0.0
230
1.0
 70
     8
 71
     3
 72
     8
 73
     4
 74
     0
 42
0.0000000001
 43
0.0000000001
 40
0.0
 40
0.0
 40
0.0
 40
0.0
 40
1.0
 40
1.0
 40
1.0
 40
1.0
 10
303.3967309941854
 20
-158.9496602990857
 30
0.0
 10
303.2675242189271
 20
-159.151442088214
 30
0.0
 10
303.1836007093734
 20
-159.3781905678479
 30
0.0
 10
303.1518526007149
 20
-159.6162875431664
 30
0.0
  0
HATCH
  5
F6
330
EF
100
AcDbEntity
  8
Camada 1
 62
     7
440
 33554687
100
AcDbHatch
 10
0.0
 20
0.0
 30
0.0
210
0.0
220
0.0
230
1.0
  2
SOLID
 70
     1
 71
     1
 91
        1
 92
        1
 93
        2
 72
     4
 94
        3
 73
     0
 74
     0
 95
        8
 96
        4
 40
0.0
 40
0.0
 40
0.0
 40
0.0
 40
1.0
 40
1.0
 40
1.0
 40
1.0
 10
303.3967309941854
 20
-158.9496602990857
 10
303.2675242189271
 20
-159.151442088214
 10
303.1836007093734
 20
-159.3781905678479
 10
303.1518526007149
 20
-159.6162875431664
 97
        0
 72
     1
 10
303.1518526007149
 20
-159.6162875431664
 11
303.3967309941854
 21
-158.9496602990857
 97
        0
 75
     2
 76
     1
 98
        1
 10
0.0
 20
0.0
450
        0
451
        0
460
0.0
461
0.0
452
        0
462
0.0
453
        0
470

  0
SPLINE
  5
F7
330
EF
100
AcDbEntity
  8
Camada 1
 62
   250
370
    35
100
AcDbSpline
210
0.0
220
0.0
230
1.0
 70
     8
 71
     3
 72
    11
 73
     7
 74
     0
 42
0.0000000001
 43
0.0000000001
 40
0.0
 40
0.0
 40
0.0
 40
0.0
 40
1.0
 40
1.0
 40
1.0
 40
2.0
 40
2.0
 40
2.0
 40
2.0
 10
294.9277084949608
 20
-382.5714909757744
 30
0.0
 10
294.9662380217723
 20
-382.924083200849
 30
0.0
 10
295.2859611282511
 20
-383.1771408149916
 30
0.0
 10
295.6374046641286
 20
-383.1367844571659
 30
0.0
 10
295.669152772789
 20
-383.1331446347686
 30
0.0
 10
295.7009008814475
 20
-383.1272489528656
 30
0.0
 10
295.7303792909698
 20
-383.1193188455154
 30
0.0
  0
HATCH
  5
F8
330
EF
100
AcDbEntity
  8
Camada 1
 62
     7
440
 33554687
100
AcDbHatch
 10
0.0
 20
0.0
 30
0.0
210
0.0
220
0.0
230
1.0
  2
SOLID
 70
     1
 71
     1
 91
        1
 92
        1
 93
        2
 72
     4
 94
        3
 73
     0
 74
     0
 95
       11
 96
        7
 40
0.0
 40
0.0
 40
0.0
 40
0.0
 40
1.0
 40
1.0
 40
1.0
 40
2.0
 40
2.0
 40
2.0
 40
2.0
 10
294.9277084949608
 20
-382.5714909757744
 10
294.9662380217723
 20
-382.924083200849
 10
295.2859611282511
 20
-383.1771408149916
 10
295.6374046641286
 20
-383.1367844571659
 10
295.669152772789
 20
-383.1331446347686
 10
295.7009008814475
 20
-383.1272489528656
 10
295.7303792909698
 20
-383.1193188455154
 97
        0
 72
     1
 10
295.7303792909698
 20
-383.1193188455154
 11
294.9277084949608
 21
-382.5714909757744
 97
        0
 75
     2
 76
     1
 98
        1
 10
0.0
 20
0.0
450
        0
451
        0
460
0.0
461
0.0
452
        0
462
0.0
453
        0
470

  0
SPLINE
  5
F9
330
EF
100
AcDbEntity
  8
Camada 1
 62
   250
370
    35
100
AcDbSpline
210
0.0
220
0.0
230
1.0
 70
     8
 71
     3
 72
    11
 73
     7
 74
     0
 42
0.0000000001
 43
0.0000000001
 40
0.0
 40
0.0
 40
0.0
 40
0.0
 40
1.0
 40
1.0
 40
1.0
 40
2.0
 40
2.0
 40
2.0
 40
2.0
 10
294.2837228837361
 20
-382.5714909757744
 30
0.0
 10
294.2837228837361
 20
-382.8553832830694
 30
0.0
 10
294.5150107616428
 20
-383.0857577454699
 30
0.0
 10
294.7984463611874
 20
-383.0857577454699
 30
0.0
 10
294.8460546845435
 20
-383.0857577454699
 30
0.0
 10
294.8936906871641
 20
-383.0789624876889
 30
0.0
 10
294.9390293113865
 20
-383.06580100062
 30
0.0
  0
HATCH
  5
FA
330
EF
100
AcDbEntity
  8
Camada 1
 62
     7
440
 33554687
100
AcDbHatch
 10
0.0
 20
0.0
 30
0.0
210
0.0
220
0.0
230
1.0
  2
SOLID
 70
     1
 71
     1
 91
        1
 92
        1
 93
        2
 72
     4
 94
        3
 73
     0
 74
     0
 95
       11
 96
        7
 40
0.0
 40
0.0
 40
0.0
 40
0.0
 40
1.0
 40
1.0
 40
1.0
 40
2.0
 40
2.0
 40
2.0
 40
2.0
 10
294.2837228837361
 20
-382.5714909757744
 10
294.2837228837361
 20
-382.8553832830694
 10
294.5150107616428
 20
-383.0857577454699
 10
294.7984463611874
 20
-383.0857577454699
 10
294.8460546845435
 20
-383.0857577454699
 10
294.8936906871641
 20
-383.0789624876889
 10
294.9390293113865
 20
-383.06580100062
 97
        0
 72
     1
 10
294.9390293113865
 20
-383.06580100062
 11
294.2837228837361
 21
-382.5714909757744
 97
        0
 75
     2
 76
     1
 98
        1
 10
0.0
 20
0.0
450
        0
451
        0
460
0.0
461
0.0
452
        0
462
0.0
453
        0
470

  0
SPLINE
  5
FB
330
EF
100
AcDbEntity
  8
Camada 1
 62
   250
370
    35
100
AcDbSpline
210
0.0
220
0.0
230
1.0
 70
     8
 71
     3
 72
    11
 73
     7
 74
     0
 42
0.0000000001
 43
0.0000000001
 40
0.0
 40
0.0
 40
0.0
 40
0.0
 40
1.0
 40
1.0
 40
1.0
 40
2.0
 40
2.0
 40
2.0
 40
2.0
 10
293.89826154006
 20
-382.5714909757744
 30
0.0
 10
293.89826154006
 20
-383.0685274075113
 30
0.0
 10
294.301880476829
 20
-383.471232928774
 30
0.0
 10
294.7984463611874
 20
-383.471232928774
 30
0.0
 10
294.8823421914785
 20
-383.471232928774
 30
0.0
 10
294.9662380217723
 20
-383.4596629990274
 30
0.0
 10
295.0455944537935
 20
-383.4365369791631
 30
0.0
  0
HATCH
  5
FC
330
EF
100
AcDbEntity
  8
Camada 1
 62
     7
440
 33554687
100
AcDbHatch
 10
0.0
 20
0.0
 30
0.0
210
0.0
220
0.0
230
1.0
  2
SOLID
 70
     1
 71
     1
 91
        1
 92
        1
 93
        2
 72
     4
 94
        3
 73
     0
 74
     0
 95
       11
 96
        7
 40
0.0
 40
0.0
 40
0.0
 40
0.0
 40
1.0
 40
1.0
 40
1.0
 40
2.0
 40
2.0
 40
2.0
 40
2.0
 10
293.89826154006
 20
-382.5714909757744
 10
293.89826154006
 20
-383.0685274075113
 10
294.301880476829
 20
-383.471232928774
 10
294.7984463611874
 20
-383.471232928774
 10
294.8823421914785
 20
-383.471232928774
 10
294.9662380217723
 20
-383.4596629990274
 10
295.0455944537935
 20
-383.4365369791631
 97
        0
 72
     1
 10
295.0455944537935
 20
-383.4365369791631
 11
293.89826154006
 21
-382.5714909757744
 97
        0
 75
     2
 76
     1
 98
        1
 10
0.0
 20
0.0
450
        0
451
        0
460
0.0
461
0.0
452
        0
462
0.0
453
        0
470

  0
SPLINE
  5
FD
330
EF
100
AcDbEntity
  8
Camada 1
 62
   250
370
    35
100
AcDbSpline
210
0.0
220
0.0
230
1.0
 70
     8
 71
     3
 72
     8
 73
     4
 74
     0
 42
0.0000000001
 43
0.0000000001
 40
0.0
 40
0.0
 40
0.0
 40
0.0
 40
1.0
 40
1.0
 40
1.0
 40
1.0
 10
348.9890632946099
 20
-183.8965047778583
 30
0.0
 10
350.2134829412262
 20
-183.8965047778583
 30
0.0
 10
351.4107215567183
 20
-183.5473309411163
 30
0.0
 10
352.4424382107554
 20
-182.889754814325
 30
0.0
  0
HATCH
  5
FE
330
EF
100
AcDbEntity
  8
Camada 1
 62
     7
440
 33554687
100
AcDbHatch
 10
0.0
 20
0.0
 30
0.0
210
0.0
220
0.0
230
1.0
  2
SOLID
 70
     1
 71
     1
 91
        1
 92
        1
 93
        2
 72
     4
 94
        3
 73
     0
 74
     0
 95
        8
 96
        4
 40
0.0
 40
0.0
 40
0.0
 40
0.0
 40
1.0
 40
1.0
 40
1.0
 40
1.0
 10
348.9890632946099
 20
-183.8965047778583
 10
350.2134829412262
 20
-183.8965047778583
 10
351.4107215567183
 20
-183.5473309411163
 10
352.4424382107554
 20
-182.889754814325
 97
        0
 72
     1
 10
352.4424382107554
 20
-182.889754814325
 11
348.9890632946099
 21
-183.8965047778583
 97
        0
 75
     2
 76
     1
 98
        1
 10
0.0
 20
0.0
450
        0
451
        0
460
0.0
461
0.0
452
        0
462
0.0
453
        0
470

  0
SPLINE
  5
FF
330
EF
100
AcDbEntity
  8
Camada 1
 62
   250
370
    35
100
AcDbSpline
210
0.0
220
0.0
230
1.0
 70
     8
 71
     3
 72
    11
 73
     7
 74
     0
 42
0.0000000001
 43
0.0000000001
 40
0.0
 40
0.0
 40
0.0
 40
0.0
 40
1.0
 40
1.0
 40
1.0
 40
2.0
 40
2.0
 40
2.0
 40
2.0
 10
295.632892945112
 20
-376.7574352023794
 30
0.0
 10
295.632892945112
 20
-379.5986002952177
 30
0.0
 10
297.9366375691297
 20
-381.9003243334191
 30
0.0
 10
300.7755329628308
 20
-381.9003243334191
 30
0.0
 10
301.1927424151636
 20
-381.9003243334191
 30
0.0
 10
301.6077098476198
 20
-381.8495328954141
 30
0.0
 10
302.0113287843906
 20
-381.7495277371008
 30
0.0
  0
HATCH
  5
100
330
EF
100
AcDbEntity
  8
Camada 1
 62
     7
440
 33554687
100
AcDbHatch
 10
0.0
 20
0.0
 30
0.0
210
0.0
220
0.0
230
1.0
  2
SOLID
 70
     1
 71
     1
 91
        1
 92
        1
 93
        2
 72
     4
 94
        3
 73
     0
 74
     0
 95
       11
 96
        7
 40
0.0
 40
0.0
 40
0.0
 40
0.0
 40
1.0
 40
1.0
 40
1.0
 40
2.0
 40
2.0
 40
2.0
 40
2.0
 10
295.632892945112
 20
-376.7574352023794
 10
295.632892945112
 20
-379.5986002952177
 10
297.9366375691297
 20
-381.9003243334191
 10
300.7755329628308
 20
-381.9003243334191
 10
301.1927424151636
 20
-381.9003243334191
 10
301.6077098476198
 20
-381.8495328954141
 10
302.0113287843906
 20
-381.7495277371008
 97
        0
 72
     1
 10
302.0113287843906
 20
-381.7495277371009
 11
295.632892945112
 21
-376.7574352023794
 97
        0
 75
     2
 76
     1
 98
        1
 10
0.0
 20
0.0
450
        0
451
        0
460
0.0
461
0.0
452
        0
462
0.0
453
        0
470

  0
SPLINE
  5
101
330
EF
100
AcDbEntity
  8
Camada 1
 62
   250
370
    35
100
AcDbSpline
210
0.0
220
0.0
230
1.0
 70
     8
 71
     3
 72
     8
 73
     4
 74
     0
 42
0.0000000001
 43
0.0000000001
 40
0.0
 40
0.0
 40
0.0
 40
0.0
 40
1.0
 40
1.0
 40
1.0
 40
1.0
 10
349.0480201136543
 20
-183.8330362397955
 30
0.0
 10
350.270170061136
 20
-183.8330362397955
 30
0.0
 10
351.4696783757627
 20
-183.4838347237973
 30
0.0
 10
352.5013950297998
 20
-182.826258597006
 30
0.0
  0
HATCH
  5
102
330
EF
100
AcDbEntity
  8
Camada 1
 62
     7
440
 33554687
100
AcDbHatch
 10
0.0
 20
0.0
 30
0.0
210
0.0
220
0.0
230
1.0
  2
SOLID
 70
     1
 71
     1
 91
        1
 92
        1
 93
        2
 72
     4
 94
        3
 73
     0
 74
     0
 95
        8
 96
        4
 40
0.0
 40
0.0
 40
0.0
 40
0.0
 40
1.0
 40
1.0
 40
1.0
 40
1.0
 10
349.0480201136543
 20
-183.8330362397955
 10
350.270170061136
 20
-183.8330362397955
 10
351.4696783757627
 20
-183.4838347237973
 10
352.5013950297998
 20
-182.826258597006
 97
        0
 72
     1
 10
352.5013950297998
 20
-182.826258597006
 11
349.0480201136543
 21
-183.8330362397955
 97
        0
 75
     2
 76
     1
 98
        1
 10
0.0
 20
0.0
450
        0
451
        0
460
0.0
461
0.0
452
        0
462
0.0
453
        0
470

  0
SPLINE
  5
103
330
EF
100
AcDbEntity
  8
Camada 1
 62
   250
370
    35
100
AcDbSpline
210
0.0
220
0.0
230
1.0
 70
     8
 71
     3
 72
     8
 73
     4
 74
     0
 42
0.0000000001
 43
0.0000000001
 40
0.0
 40
0.0
 40
0.0
 40
0.0
 40
1.0
 40
1.0
 40
1.0
 40
1.0
 10
366.7230530294328
 20
-174.4342951514063
 30
0.0
 10
366.7230530294328
 20
-174.0352156129102
 30
0.0
 10
366.4894954523861
 20
-173.6724235813453
 30
0.0
 10
366.1290007992175
 20
-173.5023622216204
 30
0.0
  0
HATCH
  5
104
330
EF
100
AcDbEntity
  8
Camada 1
 62
     7
440
 33554687
100
AcDbHatch
 10
0.0
 20
0.0
 30
0.0
210
0.0
220
0.0
230
1.0
  2
SOLID
 70
     1
 71
     1
 91
        1
 92
        1
 93
        2
 72
     4
 94
        3
 73
     0
 74
     0
 95
        8
 96
        4
 40
0.0
 40
0.0
 40
0.0
 40
0.0
 40
1.0
 40
1.0
 40
1.0
 40
1.0
 10
366.7230530294328
 20
-174.4342951514063
 10
366.7230530294328
 20
-174.0352156129102
 10
366.4894954523861
 20
-173.6724235813453
 10
366.1290007992175
 20
-173.5023622216204
 97
        0
 72
     1
 10
366.1290007992175
 20
-173.5023622216204
 11
366.7230530294328
 21
-174.4342951514063
 97
        0
 75
     2
 76
     1
 98
        1
 10
0.0
 20
0.0
450
        0
451
        0
460
0.0
461
0.0
452
        0
462
0.0
453
        0
470

  0
SPLINE
  5
105
330
EF
100
AcDbEntity
  8
Camada 1
 62
   250
370
    35
100
AcDbSpline
210
0.0
220
0.0
230
1.0
 70
     9
 71
     3
 72
    17
 73
    13
 74
     0
 42
0.0000000001
 43
0.0000000001
 40
0.0
 40
0.0
 40
0.0
 40
0.0
 40
1.0
 40
1.0
 40
1.0
 40
2.0
 40
2.0
 40
2.0
 40
3.0
 40
3.0
 40
3.0
 40
4.0
 40
4.0
 40
4.0
 40
4.0
 10
301.9614230826337
 20
-377.893447299688
 30
0.0
 10
301.7981708203206
 20
-377.2381408720339
 30
0.0
 10
301.1360552952556
 20
-376.8390613335387
 30
0.0
 10
300.4830462459977
 20
-377.0023274354826
 30
0.0
 10
299.8277398183436
 20
-377.1633099986593
 30
0.0
 10
299.4286602798475
 20
-377.8254255237234
 30
0.0
 10
299.5896428430242
 20
-378.4807181117494
 30
0.0
 10
299.7528951053391
 20
-379.1360245394007
 30
0.0
 10
300.415010630406
 20
-379.5351040779006
 30
0.0
 10
301.0703170580582
 20
-379.3718518155856
 30
0.0
 10
301.7233537865741
 20
-379.2108554127781
 30
0.0
 10
302.122433325072
 20
-378.5487537273421
 30
0.0
 10
301.9614230826337
 20
-377.893447299688
 30
0.0
  0
HATCH
  5
106
330
EF
100
AcDbEntity
  8
Camada 1
 62
     7
440
 33554687
100
AcDbHatch
 10
0.0
 20
0.0
 30
0.0
210
0.0
220
0.0
230
1.0
  2
SOLID
 70
     1
 71
     1
 91
        1
 92
        1
 93
        2
 72
     4
 94
        3
 73
     0
 74
     0
 95
       17
 96
       13
 40
0.0
 40
0.0
 40
0.0
 40
0.0
 40
1.0
 40
1.0
 40
1.0
 40
2.0
 40
2.0
 40
2.0
 40
3.0
 40
3.0
 40
3.0
 40
4.0
 40
4.0
 40
4.0
 40
4.0
 10
301.9614230826337
 20
-377.893447299688
 10
301.7981708203206
 20
-377.2381408720339
 10
301.1360552952556
 20
-376.8390613335387
 10
300.4830462459977
 20
-377.0023274354826
 10
299.8277398183436
 20
-377.1633099986593
 10
299.4286602798475
 20
-377.8254255237234
 10
299.5896428430242
 20
-378.4807181117494
 10
299.7528951053391
 20
-379.1360245394007
 10
300.415010630406
 20
-379.5351040779006
 10
301.0703170580582
 20
-379.3718518155856
 10
301.7233537865741
 20
-379.2108554127781
 10
302.122433325072
 20
-378.5487537273421
 10
301.9614230826337
 20
-377.893447299688
 97
        0
 72
     1
 10
301.9614230826337
 20
-377.893447299688
 11
301.9614230826337
 21
-377.893447299688
 97
        0
 75
     2
 76
     1
 98
        1
 10
0.0
 20
0.0
450
        0
451
        0
460
0.0
461
0.0
452
        0
462
0.0
453
        0
470

  0
SPLINE
  5
107
330
EF
100
AcDbEntity
  8
Camada 1
 62
   250
370
    35
100
AcDbSpline
210
0.0
220
0.0
230
1.0
 70
     9
 71
     3
 72
    17
 73
    13
 74
     0
 42
0.0000000001
 43
0.0000000001
 40
0.0
 40
0.0
 40
0.0
 40
0.0
 40
1.0
 40
1.0
 40
1.0
 40
2.0
 40
2.0
 40
2.0
 40
3.0
 40
3.0
 40
3.0
 40
4.0
 40
4.0
 40
4.0
 40
4.0
 10
303.1473408816983
 20
-377.6009467432286
 30
0.0
 10
302.8230783769468
 20
-376.2903338879214
 30
0.0
 10
301.4988750060766
 20
-375.4921748109264
 30
0.0
 10
300.1882621507702
 20
-375.816423476047
 30
0.0
 10
298.8799189946003
 20
-376.1406859807976
 30
0.0
 10
298.079490218468
 20
-377.4648893516687
 30
0.0
 10
298.4037527232194
 20
-378.775502206976
 30
0.0
 10
298.7302572478493
 20
-380.0838315235178
 30
0.0
 10
300.0544882979793
 20
-380.8824473082659
 30
0.0
 10
301.3628037748895
 20
-380.5577419353904
 30
0.0
 10
302.6734166301976
 20
-380.2334932702679
 30
0.0
 10
303.4715757071917
 20
-378.9092760597687
 30
0.0
 10
303.1473408816983
 20
-377.6009467432286
 30
0.0
  0
HATCH
  5
108
330
EF
100
AcDbEntity
  8
Camada 1
 62
     7
440
 33554687
100
AcDbHatch
 10
0.0
 20
0.0
 30
0.0
210
0.0
220
0.0
230
1.0
  2
SOLID
 70
     1
 71
     1
 91
        1
 92
        1
 93
        2
 72
     4
 94
        3
 73
     0
 74
     0
 95
       17
 96
       13
 40
0.0
 40
0.0
 40
0.0
 40
0.0
 40
1.0
 40
1.0
 40
1.0
 40
2.0
 40
2.0
 40
2.0
 40
3.0
 40
3.0
 40
3.0
 40
4.0
 40
4.0
 40
4.0
 40
4.0
 10
303.1473408816983
 20
-377.6009467432286
 10
302.8230783769468
 20
-376.2903338879214
 10
301.4988750060766
 20
-375.4921748109264
 10
300.1882621507702
 20
-375.816423476047
 10
298.8799189946003
 20
-376.1406859807976
 10
298.079490218468
 20
-377.4648893516687
 10
298.4037527232194
 20
-378.775502206976
 10
298.7302572478493
 20
-380.0838315235178
 10
300.0544882979793
 20
-380.8824473082659
 10
301.3628037748895
 20
-380.5577419353904
 10
302.6734166301976
 20
-380.2334932702679
 10
303.4715757071917
 20
-378.9092760597687
 10
303.1473408816983
 20
-377.6009467432286
 97
        0
 72
     1
 10
303.1473408816983
 20
-377.6009467432286
 11
303.1473408816983
 21
-377.6009467432286
 97
        0
 75
     2
 76
     1
 98
        1
 10
0.0
 20
0.0
450
        0
451
        0
460
0.0
461
0.0
452
        0
462
0.0
453
        0
470

  0
SPLINE
  5
109
330
EF
100
AcDbEntity
  8
Camada 1
 62
   250
370
    35
100
AcDbSpline
210
0.0
220
0.0
230
1.0
 70
     9
 71
     3
 72
    17
 73
    13
 74
     0
 42
0.0000000001
 43
0.0000000001
 40
0.0
 40
0.0
 40
0.0
 40
0.0
 40
1.0
 40
1.0
 40
1.0
 40
2.0
 40
2.0
 40
2.0
 40
3.0
 40
3.0
 40
3.0
 40
4.0
 40
4.0
 40
4.0
 40
4.0
 10
299.3062072434823
 20
-159.6525750500996
 30
0.0
 10
299.3062072434823
 20
-161.142300382422
 30
0.0
 10
300.5147666753983
 20
-162.3508874935969
 30
0.0
 10
302.006789386116
 20
-162.3508874935969
 30
0.0
 10
303.4965423976974
 20
-162.3508874935969
 30
0.0
 10
304.7050741503572
 20
-161.142300382422
 30
0.0
 10
304.7050741503572
 20
-159.6525750500996
 30
0.0
 10
304.7050741503572
 20
-158.1605523393827
 30
0.0
 10
303.4965423976974
 20
-156.9519929074649
 30
0.0
 10
302.006789386116
 20
-156.9519929074649
 30
0.0
 10
300.5147666753983
 20
-156.9519929074649
 30
0.0
 10
299.3062072434823
 20
-158.1605523393827
 30
0.0
 10
299.3062072434823
 20
-159.6525750500996
 30
0.0
  0
HATCH
  5
10A
330
EF
100
AcDbEntity
  8
Camada 1
 62
     7
440
 33554687
100
AcDbHatch
 10
0.0
 20
0.0
 30
0.0
210
0.0
220
0.0
230
1.0
  2
SOLID
 70
     1
 71
     1
 91
        1
 92
        1
 93
        2
 72
     4
 94
        3
 73
     0
 74
     0
 95
       17
 96
       13
 40
0.0
 40
0.0
 40
0.0
 40
0.0
 40
1.0
 40
1.0
 40
1.0
 40
2.0
 40
2.0
 40
2.0
 40
3.0
 40
3.0
 40
3.0
 40
4.0
 40
4.0
 40
4.0
 40
4.0
 10
299.3062072434823
 20
-159.6525750500996
 10
299.3062072434823
 20
-161.142300382422
 10
300.5147666753983
 20
-162.3508874935969
 10
302.006789386116
 20
-162.3508874935969
 10
303.4965423976974
 20
-162.3508874935969
 10
304.7050741503572
 20
-161.142300382422
 10
304.7050741503572
 20
-159.6525750500996
 10
304.7050741503572
 20
-158.1605523393827
 10
303.4965423976974
 20
-156.9519929074649
 10
302.006789386116
 20
-156.9519929074649
 10
300.5147666753983
 20
-156.9519929074649
 10
299.3062072434823
 20
-158.1605523393827
 10
299.3062072434823
 20
-159.6525750500996
 97
        0
 72
     1
 10
299.3062072434823
 20
-159.6525750500996
 11
299.3062072434823
 21
-159.6525750500996
 97
        0
 75
     2
 76
     1
 98
        1
 10
0.0
 20
0.0
450
        0
451
        0
460
0.0
461
0.0
452
        0
462
0.0
453
        0
470

  0
SPLINE
  5
10B
330
EF
100
AcDbEntity
  8
Camada 1
 62
   250
370
    35
100
AcDbSpline
210
0.0
220
0.0
230
1.0
 70
     9
 71
     3
 72
    17
 73
    13
 74
     0
 42
0.0000000001
 43
0.0000000001
 40
0.0
 40
0.0
 40
0.0
 40
0.0
 40
1.0
 40
1.0
 40
1.0
 40
2.0
 40
2.0
 40
2.0
 40
3.0
 40
3.0
 40
3.0
 40
4.0
 40
4.0
 40
4.0
 40
4.0
 10
300.4467587390627
 20
-159.6525750500996
 30
0.0
 10
300.4467587390627
 20
-160.5119329660192
 30
0.0
 10
301.1451340918029
 20
-161.2103359980156
 30
0.0
 10
302.006789386116
 20
-161.2103359980156
 30
0.0
 10
302.8661473020347
 20
-161.2103359980156
 30
0.0
 10
303.5645226547749
 20
-160.5119329660192
 30
0.0
 10
303.5645226547749
 20
-159.6525750500996
 30
0.0
 10
303.5645226547749
 20
-158.7909197557874
 30
0.0
 10
302.8661473020347
 20
-158.0925444030463
 30
0.0
 10
302.006789386116
 20
-158.0925444030463
 30
0.0
 10
301.1451340918029
 20
-158.0925444030463
 30
0.0
 10
300.4467587390627
 20
-158.7909197557874
 30
0.0
 10
300.4467587390627
 20
-159.6525750500996
 30
0.0
  0
HATCH
  5
10C
330
EF
100
AcDbEntity
  8
Camada 1
 62
     7
440
 33554687
100
AcDbHatch
 10
0.0
 20
0.0
 30
0.0
210
0.0
220
0.0
230
1.0
  2
SOLID
 70
     1
 71
     1
 91
        1
 92
        1
 93
        2
 72
     4
 94
        3
 73
     0
 74
     0
 95
       17
 96
       13
 40
0.0
 40
0.0
 40
0.0
 40
0.0
 40
1.0
 40
1.0
 40
1.0
 40
2.0
 40
2.0
 40
2.0
 40
3.0
 40
3.0
 40
3.0
 40
4.0
 40
4.0
 40
4.0
 40
4.0
 10
300.4467587390627
 20
-159.6525750500996
 10
300.4467587390627
 20
-160.5119329660192
 10
301.1451340918029
 20
-161.2103359980156
 10
302.006789386116
 20
-161.2103359980156
 10
302.8661473020347
 20
-161.2103359980156
 10
303.5645226547749
 20
-160.5119329660192
 10
303.5645226547749
 20
-159.6525750500996
 10
303.5645226547749
 20
-158.7909197557874
 10
302.8661473020347
 20
-158.0925444030463
 10
302.006789386116
 20
-158.0925444030463
 10
301.1451340918029
 20
-158.0925444030463
 10
300.4467587390627
 20
-158.7909197557874
 10
300.4467587390627
 20
-159.6525750500996
 97
        0
 72
     1
 10
300.4467587390627
 20
-159.6525750500996
 11
300.4467587390627
 21
-159.6525750500996
 97
        0
 75
     2
 76
     1
 98
        1
 10
0.0
 20
0.0
450
        0
451
        0
460
0.0
461
0.0
452
        0
462
0.0
453
        0
470

  0
SPLINE
  5
10D
330
EF
100
AcDbEntity
  8
Camada 1
 62
   250
370
    35
100
AcDbSpline
210
0.0
220
0.0
230
1.0
 70
     9
 71
     3
 72
    17
 73
    13
 74
     0
 42
0.0000000001
 43
0.0000000001
 40
0.0
 40
0.0
 40
0.0
 40
0.0
 40
1.0
 40
1.0
 40
1.0
 40
2.0
 40
2.0
 40
2.0
 40
3.0
 40
3.0
 40
3.0
 40
4.0
 40
4.0
 40
4.0
 40
4.0
 10
299.1134765716452
 20
-159.6525750500996
 30
0.0
 10
299.1134765716452
 20
-161.2488655248298
 30
0.0
 10
300.4082015329932
 20
-162.5436181654349
 30
0.0
 10
302.006789386116
 20
-162.5436181654349
 30
0.0
 10
303.6031075401043
 20
-162.5436181654349
 30
0.0
 10
304.8978325014505
 20
-161.2488655248298
 30
0.0
 10
304.8978325014505
 20
-159.6525750500996
 30
0.0
 10
304.8978325014505
 20
-158.0539871969768
 30
0.0
 10
303.6031075401043
 20
-156.7592622356287
 30
0.0
 10
302.006789386116
 20
-156.7592622356287
 30
0.0
 10
300.4082015329932
 20
-156.7592622356287
 30
0.0
 10
299.1134765716452
 20
-158.0539871969768
 30
0.0
 10
299.1134765716452
 20
-159.6525750500996
 30
0.0
  0
HATCH
  5
10E
330
EF
100
AcDbEntity
  8
Camada 1
 62
     7
440
 33554687
100
AcDbHatch
 10
0.0
 20
0.0
 30
0.0
210
0.0
220
0.0
230
1.0
  2
SOLID
 70
     1
 71
     1
 91
        1
 92
        1
 93
        2
 72
     4
 94
        3
 73
     0
 74
     0
 95
       17
 96
       13
 40
0.0
 40
0.0
 40
0.0
 40
0.0
 40
1.0
 40
1.0
 40
1.0
 40
2.0
 40
2.0
 40
2.0
 40
3.0
 40
3.0
 40
3.0
 40
4.0
 40
4.0
 40
4.0
 40
4.0
 10
299.1134765716452
 20
-159.6525750500996
 10
299.1134765716452
 20
-161.2488655248298
 10
300.4082015329932
 20
-162.5436181654349
 10
302.006789386116
 20
-162.5436181654349
 10
303.6031075401043
 20
-162.5436181654349
 10
304.8978325014505
 20
-161.2488655248298
 10
304.8978325014505
 20
-159.6525750500996
 10
304.8978325014505
 20
-158.0539871969768
 10
303.6031075401043
 20
-156.7592622356287
 10
302.006789386116
 20
-156.7592622356287
 10
300.4082015329932
 20
-156.7592622356287
 10
299.1134765716452
 20
-158.0539871969768
 10
299.1134765716452
 20
-159.6525750500996
 97
        0
 72
     1
 10
299.1134765716452
 20
-159.6525750500995
 11
299.1134765716452
 21
-159.6525750500996
 97
        0
 75
     2
 76
     1
 98
        1
 10
0.0
 20
0.0
450
        0
451
        0
460
0.0
461
0.0
452
        0
462
0.0
453
        0
470

  0
SPLINE
  5
10F
330
EF
100
AcDbEntity
  8
Camada 1
 62
   250
370
    35
100
AcDbSpline
210
0.0
220
0.0
230
1.0
 70
     9
 71
     3
 72
    17
 73
    13
 74
     0
 42
0.0000000001
 43
0.0000000001
 40
0.0
 40
0.0
 40
0.0
 40
0.0
 40
1.0
 40
1.0
 40
1.0
 40
2.0
 40
2.0
 40
2.0
 40
3.0
 40
3.0
 40
3.0
 40
4.0
 40
4.0
 40
4.0
 40
4.0
 10
300.9455943225566
 20
-159.6525750500996
 30
0.0
 10
300.9455943225566
 20
-160.2375761630237
 30
0.0
 10
301.4194908947993
 20
-160.7114727352664
 30
0.0
 10
302.006789386116
 20
-160.7114727352664
 30
0.0
 10
302.591790499042
 20
-160.7114727352664
 30
0.0
 10
303.0656870712828
 20
-160.2375761630237
 30
0.0
 10
303.0656870712828
 20
-159.6525750500996
 30
0.0
 10
303.0656870712828
 20
-159.0653042380399
 30
0.0
 10
302.591790499042
 20
-158.5913799865384
 30
0.0
 10
302.006789386116
 20
-158.5913799865384
 30
0.0
 10
301.4194908947993
 20
-158.5913799865384
 30
0.0
 10
300.9455943225566
 20
-159.0653042380399
 30
0.0
 10
300.9455943225566
 20
-159.6525750500996
 30
0.0
  0
HATCH
  5
110
330
EF
100
AcDbEntity
  8
Camada 1
 62
     7
440
 33554687
100
AcDbHatch
 10
0.0
 20
0.0
 30
0.0
210
0.0
220
0.0
230
1.0
  2
SOLID
 70
     1
 71
     1
 91
        1
 92
        1
 93
        2
 72
     4
 94
        3
 73
     0
 74
     0
 95
       17
 96
       13
 40
0.0
 40
0.0
 40
0.0
 40
0.0
 40
1.0
 40
1.0
 40
1.0
 40
2.0
 40
2.0
 40
2.0
 40
3.0
 40
3.0
 40
3.0
 40
4.0
 40
4.0
 40
4.0
 40
4.0
 10
300.9455943225566
 20
-159.6525750500996
 10
300.9455943225566
 20
-160.2375761630237
 10
301.4194908947993
 20
-160.7114727352664
 10
302.006789386116
 20
-160.7114727352664
 10
302.591790499042
 20
-160.7114727352664
 10
303.0656870712828
 20
-160.2375761630237
 10
303.0656870712828
 20
-159.6525750500996
 10
303.0656870712828
 20
-159.0653042380399
 10
302.591790499042
 20
-158.5913799865384
 10
302.006789386116
 20
-158.5913799865384
 10
301.4194908947993
 20
-158.5913799865384
 10
300.9455943225566
 20
-159.0653042380399
 10
300.9455943225566
 20
-159.6525750500996
 97
        0
 72
     1
 10
300.9455943225566
 20
-159.6525750500996
 11
300.9455943225566
 21
-159.6525750500996
 97
        0
 75
     2
 76
     1
 98
        1
 10
0.0
 20
0.0
450
        0
451
        0
460
0.0
461
0.0
452
        0
462
0.0
453
        0
470

  0
LINE
  5
111
330
EF
100
AcDbEntity
  8
Camada 1
 62
   250
370
    35
100
AcDbLine
 10
299.8844269382516
 20
-377.929720966994
 30
0.0
 11
300.106636019611
 21
-378.8299196277458
 31
0.0
  0
LINE
  5
112
330
EF
100
AcDbEntity
  8
Camada 1
 62
   250
370
    35
100
AcDbLine
 10
300.106636019611
 20
-378.8299196277458
 30
0.0
 11
300.9977420441901
 21
-379.0884162160419
 31
0.0
  0
LINE
  5
113
330
EF
100
AcDbEntity
  8
Camada 1
 62
   250
370
    35
100
AcDbLine
 10
301.6666666666661
 20
-378.4444444444434
 30
0.0
 11
301.4444575853068
 21
-377.5442596233188
 31
0.0
  0
LINE
  5
114
330
EF
100
AcDbEntity
  8
Camada 1
 62
   250
370
    35
100
AcDbLine
 10
301.4444575853068
 20
-377.5442596233188
 30
0.0
 11
300.5533238814696
 21
-377.2857630350254
 31
0.0
  0
LINE
  5
115
330
EF
100
AcDbEntity
  8
Camada 1
 62
   250
370
    35
100
AcDbLine
 10
300.9977420441901
 20
-379.0884162160419
 30
0.0
 11
301.6666666666661
 21
-378.4444444444434
 31
0.0
  0
LINE
  5
116
330
EF
100
AcDbEntity
  8
Camada 1
 62
   250
370
    35
100
AcDbLine
 10
300.5533238814696
 20
-377.2857630350254
 30
0.0
 11
299.8844269382516
 21
-377.929720966994
 31
0.0
  0
LINE
  5
117
330
EF
100
AcDbEntity
  8
Camada 1
 62
   250
370
    35
100
AcDbLine
 10
365.6936060745302
 20
-174.4479133462282
 30
0.0
 11
365.6823129373606
 21
-174.4297557531317
 31
0.0
  0
LINE
  5
118
330
EF
100
AcDbEntity
  8
Camada 1
 62
   250
370
    35
100
AcDbLine
 10
352.5013950297998
 20
-182.826258597006
 30
0.0
 11
365.6823129373606
 21
-174.4297557531317
 31
0.0
  0
LINE
  5
119
330
EF
100
AcDbEntity
  8
Camada 1
 62
   250
370
    35
100
AcDbLine
 10
295.6419440624031
 20
-183.8330362397955
 30
0.0
 11
349.0480201136543
 21
-183.8330362397955
 31
0.0
  0
LINE
  5
11A
330
EF
100
AcDbEntity
  8
Camada 1
 62
   250
370
    35
100
AcDbLine
 10
295.6419440624031
 20
-141.7689235685257
 30
0.0
 11
295.6419440624031
 21
-183.8330362397955
 31
0.0
  0
LINE
  5
11B
330
EF
100
AcDbEntity
  8
Camada 1
 62
   250
370
    35
100
AcDbLine
 10
366.1290007992175
 20
-173.5023622216204
 30
0.0
 11
296.0138148905135
 21
-140.8075122292175
 31
0.0
  0
LWPOLYLINE
  5
11C
330
EF
100
AcDbEntity
  8
Camada 1
 62
   250
370
    35
100
AcDbPolyline
 90
        4
 70
     0
 43
0.0
 10
295.6419440624031
 20
-141.6011319079361
 10
295.83243271436
 20
-141.1975129711663
 10
295.9662065671509
 20
-140.9118076724862
 10
296.0138148905135
 20
-140.8075122292175
  0
HATCH
  5
11D
330
EF
100
AcDbEntity
  8
Camada 1
 62
     7
440
 33554687
100
AcDbHatch
 10
0.0
 20
0.0
 30
0.0
210
0.0
220
0.0
230
1.0
  2
SOLID
 70
     1
 71
     1
 91
        1
 92
        3
 72
     0
 73
     1
 93
        4
 10
295.6419440624031
 20
-141.6011319079361
 10
295.83243271436
 20
-141.1975129711663
 10
295.9662065671509
 20
-140.9118076724862
 10
296.0138148905135
 20
-140.8075122292175
 97
        0
 75
     2
 76
     1
 98
        1
 10
0.0
 20
0.0
450
        0
451
        0
460
0.0
461
0.0
452
        0
462
0.0
453
        0
470

  0
LINE
  5
11E
330
EF
100
AcDbEntity
  8
Camada 1
 62
   250
370
    35
100
AcDbLine
 10
295.6419440624031
 20
-141.6011319079361
 30
0.0
 11
295.6419440624031
 21
-141.7689235685257
 31
0.0
  0
LINE
  5
11F
330
EF
100
AcDbEntity
  8
Camada 1
 62
   250
370
    35
100
AcDbLine
 10
365.6823129373606
 20
-174.4297557531317
 30
0.0
 11
295.6419440624031
 21
-141.7689235685257
 31
0.0
  0
LWPOLYLINE
  5
120
330
EF
100
AcDbEntity
  8
Camada 1
 62
   250
370
    35
100
AcDbPolyline
 90
       17
 70
     0
 43
0.0
 10
365.6823129373606
 20
-174.4297557531317
 10
365.7253818624486
 20
-174.339078504684
 10
365.7684507875365
 20
-174.2483735769801
 10
365.8092500134844
 20
-174.1599383484108
 10
365.8501045979501
 20
-174.0737728189797
 10
365.8909038238999
 20
-173.9921466878222
 10
365.927163651575
 20
-173.912790255802
 10
365.9634788377662
 20
-173.8402152419357
 10
365.9951992671667
 20
-173.7744770047366
 10
366.0247053559487
 20
-173.713250486554
 10
366.049616687942
 20
-173.6588330657823
 10
366.0723136793113
 20
-173.6111970631627
 10
366.0926856130263
 20
-173.5726675363512
 10
366.1063038078482
 20
-173.543189126829
 10
366.1176523035356
 20
-173.5205198147168
 10
366.1244614009465
 20
-173.5069016198949
 10
366.1290007992175
 20
-173.5023622216204
  0
HATCH
  5
121
330
EF
100
AcDbEntity
  8
Camada 1
 62
     7
440
 33554687
100
AcDbHatch
 10
0.0
 20
0.0
 30
0.0
210
0.0
220
0.0
230
1.0
  2
SOLID
 70
     1
 71
     1
 91
        1
 92
        3
 72
     0
 73
     1
 93
       17
 10
365.6823129373606
 20
-174.4297557531317
 10
365.7253818624486
 20
-174.339078504684
 10
365.7684507875365
 20
-174.2483735769801
 10
365.8092500134844
 20
-174.1599383484108
 10
365.8501045979501
 20
-174.0737728189797
 10
365.8909038238999
 20
-173.9921466878222
 10
365.927163651575
 20
-173.912790255802
 10
365.9634788377662
 20
-173.8402152419357
 10
365.9951992671667
 20
-173.7744770047366
 10
366.0247053559487
 20
-173.713250486554
 10
366.049616687942
 20
-173.6588330657823
 10
366.0723136793113
 20
-173.6111970631627
 10
366.0926856130263
 20
-173.5726675363512
 10
366.1063038078482
 20
-173.543189126829
 10
366.1176523035356
 20
-173.5205198147168
 10
366.1244614009465
 20
-173.5069016198949
 10
366.1290007992175
 20
-173.5023622216204
 97
        0
 75
     2
 76
     1
 98
        1
 10
0.0
 20
0.0
450
        0
451
        0
460
0.0
461
0.0
452
        0
462
0.0
453
        0
470

  0
LWPOLYLINE
  5
122
330
EF
100
AcDbEntity
  8
Camada 1
 62
   250
370
    35
100
AcDbPolyline
 90
        5
 70
     0
 43
0.0
 10
365.6936060745302
 20
-365.9755339240737
 10
366.0881462147536
 20
-365.9755339240737
 10
366.4215151953103
 20
-365.9755339240737
 10
366.6437242766697
 20
-365.9755339240737
 10
366.7230530294328
 20
-365.9755339240737
  0
HATCH
  5
123
330
EF
100
AcDbEntity
  8
Camada 1
 62
     7
440
 33554687
100
AcDbHatch
 10
0.0
 20
0.0
 30
0.0
210
0.0
220
0.0
230
1.0
  2
SOLID
 70
     1
 71
     1
 91
        1
 92
        3
 72
     0
 73
     1
 93
        5
 10
365.6936060745302
 20
-365.9755339240737
 10
366.0881462147536
 20
-365.9755339240737
 10
366.4215151953103
 20
-365.9755339240737
 10
366.6437242766697
 20
-365.9755339240737
 10
366.7230530294328
 20
-365.9755339240737
 97
        0
 75
     2
 76
     1
 98
        1
 10
0.0
 20
0.0
450
        0
451
        0
460
0.0
461
0.0
452
        0
462
0.0
453
        0
470

  0
LINE
  5
124
330
EF
100
AcDbEntity
  8
Camada 1
 62
   250
370
    35
100
AcDbLine
 10
366.7230530294328
 20
-365.9755339240737
 30
0.0
 11
366.7230530294328
 21
-174.4342951514063
 31
0.0
  0
LWPOLYLINE
  5
125
330
EF
100
AcDbEntity
  8
Camada 1
 62
   250
370
    35
100
AcDbPolyline
 90
        9
 70
     0
 43
0.0
 10
365.6936060745302
 20
-174.4479133462282
 10
365.893173523038
 20
-174.44564364709
 10
366.0881462147536
 20
-174.44564364709
 10
366.2650166718886
 20
-174.4433739479536
 10
366.4215151953103
 20
-174.4411042488173
 10
366.5484522714341
 20
-174.4388345496791
 10
366.6437242766697
 20
-174.4388345496791
 10
366.7026810957159
 20
-174.4365648505427
 10
366.7230530294328
 20
-174.4342951514063
  0
HATCH
  5
126
330
EF
100
AcDbEntity
  8
Camada 1
 62
     7
440
 33554687
100
AcDbHatch
 10
0.0
 20
0.0
 30
0.0
210
0.0
220
0.0
230
1.0
  2
SOLID
 70
     1
 71
     1
 91
        1
 92
        3
 72
     0
 73
     1
 93
        9
 10
365.6936060745302
 20
-174.4479133462282
 10
365.893173523038
 20
-174.44564364709
 10
366.0881462147536
 20
-174.44564364709
 10
366.2650166718886
 20
-174.4433739479536
 10
366.4215151953103
 20
-174.4411042488173
 10
366.5484522714341
 20
-174.4388345496791
 10
366.6437242766697
 20
-174.4388345496791
 10
366.7026810957159
 20
-174.4365648505427
 10
366.7230530294328
 20
-174.4342951514063
 97
        0
 75
     2
 76
     1
 98
        1
 10
0.0
 20
0.0
450
        0
451
        0
460
0.0
461
0.0
452
        0
462
0.0
453
        0
470

  0
LINE
  5
127
330
EF
100
AcDbEntity
  8
Camada 1
 62
   250
370
    35
100
AcDbLine
 10
295.632892945112
 20
-376.7574352023794
 30
0.0
 11
295.632892945112
 21
-183.8965047778583
 31
0.0
  0
LINE
  5
128
330
EF
100
AcDbEntity
  8
Camada 1
 62
   250
370
    35
100
AcDbLine
 10
302.0113287843906
 20
-381.7495277371008
 30
0.0
 11
365.6936060745302
 21
-365.9755339240737
 31
0.0
  0
LINE
  5
129
330
EF
100
AcDbEntity
  8
Camada 1
 62
   250
370
    35
100
AcDbLine
 10
365.6936060745302
 20
-365.9755339240737
 30
0.0
 11
365.6936060745302
 21
-174.4479133462282
 31
0.0
  0
LINE
  5
12A
330
EF
100
AcDbEntity
  8
Camada 1
 62
   250
370
    35
100
AcDbLine
 10
365.6936060745302
 20
-174.4479133462282
 30
0.0
 11
352.4424382107554
 21
-182.889754814325
 31
0.0
  0
LINE
  5
12B
330
EF
100
AcDbEntity
  8
Camada 1
 62
   250
370
    35
100
AcDbLine
 10
348.9890632946099
 20
-183.8965047778583
 30
0.0
 11
295.632892945112
 21
-183.8965047778583
 31
0.0
  0
LINE
  5
12C
330
EF
100
AcDbEntity
  8
Camada 1
 62
   250
370
    35
100
AcDbLine
 10
303.3468529716884
 20
-183.8965047778583
 30
0.0
 11
303.3468529716884
 21
-183.8330362397955
 31
0.0
  0
LINE
  5
12D
330
EF
100
AcDbEntity
  8
Camada 1
 62
   250
370
    35
100
AcDbLine
 10
303.3559317682375
 20
-183.8330362397955
 30
0.0
 11
303.3559317682375
 21
-183.8965047778583
 31
0.0
  0
LINE
  5
12E
330
EF
100
AcDbEntity
  8
Camada 1
 62
   250
370
    35
100
AcDbLine
 10
317.5095541522769
 20
-378.2653181277983
 30
0.0
 11
317.067405688691
 21
-378.0204258946997
 31
0.0
  0
LWPOLYLINE
  5
12F
330
EF
100
AcDbEntity
  8
Camada 1
 62
   250
370
    35
100
AcDbPolyline
 90
       13
 70
     0
 43
0.0
 10
317.5095541522769
 20
-378.2653181277983
 10
317.5821291661432
 20
-378.2449046751963
 10
317.7997988492298
 20
-378.1814222975063
 10
318.1580791617762
 20
-378.079382713745
 10
318.6546450461319
 20
-377.9365300644049
 10
319.2827427633984
 20
-377.7574037477607
 10
320.0378329153045
 20
-377.5419899241824
 10
320.9062419485126
 20
-377.2925582928055
 10
321.8812714826454
 20
-377.0113923924009
 10
322.9515176634941
 20
-376.7052874807469
 10
324.1034176547619
 20
-376.3742297182152
 10
325.3256229607578
 20
-376.0250420418442
 10
326.6044600281475
 20
-375.6577106120076
  0
HATCH
  5
130
330
EF
100
AcDbEntity
  8
Camada 1
 62
     7
440
 33554687
100
AcDbHatch
 10
0.0
 20
0.0
 30
0.0
210
0.0
220
0.0
230
1.0
  2
SOLID
 70
     1
 71
     1
 91
        1
 92
        3
 72
     0
 73
     1
 93
       13
 10
317.5095541522769
 20
-378.2653181277983
 10
317.5821291661432
 20
-378.2449046751963
 10
317.7997988492298
 20
-378.1814222975063
 10
318.1580791617762
 20
-378.079382713745
 10
318.6546450461319
 20
-377.9365300644049
 10
319.2827427633984
 20
-377.7574037477607
 10
320.0378329153045
 20
-377.5419899241824
 10
320.9062419485126
 20
-377.2925582928055
 10
321.8812714826454
 20
-377.0113923924009
 10
322.9515176634941
 20
-376.7052874807469
 10
324.1034176547619
 20
-376.3742297182152
 10
325.3256229607578
 20
-376.0250420418442
 10
326.6044600281475
 20
-375.6577106120076
 97
        0
 75
     2
 76
     1
 98
        1
 10
0.0
 20
0.0
450
        0
451
        0
460
0.0
461
0.0
452
        0
462
0.0
453
        0
470

  0
LINE
  5
131
330
EF
100
AcDbEntity
  8
Camada 1
 62
   250
370
    35
100
AcDbLine
 10
294.9390293113865
 20
-383.06580100062
 30
0.0
 11
295.1657777910223
 21
-383.0009623392998
 31
0.0
  0
LINE
  5
132
330
EF
100
AcDbEntity
  8
Camada 1
 62
   250
370
    35
100
AcDbLine
 10
295.0455944537935
 20
-383.4365369791631
 30
0.0
 11
300.44221934079
 21
-381.8892111114246
 31
0.0
  0
LWPOLYLINE
  5
133
330
EF
100
AcDbEntity
  8
Camada 1
 62
   250
370
    35
100
AcDbPolyline
 90
        5
 70
     0
 43
0.0
 10
293.89826154006
 20
-141.8527917195624
 10
293.9776179720811
 20
-141.8527917195624
 10
294.1998270534405
 20
-141.8527917195624
 10
294.5331406754795
 20
-141.8527917195624
 10
294.9277084949608
 20
-141.8527917195624
  0
HATCH
  5
134
330
EF
100
AcDbEntity
  8
Camada 1
 62
     7
440
 33554687
100
AcDbHatch
 10
0.0
 20
0.0
 30
0.0
210
0.0
220
0.0
230
1.0
  2
SOLID
 70
     1
 71
     1
 91
        1
 92
        3
 72
     0
 73
     1
 93
        5
 10
293.89826154006
 20
-141.8527917195624
 10
293.9776179720811
 20
-141.8527917195624
 10
294.1998270534405
 20
-141.8527917195624
 10
294.5331406754795
 20
-141.8527917195624
 10
294.9277084949608
 20
-141.8527917195624
 97
        0
 75
     2
 76
     1
 98
        1
 10
0.0
 20
0.0
450
        0
451
        0
460
0.0
461
0.0
452
        0
462
0.0
453
        0
470

  0
LINE
  5
135
330
EF
100
AcDbEntity
  8
Camada 1
 62
   250
370
    35
100
AcDbLine
 10
293.89826154006
 20
-141.8527917195624
 30
0.0
 11
293.89826154006
 21
-382.5714909757744
 31
0.0
  0
LWPOLYLINE
  5
136
330
EF
100
AcDbEntity
  8
Camada 1
 62
   250
370
    35
100
AcDbPolyline
 90
        5
 70
     0
 43
0.0
 10
294.9277084949608
 20
-382.5714909757744
 10
294.5331406754795
 20
-382.5714909757744
 10
294.1998270534405
 20
-382.5714909757744
 10
293.9776179720811
 20
-382.5714909757744
 10
293.89826154006
 20
-382.5714909757744
  0
HATCH
  5
137
330
EF
100
AcDbEntity
  8
Camada 1
 62
     7
440
 33554687
100
AcDbHatch
 10
0.0
 20
0.0
 30
0.0
210
0.0
220
0.0
230
1.0
  2
SOLID
 70
     1
 71
     1
 91
        1
 92
        3
 72
     0
 73
     1
 93
        5
 10
294.9277084949608
 20
-382.5714909757744
 10
294.5331406754795
 20
-382.5714909757744
 10
294.1998270534405
 20
-382.5714909757744
 10
293.9776179720811
 20
-382.5714909757744
 10
293.89826154006
 20
-382.5714909757744
 97
        0
 75
     2
 76
     1
 98
        1
 10
0.0
 20
0.0
450
        0
451
        0
460
0.0
461
0.0
452
        0
462
0.0
453
        0
470

  0
LINE
  5
138
330
EF
100
AcDbEntity
  8
Camada 1
 62
   250
370
    35
100
AcDbLine
 10
295.6419440624031
 20
-142.2110720321088
 30
0.0
 11
294.9277084949608
 21
-141.8527917195624
 31
0.0
  0
LINE
  5
139
330
EF
100
AcDbEntity
  8
Camada 1
 62
   250
370
    35
100
AcDbLine
 10
294.9277084949608
 20
-141.8527917195624
 30
0.0
 11
294.9277084949608
 21
-382.5714909757744
 31
0.0
  0
LINE
  5
13A
330
EF
100
AcDbEntity
  8
Camada 1
 62
   250
370
    35
100
AcDbLine
 10
295.7303792909698
 20
-383.1193188455154
 30
0.0
 11
300.3651326079053
 21
-381.8837721372738
 31
0.0
  0
LINE
  5
13B
330
EF
100
AcDbEntity
  8
Camada 1
 62
   250
370
    35
100
AcDbLine
 10
300.3900716191547
 20
-183.8330362397955
 30
0.0
 11
300.3900716191547
 21
-183.8965047778583
 31
0.0
  0
ENDBLK
  5
F2
330
EF
100
AcDbEntity
  8
0
100
AcDbBlockEnd
  0
BLOCK
  5
142
330
140
100
AcDbEntity
  8
0
100
AcDbBlockBegin
  2
Block_2
 70
     0
 10
0.0
 20
0.0
 30
0.0
  3
Block_2
  1

  0
SPLINE
  5
144
330
140
100
AcDbEntity
  8
Camada 1
 62
   250
370
    35
100
AcDbSpline
210
0.0
220
0.0
230
1.0
 70
     8
 71
     3
 72
     8
 73
     4
 74
     0
 42
0.0000000001
 43
0.0000000001
 40
0.0
 40
0.0
 40
0.0
 40
0.0
 40
1.0
 40
1.0
 40
1.0
 40
1.0
 10
249.3560339663472
 20
-162.5436181654349
 30
0.0
 10
249.4625991087533
 20
-162.5436181654349
 30
0.0
 10
249.5487646381844
 20
-162.4574526360038
 30
0.0
 10
249.5487646381844
 20
-162.3508874935969
 30
0.0
  0
HATCH
  5
145
330
140
100
AcDbEntity
  8
Camada 1
 62
     7
440
 33554687
100
AcDbHatch
 10
0.0
 20
0.0
 30
0.0
210
0.0
220
0.0
230
1.0
  2
SOLID
 70
     1
 71
     1
 91
        1
 92
        1
 93
        2
 72
     4
 94
        3
 73
     0
 74
     0
 95
        8
 96
        4
 40
0.0
 40
0.0
 40
0.0
 40
0.0
 40
1.0
 40
1.0
 40
1.0
 40
1.0
 10
249.3560339663472
 20
-162.5436181654349
 10
249.4625991087533
 20
-162.5436181654349
 10
249.5487646381844
 20
-162.4574526360038
 10
249.5487646381844
 20
-162.3508874935969
 97
        0
 72
     1
 10
249.5487646381844
 20
-162.3508874935969
 11
249.3560339663472
 21
-162.5436181654349
 97
        0
 75
     2
 76
     1
 98
        1
 10
0.0
 20
0.0
450
        0
451
        0
460
0.0
461
0.0
452
        0
462
0.0
453
        0
470

  0
SPLINE
  5
146
330
140
100
AcDbEntity
  8
Camada 1
 62
   250
370
    35
100
AcDbSpline
210
0.0
220
0.0
230
1.0
 70
     8
 71
     3
 72
     8
 73
     4
 74
     0
 42
0.0000000001
 43
0.0000000001
 40
0.0
 40
0.0
 40
0.0
 40
0.0
 40
1.0
 40
1.0
 40
1.0
 40
1.0
 10
249.5487646381844
 20
-156.9519929074649
 30
0.0
 10
249.5487646381844
 20
-156.8454277650598
 30
0.0
 10
249.4625991087533
 20
-156.7592622356287
 30
0.0
 10
249.3560339663472
 20
-156.7592622356287
 30
0.0
  0
HATCH
  5
147
330
140
100
AcDbEntity
  8
Camada 1
 62
     7
440
 33554687
100
AcDbHatch
 10
0.0
 20
0.0
 30
0.0
210
0.0
220
0.0
230
1.0
  2
SOLID
 70
     1
 71
     1
 91
        1
 92
        1
 93
        2
 72
     4
 94
        3
 73
     0
 74
     0
 95
        8
 96
        4
 40
0.0
 40
0.0
 40
0.0
 40
0.0
 40
1.0
 40
1.0
 40
1.0
 40
1.0
 10
249.5487646381844
 20
-156.9519929074649
 10
249.5487646381844
 20
-156.8454277650598
 10
249.4625991087533
 20
-156.7592622356287
 10
249.3560339663472
 20
-156.7592622356287
 97
        0
 72
     1
 10
249.3560339663472
 20
-156.7592622356287
 11
249.5487646381844
 21
-156.9519929074649
 97
        0
 75
     2
 76
     1
 98
        1
 10
0.0
 20
0.0
450
        0
451
        0
460
0.0
461
0.0
452
        0
462
0.0
453
        0
470

  0
SPLINE
  5
148
330
140
100
AcDbEntity
  8
Camada 1
 62
   250
370
    35
100
AcDbSpline
210
0.0
220
0.0
230
1.0
 70
     8
 71
     3
 72
    11
 73
     7
 74
     0
 42
0.0000000001
 43
0.0000000001
 40
0.0
 40
0.0
 40
0.0
 40
0.0
 40
1.0
 40
1.0
 40
1.0
 40
2.0
 40
2.0
 40
2.0
 40
2.0
 10
208.0265841547516
 20
-309.4902234839237
 30
0.0
 10
207.3576872115336
 20
-308.7804996354971
 30
0.0
 10
206.2398050280644
 20
-308.7465095069601
 30
0.0
 10
205.5300811796378
 20
-309.4176761493136
 30
0.0
 10
205.5051421683893
 20
-309.4403454614258
 30
0.0
 10
205.4802031571408
 20
-309.4652844726752
 30
0.0
 10
205.4575338450286
 20
-309.4902234839237
 30
0.0
  0
HATCH
  5
149
330
140
100
AcDbEntity
  8
Camada 1
 62
     7
440
 33554687
100
AcDbHatch
 10
0.0
 20
0.0
 30
0.0
210
0.0
220
0.0
230
1.0
  2
SOLID
 70
     1
 71
     1
 91
        1
 92
        1
 93
        2
 72
     4
 94
        3
 73
     0
 74
     0
 95
       11
 96
        7
 40
0.0
 40
0.0
 40
0.0
 40
0.0
 40
1.0
 40
1.0
 40
1.0
 40
2.0
 40
2.0
 40
2.0
 40
2.0
 10
208.0265841547516
 20
-309.4902234839237
 10
207.3576872115336
 20
-308.7804996354971
 10
206.2398050280644
 20
-308.7465095069601
 10
205.5300811796378
 20
-309.4176761493136
 10
205.5051421683893
 20
-309.4403454614258
 10
205.4802031571408
 20
-309.4652844726752
 10
205.4575338450286
 20
-309.4902234839237
 97
        0
 72
     1
 10
205.4575338450286
 20
-309.4902234839237
 11
208.0265841547516
 21
-309.4902234839237
 97
        0
 75
     2
 76
     1
 98
        1
 10
0.0
 20
0.0
450
        0
451
        0
460
0.0
461
0.0
452
        0
462
0.0
453
        0
470

  0
SPLINE
  5
14A
330
140
100
AcDbEntity
  8
Camada 1
 62
   250
370
    35
100
AcDbSpline
210
0.0
220
0.0
230
1.0
 70
     8
 71
     3
 72
     8
 73
     4
 74
     0
 42
0.0000000001
 43
0.0000000001
 40
0.0
 40
0.0
 40
0.0
 40
0.0
 40
1.0
 40
1.0
 40
1.0
 40
1.0
 10
205.4575338450286
 20
-320.9274311898844
 30
0.0
 10
206.2874133514242
 20
-321.2199179067174
 30
0.0
 10
207.196676969098
 20
-321.2199179067174
 30
0.0
 10
208.0265841547516
 20
-320.9274311898844
 30
0.0
  0
HATCH
  5
14B
330
140
100
AcDbEntity
  8
Camada 1
 62
     7
440
 33554687
100
AcDbHatch
 10
0.0
 20
0.0
 30
0.0
210
0.0
220
0.0
230
1.0
  2
SOLID
 70
     1
 71
     1
 91
        1
 92
        1
 93
        2
 72
     4
 94
        3
 73
     0
 74
     0
 95
        8
 96
        4
 40
0.0
 40
0.0
 40
0.0
 40
0.0
 40
1.0
 40
1.0
 40
1.0
 40
1.0
 10
205.4575338450286
 20
-320.9274311898844
 10
206.2874133514242
 20
-321.2199179067174
 10
207.196676969098
 20
-321.2199179067174
 10
208.0265841547516
 20
-320.9274311898844
 97
        0
 72
     1
 10
208.0265841547516
 20
-320.9274311898844
 11
205.4575338450286
 21
-320.9274311898844
 97
        0
 75
     2
 76
     1
 98
        1
 10
0.0
 20
0.0
450
        0
451
        0
460
0.0
461
0.0
452
        0
462
0.0
453
        0
470

  0
SPLINE
  5
14C
330
140
100
AcDbEntity
  8
Camada 1
 62
   250
370
    35
100
AcDbSpline
210
0.0
220
0.0
230
1.0
 70
     8
 71
     3
 72
     8
 73
     4
 74
     0
 42
0.0000000001
 43
0.0000000001
 40
0.0
 40
0.0
 40
0.0
 40
0.0
 40
1.0
 40
1.0
 40
1.0
 40
1.0
 10
250.3197150047927
 20
-376.9660399285494
 30
0.0
 10
250.3197150047927
 20
-376.292603587056
 30
0.0
 10
249.7732434186819
 20
-375.7438761414378
 30
0.0
 10
249.0998070771893
 20
-375.7438761414378
 30
0.0
  0
HATCH
  5
14D
330
140
100
AcDbEntity
  8
Camada 1
 62
     7
440
 33554687
100
AcDbHatch
 10
0.0
 20
0.0
 30
0.0
210
0.0
220
0.0
230
1.0
  2
SOLID
 70
     1
 71
     1
 91
        1
 92
        1
 93
        2
 72
     4
 94
        3
 73
     0
 74
     0
 95
        8
 96
        4
 40
0.0
 40
0.0
 40
0.0
 40
0.0
 40
1.0
 40
1.0
 40
1.0
 40
1.0
 10
250.3197150047927
 20
-376.9660399285494
 10
250.3197150047927
 20
-376.292603587056
 10
249.7732434186819
 20
-375.7438761414378
 10
249.0998070771893
 20
-375.7438761414378
 97
        0
 72
     1
 10
249.0998070771893
 20
-375.7438761414378
 11
250.3197150047927
 21
-376.9660399285494
 97
        0
 75
     2
 76
     1
 98
        1
 10
0.0
 20
0.0
450
        0
451
        0
460
0.0
461
0.0
452
        0
462
0.0
453
        0
470

  0
SPLINE
  5
14E
330
140
100
AcDbEntity
  8
Camada 1
 62
   250
370
    35
100
AcDbSpline
210
0.0
220
0.0
230
1.0
 70
     8
 71
     3
 72
     8
 73
     4
 74
     0
 42
0.0000000001
 43
0.0000000001
 40
0.0
 40
0.0
 40
0.0
 40
0.0
 40
1.0
 40
1.0
 40
1.0
 40
1.0
 10
249.0998070771893
 20
-380.6303031096286
 30
0.0
 10
249.7732434186819
 20
-380.6303031096286
 30
0.0
 10
250.3197150047927
 20
-380.0838315235178
 30
0.0
 10
250.3197150047927
 20
-379.4081254828889
 30
0.0
  0
HATCH
  5
14F
330
140
100
AcDbEntity
  8
Camada 1
 62
     7
440
 33554687
100
AcDbHatch
 10
0.0
 20
0.0
 30
0.0
210
0.0
220
0.0
230
1.0
  2
SOLID
 70
     1
 71
     1
 91
        1
 92
        1
 93
        2
 72
     4
 94
        3
 73
     0
 74
     0
 95
        8
 96
        4
 40
0.0
 40
0.0
 40
0.0
 40
0.0
 40
1.0
 40
1.0
 40
1.0
 40
1.0
 10
249.0998070771893
 20
-380.6303031096286
 10
249.7732434186819
 20
-380.6303031096286
 10
250.3197150047927
 20
-380.0838315235178
 10
250.3197150047927
 20
-379.4081254828889
 97
        0
 72
     1
 10
250.3197150047927
 20
-379.4081254828889
 11
249.0998070771893
 21
-380.6303031096286
 97
        0
 75
     2
 76
     1
 98
        1
 10
0.0
 20
0.0
450
        0
451
        0
460
0.0
461
0.0
452
        0
462
0.0
453
        0
470

  0
SPLINE
  5
150
330
140
100
AcDbEntity
  8
Camada 1
 62
   250
370
    35
100
AcDbSpline
210
0.0
220
0.0
230
1.0
 70
     8
 71
     3
 72
    11
 73
     7
 74
     0
 42
0.0000000001
 43
0.0000000001
 40
0.0
 40
0.0
 40
0.0
 40
0.0
 40
1.0
 40
1.0
 40
1.0
 40
2.0
 40
2.0
 40
2.0
 40
2.0
 10
206.0244050441142
 20
-270.2377974959682
 30
0.0
 10
205.9110308042964
 20
-270.101753944039
 30
0.0
 10
205.7069516367747
 20
-270.0858937293387
 30
0.0
 10
205.5709080848465
 20
-270.1992679691548
 30
0.0
 10
205.4983330709784
 20
-270.2604668080812
 30
0.0
 10
205.4575338450286
 20
-270.3511717357851
 30
0.0
 10
205.4575338450286
 20
-270.4464160617645
 30
0.0
  0
HATCH
  5
151
330
140
100
AcDbEntity
  8
Camada 1
 62
     7
440
 33554687
100
AcDbHatch
 10
0.0
 20
0.0
 30
0.0
210
0.0
220
0.0
230
1.0
  2
SOLID
 70
     1
 71
     1
 91
        1
 92
        1
 93
        2
 72
     4
 94
        3
 73
     0
 74
     0
 95
       11
 96
        7
 40
0.0
 40
0.0
 40
0.0
 40
0.0
 40
1.0
 40
1.0
 40
1.0
 40
2.0
 40
2.0
 40
2.0
 40
2.0
 10
206.0244050441142
 20
-270.2377974959682
 10
205.9110308042964
 20
-270.101753944039
 10
205.7069516367747
 20
-270.0858937293387
 10
205.5709080848465
 20
-270.1992679691548
 10
205.4983330709784
 20
-270.2604668080812
 10
205.4575338450286
 20
-270.3511717357851
 10
205.4575338450286
 20
-270.4464160617645
 97
        0
 72
     1
 10
205.4575338450286
 20
-270.4464160617645
 11
206.0244050441142
 21
-270.2377974959682
 97
        0
 75
     2
 76
     1
 98
        1
 10
0.0
 20
0.0
450
        0
451
        0
460
0.0
461
0.0
452
        0
462
0.0
453
        0
470

  0
SPLINE
  5
152
330
140
100
AcDbEntity
  8
Camada 1
 62
   250
370
    35
100
AcDbSpline
210
0.0
220
0.0
230
1.0
 70
     8
 71
     3
 72
     8
 73
     4
 74
     0
 42
0.0000000001
 43
0.0000000001
 40
0.0
 40
0.0
 40
0.0
 40
0.0
 40
1.0
 40
1.0
 40
1.0
 40
1.0
 10
205.4575338450286
 20
-349.5839051532166
 30
0.0
 10
205.4575338450286
 20
-349.7630176302337
 30
0.0
 10
205.6003864943705
 20
-349.9058702795737
 30
0.0
 10
205.7772292722466
 20
-349.9058702795737
 30
0.0
  0
HATCH
  5
153
330
140
100
AcDbEntity
  8
Camada 1
 62
     7
440
 33554687
100
AcDbHatch
 10
0.0
 20
0.0
 30
0.0
210
0.0
220
0.0
230
1.0
  2
SOLID
 70
     1
 71
     1
 91
        1
 92
        1
 93
        2
 72
     4
 94
        3
 73
     0
 74
     0
 95
        8
 96
        4
 40
0.0
 40
0.0
 40
0.0
 40
0.0
 40
1.0
 40
1.0
 40
1.0
 40
1.0
 10
205.4575338450286
 20
-349.5839051532166
 10
205.4575338450286
 20
-349.7630176302337
 10
205.6003864943705
 20
-349.9058702795737
 10
205.7772292722466
 20
-349.9058702795737
 97
        0
 72
     1
 10
205.7772292722466
 20
-349.9058702795737
 11
205.4575338450286
 21
-349.5839051532166
 97
        0
 75
     2
 76
     1
 98
        1
 10
0.0
 20
0.0
450
        0
451
        0
460
0.0
461
0.0
452
        0
462
0.0
453
        0
470

  0
SPLINE
  5
154
330
140
100
AcDbEntity
  8
Camada 1
 62
   250
370
    35
100
AcDbSpline
210
0.0
220
0.0
230
1.0
 70
     8
 71
     3
 72
     8
 73
     4
 74
     0
 42
0.0000000001
 43
0.0000000001
 40
0.0
 40
0.0
 40
0.0
 40
0.0
 40
1.0
 40
1.0
 40
1.0
 40
1.0
 10
207.7068610482738
 20
-349.9058702795737
 30
0.0
 10
207.8837315054116
 20
-349.9058702795737
 30
0.0
 10
208.0265841547516
 20
-349.7630176302337
 30
0.0
 10
208.0265841547516
 20
-349.5839051532166
 30
0.0
  0
HATCH
  5
155
330
140
100
AcDbEntity
  8
Camada 1
 62
     7
440
 33554687
100
AcDbHatch
 10
0.0
 20
0.0
 30
0.0
210
0.0
220
0.0
230
1.0
  2
SOLID
 70
     1
 71
     1
 91
        1
 92
        1
 93
        2
 72
     4
 94
        3
 73
     0
 74
     0
 95
        8
 96
        4
 40
0.0
 40
0.0
 40
0.0
 40
0.0
 40
1.0
 40
1.0
 40
1.0
 40
1.0
 10
207.7068610482738
 20
-349.9058702795737
 10
207.8837315054116
 20
-349.9058702795737
 10
208.0265841547516
 20
-349.7630176302337
 10
208.0265841547516
 20
-349.5839051532166
 97
        0
 72
     1
 10
208.0265841547516
 20
-349.5839051532167
 11
207.7068610482738
 21
-349.9058702795737
 97
        0
 75
     2
 76
     1
 98
        1
 10
0.0
 20
0.0
450
        0
451
        0
460
0.0
461
0.0
452
        0
462
0.0
453
        0
470

  0
SPLINE
  5
156
330
140
100
AcDbEntity
  8
Camada 1
 62
   250
370
    35
100
AcDbSpline
210
0.0
220
0.0
230
1.0
 70
     8
 71
     3
 72
     8
 73
     4
 74
     0
 42
0.0000000001
 43
0.0000000001
 40
0.0
 40
0.0
 40
0.0
 40
0.0
 40
1.0
 40
1.0
 40
1.0
 40
1.0
 10
208.0265841547516
 20
-272.7433792676284
 30
0.0
 10
208.0265841547516
 20
-272.6685345546248
 30
0.0
 10
208.0016451435022
 20
-272.5937175208783
 30
0.0
 10
207.9517671210042
 20
-272.5370304009693
 30
0.0
  0
HATCH
  5
157
330
140
100
AcDbEntity
  8
Camada 1
 62
     7
440
 33554687
100
AcDbHatch
 10
0.0
 20
0.0
 30
0.0
210
0.0
220
0.0
230
1.0
  2
SOLID
 70
     1
 71
     1
 91
        1
 92
        1
 93
        2
 72
     4
 94
        3
 73
     0
 74
     0
 95
        8
 96
        4
 40
0.0
 40
0.0
 40
0.0
 40
0.0
 40
1.0
 40
1.0
 40
1.0
 40
1.0
 10
208.0265841547516
 20
-272.7433792676284
 10
208.0265841547516
 20
-272.6685345546248
 10
208.0016451435022
 20
-272.5937175208783
 10
207.9517671210042
 20
-272.5370304009693
 97
        0
 72
     1
 10
207.9517671210042
 20
-272.5370304009693
 11
208.0265841547516
 21
-272.7433792676284
 97
        0
 75
     2
 76
     1
 98
        1
 10
0.0
 20
0.0
450
        0
451
        0
460
0.0
461
0.0
452
        0
462
0.0
453
        0
470

  0
SPLINE
  5
158
330
140
100
AcDbEntity
  8
Camada 1
 62
   250
370
    35
100
AcDbSpline
210
0.0
220
0.0
230
1.0
 70
     8
 71
     3
 72
     8
 73
     4
 74
     0
 42
0.0000000001
 43
0.0000000001
 40
0.0
 40
0.0
 40
0.0
 40
0.0
 40
1.0
 40
1.0
 40
1.0
 40
1.0
 10
205.7772292722466
 20
-190.0323319228009
 30
0.0
 10
205.6003864943705
 20
-190.0323319228009
 30
0.0
 10
205.4575338450286
 20
-190.1774542712792
 30
0.0
 10
205.4575338450286
 20
-190.3543247284151
 30
0.0
  0
HATCH
  5
159
330
140
100
AcDbEntity
  8
Camada 1
 62
     7
440
 33554687
100
AcDbHatch
 10
0.0
 20
0.0
 30
0.0
210
0.0
220
0.0
230
1.0
  2
SOLID
 70
     1
 71
     1
 91
        1
 92
        1
 93
        2
 72
     4
 94
        3
 73
     0
 74
     0
 95
        8
 96
        4
 40
0.0
 40
0.0
 40
0.0
 40
0.0
 40
1.0
 40
1.0
 40
1.0
 40
1.0
 10
205.7772292722466
 20
-190.0323319228009
 10
205.6003864943705
 20
-190.0323319228009
 10
205.4575338450286
 20
-190.1774542712792
 10
205.4575338450286
 20
-190.3543247284151
 97
        0
 72
     1
 10
205.4575338450286
 20
-190.3543247284151
 11
205.7772292722466
 21
-190.0323319228009
 97
        0
 75
     2
 76
     1
 98
        1
 10
0.0
 20
0.0
450
        0
451
        0
460
0.0
461
0.0
452
        0
462
0.0
453
        0
470

  0
SPLINE
  5
15A
330
140
100
AcDbEntity
  8
Camada 1
 62
   250
370
    35
100
AcDbSpline
210
0.0
220
0.0
230
1.0
 70
     8
 71
     3
 72
     8
 73
     4
 74
     0
 42
0.0000000001
 43
0.0000000001
 40
0.0
 40
0.0
 40
0.0
 40
0.0
 40
1.0
 40
1.0
 40
1.0
 40
1.0
 10
205.4575338450286
 20
-267.1948506140034
 30
0.0
 10
205.4575338450286
 20
-267.2719373468863
 30
0.0
 10
205.4824728562771
 20
-267.3444846814964
 30
0.0
 10
205.5323508787751
 20
-267.4034415005408
 30
0.0
  0
HATCH
  5
15B
330
140
100
AcDbEntity
  8
Camada 1
 62
     7
440
 33554687
100
AcDbHatch
 10
0.0
 20
0.0
 30
0.0
210
0.0
220
0.0
230
1.0
  2
SOLID
 70
     1
 71
     1
 91
        1
 92
        1
 93
        2
 72
     4
 94
        3
 73
     0
 74
     0
 95
        8
 96
        4
 40
0.0
 40
0.0
 40
0.0
 40
0.0
 40
1.0
 40
1.0
 40
1.0
 40
1.0
 10
205.4575338450286
 20
-267.1948506140034
 10
205.4575338450286
 20
-267.2719373468863
 10
205.4824728562771
 20
-267.3444846814964
 10
205.5323508787751
 20
-267.4034415005408
 97
        0
 72
     1
 10
205.5323508787751
 20
-267.4034415005408
 11
205.4575338450286
 21
-267.1948506140034
 97
        0
 75
     2
 76
     1
 98
        1
 10
0.0
 20
0.0
450
        0
451
        0
460
0.0
461
0.0
452
        0
462
0.0
453
        0
470

  0
SPLINE
  5
15C
330
140
100
AcDbEntity
  8
Camada 1
 62
   250
370
    35
100
AcDbSpline
210
0.0
220
0.0
230
1.0
 70
     8
 71
     3
 72
    11
 73
     7
 74
     0
 42
0.0000000001
 43
0.0000000001
 40
0.0
 40
0.0
 40
0.0
 40
0.0
 40
1.0
 40
1.0
 40
1.0
 40
2.0
 40
2.0
 40
2.0
 40
2.0
 10
207.459712955665
 20
-269.7004047064056
 30
0.0
 10
207.573087195482
 20
-269.8364482583356
 30
0.0
 10
207.7771663630047
 20
-269.8546058514312
 30
0.0
 10
207.9132099149338
 20
-269.7389619124769
 30
0.0
 10
207.985757249543
 20
-269.6800050934307
 30
0.0
 10
208.0265841547516
 20
-269.5893001657259
 30
0.0
 10
208.0265841547516
 20
-269.4940558397466
 30
0.0
  0
HATCH
  5
15D
330
140
100
AcDbEntity
  8
Camada 1
 62
     7
440
 33554687
100
AcDbHatch
 10
0.0
 20
0.0
 30
0.0
210
0.0
220
0.0
230
1.0
  2
SOLID
 70
     1
 71
     1
 91
        1
 92
        1
 93
        2
 72
     4
 94
        3
 73
     0
 74
     0
 95
       11
 96
        7
 40
0.0
 40
0.0
 40
0.0
 40
0.0
 40
1.0
 40
1.0
 40
1.0
 40
2.0
 40
2.0
 40
2.0
 40
2.0
 10
207.459712955665
 20
-269.7004047064056
 10
207.573087195482
 20
-269.8364482583356
 10
207.7771663630047
 20
-269.8546058514312
 10
207.9132099149338
 20
-269.7389619124769
 10
207.985757249543
 20
-269.6800050934307
 10
208.0265841547516
 20
-269.5893001657259
 10
208.0265841547516
 20
-269.4940558397466
 97
        0
 72
     1
 10
208.0265841547516
 20
-269.4940558397466
 11
207.459712955665
 21
-269.7004047064056
 97
        0
 75
     2
 76
     1
 98
        1
 10
0.0
 20
0.0
450
        0
451
        0
460
0.0
461
0.0
452
        0
462
0.0
453
        0
470

  0
SPLINE
  5
15E
330
140
100
AcDbEntity
  8
Camada 1
 62
   250
370
    35
100
AcDbSpline
210
0.0
220
0.0
230
1.0
 70
     8
 71
     3
 72
     8
 73
     4
 74
     0
 42
0.0000000001
 43
0.0000000001
 40
0.0
 40
0.0
 40
0.0
 40
0.0
 40
1.0
 40
1.0
 40
1.0
 40
1.0
 10
208.0265841547516
 20
-190.3543247284151
 30
0.0
 10
208.0265841547516
 20
-190.1774542712792
 30
0.0
 10
207.8837315054116
 20
-190.0323319228009
 30
0.0
 10
207.7068610482738
 20
-190.0323319228009
 30
0.0
  0
HATCH
  5
15F
330
140
100
AcDbEntity
  8
Camada 1
 62
     7
440
 33554687
100
AcDbHatch
 10
0.0
 20
0.0
 30
0.0
210
0.0
220
0.0
230
1.0
  2
SOLID
 70
     1
 71
     1
 91
        1
 92
        1
 93
        2
 72
     4
 94
        3
 73
     0
 74
     0
 95
        8
 96
        4
 40
0.0
 40
0.0
 40
0.0
 40
0.0
 40
1.0
 40
1.0
 40
1.0
 40
1.0
 10
208.0265841547516
 20
-190.3543247284151
 10
208.0265841547516
 20
-190.1774542712792
 10
207.8837315054116
 20
-190.0323319228009
 10
207.7068610482738
 20
-190.0323319228009
 97
        0
 72
     1
 10
207.7068610482739
 20
-190.0323319228009
 11
208.0265841547516
 21
-190.3543247284151
 97
        0
 75
     2
 76
     1
 98
        1
 10
0.0
 20
0.0
450
        0
451
        0
460
0.0
461
0.0
452
        0
462
0.0
453
        0
470

  0
SPLINE
  5
160
330
140
100
AcDbEntity
  8
Camada 1
 62
   250
370
    35
100
AcDbSpline
210
0.0
220
0.0
230
1.0
 70
     8
 71
     3
 72
     8
 73
     4
 74
     0
 42
0.0000000001
 43
0.0000000001
 40
0.0
 40
0.0
 40
0.0
 40
0.0
 40
1.0
 40
1.0
 40
1.0
 40
1.0
 10
163.1644029949875
 20
-379.4081254828889
 30
0.0
 10
163.1644029949875
 20
-380.0838315235178
 30
0.0
 10
163.7108745810983
 20
-380.6303031096286
 30
0.0
 10
164.384310922589
 20
-380.6303031096286
 30
0.0
  0
HATCH
  5
161
330
140
100
AcDbEntity
  8
Camada 1
 62
     7
440
 33554687
100
AcDbHatch
 10
0.0
 20
0.0
 30
0.0
210
0.0
220
0.0
230
1.0
  2
SOLID
 70
     1
 71
     1
 91
        1
 92
        1
 93
        2
 72
     4
 94
        3
 73
     0
 74
     0
 95
        8
 96
        4
 40
0.0
 40
0.0
 40
0.0
 40
0.0
 40
1.0
 40
1.0
 40
1.0
 40
1.0
 10
163.1644029949875
 20
-379.4081254828889
 10
163.1644029949875
 20
-380.0838315235178
 10
163.7108745810983
 20
-380.6303031096286
 10
164.384310922589
 20
-380.6303031096286
 97
        0
 72
     1
 10
164.384310922589
 20
-380.6303031096287
 11
163.1644029949875
 21
-379.4081254828889
 97
        0
 75
     2
 76
     1
 98
        1
 10
0.0
 20
0.0
450
        0
451
        0
460
0.0
461
0.0
452
        0
462
0.0
453
        0
470

  0
SPLINE
  5
162
330
140
100
AcDbEntity
  8
Camada 1
 62
   250
370
    35
100
AcDbSpline
210
0.0
220
0.0
230
1.0
 70
     8
 71
     3
 72
     8
 73
     4
 74
     0
 42
0.0000000001
 43
0.0000000001
 40
0.0
 40
0.0
 40
0.0
 40
0.0
 40
1.0
 40
1.0
 40
1.0
 40
1.0
 10
164.384310922589
 20
-375.7438761414378
 30
0.0
 10
163.7108745810983
 20
-375.7438761414378
 30
0.0
 10
163.1644029949875
 20
-376.292603587056
 30
0.0
 10
163.1644029949875
 20
-376.9660399285494
 30
0.0
  0
HATCH
  5
163
330
140
100
AcDbEntity
  8
Camada 1
 62
     7
440
 33554687
100
AcDbHatch
 10
0.0
 20
0.0
 30
0.0
210
0.0
220
0.0
230
1.0
  2
SOLID
 70
     1
 71
     1
 91
        1
 92
        1
 93
        2
 72
     4
 94
        3
 73
     0
 74
     0
 95
        8
 96
        4
 40
0.0
 40
0.0
 40
0.0
 40
0.0
 40
1.0
 40
1.0
 40
1.0
 40
1.0
 10
164.384310922589
 20
-375.7438761414378
 10
163.7108745810983
 20
-375.7438761414378
 10
163.1644029949875
 20
-376.292603587056
 10
163.1644029949875
 20
-376.9660399285494
 97
        0
 72
     1
 10
163.1644029949875
 20
-376.9660399285495
 11
164.384310922589
 21
-375.7438761414378
 97
        0
 75
     2
 76
     1
 98
        1
 10
0.0
 20
0.0
450
        0
451
        0
460
0.0
461
0.0
452
        0
462
0.0
453
        0
470

  0
SPLINE
  5
164
330
140
100
AcDbEntity
  8
Camada 1
 62
   250
370
    35
100
AcDbSpline
210
0.0
220
0.0
230
1.0
 70
     8
 71
     3
 72
     8
 73
     4
 74
     0
 42
0.0000000001
 43
0.0000000001
 40
0.0
 40
0.0
 40
0.0
 40
0.0
 40
1.0
 40
1.0
 40
1.0
 40
1.0
 10
164.128084033432
 20
-156.7592622356287
 30
0.0
 10
164.0215188910261
 20
-156.7592622356287
 30
0.0
 10
163.9353533615949
 20
-156.8454277650598
 30
0.0
 10
163.9353533615949
 20
-156.9519929074649
 30
0.0
  0
HATCH
  5
165
330
140
100
AcDbEntity
  8
Camada 1
 62
     7
440
 33554687
100
AcDbHatch
 10
0.0
 20
0.0
 30
0.0
210
0.0
220
0.0
230
1.0
  2
SOLID
 70
     1
 71
     1
 91
        1
 92
        1
 93
        2
 72
     4
 94
        3
 73
     0
 74
     0
 95
        8
 96
        4
 40
0.0
 40
0.0
 40
0.0
 40
0.0
 40
1.0
 40
1.0
 40
1.0
 40
1.0
 10
164.128084033432
 20
-156.7592622356287
 10
164.0215188910261
 20
-156.7592622356287
 10
163.9353533615949
 20
-156.8454277650598
 10
163.9353533615949
 20
-156.9519929074649
 97
        0
 72
     1
 10
163.9353533615949
 20
-156.9519929074649
 11
164.128084033432
 21
-156.7592622356287
 97
        0
 75
     2
 76
     1
 98
        1
 10
0.0
 20
0.0
450
        0
451
        0
460
0.0
461
0.0
452
        0
462
0.0
453
        0
470

  0
SPLINE
  5
166
330
140
100
AcDbEntity
  8
Camada 1
 62
   250
370
    35
100
AcDbSpline
210
0.0
220
0.0
230
1.0
 70
     8
 71
     3
 72
     8
 73
     4
 74
     0
 42
0.0000000001
 43
0.0000000001
 40
0.0
 40
0.0
 40
0.0
 40
0.0
 40
1.0
 40
1.0
 40
1.0
 40
1.0
 10
163.9353533615949
 20
-162.3508874935969
 30
0.0
 10
163.9353533615949
 20
-162.4574526360038
 30
0.0
 10
164.0215188910261
 20
-162.5436181654349
 30
0.0
 10
164.128084033432
 20
-162.5436181654349
 30
0.0
  0
HATCH
  5
167
330
140
100
AcDbEntity
  8
Camada 1
 62
     7
440
 33554687
100
AcDbHatch
 10
0.0
 20
0.0
 30
0.0
210
0.0
220
0.0
230
1.0
  2
SOLID
 70
     1
 71
     1
 91
        1
 92
        1
 93
        2
 72
     4
 94
        3
 73
     0
 74
     0
 95
        8
 96
        4
 40
0.0
 40
0.0
 40
0.0
 40
0.0
 40
1.0
 40
1.0
 40
1.0
 40
1.0
 10
163.9353533615949
 20
-162.3508874935969
 10
163.9353533615949
 20
-162.4574526360038
 10
164.0215188910261
 20
-162.5436181654349
 10
164.128084033432
 20
-162.5436181654349
 97
        0
 72
     1
 10
164.128084033432
 20
-162.543618165435
 11
163.9353533615949
 21
-162.3508874935969
 97
        0
 75
     2
 76
     1
 98
        1
 10
0.0
 20
0.0
450
        0
451
        0
460
0.0
461
0.0
452
        0
462
0.0
453
        0
470

  0
LWPOLYLINE
  5
168
330
140
100
AcDbEntity
  8
Camada 1
 62
   250
370
    35
100
AcDbPolyline
 90
       15
 70
     0
 43
0.0
 10
163.9353533615949
 20
-162.3508874935969
 10
163.9353533615949
 20
-162.2828518780052
 10
163.9353533615949
 20
-162.0833121087562
 10
163.9353533615949
 20
-161.7613193031429
 10
163.9353533615949
 20
-161.3350310542601
 10
163.9353533615949
 20
-160.822604955204
 10
163.9353533615949
 20
-160.253464056982
 10
163.9353533615949
 20
-159.6525750500996
 10
163.9353533615949
 20
-159.051686043218
 10
163.9353533615949
 20
-158.4802754458578
 10
163.9353533615949
 20
-157.9678216675456
 10
163.9353533615949
 20
-157.5415334186618
 10
163.9353533615949
 20
-157.2195682923066
 10
163.9353533615949
 20
-157.0200285230594
 10
163.9353533615949
 20
-156.9519929074649
  0
HATCH
  5
169
330
140
100
AcDbEntity
  8
Camada 1
 62
     7
440
 33554687
100
AcDbHatch
 10
0.0
 20
0.0
 30
0.0
210
0.0
220
0.0
230
1.0
  2
SOLID
 70
     1
 71
     1
 91
        1
 92
        3
 72
     0
 73
     1
 93
       15
 10
163.9353533615949
 20
-162.3508874935969
 10
163.9353533615949
 20
-162.2828518780052
 10
163.9353533615949
 20
-162.0833121087562
 10
163.9353533615949
 20
-161.7613193031429
 10
163.9353533615949
 20
-161.3350310542601
 10
163.9353533615949
 20
-160.822604955204
 10
163.9353533615949
 20
-160.253464056982
 10
163.9353533615949
 20
-159.6525750500996
 10
163.9353533615949
 20
-159.051686043218
 10
163.9353533615949
 20
-158.4802754458578
 10
163.9353533615949
 20
-157.9678216675456
 10
163.9353533615949
 20
-157.5415334186618
 10
163.9353533615949
 20
-157.2195682923066
 10
163.9353533615949
 20
-157.0200285230594
 10
163.9353533615949
 20
-156.9519929074649
 97
        0
 75
     2
 76
     1
 98
        1
 10
0.0
 20
0.0
450
        0
451
        0
460
0.0
461
0.0
452
        0
462
0.0
453
        0
470

  0
LWPOLYLINE
  5
16A
330
140
100
AcDbEntity
  8
Camada 1
 62
   250
370
    35
100
AcDbPolyline
 90
       15
 70
     0
 43
0.0
 10
164.128084033432
 20
-156.7592622356287
 10
164.128084033432
 20
-156.8318095702379
 10
164.128084033432
 20
-157.0449675343079
 10
164.128084033432
 20
-157.3896296520324
 10
164.128084033432
 20
-157.8476383303168
 10
164.128084033432
 20
-158.396379615564
 10
164.128084033432
 20
-159.0086171181319
 10
164.128084033432
 20
-159.6525750500996
 10
164.128084033432
 20
-160.296532982069
 10
164.128084033432
 20
-160.9065007854979
 10
164.128084033432
 20
-161.4552143914889
 10
164.128084033432
 20
-161.9132507490303
 10
164.128084033432
 20
-162.2579128667557
 10
164.128084033432
 20
-162.4710431515686
 10
164.128084033432
 20
-162.5436181654349
  0
HATCH
  5
16B
330
140
100
AcDbEntity
  8
Camada 1
 62
     7
440
 33554687
100
AcDbHatch
 10
0.0
 20
0.0
 30
0.0
210
0.0
220
0.0
230
1.0
  2
SOLID
 70
     1
 71
     1
 91
        1
 92
        3
 72
     0
 73
     1
 93
       15
 10
164.128084033432
 20
-156.7592622356287
 10
164.128084033432
 20
-156.8318095702379
 10
164.128084033432
 20
-157.0449675343079
 10
164.128084033432
 20
-157.3896296520324
 10
164.128084033432
 20
-157.8476383303168
 10
164.128084033432
 20
-158.396379615564
 10
164.128084033432
 20
-159.0086171181319
 10
164.128084033432
 20
-159.6525750500996
 10
164.128084033432
 20
-160.296532982069
 10
164.128084033432
 20
-160.9065007854979
 10
164.128084033432
 20
-161.4552143914889
 10
164.128084033432
 20
-161.9132507490303
 10
164.128084033432
 20
-162.2579128667557
 10
164.128084033432
 20
-162.4710431515686
 10
164.128084033432
 20
-162.5436181654349
 97
        0
 75
     2
 76
     1
 98
        1
 10
0.0
 20
0.0
450
        0
451
        0
460
0.0
461
0.0
452
        0
462
0.0
453
        0
470

  0
LINE
  5
16C
330
140
100
AcDbEntity
  8
Camada 1
 62
   250
370
    35
100
AcDbLine
 10
164.128084033432
 20
-162.5436181654349
 30
0.0
 11
164.5770415944271
 21
-162.5436181654349
 31
0.0
  0
LINE
  5
16D
330
140
100
AcDbEntity
  8
Camada 1
 62
   250
370
    35
100
AcDbLine
 10
164.5770415944271
 20
-156.7592622356287
 30
0.0
 11
164.128084033432
 21
-156.7592622356287
 31
0.0
  0
LINE
  5
16E
330
140
100
AcDbEntity
  8
Camada 1
 62
   250
370
    35
100
AcDbLine
 10
165.3479919610354
 20
-376.9025575508576
 30
0.0
 11
164.9625029381013
 21
-376.9025575508576
 31
0.0
  0
LINE
  5
16F
330
140
100
AcDbEntity
  8
Camada 1
 62
   250
370
    35
100
AcDbLine
 10
166.1846805648401
 20
-376.9025575508576
 30
0.0
 11
165.735723003846
 21
-376.9025575508576
 31
0.0
  0
LINE
  5
170
330
140
100
AcDbEntity
  8
Camada 1
 62
   250
370
    35
100
AcDbLine
 10
165.735723003846
 20
-379.4738775597152
 30
0.0
 11
166.1846805648401
 21
-379.4738775597152
 31
0.0
  0
LINE
  5
171
330
140
100
AcDbEntity
  8
Camada 1
 62
   250
370
    35
100
AcDbLine
 10
164.9625029381013
 20
-379.4738775597152
 30
0.0
 11
165.3479919610354
 21
-379.4738775597152
 31
0.0
  0
LWPOLYLINE
  5
172
330
140
100
AcDbEntity
  8
Camada 1
 62
   250
370
    35
100
AcDbPolyline
 90
        8
 70
     0
 43
0.0
 10
164.384310922589
 20
-380.6303031096286
 10
164.384310922589
 20
-380.5486769784702
 10
164.384310922589
 20
-380.3083241436443
 10
164.384310922589
 20
-379.9273745189848
 10
164.384310922589
 20
-379.4307947950019
 10
164.384310922589
 20
-378.8525889398597
 10
164.384310922589
 20
-378.2267609217288
 10
164.384310922589
 20
-377.6009467432286
  0
HATCH
  5
173
330
140
100
AcDbEntity
  8
Camada 1
 62
     7
440
 33554687
100
AcDbHatch
 10
0.0
 20
0.0
 30
0.0
210
0.0
220
0.0
230
1.0
  2
SOLID
 70
     1
 71
     1
 91
        1
 92
        3
 72
     0
 73
     1
 93
        8
 10
164.384310922589
 20
-380.6303031096286
 10
164.384310922589
 20
-380.5486769784702
 10
164.384310922589
 20
-380.3083241436443
 10
164.384310922589
 20
-379.9273745189848
 10
164.384310922589
 20
-379.4307947950019
 10
164.384310922589
 20
-378.8525889398597
 10
164.384310922589
 20
-378.2267609217288
 10
164.384310922589
 20
-377.6009467432286
 97
        0
 75
     2
 76
     1
 98
        1
 10
0.0
 20
0.0
450
        0
451
        0
460
0.0
461
0.0
452
        0
462
0.0
453
        0
470

  0
LWPOLYLINE
  5
174
330
140
100
AcDbEntity
  8
Camada 1
 62
   250
370
    35
100
AcDbPolyline
 90
        6
 70
     0
 43
0.0
 10
164.384310922589
 20
-377.6009467432286
 10
164.384310922589
 20
-376.9977880372071
 10
164.384310922589
 20
-376.4808087002493
 10
164.384310922589
 20
-376.0817291617523
 10
164.384310922589
 20
-375.830041670868
 10
164.384310922589
 20
-375.7438761414378
  0
HATCH
  5
175
330
140
100
AcDbEntity
  8
Camada 1
 62
     7
440
 33554687
100
AcDbHatch
 10
0.0
 20
0.0
 30
0.0
210
0.0
220
0.0
230
1.0
  2
SOLID
 70
     1
 71
     1
 91
        1
 92
        3
 72
     0
 73
     1
 93
        6
 10
164.384310922589
 20
-377.6009467432286
 10
164.384310922589
 20
-376.9977880372071
 10
164.384310922589
 20
-376.4808087002493
 10
164.384310922589
 20
-376.0817291617523
 10
164.384310922589
 20
-375.830041670868
 10
164.384310922589
 20
-375.7438761414378
 97
        0
 75
     2
 76
     1
 98
        1
 10
0.0
 20
0.0
450
        0
451
        0
460
0.0
461
0.0
452
        0
462
0.0
453
        0
470

  0
LINE
  5
176
330
140
100
AcDbEntity
  8
Camada 1
 62
   250
370
    35
100
AcDbLine
 10
164.5770415944271
 20
-375.7438761414378
 30
0.0
 11
164.384310922589
 21
-375.7438761414378
 31
0.0
  0
LINE
  5
177
330
140
100
AcDbEntity
  8
Camada 1
 62
   250
370
    35
100
AcDbLine
 10
164.384310922589
 20
-380.6303031096286
 30
0.0
 11
164.5770415944271
 21
-380.6303031096286
 31
0.0
  0
LWPOLYLINE
  5
178
330
140
100
AcDbEntity
  8
Camada 1
 62
   250
370
    35
100
AcDbPolyline
 90
        3
 70
     0
 43
0.0
 10
248.52158738242
 20
-381.9003243334191
 10
248.52158738242
 20
-381.8624452691647
 10
248.52158738242
 20
-381.7495277371008
  0
HATCH
  5
179
330
140
100
AcDbEntity
  8
Camada 1
 62
     7
440
 33554687
100
AcDbHatch
 10
0.0
 20
0.0
 30
0.0
210
0.0
220
0.0
230
1.0
  2
SOLID
 70
     1
 71
     1
 91
        1
 92
        3
 72
     0
 73
     1
 93
        3
 10
248.52158738242
 20
-381.9003243334191
 10
248.52158738242
 20
-381.8624452691647
 10
248.52158738242
 20
-381.7495277371008
 97
        0
 75
     2
 76
     1
 98
        1
 10
0.0
 20
0.0
450
        0
451
        0
460
0.0
461
0.0
452
        0
462
0.0
453
        0
470

  0
LWPOLYLINE
  5
17A
330
140
100
AcDbEntity
  8
Camada 1
 62
   250
370
    35
100
AcDbPolyline
 90
        3
 70
     0
 43
0.0
 10
248.9070764053531
 20
-381.7495277371008
 10
248.9070764053531
 20
-381.8624452691647
 10
248.9070764053531
 20
-381.9003243334191
  0
HATCH
  5
17B
330
140
100
AcDbEntity
  8
Camada 1
 62
     7
440
 33554687
100
AcDbHatch
 10
0.0
 20
0.0
 30
0.0
210
0.0
220
0.0
230
1.0
  2
SOLID
 70
     1
 71
     1
 91
        1
 92
        3
 72
     0
 73
     1
 93
        3
 10
248.9070764053531
 20
-381.7495277371008
 10
248.9070764053531
 20
-381.8624452691647
 10
248.9070764053531
 20
-381.9003243334191
 97
        0
 75
     2
 76
     1
 98
        1
 10
0.0
 20
0.0
450
        0
451
        0
460
0.0
461
0.0
452
        0
462
0.0
453
        0
470

  0
LINE
  5
17C
330
140
100
AcDbEntity
  8
Camada 1
 62
   250
370
    35
100
AcDbLine
 10
248.52158738242
 20
-381.9003243334191
 30
0.0
 11
248.9070764053531
 21
-381.9003243334191
 31
0.0
  0
LWPOLYLINE
  5
17D
330
140
100
AcDbEntity
  8
Camada 1
 62
   250
370
    35
100
AcDbPolyline
 90
        3
 70
     0
 43
0.0
 10
164.5770415944271
 20
-381.9003243334191
 10
164.5770415944271
 20
-381.8624452691647
 10
164.5770415944271
 20
-381.7495277371008
  0
HATCH
  5
17E
330
140
100
AcDbEntity
  8
Camada 1
 62
     7
440
 33554687
100
AcDbHatch
 10
0.0
 20
0.0
 30
0.0
210
0.0
220
0.0
230
1.0
  2
SOLID
 70
     1
 71
     1
 91
        1
 92
        3
 72
     0
 73
     1
 93
        3
 10
164.5770415944271
 20
-381.9003243334191
 10
164.5770415944271
 20
-381.8624452691647
 10
164.5770415944271
 20
-381.7495277371008
 97
        0
 75
     2
 76
     1
 98
        1
 10
0.0
 20
0.0
450
        0
451
        0
460
0.0
461
0.0
452
        0
462
0.0
453
        0
470

  0
LWPOLYLINE
  5
17F
330
140
100
AcDbEntity
  8
Camada 1
 62
   250
370
    35
100
AcDbPolyline
 90
        3
 70
     0
 43
0.0
 10
164.9625029381013
 20
-381.7495277371008
 10
164.9625029381013
 20
-381.8624452691647
 10
164.9625029381013
 20
-381.9003243334191
  0
HATCH
  5
180
330
140
100
AcDbEntity
  8
Camada 1
 62
     7
440
 33554687
100
AcDbHatch
 10
0.0
 20
0.0
 30
0.0
210
0.0
220
0.0
230
1.0
  2
SOLID
 70
     1
 71
     1
 91
        1
 92
        3
 72
     0
 73
     1
 93
        3
 10
164.9625029381013
 20
-381.7495277371008
 10
164.9625029381013
 20
-381.8624452691647
 10
164.9625029381013
 20
-381.9003243334191
 97
        0
 75
     2
 76
     1
 98
        1
 10
0.0
 20
0.0
450
        0
451
        0
460
0.0
461
0.0
452
        0
462
0.0
453
        0
470

  0
LINE
  5
181
330
140
100
AcDbEntity
  8
Camada 1
 62
   250
370
    35
100
AcDbLine
 10
164.5770415944271
 20
-381.9003243334191
 30
0.0
 11
164.9625029381013
 21
-381.9003243334191
 31
0.0
  0
LINE
  5
182
330
140
100
AcDbEntity
  8
Camada 1
 62
   250
370
    35
100
AcDbLine
 10
164.5770415944271
 20
-381.7495277371008
 30
0.0
 11
164.5770415944271
 21
-365.9755339240737
 31
0.0
  0
LINE
  5
183
330
140
100
AcDbEntity
  8
Camada 1
 62
   250
370
    35
100
AcDbLine
 10
164.9625029381013
 20
-381.7495277371008
 30
0.0
 11
164.9625029381013
 21
-365.9755339240737
 31
0.0
  0
LINE
  5
184
330
140
100
AcDbEntity
  8
Camada 1
 62
   250
370
    35
100
AcDbLine
 10
164.5770415944271
 20
-381.7495277371008
 30
0.0
 11
164.9625029381013
 21
-381.7495277371008
 31
0.0
  0
LINE
  5
185
330
140
100
AcDbEntity
  8
Camada 1
 62
   250
370
    35
100
AcDbLine
 10
248.52158738242
 20
-381.7495277371008
 30
0.0
 11
248.52158738242
 21
-365.9755339240737
 31
0.0
  0
LINE
  5
186
330
140
100
AcDbEntity
  8
Camada 1
 62
   250
370
    35
100
AcDbLine
 10
248.9070764053531
 20
-381.7495277371008
 30
0.0
 11
248.9070764053531
 21
-365.9755339240737
 31
0.0
  0
LINE
  5
187
330
140
100
AcDbEntity
  8
Camada 1
 62
   250
370
    35
100
AcDbLine
 10
248.52158738242
 20
-381.7495277371008
 30
0.0
 11
248.9070764053531
 21
-381.7495277371008
 31
0.0
  0
LWPOLYLINE
  5
188
330
140
100
AcDbEntity
  8
Camada 1
 62
   250
370
    35
100
AcDbPolyline
 90
        4
 70
     0
 43
0.0
 10
164.5883900901108
 20
-141.6011319079361
 10
164.7697722662633
 20
-141.1975129711663
 10
165.1371036961009
 20
-140.9118076724862
 10
165.6064885493279
 20
-140.8075122292175
  0
HATCH
  5
189
330
140
100
AcDbEntity
  8
Camada 1
 62
     7
440
 33554687
100
AcDbHatch
 10
0.0
 20
0.0
 30
0.0
210
0.0
220
0.0
230
1.0
  2
SOLID
 70
     1
 71
     1
 91
        1
 92
        3
 72
     0
 73
     1
 93
        4
 10
164.5883900901108
 20
-141.6011319079361
 10
164.7697722662633
 20
-141.1975129711663
 10
165.1371036961009
 20
-140.9118076724862
 10
165.6064885493279
 20
-140.8075122292175
 97
        0
 75
     2
 76
     1
 98
        1
 10
0.0
 20
0.0
450
        0
451
        0
460
0.0
461
0.0
452
        0
462
0.0
453
        0
470

  0
LINE
  5
18A
330
140
100
AcDbEntity
  8
Camada 1
 62
   250
370
    35
100
AcDbLine
 10
164.5883900901108
 20
-141.6011319079361
 30
0.0
 11
164.5770415944271
 21
-141.7689235685257
 31
0.0
  0
LINE
  5
18B
330
140
100
AcDbEntity
  8
Camada 1
 62
   250
370
    35
100
AcDbLine
 10
164.5770415944271
 20
-174.4297557531317
 30
0.0
 11
164.5770415944271
 21
-141.7689235685257
 31
0.0
  0
LINE
  5
18C
330
140
100
AcDbEntity
  8
Camada 1
 62
   250
370
    35
100
AcDbLine
 10
165.6064885493279
 20
-140.8075122292175
 30
0.0
 11
247.8776294504514
 21
-140.8075122292175
 31
0.0
  0
LINE
  5
18D
330
140
100
AcDbEntity
  8
Camada 1
 62
   250
370
    35
100
AcDbLine
 10
165.6064885493279
 20
-173.5023622216204
 30
0.0
 11
165.6064885493279
 21
-140.8075122292175
 31
0.0
  0
LINE
  5
18E
330
140
100
AcDbEntity
  8
Camada 1
 62
   250
370
    35
100
AcDbLine
 10
248.9070764053531
 20
-174.4297557531317
 30
0.0
 11
248.9070764053531
 21
-141.7689235685257
 31
0.0
  0
LINE
  5
18F
330
140
100
AcDbEntity
  8
Camada 1
 62
   250
370
    35
100
AcDbLine
 10
248.8957279096676
 20
-141.6011319079361
 30
0.0
 11
248.9070764053531
 21
-141.7689235685257
 31
0.0
  0
LWPOLYLINE
  5
190
330
140
100
AcDbEntity
  8
Camada 1
 62
   250
370
    35
100
AcDbPolyline
 90
        4
 70
     0
 43
0.0
 10
247.8776294504514
 20
-140.8075122292175
 10
248.3469866244204
 20
-140.9118076724862
 10
248.714345733516
 20
-141.1975129711663
 10
248.8957279096676
 20
-141.6011319079361
  0
HATCH
  5
191
330
140
100
AcDbEntity
  8
Camada 1
 62
     7
440
 33554687
100
AcDbHatch
 10
0.0
 20
0.0
 30
0.0
210
0.0
220
0.0
230
1.0
  2
SOLID
 70
     1
 71
     1
 91
        1
 92
        3
 72
     0
 73
     1
 93
        4
 10
247.8776294504514
 20
-140.8075122292175
 10
248.3469866244204
 20
-140.9118076724862
 10
248.714345733516
 20
-141.1975129711663
 10
248.8957279096676
 20
-141.6011319079361
 97
        0
 75
     2
 76
     1
 98
        1
 10
0.0
 20
0.0
450
        0
451
        0
460
0.0
461
0.0
452
        0
462
0.0
453
        0
470

  0
LINE
  5
192
330
140
100
AcDbEntity
  8
Camada 1
 62
   250
370
    35
100
AcDbLine
 10
247.8776294504514
 20
-140.8075122292175
 30
0.0
 11
247.8776294504514
 21
-173.5023622216204
 31
0.0
  0
LINE
  5
193
330
140
100
AcDbEntity
  8
Camada 1
 62
   250
370
    35
100
AcDbLine
 10
248.9070764053531
 20
-174.4297557531317
 30
0.0
 11
248.9070764053531
 21
-174.4479133462282
 31
0.0
  0
LWPOLYLINE
  5
194
330
140
100
AcDbEntity
  8
Camada 1
 62
   250
370
    35
100
AcDbPolyline
 90
       17
 70
     0
 43
0.0
 10
247.8776294504514
 20
-173.5023622216204
 10
247.9796551945838
 20
-173.5069016198949
 10
248.0794389188368
 20
-173.5205198147168
 10
248.1769252646955
 20
-173.543189126829
 10
248.2721695906739
 20
-173.5726675363512
 10
248.3628745183796
 20
-173.6111970631627
 10
248.4490400478108
 20
-173.6588330657823
 10
248.5306661789673
 20
-173.713250486554
 10
248.6054832127138
 20
-173.7744770047366
 10
248.6735188283073
 20
-173.8402152419357
 10
248.7324756473536
 20
-173.912790255802
 10
248.7846233689879
 20
-173.9921466878222
 10
248.827719973332
 20
-174.0737728189797
 10
248.8617101018717
 20
-174.1599383484108
 10
248.8866491131203
 20
-174.2483735769801
 10
248.9025370070795
 20
-174.339078504684
 10
248.9070764053531
 20
-174.4297557531317
  0
HATCH
  5
195
330
140
100
AcDbEntity
  8
Camada 1
 62
     7
440
 33554687
100
AcDbHatch
 10
0.0
 20
0.0
 30
0.0
210
0.0
220
0.0
230
1.0
  2
SOLID
 70
     1
 71
     1
 91
        1
 92
        3
 72
     0
 73
     1
 93
       17
 10
247.8776294504514
 20
-173.5023622216204
 10
247.9796551945838
 20
-173.5069016198949
 10
248.0794389188368
 20
-173.5205198147168
 10
248.1769252646955
 20
-173.543189126829
 10
248.2721695906739
 20
-173.5726675363512
 10
248.3628745183796
 20
-173.6111970631627
 10
248.4490400478108
 20
-173.6588330657823
 10
248.5306661789673
 20
-173.713250486554
 10
248.6054832127138
 20
-173.7744770047366
 10
248.6735188283073
 20
-173.8402152419357
 10
248.7324756473536
 20
-173.912790255802
 10
248.7846233689879
 20
-173.9921466878222
 10
248.827719973332
 20
-174.0737728189797
 10
248.8617101018717
 20
-174.1599383484108
 10
248.8866491131203
 20
-174.2483735769801
 10
248.9025370070795
 20
-174.339078504684
 10
248.9070764053531
 20
-174.4297557531317
 97
        0
 75
     2
 76
     1
 98
        1
 10
0.0
 20
0.0
450
        0
451
        0
460
0.0
461
0.0
452
        0
462
0.0
453
        0
470

  0
LWPOLYLINE
  5
196
330
140
100
AcDbEntity
  8
Camada 1
 62
   250
370
    35
100
AcDbPolyline
 90
       17
 70
     0
 43
0.0
 10
164.5770415944271
 20
-174.4297557531317
 10
164.5815809926998
 20
-174.339078504684
 10
164.5974412074011
 20
-174.2483735769801
 10
164.6223802186514
 20
-174.1599383484108
 10
164.6563980264472
 20
-174.0737728189797
 10
164.6994946307914
 20
-173.9921466878222
 10
164.7516423524257
 20
-173.912790255802
 10
164.8105991714719
 20
-173.8402152419357
 10
164.8786071078066
 20
-173.7744770047366
 10
164.9534518208111
 20
-173.713250486554
 10
165.0350779519685
 20
-173.6588330657823
 10
165.1212434813997
 20
-173.6111970631627
 10
165.2119484091054
 20
-173.5726675363512
 10
165.3071650558258
 20
-173.543189126829
 10
165.4046790809434
 20
-173.5205198147168
 10
165.5044351259375
 20
-173.5069016198949
 10
165.6064885493279
 20
-173.5023622216204
  0
HATCH
  5
197
330
140
100
AcDbEntity
  8
Camada 1
 62
     7
440
 33554687
100
AcDbHatch
 10
0.0
 20
0.0
 30
0.0
210
0.0
220
0.0
230
1.0
  2
SOLID
 70
     1
 71
     1
 91
        1
 92
        3
 72
     0
 73
     1
 93
       17
 10
164.5770415944271
 20
-174.4297557531317
 10
164.5815809926998
 20
-174.339078504684
 10
164.5974412074011
 20
-174.2483735769801
 10
164.6223802186514
 20
-174.1599383484108
 10
164.6563980264472
 20
-174.0737728189797
 10
164.6994946307914
 20
-173.9921466878222
 10
164.7516423524257
 20
-173.912790255802
 10
164.8105991714719
 20
-173.8402152419357
 10
164.8786071078066
 20
-173.7744770047366
 10
164.9534518208111
 20
-173.713250486554
 10
165.0350779519685
 20
-173.6588330657823
 10
165.1212434813997
 20
-173.6111970631627
 10
165.2119484091054
 20
-173.5726675363512
 10
165.3071650558258
 20
-173.543189126829
 10
165.4046790809434
 20
-173.5205198147168
 10
165.5044351259375
 20
-173.5069016198949
 10
165.6064885493279
 20
-173.5023622216204
 97
        0
 75
     2
 76
     1
 98
        1
 10
0.0
 20
0.0
450
        0
451
        0
460
0.0
461
0.0
452
        0
462
0.0
453
        0
470

  0
LINE
  5
198
330
140
100
AcDbEntity
  8
Camada 1
 62
   250
370
    35
100
AcDbLine
 10
164.5770415944271
 20
-174.4479133462282
 30
0.0
 11
164.5770415944271
 21
-174.4297557531317
 31
0.0
  0
LWPOLYLINE
  5
199
330
140
100
AcDbEntity
  8
Camada 1
 62
   250
370
    35
100
AcDbPolyline
 90
        5
 70
     0
 43
0.0
 10
248.9070764053531
 20
-365.9755339240737
 10
248.827719973332
 20
-365.9755339240737
 10
248.6054832127138
 20
-365.9755339240737
 10
248.2721695906739
 20
-365.9755339240737
 10
247.8776294504514
 20
-365.9755339240737
  0
HATCH
  5
19A
330
140
100
AcDbEntity
  8
Camada 1
 62
     7
440
 33554687
100
AcDbHatch
 10
0.0
 20
0.0
 30
0.0
210
0.0
220
0.0
230
1.0
  2
SOLID
 70
     1
 71
     1
 91
        1
 92
        3
 72
     0
 73
     1
 93
        5
 10
248.9070764053531
 20
-365.9755339240737
 10
248.827719973332
 20
-365.9755339240737
 10
248.6054832127138
 20
-365.9755339240737
 10
248.2721695906739
 20
-365.9755339240737
 10
247.8776294504514
 20
-365.9755339240737
 97
        0
 75
     2
 76
     1
 98
        1
 10
0.0
 20
0.0
450
        0
451
        0
460
0.0
461
0.0
452
        0
462
0.0
453
        0
470

  0
LINE
  5
19B
330
140
100
AcDbEntity
  8
Camada 1
 62
   250
370
    35
100
AcDbLine
 10
248.9070764053531
 20
-365.9755339240737
 30
0.0
 11
248.9070764053531
 21
-174.4479133462282
 31
0.0
  0
LWPOLYLINE
  5
19C
330
140
100
AcDbEntity
  8
Camada 1
 62
   250
370
    35
100
AcDbPolyline
 90
        9
 70
     0
 43
0.0
 10
247.8776294504514
 20
-174.4342951514063
 10
248.0794389188368
 20
-174.4365648505427
 10
248.2721695906739
 20
-174.4388345496791
 10
248.4490400478108
 20
-174.4388345496791
 10
248.6054832127138
 20
-174.4411042488173
 10
248.7324756473536
 20
-174.4433739479536
 10
248.827719973332
 20
-174.44564364709
 10
248.8866491131203
 20
-174.44564364709
 10
248.9070764053531
 20
-174.4479133462282
  0
HATCH
  5
19D
330
140
100
AcDbEntity
  8
Camada 1
 62
     7
440
 33554687
100
AcDbHatch
 10
0.0
 20
0.0
 30
0.0
210
0.0
220
0.0
230
1.0
  2
SOLID
 70
     1
 71
     1
 91
        1
 92
        3
 72
     0
 73
     1
 93
        9
 10
247.8776294504514
 20
-174.4342951514063
 10
248.0794389188368
 20
-174.4365648505427
 10
248.2721695906739
 20
-174.4388345496791
 10
248.4490400478108
 20
-174.4388345496791
 10
248.6054832127138
 20
-174.4411042488173
 10
248.7324756473536
 20
-174.4433739479536
 10
248.827719973332
 20
-174.44564364709
 10
248.8866491131203
 20
-174.44564364709
 10
248.9070764053531
 20
-174.4479133462282
 97
        0
 75
     2
 76
     1
 98
        1
 10
0.0
 20
0.0
450
        0
451
        0
460
0.0
461
0.0
452
        0
462
0.0
453
        0
470

  0
LWPOLYLINE
  5
19E
330
140
100
AcDbEntity
  8
Camada 1
 62
   250
370
    35
100
AcDbPolyline
 90
        4
 70
     0
 43
0.0
 10
247.8776294504514
 20
-173.5023622216204
 10
247.8776294504514
 20
-173.7291107012543
 10
247.8776294504514
 20
-174.0556429051412
 10
247.8776294504514
 20
-174.4342951514063
  0
HATCH
  5
19F
330
140
100
AcDbEntity
  8
Camada 1
 62
     7
440
 33554687
100
AcDbHatch
 10
0.0
 20
0.0
 30
0.0
210
0.0
220
0.0
230
1.0
  2
SOLID
 70
     1
 71
     1
 91
        1
 92
        3
 72
     0
 73
     1
 93
        4
 10
247.8776294504514
 20
-173.5023622216204
 10
247.8776294504514
 20
-173.7291107012543
 10
247.8776294504514
 20
-174.0556429051412
 10
247.8776294504514
 20
-174.4342951514063
 97
        0
 75
     2
 76
     1
 98
        1
 10
0.0
 20
0.0
450
        0
451
        0
460
0.0
461
0.0
452
        0
462
0.0
453
        0
470

  0
LINE
  5
1A0
330
140
100
AcDbEntity
  8
Camada 1
 62
   250
370
    35
100
AcDbLine
 10
165.6064885493279
 20
-173.5023622216204
 30
0.0
 11
247.8776294504514
 21
-173.5023622216204
 31
0.0
  0
LWPOLYLINE
  5
1A1
330
140
100
AcDbEntity
  8
Camada 1
 62
   250
370
    35
100
AcDbPolyline
 90
        4
 70
     0
 43
0.0
 10
165.6064885493279
 20
-174.4342951514063
 10
165.6064885493279
 20
-174.0556429051412
 10
165.6064885493279
 20
-173.7291107012543
 10
165.6064885493279
 20
-173.5023622216204
  0
HATCH
  5
1A2
330
140
100
AcDbEntity
  8
Camada 1
 62
     7
440
 33554687
100
AcDbHatch
 10
0.0
 20
0.0
 30
0.0
210
0.0
220
0.0
230
1.0
  2
SOLID
 70
     1
 71
     1
 91
        1
 92
        3
 72
     0
 73
     1
 93
        4
 10
165.6064885493279
 20
-174.4342951514063
 10
165.6064885493279
 20
-174.0556429051412
 10
165.6064885493279
 20
-173.7291107012543
 10
165.6064885493279
 20
-173.5023622216204
 97
        0
 75
     2
 76
     1
 98
        1
 10
0.0
 20
0.0
450
        0
451
        0
460
0.0
461
0.0
452
        0
462
0.0
453
        0
470

  0
LINE
  5
1A3
330
140
100
AcDbEntity
  8
Camada 1
 62
   250
370
    35
100
AcDbLine
 10
164.5770415944271
 20
-365.9755339240737
 30
0.0
 11
164.5770415944271
 21
-174.4479133462282
 31
0.0
  0
LWPOLYLINE
  5
1A4
330
140
100
AcDbEntity
  8
Camada 1
 62
   250
370
    35
100
AcDbPolyline
 90
        5
 70
     0
 43
0.0
 10
164.5770415944271
 20
-365.9755339240737
 10
164.6563980264472
 20
-365.9755339240737
 10
164.8786071078066
 20
-365.9755339240737
 10
165.2119484091054
 20
-365.9755339240737
 10
165.6064885493279
 20
-365.9755339240737
  0
HATCH
  5
1A5
330
140
100
AcDbEntity
  8
Camada 1
 62
     7
440
 33554687
100
AcDbHatch
 10
0.0
 20
0.0
 30
0.0
210
0.0
220
0.0
230
1.0
  2
SOLID
 70
     1
 71
     1
 91
        1
 92
        3
 72
     0
 73
     1
 93
        5
 10
164.5770415944271
 20
-365.9755339240737
 10
164.6563980264472
 20
-365.9755339240737
 10
164.8786071078066
 20
-365.9755339240737
 10
165.2119484091054
 20
-365.9755339240737
 10
165.6064885493279
 20
-365.9755339240737
 97
        0
 75
     2
 76
     1
 98
        1
 10
0.0
 20
0.0
450
        0
451
        0
460
0.0
461
0.0
452
        0
462
0.0
453
        0
470

  0
LWPOLYLINE
  5
1A6
330
140
100
AcDbEntity
  8
Camada 1
 62
   250
370
    35
100
AcDbPolyline
 90
        9
 70
     0
 43
0.0
 10
164.5770415944271
 20
-174.4479133462282
 10
164.5974412074011
 20
-174.44564364709
 10
164.6563980264472
 20
-174.44564364709
 10
164.7516423524257
 20
-174.4433739479536
 10
164.8786071078066
 20
-174.4411042488173
 10
165.0350779519685
 20
-174.4388345496791
 10
165.2119484091054
 20
-174.4388345496791
 10
165.4046790809434
 20
-174.4365648505427
 10
165.6064885493279
 20
-174.4342951514063
  0
HATCH
  5
1A7
330
140
100
AcDbEntity
  8
Camada 1
 62
     7
440
 33554687
100
AcDbHatch
 10
0.0
 20
0.0
 30
0.0
210
0.0
220
0.0
230
1.0
  2
SOLID
 70
     1
 71
     1
 91
        1
 92
        3
 72
     0
 73
     1
 93
        9
 10
164.5770415944271
 20
-174.4479133462282
 10
164.5974412074011
 20
-174.44564364709
 10
164.6563980264472
 20
-174.44564364709
 10
164.7516423524257
 20
-174.4433739479536
 10
164.8786071078066
 20
-174.4411042488173
 10
165.0350779519685
 20
-174.4388345496791
 10
165.2119484091054
 20
-174.4388345496791
 10
165.4046790809434
 20
-174.4365648505427
 10
165.6064885493279
 20
-174.4342951514063
 97
        0
 75
     2
 76
     1
 98
        1
 10
0.0
 20
0.0
450
        0
451
        0
460
0.0
461
0.0
452
        0
462
0.0
453
        0
470

  0
LINE
  5
1A8
330
140
100
AcDbEntity
  8
Camada 1
 62
   250
370
    35
100
AcDbLine
 10
165.6064885493279
 20
-365.9755339240737
 30
0.0
 11
165.6064885493279
 21
-174.4342951514063
 31
0.0
  0
LINE
  5
1A9
330
140
100
AcDbEntity
  8
Camada 1
 62
   250
370
    35
100
AcDbLine
 10
165.6064885493279
 20
-365.9755339240737
 30
0.0
 11
247.8776294504514
 21
-365.9755339240737
 31
0.0
  0
LINE
  5
1AA
330
140
100
AcDbEntity
  8
Camada 1
 62
   250
370
    35
100
AcDbLine
 10
247.8776294504514
 20
-174.4342951514063
 30
0.0
 11
247.8776294504514
 21
-365.9755339240737
 31
0.0
  0
LINE
  5
1AB
330
140
100
AcDbEntity
  8
Camada 1
 62
   250
370
    35
100
AcDbLine
 10
247.8776294504514
 20
-174.4342951514063
 30
0.0
 11
165.6064885493279
 21
-174.4342951514063
 31
0.0
  0
LINE
  5
1AC
330
140
100
AcDbEntity
  8
Camada 1
 62
   250
370
    35
100
AcDbLine
 10
205.7772292722466
 20
-190.0323319228009
 30
0.0
 11
207.7068610482738
 21
-190.0323319228009
 31
0.0
  0
LINE
  5
1AD
330
140
100
AcDbEntity
  8
Camada 1
 62
   250
370
    35
100
AcDbLine
 10
208.0265841547516
 20
-190.3543247284151
 30
0.0
 11
208.0265841547516
 21
-269.4940558397466
 31
0.0
  0
LINE
  5
1AE
330
140
100
AcDbEntity
  8
Camada 1
 62
   250
370
    35
100
AcDbLine
 10
207.459712955665
 20
-269.7004047064056
 30
0.0
 11
205.5323508787751
 21
-267.4034415005408
 31
0.0
  0
LINE
  5
1AF
330
140
100
AcDbEntity
  8
Camada 1
 62
   250
370
    35
100
AcDbLine
 10
205.4575338450286
 20
-267.1948506140034
 30
0.0
 11
205.4575338450286
 21
-190.3543247284151
 31
0.0
  0
LINE
  5
1B0
330
140
100
AcDbEntity
  8
Camada 1
 62
   250
370
    35
100
AcDbLine
 10
206.0244050441142
 20
-270.2377974959682
 30
0.0
 11
207.9517671210042
 21
-272.5370304009693
 31
0.0
  0
LINE
  5
1B1
330
140
100
AcDbEntity
  8
Camada 1
 62
   250
370
    35
100
AcDbLine
 10
208.0265841547516
 20
-272.7433792676284
 30
0.0
 11
208.0265841547516
 21
-349.5839051532166
 31
0.0
  0
LINE
  5
1B2
330
140
100
AcDbEntity
  8
Camada 1
 62
   250
370
    35
100
AcDbLine
 10
207.7068610482738
 20
-349.9058702795737
 30
0.0
 11
205.7772292722466
 21
-349.9058702795737
 31
0.0
  0
LINE
  5
1B3
330
140
100
AcDbEntity
  8
Camada 1
 62
   250
370
    35
100
AcDbLine
 10
205.4575338450286
 20
-349.5839051532166
 30
0.0
 11
205.4575338450286
 21
-270.4464160617645
 31
0.0
  0
LINE
  5
1B4
330
140
100
AcDbEntity
  8
Camada 1
 62
   250
370
    35
100
AcDbLine
 10
248.1361260387448
 20
-379.4738775597152
 30
0.0
 11
248.52158738242
 21
-379.4738775597152
 31
0.0
  0
LINE
  5
1B5
330
140
100
AcDbEntity
  8
Camada 1
 62
   250
370
    35
100
AcDbLine
 10
247.2994097556821
 20
-379.4738775597152
 30
0.0
 11
247.7506646950697
 21
-379.4738775597152
 31
0.0
  0
LINE
  5
1B6
330
140
100
AcDbEntity
  8
Camada 1
 62
   250
370
    35
100
AcDbLine
 10
247.7506646950697
 20
-376.9025575508576
 30
0.0
 11
247.2994097556821
 21
-376.9025575508576
 31
0.0
  0
LINE
  5
1B7
330
140
100
AcDbEntity
  8
Camada 1
 62
   250
370
    35
100
AcDbLine
 10
248.52158738242
 20
-376.9025575508576
 30
0.0
 11
248.1361260387448
 21
-376.9025575508576
 31
0.0
  0
LINE
  5
1B8
330
140
100
AcDbEntity
  8
Camada 1
 62
   250
370
    35
100
AcDbLine
 10
248.9070764053531
 20
-380.6303031096286
 30
0.0
 11
249.0998070771893
 21
-380.6303031096286
 31
0.0
  0
LINE
  5
1B9
330
140
100
AcDbEntity
  8
Camada 1
 62
   250
370
    35
100
AcDbLine
 10
249.0998070771893
 20
-375.7438761414378
 30
0.0
 11
248.9070764053531
 21
-375.7438761414378
 31
0.0
  0
LWPOLYLINE
  5
1BA
330
140
100
AcDbEntity
  8
Camada 1
 62
   250
370
    35
100
AcDbPolyline
 90
       14
 70
     0
 43
0.0
 10
249.0998070771893
 20
-375.7438761414378
 10
249.0998070771893
 20
-375.816423476047
 10
249.0998070771893
 20
-376.0250420418442
 10
249.0998070771893
 20
-376.3583556638841
 10
249.0998070771893
 20
-376.8005179670963
 10
249.0998070771893
 20
-377.3220367023295
 10
249.0998070771893
 20
-377.893447299688
 10
249.0998070771893
 20
-378.4807181117494
 10
249.0998070771893
 20
-379.0543984082442
 10
249.0998070771893
 20
-379.5759171434784
 10
249.0998070771893
 20
-380.0158097475533
 10
249.0998070771893
 20
-380.3491372092221
 10
249.0998070771893
 20
-380.5577419353904
 10
249.0998070771893
 20
-380.6303031096286
  0
HATCH
  5
1BB
330
140
100
AcDbEntity
  8
Camada 1
 62
     7
440
 33554687
100
AcDbHatch
 10
0.0
 20
0.0
 30
0.0
210
0.0
220
0.0
230
1.0
  2
SOLID
 70
     1
 71
     1
 91
        1
 92
        3
 72
     0
 73
     1
 93
       14
 10
249.0998070771893
 20
-375.7438761414378
 10
249.0998070771893
 20
-375.816423476047
 10
249.0998070771893
 20
-376.0250420418442
 10
249.0998070771893
 20
-376.3583556638841
 10
249.0998070771893
 20
-376.8005179670963
 10
249.0998070771893
 20
-377.3220367023295
 10
249.0998070771893
 20
-377.893447299688
 10
249.0998070771893
 20
-378.4807181117494
 10
249.0998070771893
 20
-379.0543984082442
 10
249.0998070771893
 20
-379.5759171434784
 10
249.0998070771893
 20
-380.0158097475533
 10
249.0998070771893
 20
-380.3491372092221
 10
249.0998070771893
 20
-380.5577419353904
 10
249.0998070771893
 20
-380.6303031096286
 97
        0
 75
     2
 76
     1
 98
        1
 10
0.0
 20
0.0
450
        0
451
        0
460
0.0
461
0.0
452
        0
462
0.0
453
        0
470

  0
LWPOLYLINE
  5
1BC
330
140
100
AcDbEntity
  8
Camada 1
 62
   250
370
    35
100
AcDbPolyline
 90
       10
 70
     0
 43
0.0
 10
250.3197150047927
 20
-376.9660399285494
 10
250.3197150047927
 20
-377.040870801924
 10
250.3197150047927
 20
-377.2517452272268
 10
250.3197150047927
 20
-377.5759938923493
 10
250.3197150047927
 20
-377.9750734308464
 10
250.3197150047927
 20
-378.3990919805901
 10
250.3197150047927
 20
-378.7981715190881
 10
250.3197150047927
 20
-379.1224201842096
 10
250.3197150047927
 20
-379.3355643086507
 10
250.3197150047927
 20
-379.4081254828889
  0
HATCH
  5
1BD
330
140
100
AcDbEntity
  8
Camada 1
 62
     7
440
 33554687
100
AcDbHatch
 10
0.0
 20
0.0
 30
0.0
210
0.0
220
0.0
230
1.0
  2
SOLID
 70
     1
 71
     1
 91
        1
 92
        3
 72
     0
 73
     1
 93
       10
 10
250.3197150047927
 20
-376.9660399285494
 10
250.3197150047927
 20
-377.040870801924
 10
250.3197150047927
 20
-377.2517452272268
 10
250.3197150047927
 20
-377.5759938923493
 10
250.3197150047927
 20
-377.9750734308464
 10
250.3197150047927
 20
-378.3990919805901
 10
250.3197150047927
 20
-378.7981715190881
 10
250.3197150047927
 20
-379.1224201842096
 10
250.3197150047927
 20
-379.3355643086507
 10
250.3197150047927
 20
-379.4081254828889
 97
        0
 75
     2
 76
     1
 98
        1
 10
0.0
 20
0.0
450
        0
451
        0
460
0.0
461
0.0
452
        0
462
0.0
453
        0
470

  0
LWPOLYLINE
  5
1BE
330
140
100
AcDbEntity
  8
Camada 1
 62
   250
370
    35
100
AcDbPolyline
 90
        3
 70
     0
 43
0.0
 10
166.1846805648401
 20
-376.2381861662853
 10
166.1846805648401
 20
-376.0137073857877
 10
166.1846805648401
 20
-375.9388765124131
  0
HATCH
  5
1BF
330
140
100
AcDbEntity
  8
Camada 1
 62
     7
440
 33554687
100
AcDbHatch
 10
0.0
 20
0.0
 30
0.0
210
0.0
220
0.0
230
1.0
  2
SOLID
 70
     1
 71
     1
 91
        1
 92
        3
 72
     0
 73
     1
 93
        3
 10
166.1846805648401
 20
-376.2381861662853
 10
166.1846805648401
 20
-376.0137073857877
 10
166.1846805648401
 20
-375.9388765124131
 97
        0
 75
     2
 76
     1
 98
        1
 10
0.0
 20
0.0
450
        0
451
        0
460
0.0
461
0.0
452
        0
462
0.0
453
        0
470

  0
LINE
  5
1C0
330
140
100
AcDbEntity
  8
Camada 1
 62
   250
370
    35
100
AcDbLine
 10
166.3774112366782
 20
-375.6032931912359
 30
0.0
 11
166.1846805648401
 21
-375.9388765124131
 31
0.0
  0
LWPOLYLINE
  5
1C1
330
140
100
AcDbEntity
  8
Camada 1
 62
   250
370
    35
100
AcDbPolyline
 90
        3
 70
     0
 43
0.0
 10
166.1846805648401
 20
-380.4375585981615
 10
166.1846805648401
 20
-380.3604718652787
 10
166.1846805648401
 20
-380.1359930847811
  0
HATCH
  5
1C2
330
140
100
AcDbEntity
  8
Camada 1
 62
     7
440
 33554687
100
AcDbHatch
 10
0.0
 20
0.0
 30
0.0
210
0.0
220
0.0
230
1.0
  2
SOLID
 70
     1
 71
     1
 91
        1
 92
        3
 72
     0
 73
     1
 93
        3
 10
166.1846805648401
 20
-380.4375585981615
 10
166.1846805648401
 20
-380.3604718652787
 10
166.1846805648401
 20
-380.1359930847811
 97
        0
 75
     2
 76
     1
 98
        1
 10
0.0
 20
0.0
450
        0
451
        0
460
0.0
461
0.0
452
        0
462
0.0
453
        0
470

  0
LINE
  5
1C3
330
140
100
AcDbEntity
  8
Camada 1
 62
   250
370
    35
100
AcDbLine
 10
166.1846805648401
 20
-380.4375585981615
 30
0.0
 11
166.3774112366782
 21
-380.7708860598305
 31
0.0
  0
LWPOLYLINE
  5
1C4
330
140
100
AcDbEntity
  8
Camada 1
 62
   250
370
    35
100
AcDbPolyline
 90
        9
 70
     0
 43
0.0
 10
166.1846805648401
 20
-376.2381861662853
 10
166.1846805648401
 20
-376.1973731007074
 10
166.1869502639765
 20
-376.1565461954997
 10
166.1914896622511
 20
-376.115733129921
 10
166.198298759662
 20
-376.0749200643431
 10
166.2164286735005
 20
-375.9910242340484
 10
166.2390979856118
 20
-375.9116678020273
 10
166.3025942029317
 20
-375.7484017000834
 10
166.3864900332264
 20
-375.589674996414
  0
HATCH
  5
1C5
330
140
100
AcDbEntity
  8
Camada 1
 62
     7
440
 33554687
100
AcDbHatch
 10
0.0
 20
0.0
 30
0.0
210
0.0
220
0.0
230
1.0
  2
SOLID
 70
     1
 71
     1
 91
        1
 92
        3
 72
     0
 73
     1
 93
        9
 10
166.1846805648401
 20
-376.2381861662853
 10
166.1846805648401
 20
-376.1973731007074
 10
166.1869502639765
 20
-376.1565461954997
 10
166.1914896622511
 20
-376.115733129921
 10
166.198298759662
 20
-376.0749200643431
 10
166.2164286735005
 20
-375.9910242340484
 10
166.2390979856118
 20
-375.9116678020273
 10
166.3025942029317
 20
-375.7484017000834
 10
166.3864900332264
 20
-375.589674996414
 97
        0
 75
     2
 76
     1
 98
        1
 10
0.0
 20
0.0
450
        0
451
        0
460
0.0
461
0.0
452
        0
462
0.0
453
        0
470

  0
LWPOLYLINE
  5
1C6
330
140
100
AcDbEntity
  8
Camada 1
 62
   250
370
    35
100
AcDbPolyline
 90
        5
 70
     0
 43
0.0
 10
166.1846805648401
 20
-378.1882175552855
 10
166.1846805648401
 20
-377.6054723018733
 10
166.1846805648401
 20
-377.0635401140353
 10
166.1846805648401
 20
-376.5964387995727
 10
166.1846805648401
 20
-376.2381861662853
  0
HATCH
  5
1C7
330
140
100
AcDbEntity
  8
Camada 1
 62
     7
440
 33554687
100
AcDbHatch
 10
0.0
 20
0.0
 30
0.0
210
0.0
220
0.0
230
1.0
  2
SOLID
 70
     1
 71
     1
 91
        1
 92
        3
 72
     0
 73
     1
 93
        5
 10
166.1846805648401
 20
-378.1882175552855
 10
166.1846805648401
 20
-377.6054723018733
 10
166.1846805648401
 20
-377.0635401140353
 10
166.1846805648401
 20
-376.5964387995727
 10
166.1846805648401
 20
-376.2381861662853
 97
        0
 75
     2
 76
     1
 98
        1
 10
0.0
 20
0.0
450
        0
451
        0
460
0.0
461
0.0
452
        0
462
0.0
453
        0
470

  0
LWPOLYLINE
  5
1C8
330
140
100
AcDbEntity
  8
Camada 1
 62
   250
370
    35
100
AcDbPolyline
 90
        7
 70
     0
 43
0.0
 10
166.3864900332264
 20
-376.8889531956647
 10
166.3025942029317
 20
-376.7279567928581
 10
166.2390979856118
 20
-376.5669742296814
 10
166.2164286735005
 20
-376.485334258894
 10
166.198298759662
 20
-376.4037081277365
 10
166.1869502639765
 20
-376.32208199658
 10
166.1846805648401
 20
-376.2381861662853
  0
HATCH
  5
1C9
330
140
100
AcDbEntity
  8
Camada 1
 62
     7
440
 33554687
100
AcDbHatch
 10
0.0
 20
0.0
 30
0.0
210
0.0
220
0.0
230
1.0
  2
SOLID
 70
     1
 71
     1
 91
        1
 92
        3
 72
     0
 73
     1
 93
        7
 10
166.3864900332264
 20
-376.8889531956647
 10
166.3025942029317
 20
-376.7279567928581
 10
166.2390979856118
 20
-376.5669742296814
 10
166.2164286735005
 20
-376.485334258894
 10
166.198298759662
 20
-376.4037081277365
 10
166.1869502639765
 20
-376.32208199658
 10
166.1846805648401
 20
-376.2381861662853
 97
        0
 75
     2
 76
     1
 98
        1
 10
0.0
 20
0.0
450
        0
451
        0
460
0.0
461
0.0
452
        0
462
0.0
453
        0
470

  0
LWPOLYLINE
  5
1CA
330
140
100
AcDbEntity
  8
Camada 1
 62
   250
370
    35
100
AcDbPolyline
 90
       11
 70
     0
 43
0.0
 10
166.1846805648401
 20
-378.1882175552855
 10
166.1869502639765
 20
-378.0226955938351
 10
166.198298759662
 20
-377.8571597927548
 10
166.2028381579366
 20
-377.816346727177
 10
166.2073498769523
 20
-377.7732639624601
 10
166.211889275226
 20
-377.7324508968813
 10
166.2164286735005
 20
-377.6916378313035
 10
166.2277771691842
 20
-377.610011700147
 10
166.2390979856118
 20
-377.5283855689877
 10
166.3025942029317
 20
-377.2063927633753
 10
166.3864900332264
 20
-376.8889531956647
  0
HATCH
  5
1CB
330
140
100
AcDbEntity
  8
Camada 1
 62
     7
440
 33554687
100
AcDbHatch
 10
0.0
 20
0.0
 30
0.0
210
0.0
220
0.0
230
1.0
  2
SOLID
 70
     1
 71
     1
 91
        1
 92
        3
 72
     0
 73
     1
 93
       11
 10
166.1846805648401
 20
-378.1882175552855
 10
166.1869502639765
 20
-378.0226955938351
 10
166.198298759662
 20
-377.8571597927548
 10
166.2028381579366
 20
-377.816346727177
 10
166.2073498769523
 20
-377.7732639624601
 10
166.211889275226
 20
-377.7324508968813
 10
166.2164286735005
 20
-377.6916378313035
 10
166.2277771691842
 20
-377.610011700147
 10
166.2390979856118
 20
-377.5283855689877
 10
166.3025942029317
 20
-377.2063927633753
 10
166.3864900332264
 20
-376.8889531956647
 97
        0
 75
     2
 76
     1
 98
        1
 10
0.0
 20
0.0
450
        0
451
        0
460
0.0
461
0.0
452
        0
462
0.0
453
        0
470

  0
LWPOLYLINE
  5
1CC
330
140
100
AcDbEntity
  8
Camada 1
 62
   250
370
    35
100
AcDbPolyline
 90
        5
 70
     0
 43
0.0
 10
166.1846805648401
 20
-380.1359930847811
 10
166.1846805648401
 20
-379.7777266118628
 10
166.1846805648401
 20
-379.3128949965394
 10
166.1846805648401
 20
-378.768693109565
 10
166.1846805648401
 20
-378.1882175552855
  0
HATCH
  5
1CD
330
140
100
AcDbEntity
  8
Camada 1
 62
     7
440
 33554687
100
AcDbHatch
 10
0.0
 20
0.0
 30
0.0
210
0.0
220
0.0
230
1.0
  2
SOLID
 70
     1
 71
     1
 91
        1
 92
        3
 72
     0
 73
     1
 93
        5
 10
166.1846805648401
 20
-380.1359930847811
 10
166.1846805648401
 20
-379.7777266118628
 10
166.1846805648401
 20
-379.3128949965394
 10
166.1846805648401
 20
-378.768693109565
 10
166.1846805648401
 20
-378.1882175552855
 97
        0
 75
     2
 76
     1
 98
        1
 10
0.0
 20
0.0
450
        0
451
        0
460
0.0
461
0.0
452
        0
462
0.0
453
        0
470

  0
LWPOLYLINE
  5
1CE
330
140
100
AcDbEntity
  8
Camada 1
 62
   250
370
    35
100
AcDbPolyline
 90
       11
 70
     0
 43
0.0
 10
166.3864900332264
 20
-379.4852260554017
 10
166.3411514090021
 20
-379.3264993517323
 10
166.3025942029317
 20
-379.1655029489257
 10
166.2844642890932
 20
-379.0861465169037
 10
166.268576395134
 20
-379.0045203857471
 10
166.2527161804337
 20
-378.9228804149616
 10
166.2390979856118
 20
-378.841254283805
 10
166.2141589743632
 20
-378.6780020214892
 10
166.198298759662
 20
-378.5147359195471
 10
166.1869502639765
 20
-378.3514836572313
 10
166.1846805648401
 20
-378.1882175552855
  0
HATCH
  5
1CF
330
140
100
AcDbEntity
  8
Camada 1
 62
     7
440
 33554687
100
AcDbHatch
 10
0.0
 20
0.0
 30
0.0
210
0.0
220
0.0
230
1.0
  2
SOLID
 70
     1
 71
     1
 91
        1
 92
        3
 72
     0
 73
     1
 93
       11
 10
166.3864900332264
 20
-379.4852260554017
 10
166.3411514090021
 20
-379.3264993517323
 10
166.3025942029317
 20
-379.1655029489257
 10
166.2844642890932
 20
-379.0861465169037
 10
166.268576395134
 20
-379.0045203857471
 10
166.2527161804337
 20
-378.9228804149616
 10
166.2390979856118
 20
-378.841254283805
 10
166.2141589743632
 20
-378.6780020214892
 10
166.198298759662
 20
-378.5147359195471
 10
166.1869502639765
 20
-378.3514836572313
 10
166.1846805648401
 20
-378.1882175552855
 97
        0
 75
     2
 76
     1
 98
        1
 10
0.0
 20
0.0
450
        0
451
        0
460
0.0
461
0.0
452
        0
462
0.0
453
        0
470

  0
LWPOLYLINE
  5
1D0
330
140
100
AcDbEntity
  8
Camada 1
 62
   250
370
    35
100
AcDbPolyline
 90
        9
 70
     0
 43
0.0
 10
166.1846805648401
 20
-380.1359930847811
 10
166.1846805648401
 20
-380.0951800192024
 10
166.1869502639765
 20
-380.0520972544873
 10
166.1914896622511
 20
-380.0112703492796
 10
166.198298759662
 20
-379.9704572837018
 10
166.2164286735005
 20
-379.8888311525434
 10
166.2390979856118
 20
-379.8072050213859
 10
166.3025942029317
 20
-379.6462086185793
 10
166.3864900332264
 20
-379.4852260554017
  0
HATCH
  5
1D1
330
140
100
AcDbEntity
  8
Camada 1
 62
     7
440
 33554687
100
AcDbHatch
 10
0.0
 20
0.0
 30
0.0
210
0.0
220
0.0
230
1.0
  2
SOLID
 70
     1
 71
     1
 91
        1
 92
        3
 72
     0
 73
     1
 93
        9
 10
166.1846805648401
 20
-380.1359930847811
 10
166.1846805648401
 20
-380.0951800192024
 10
166.1869502639765
 20
-380.0520972544873
 10
166.1914896622511
 20
-380.0112703492796
 10
166.198298759662
 20
-379.9704572837018
 10
166.2164286735005
 20
-379.8888311525434
 10
166.2390979856118
 20
-379.8072050213859
 10
166.3025942029317
 20
-379.6462086185793
 10
166.3864900332264
 20
-379.4852260554017
 97
        0
 75
     2
 76
     1
 98
        1
 10
0.0
 20
0.0
450
        0
451
        0
460
0.0
461
0.0
452
        0
462
0.0
453
        0
470

  0
LWPOLYLINE
  5
1D2
330
140
100
AcDbEntity
  8
Camada 1
 62
   250
370
    35
100
AcDbPolyline
 90
        7
 70
     0
 43
0.0
 10
166.3864900332264
 20
-380.7844904150234
 10
166.3025942029317
 20
-380.625763711354
 10
166.2390979856118
 20
-380.4647673085474
 10
166.2164286735005
 20
-380.3831411773899
 10
166.198298759662
 20
-380.3015150462334
 10
166.1869502639765
 20
-380.2176192159386
 10
166.1846805648401
 20
-380.1359930847811
  0
HATCH
  5
1D3
330
140
100
AcDbEntity
  8
Camada 1
 62
     7
440
 33554687
100
AcDbHatch
 10
0.0
 20
0.0
 30
0.0
210
0.0
220
0.0
230
1.0
  2
SOLID
 70
     1
 71
     1
 91
        1
 92
        3
 72
     0
 73
     1
 93
        7
 10
166.3864900332264
 20
-380.7844904150234
 10
166.3025942029317
 20
-380.625763711354
 10
166.2390979856118
 20
-380.4647673085474
 10
166.2164286735005
 20
-380.3831411773899
 10
166.198298759662
 20
-380.3015150462334
 10
166.1869502639765
 20
-380.2176192159386
 10
166.1846805648401
 20
-380.1359930847811
 97
        0
 75
     2
 76
     1
 98
        1
 10
0.0
 20
0.0
450
        0
451
        0
460
0.0
461
0.0
452
        0
462
0.0
453
        0
470

  0
LWPOLYLINE
  5
1D4
330
140
100
AcDbEntity
  8
Camada 1
 62
   250
370
    35
100
AcDbPolyline
 90
        4
 70
     0
 43
0.0
 10
247.1066790838431
 20
-382.5714909757744
 10
247.4286718894564
 20
-382.5714909757744
 10
247.6644991656394
 20
-382.5714909757744
 10
247.7506646950697
 20
-382.5714909757744
  0
HATCH
  5
1D5
330
140
100
AcDbEntity
  8
Camada 1
 62
     7
440
 33554687
100
AcDbHatch
 10
0.0
 20
0.0
 30
0.0
210
0.0
220
0.0
230
1.0
  2
SOLID
 70
     1
 71
     1
 91
        1
 92
        3
 72
     0
 73
     1
 93
        4
 10
247.1066790838431
 20
-382.5714909757744
 10
247.4286718894564
 20
-382.5714909757744
 10
247.6644991656394
 20
-382.5714909757744
 10
247.7506646950697
 20
-382.5714909757744
 97
        0
 75
     2
 76
     1
 98
        1
 10
0.0
 20
0.0
450
        0
451
        0
460
0.0
461
0.0
452
        0
462
0.0
453
        0
470

  0
LWPOLYLINE
  5
1D6
330
140
100
AcDbEntity
  8
Camada 1
 62
   250
370
    35
100
AcDbPolyline
 90
        4
 70
     0
 43
0.0
 10
165.735723003846
 20
-382.5714909757744
 10
165.8196188341408
 20
-382.5714909757744
 10
166.055446110322
 20
-382.5714909757744
 10
166.3774112366782
 20
-382.5714909757744
  0
HATCH
  5
1D7
330
140
100
AcDbEntity
  8
Camada 1
 62
     7
440
 33554687
100
AcDbHatch
 10
0.0
 20
0.0
 30
0.0
210
0.0
220
0.0
230
1.0
  2
SOLID
 70
     1
 71
     1
 91
        1
 92
        3
 72
     0
 73
     1
 93
        4
 10
165.735723003846
 20
-382.5714909757744
 10
165.8196188341408
 20
-382.5714909757744
 10
166.055446110322
 20
-382.5714909757744
 10
166.3774112366782
 20
-382.5714909757744
 97
        0
 75
     2
 76
     1
 98
        1
 10
0.0
 20
0.0
450
        0
451
        0
460
0.0
461
0.0
452
        0
462
0.0
453
        0
470

  0
LWPOLYLINE
  5
1D8
330
140
100
AcDbEntity
  8
Camada 1
 62
   250
370
    35
100
AcDbPolyline
 90
        3
 70
     0
 43
0.0
 10
166.3774112366782
 20
-383.471232928774
 10
166.3774112366782
 20
-383.4626108399798
 10
166.3774112366782
 20
-383.4365369791631
  0
HATCH
  5
1D9
330
140
100
AcDbEntity
  8
Camada 1
 62
     7
440
 33554687
100
AcDbHatch
 10
0.0
 20
0.0
 30
0.0
210
0.0
220
0.0
230
1.0
  2
SOLID
 70
     1
 71
     1
 91
        1
 92
        3
 72
     0
 73
     1
 93
        3
 10
166.3774112366782
 20
-383.471232928774
 10
166.3774112366782
 20
-383.4626108399798
 10
166.3774112366782
 20
-383.4365369791631
 97
        0
 75
     2
 76
     1
 98
        1
 10
0.0
 20
0.0
450
        0
451
        0
460
0.0
461
0.0
452
        0
462
0.0
453
        0
470

  0
LWPOLYLINE
  5
1DA
330
140
100
AcDbEntity
  8
Camada 1
 62
   250
370
    35
100
AcDbPolyline
 90
        3
 70
     0
 43
0.0
 10
247.1066790838431
 20
-383.471232928774
 10
247.1066790838431
 20
-383.4626108399798
 10
247.1066790838431
 20
-383.4365369791631
  0
HATCH
  5
1DB
330
140
100
AcDbEntity
  8
Camada 1
 62
     7
440
 33554687
100
AcDbHatch
 10
0.0
 20
0.0
 30
0.0
210
0.0
220
0.0
230
1.0
  2
SOLID
 70
     1
 71
     1
 91
        1
 92
        3
 72
     0
 73
     1
 93
        3
 10
247.1066790838431
 20
-383.471232928774
 10
247.1066790838431
 20
-383.4626108399798
 10
247.1066790838431
 20
-383.4365369791631
 97
        0
 75
     2
 76
     1
 98
        1
 10
0.0
 20
0.0
450
        0
451
        0
460
0.0
461
0.0
452
        0
462
0.0
453
        0
470

  0
LINE
  5
1DC
330
140
100
AcDbEntity
  8
Camada 1
 62
   250
370
    35
100
AcDbLine
 10
166.3774112366782
 20
-383.471232928774
 30
0.0
 11
247.1066790838431
 21
-383.471232928774
 31
0.0
  0
LWPOLYLINE
  5
1DD
330
140
100
AcDbEntity
  8
Camada 1
 62
   250
370
    35
100
AcDbPolyline
 90
        3
 70
     0
 43
0.0
 10
248.1361260387448
 20
-383.1193188455154
 10
248.1361260387448
 20
-383.1354143339067
 10
248.1361260387448
 20
-383.1408533080576
  0
HATCH
  5
1DE
330
140
100
AcDbEntity
  8
Camada 1
 62
     7
440
 33554687
100
AcDbHatch
 10
0.0
 20
0.0
 30
0.0
210
0.0
220
0.0
230
1.0
  2
SOLID
 70
     1
 71
     1
 91
        1
 92
        3
 72
     0
 73
     1
 93
        3
 10
248.1361260387448
 20
-383.1193188455154
 10
248.1361260387448
 20
-383.1354143339067
 10
248.1361260387448
 20
-383.1408533080576
 97
        0
 75
     2
 76
     1
 98
        1
 10
0.0
 20
0.0
450
        0
451
        0
460
0.0
461
0.0
452
        0
462
0.0
453
        0
470

  0
LWPOLYLINE
  5
1DF
330
140
100
AcDbEntity
  8
Camada 1
 62
   250
370
    35
100
AcDbPolyline
 90
        3
 70
     0
 43
0.0
 10
247.7506646950697
 20
-383.1408533080576
 10
247.7506646950697
 20
-383.1354143339067
 10
247.7506646950697
 20
-383.1193188455154
  0
HATCH
  5
1E0
330
140
100
AcDbEntity
  8
Camada 1
 62
     7
440
 33554687
100
AcDbHatch
 10
0.0
 20
0.0
 30
0.0
210
0.0
220
0.0
230
1.0
  2
SOLID
 70
     1
 71
     1
 91
        1
 92
        3
 72
     0
 73
     1
 93
        3
 10
247.7506646950697
 20
-383.1408533080576
 10
247.7506646950697
 20
-383.1354143339067
 10
247.7506646950697
 20
-383.1193188455154
 97
        0
 75
     2
 76
     1
 98
        1
 10
0.0
 20
0.0
450
        0
451
        0
460
0.0
461
0.0
452
        0
462
0.0
453
        0
470

  0
LINE
  5
1E1
330
140
100
AcDbEntity
  8
Camada 1
 62
   250
370
    35
100
AcDbLine
 10
247.7506646950697
 20
-383.1408533080576
 30
0.0
 11
248.1361260387448
 21
-383.1408533080576
 31
0.0
  0
LWPOLYLINE
  5
1E2
330
140
100
AcDbEntity
  8
Camada 1
 62
   250
370
    35
100
AcDbPolyline
 90
        3
 70
     0
 43
0.0
 10
165.735723003846
 20
-383.1193188455154
 10
165.735723003846
 20
-383.1354143339067
 10
165.735723003846
 20
-383.1408533080576
  0
HATCH
  5
1E3
330
140
100
AcDbEntity
  8
Camada 1
 62
     7
440
 33554687
100
AcDbHatch
 10
0.0
 20
0.0
 30
0.0
210
0.0
220
0.0
230
1.0
  2
SOLID
 70
     1
 71
     1
 91
        1
 92
        3
 72
     0
 73
     1
 93
        3
 10
165.735723003846
 20
-383.1193188455154
 10
165.735723003846
 20
-383.1354143339067
 10
165.735723003846
 20
-383.1408533080576
 97
        0
 75
     2
 76
     1
 98
        1
 10
0.0
 20
0.0
450
        0
451
        0
460
0.0
461
0.0
452
        0
462
0.0
453
        0
470

  0
LWPOLYLINE
  5
1E4
330
140
100
AcDbEntity
  8
Camada 1
 62
   250
370
    35
100
AcDbPolyline
 90
        3
 70
     0
 43
0.0
 10
165.3479919610354
 20
-383.1408533080576
 10
165.3479919610354
 20
-383.1354143339067
 10
165.3479919610354
 20
-383.1193188455154
  0
HATCH
  5
1E5
330
140
100
AcDbEntity
  8
Camada 1
 62
     7
440
 33554687
100
AcDbHatch
 10
0.0
 20
0.0
 30
0.0
210
0.0
220
0.0
230
1.0
  2
SOLID
 70
     1
 71
     1
 91
        1
 92
        3
 72
     0
 73
     1
 93
        3
 10
165.3479919610354
 20
-383.1408533080576
 10
165.3479919610354
 20
-383.1354143339067
 10
165.3479919610354
 20
-383.1193188455154
 97
        0
 75
     2
 76
     1
 98
        1
 10
0.0
 20
0.0
450
        0
451
        0
460
0.0
461
0.0
452
        0
462
0.0
453
        0
470

  0
LINE
  5
1E6
330
140
100
AcDbEntity
  8
Camada 1
 62
   250
370
    35
100
AcDbLine
 10
165.3479919610354
 20
-383.1408533080576
 30
0.0
 11
165.735723003846
 21
-383.1408533080576
 31
0.0
  0
LINE
  5
1E7
330
140
100
AcDbEntity
  8
Camada 1
 62
   250
370
    35
100
AcDbLine
 10
248.1361260387448
 20
-378.8276499286094
 30
0.0
 11
248.1361260387448
 21
-383.1193188455154
 31
0.0
  0
LINE
  5
1E8
330
140
100
AcDbEntity
  8
Camada 1
 62
   250
370
    35
100
AcDbLine
 10
247.7506646950697
 20
-383.1193188455154
 30
0.0
 11
247.7506646950697
 21
-378.8276499286094
 31
0.0
  0
LINE
  5
1E9
330
140
100
AcDbEntity
  8
Camada 1
 62
   250
370
    35
100
AcDbLine
 10
247.7506646950697
 20
-383.1193188455154
 30
0.0
 11
248.1361260387448
 21
-383.1193188455154
 31
0.0
  0
LINE
  5
1EA
330
140
100
AcDbEntity
  8
Camada 1
 62
   250
370
    35
100
AcDbLine
 10
165.735723003846
 20
-378.8276499286094
 30
0.0
 11
165.735723003846
 21
-383.1193188455154
 31
0.0
  0
LINE
  5
1EB
330
140
100
AcDbEntity
  8
Camada 1
 62
   250
370
    35
100
AcDbLine
 10
165.3479919610354
 20
-383.1193188455154
 30
0.0
 11
165.3479919610354
 21
-378.8276499286094
 31
0.0
  0
LINE
  5
1EC
330
140
100
AcDbEntity
  8
Camada 1
 62
   250
370
    35
100
AcDbLine
 10
165.3479919610354
 20
-383.1193188455154
 30
0.0
 11
165.735723003846
 21
-383.1193188455154
 31
0.0
  0
LINE
  5
1ED
330
140
100
AcDbEntity
  8
Camada 1
 62
   250
370
    35
100
AcDbLine
 10
248.1361260387448
 20
-375.723462688833
 30
0.0
 11
248.1361260387448
 21
-365.9732919041953
 31
0.0
  0
LINE
  5
1EE
330
140
100
AcDbEntity
  8
Camada 1
 62
   250
370
    35
100
AcDbLine
 10
247.7506646950697
 20
-375.723462688833
 30
0.0
 11
247.7506646950697
 21
-365.9732919041953
 31
0.0
  0
LWPOLYLINE
  5
1EF
330
140
100
AcDbEntity
  8
Camada 1
 62
   250
370
    35
100
AcDbPolyline
 90
        7
 70
     0
 43
0.0
 10
248.1361260387448
 20
-375.723462688833
 10
248.1361260387448
 20
-376.4195821820676
 10
248.1361260387448
 20
-377.0816838675019
 10
248.1361260387448
 20
-377.6803031752479
 10
248.1361260387448
 20
-378.185947856151
 10
248.1361260387448
 20
-378.5736927385906
 10
248.1361260387448
 20
-378.8276499286094
  0
HATCH
  5
1F0
330
140
100
AcDbEntity
  8
Camada 1
 62
     7
440
 33554687
100
AcDbHatch
 10
0.0
 20
0.0
 30
0.0
210
0.0
220
0.0
230
1.0
  2
SOLID
 70
     1
 71
     1
 91
        1
 92
        3
 72
     0
 73
     1
 93
        7
 10
248.1361260387448
 20
-375.723462688833
 10
248.1361260387448
 20
-376.4195821820676
 10
248.1361260387448
 20
-377.0816838675019
 10
248.1361260387448
 20
-377.6803031752479
 10
248.1361260387448
 20
-378.185947856151
 10
248.1361260387448
 20
-378.5736927385906
 10
248.1361260387448
 20
-378.8276499286094
 97
        0
 75
     2
 76
     1
 98
        1
 10
0.0
 20
0.0
450
        0
451
        0
460
0.0
461
0.0
452
        0
462
0.0
453
        0
470

  0
LWPOLYLINE
  5
1F1
330
140
100
AcDbEntity
  8
Camada 1
 62
   250
370
    35
100
AcDbPolyline
 90
        7
 70
     0
 43
0.0
 10
247.7506646950697
 20
-378.8276499286094
 10
247.7506646950697
 20
-378.5736927385906
 10
247.7506646950697
 20
-378.185947856151
 10
247.7506646950697
 20
-377.6803031752479
 10
247.7506646950697
 20
-377.0816838675019
 10
247.7506646950697
 20
-376.4195821820676
 10
247.7506646950697
 20
-375.723462688833
  0
HATCH
  5
1F2
330
140
100
AcDbEntity
  8
Camada 1
 62
     7
440
 33554687
100
AcDbHatch
 10
0.0
 20
0.0
 30
0.0
210
0.0
220
0.0
230
1.0
  2
SOLID
 70
     1
 71
     1
 91
        1
 92
        3
 72
     0
 73
     1
 93
        7
 10
247.7506646950697
 20
-378.8276499286094
 10
247.7506646950697
 20
-378.5736927385906
 10
247.7506646950697
 20
-378.185947856151
 10
247.7506646950697
 20
-377.6803031752479
 10
247.7506646950697
 20
-377.0816838675019
 10
247.7506646950697
 20
-376.4195821820676
 10
247.7506646950697
 20
-375.723462688833
 97
        0
 75
     2
 76
     1
 98
        1
 10
0.0
 20
0.0
450
        0
451
        0
460
0.0
461
0.0
452
        0
462
0.0
453
        0
470

  0
LINE
  5
1F3
330
140
100
AcDbEntity
  8
Camada 1
 62
   250
370
    35
100
AcDbLine
 10
248.1361260387448
 20
-378.8276499286094
 30
0.0
 11
247.7506646950697
 21
-378.8276499286094
 31
0.0
  0
LINE
  5
1F4
330
140
100
AcDbEntity
  8
Camada 1
 62
   250
370
    35
100
AcDbLine
 10
247.7506646950697
 20
-375.723462688833
 30
0.0
 11
248.1361260387448
 21
-375.723462688833
 31
0.0
  0
LINE
  5
1F5
330
140
100
AcDbEntity
  8
Camada 1
 62
   250
370
    35
100
AcDbLine
 10
165.735723003846
 20
-365.9732919041953
 30
0.0
 11
165.735723003846
 21
-375.723462688833
 31
0.0
  0
LINE
  5
1F6
330
140
100
AcDbEntity
  8
Camada 1
 62
   250
370
    35
100
AcDbLine
 10
165.3479919610354
 20
-365.9732919041953
 30
0.0
 11
165.3479919610354
 21
-375.723462688833
 31
0.0
  0
LWPOLYLINE
  5
1F7
330
140
100
AcDbEntity
  8
Camada 1
 62
   250
370
    35
100
AcDbPolyline
 90
        7
 70
     0
 43
0.0
 10
165.735723003846
 20
-375.723462688833
 10
165.735723003846
 20
-376.4195821820676
 10
165.735723003846
 20
-377.0816838675019
 10
165.735723003846
 20
-377.6803031752479
 10
165.735723003846
 20
-378.185947856151
 10
165.735723003846
 20
-378.5736927385906
 10
165.735723003846
 20
-378.8276499286094
  0
HATCH
  5
1F8
330
140
100
AcDbEntity
  8
Camada 1
 62
     7
440
 33554687
100
AcDbHatch
 10
0.0
 20
0.0
 30
0.0
210
0.0
220
0.0
230
1.0
  2
SOLID
 70
     1
 71
     1
 91
        1
 92
        3
 72
     0
 73
     1
 93
        7
 10
165.735723003846
 20
-375.723462688833
 10
165.735723003846
 20
-376.4195821820676
 10
165.735723003846
 20
-377.0816838675019
 10
165.735723003846
 20
-377.6803031752479
 10
165.735723003846
 20
-378.185947856151
 10
165.735723003846
 20
-378.5736927385906
 10
165.735723003846
 20
-378.8276499286094
 97
        0
 75
     2
 76
     1
 98
        1
 10
0.0
 20
0.0
450
        0
451
        0
460
0.0
461
0.0
452
        0
462
0.0
453
        0
470

  0
LWPOLYLINE
  5
1F9
330
140
100
AcDbEntity
  8
Camada 1
 62
   250
370
    35
100
AcDbPolyline
 90
        7
 70
     0
 43
0.0
 10
165.3479919610354
 20
-378.8276499286094
 10
165.3479919610354
 20
-378.5736927385906
 10
165.3479919610354
 20
-378.185947856151
 10
165.3479919610354
 20
-377.6803031752479
 10
165.3479919610354
 20
-377.0816838675019
 10
165.3479919610354
 20
-376.4195821820676
 10
165.3479919610354
 20
-375.723462688833
  0
HATCH
  5
1FA
330
140
100
AcDbEntity
  8
Camada 1
 62
     7
440
 33554687
100
AcDbHatch
 10
0.0
 20
0.0
 30
0.0
210
0.0
220
0.0
230
1.0
  2
SOLID
 70
     1
 71
     1
 91
        1
 92
        3
 72
     0
 73
     1
 93
        7
 10
165.3479919610354
 20
-378.8276499286094
 10
165.3479919610354
 20
-378.5736927385906
 10
165.3479919610354
 20
-378.185947856151
 10
165.3479919610354
 20
-377.6803031752479
 10
165.3479919610354
 20
-377.0816838675019
 10
165.3479919610354
 20
-376.4195821820676
 10
165.3479919610354
 20
-375.723462688833
 97
        0
 75
     2
 76
     1
 98
        1
 10
0.0
 20
0.0
450
        0
451
        0
460
0.0
461
0.0
452
        0
462
0.0
453
        0
470

  0
LINE
  5
1FB
330
140
100
AcDbEntity
  8
Camada 1
 62
   250
370
    35
100
AcDbLine
 10
165.735723003846
 20
-378.8276499286094
 30
0.0
 11
165.3479919610354
 21
-378.8276499286094
 31
0.0
  0
LINE
  5
1FC
330
140
100
AcDbEntity
  8
Camada 1
 62
   250
370
    35
100
AcDbLine
 10
165.3479919610354
 20
-375.723462688833
 30
0.0
 11
165.735723003846
 21
-375.723462688833
 31
0.0
  0
LINE
  5
1FD
330
140
100
AcDbEntity
  8
Camada 1
 62
   250
370
    35
100
AcDbLine
 10
222.8105739551939
 20
-377.0816838675019
 30
0.0
 11
190.6735163653284
 21
-377.0816838675019
 31
0.0
  0
LINE
  5
1FE
330
140
100
AcDbEntity
  8
Camada 1
 62
   250
370
    35
100
AcDbLine
 10
222.8105739551939
 20
-378.2653181277983
 30
0.0
 11
190.6735163653284
 21
-378.2653181277983
 31
0.0
  0
LINE
  5
1FF
330
140
100
AcDbEntity
  8
Camada 1
 62
   250
370
    35
100
AcDbLine
 10
222.8105739551939
 20
-377.1950581073206
 30
0.0
 11
190.6735163653284
 21
-377.1950581073206
 31
0.0
  0
LINE
  5
200
330
140
100
AcDbEntity
  8
Camada 1
 62
   250
370
    35
100
AcDbLine
 10
190.6735163653284
 20
-377.9274651074866
 30
0.0
 11
222.8105739551939
 21
-377.9274651074866
 31
0.0
  0
LWPOLYLINE
  5
201
330
140
100
AcDbEntity
  8
Camada 1
 62
   250
370
    35
100
AcDbPolyline
 90
        3
 70
     0
 43
0.0
 10
222.8105739551939
 20
-377.0816838675019
 10
222.8105739551939
 20
-377.1088925778886
 10
222.8105739551939
 20
-377.1950581073206
  0
HATCH
  5
202
330
140
100
AcDbEntity
  8
Camada 1
 62
     7
440
 33554687
100
AcDbHatch
 10
0.0
 20
0.0
 30
0.0
210
0.0
220
0.0
230
1.0
  2
SOLID
 70
     1
 71
     1
 91
        1
 92
        3
 72
     0
 73
     1
 93
        3
 10
222.8105739551939
 20
-377.0816838675019
 10
222.8105739551939
 20
-377.1088925778886
 10
222.8105739551939
 20
-377.1950581073206
 97
        0
 75
     2
 76
     1
 98
        1
 10
0.0
 20
0.0
450
        0
451
        0
460
0.0
461
0.0
452
        0
462
0.0
453
        0
470

  0
LWPOLYLINE
  5
203
330
140
100
AcDbEntity
  8
Camada 1
 62
   250
370
    35
100
AcDbPolyline
 90
       28
 70
     0
 43
0.0
 10
235.5198373103903
 20
-374.9071598583741
 10
235.3996539731615
 20
-374.9751954739677
 10
235.1456967831428
 20
-375.1066996276222
 10
234.8690702810109
 20
-375.2382314605356
 10
234.5606956702204
 20
-375.3720053133275
 10
234.229651747316
 20
-375.5012536074746
 10
233.8691017356323
 20
-375.6305019016218
 10
233.4859100910944
 20
-375.7552107974943
 10
233.0754820569127
 20
-375.8799196933678
 10
232.6446544097562
 20
-375.9978333314584
 10
232.1911574504866
 20
-376.1134772704118
 10
231.7149911791084
 20
-376.222312111955
 10
231.2184252947527
 20
-376.3266075552246
 10
230.7059715164387
 20
-376.4263774398478
 10
230.1731181251498
 20
-376.5193520666908
 10
229.6243768399035
 20
-376.6055175961228
 10
229.0620450390907
 20
-376.684874028143
 10
228.4838253443213
 20
-376.7574352023794
 10
227.8942848331244
 20
-376.8231872792094
 10
227.293395826242
 20
-376.8821440982538
 10
226.6811860029329
 20
-376.9343056595171
 10
226.0621670822129
 20
-376.977388424234
 10
225.4363390640819
 20
-377.0136620915382
 10
224.80370194854
 20
-377.0431405010604
 10
224.1665531139824
 20
-377.0635401140353
 10
223.5271069010296
 20
-377.0771583088581
 10
223.1688542677403
 20
-377.0794141683664
 10
222.8105739551939
 20
-377.0816838675019
  0
HATCH
  5
204
330
140
100
AcDbEntity
  8
Camada 1
 62
     7
440
 33554687
100
AcDbHatch
 10
0.0
 20
0.0
 30
0.0
210
0.0
220
0.0
230
1.0
  2
SOLID
 70
     1
 71
     1
 91
        1
 92
        3
 72
     0
 73
     1
 93
       28
 10
235.5198373103903
 20
-374.9071598583741
 10
235.3996539731615
 20
-374.9751954739677
 10
235.1456967831428
 20
-375.1066996276222
 10
234.8690702810109
 20
-375.2382314605356
 10
234.5606956702204
 20
-375.3720053133275
 10
234.229651747316
 20
-375.5012536074746
 10
233.8691017356323
 20
-375.6305019016218
 10
233.4859100910944
 20
-375.7552107974943
 10
233.0754820569127
 20
-375.8799196933678
 10
232.6446544097562
 20
-375.9978333314584
 10
232.1911574504866
 20
-376.1134772704118
 10
231.7149911791084
 20
-376.222312111955
 10
231.2184252947527
 20
-376.3266075552246
 10
230.7059715164387
 20
-376.4263774398478
 10
230.1731181251498
 20
-376.5193520666908
 10
229.6243768399035
 20
-376.6055175961228
 10
229.0620450390907
 20
-376.684874028143
 10
228.4838253443213
 20
-376.7574352023794
 10
227.8942848331244
 20
-376.8231872792094
 10
227.293395826242
 20
-376.8821440982538
 10
226.6811860029329
 20
-376.9343056595171
 10
226.0621670822129
 20
-376.977388424234
 10
225.4363390640819
 20
-377.0136620915382
 10
224.80370194854
 20
-377.0431405010604
 10
224.1665531139824
 20
-377.0635401140353
 10
223.5271069010296
 20
-377.0771583088581
 10
223.1688542677403
 20
-377.0794141683664
 10
222.8105739551939
 20
-377.0816838675019
 97
        0
 75
     2
 76
     1
 98
        1
 10
0.0
 20
0.0
450
        0
451
        0
460
0.0
461
0.0
452
        0
462
0.0
453
        0
470

  0
LWPOLYLINE
  5
205
330
140
100
AcDbEntity
  8
Camada 1
 62
   250
370
    35
100
AcDbPolyline
 90
        3
 70
     0
 43
0.0
 10
190.6735163653284
 20
-377.0816838675019
 10
190.6735163653284
 20
-377.1088925778886
 10
190.6735163653284
 20
-377.1950581073206
  0
HATCH
  5
206
330
140
100
AcDbEntity
  8
Camada 1
 62
     7
440
 33554687
100
AcDbHatch
 10
0.0
 20
0.0
 30
0.0
210
0.0
220
0.0
230
1.0
  2
SOLID
 70
     1
 71
     1
 91
        1
 92
        3
 72
     0
 73
     1
 93
        3
 10
190.6735163653284
 20
-377.0816838675019
 10
190.6735163653284
 20
-377.1088925778886
 10
190.6735163653284
 20
-377.1950581073206
 97
        0
 75
     2
 76
     1
 98
        1
 10
0.0
 20
0.0
450
        0
451
        0
460
0.0
461
0.0
452
        0
462
0.0
453
        0
470

  0
LWPOLYLINE
  5
207
330
140
100
AcDbEntity
  8
Camada 1
 62
   250
370
    35
100
AcDbPolyline
 90
       28
 70
     0
 43
0.0
 10
190.6735163653284
 20
-377.0816838675019
 10
190.3356633450139
 20
-377.0794141683664
 10
190.0000800238358
 20
-377.0771583088581
 10
189.3583917910046
 20
-377.0635401140353
 10
188.721215277189
 20
-377.0454102001977
 10
188.088578161648
 20
-377.0159317906737
 10
187.4605081236368
 20
-376.9796442837414
 10
186.8392195037795
 20
-376.9365615190263
 10
186.2269820012134
 20
-376.8866834965284
 10
185.6238232951937
 20
-376.8277266774821
 10
185.0320130848604
 20
-376.7619746006549
 10
184.4515513702108
 20
-376.6894134264157
 10
183.8846801711252
 20
-376.6077872952592
 10
183.3336691867416
 20
-376.521621765829
 10
182.7985460963145
 20
-376.428647138986
 10
182.2815529197278
 20
-376.3311469534983
 10
181.7804476370993
 20
-376.2245818110923
 10
181.3020116665821
 20
-376.115733129921
 10
180.8417056099024
 20
-375.9978333314584
 10
180.4063662437302
 20
-375.8776499942296
 10
179.9913988112739
 20
-375.7529410983561
 10
179.6013980693251
 20
-375.6259625033472
 10
179.2363363386257
 20
-375.4944445100637
 10
178.8984833183112
 20
-375.3606568176429
 10
178.5855693092462
 20
-375.2246132657138
 10
178.3021337097034
 20
-375.0908394129219
 10
178.0481765196837
 20
-374.9547958609919
 10
178.0164284110233
 20
-374.9366382678945
  0
HATCH
  5
208
330
140
100
AcDbEntity
  8
Camada 1
 62
     7
440
 33554687
100
AcDbHatch
 10
0.0
 20
0.0
 30
0.0
210
0.0
220
0.0
230
1.0
  2
SOLID
 70
     1
 71
     1
 91
        1
 92
        3
 72
     0
 73
     1
 93
       28
 10
190.6735163653284
 20
-377.0816838675019
 10
190.3356633450139
 20
-377.0794141683664
 10
190.0000800238358
 20
-377.0771583088581
 10
189.3583917910046
 20
-377.0635401140353
 10
188.721215277189
 20
-377.0454102001977
 10
188.088578161648
 20
-377.0159317906737
 10
187.4605081236368
 20
-376.9796442837414
 10
186.8392195037795
 20
-376.9365615190263
 10
186.2269820012134
 20
-376.8866834965284
 10
185.6238232951937
 20
-376.8277266774821
 10
185.0320130848604
 20
-376.7619746006549
 10
184.4515513702108
 20
-376.6894134264157
 10
183.8846801711252
 20
-376.6077872952592
 10
183.3336691867416
 20
-376.521621765829
 10
182.7985460963145
 20
-376.428647138986
 10
182.2815529197278
 20
-376.3311469534983
 10
181.7804476370993
 20
-376.2245818110923
 10
181.3020116665821
 20
-376.115733129921
 10
180.8417056099024
 20
-375.9978333314584
 10
180.4063662437302
 20
-375.8776499942296
 10
179.9913988112739
 20
-375.7529410983561
 10
179.6013980693251
 20
-375.6259625033472
 10
179.2363363386257
 20
-375.4944445100637
 10
178.8984833183112
 20
-375.3606568176429
 10
178.5855693092462
 20
-375.2246132657138
 10
178.3021337097034
 20
-375.0908394129219
 10
178.0481765196837
 20
-374.9547958609919
 10
178.0164284110233
 20
-374.9366382678945
 97
        0
 75
     2
 76
     1
 98
        1
 10
0.0
 20
0.0
450
        0
451
        0
460
0.0
461
0.0
452
        0
462
0.0
453
        0
470

  0
LWPOLYLINE
  5
209
330
140
100
AcDbEntity
  8
Camada 1
 62
   250
370
    35
100
AcDbPolyline
 90
       12
 70
     0
 43
0.0
 10
235.5130282129803
 20
-374.9275871506061
 10
234.848670668036
 20
-375.2858397838973
 10
234.0550509893164
 20
-375.6191534059362
 10
233.1367085750944
 20
-375.9297977158649
 10
232.1072616201937
 20
-376.2132333154086
 10
230.9757889211614
 20
-376.46493464592
 10
229.7558809935581
 20
-376.6826043290048
 10
228.4588863330719
 20
-376.8640141844153
 10
227.1029348535421
 20
-377.0068529941273
 10
225.6971053515126
 20
-377.1111622770259
 10
224.2617697607038
 20
-377.1723887952085
 10
222.8105739551939
 20
-377.1950581073206
  0
HATCH
  5
20A
330
140
100
AcDbEntity
  8
Camada 1
 62
     7
440
 33554687
100
AcDbHatch
 10
0.0
 20
0.0
 30
0.0
210
0.0
220
0.0
230
1.0
  2
SOLID
 70
     1
 71
     1
 91
        1
 92
        3
 72
     0
 73
     1
 93
       12
 10
235.5130282129803
 20
-374.9275871506061
 10
234.848670668036
 20
-375.2858397838973
 10
234.0550509893164
 20
-375.6191534059362
 10
233.1367085750944
 20
-375.9297977158649
 10
232.1072616201937
 20
-376.2132333154086
 10
230.9757889211614
 20
-376.46493464592
 10
229.7558809935581
 20
-376.6826043290048
 10
228.4588863330719
 20
-376.8640141844153
 10
227.1029348535421
 20
-377.0068529941273
 10
225.6971053515126
 20
-377.1111622770259
 10
224.2617697607038
 20
-377.1723887952085
 10
222.8105739551939
 20
-377.1950581073206
 97
        0
 75
     2
 76
     1
 98
        1
 10
0.0
 20
0.0
450
        0
451
        0
460
0.0
461
0.0
452
        0
462
0.0
453
        0
470

  0
LINE
  5
20B
330
140
100
AcDbEntity
  8
Camada 1
 62
   250
370
    35
100
AcDbLine
 10
222.8105739551939
 20
-377.9274651074866
 30
0.0
 11
222.8105739551939
 21
-377.1950581073206
 31
0.0
  0
LINE
  5
20C
330
140
100
AcDbEntity
  8
Camada 1
 62
   250
370
    35
100
AcDbLine
 10
190.6735163653284
 20
-377.9274651074866
 30
0.0
 11
190.6735163653284
 21
-377.1950581073206
 31
0.0
  0
LWPOLYLINE
  5
20D
330
140
100
AcDbEntity
  8
Camada 1
 62
   250
370
    35
100
AcDbPolyline
 90
       12
 70
     0
 43
0.0
 10
190.6735163653284
 20
-377.1950581073206
 10
189.2223205598184
 20
-377.1723887952085
 10
187.7870126482667
 20
-377.1111622770259
 10
186.3811831462371
 20
-377.0068529941273
 10
185.0252316667065
 20
-376.8640141844153
 10
183.7282093269641
 20
-376.6826043290048
 10
182.5083013993626
 20
-376.46493464592
 10
181.3768287003286
 20
-376.2132333154086
 10
180.3474094246839
 20
-375.9297977158649
 10
179.4290670104619
 20
-375.6191534059362
 10
178.6354473317433
 20
-375.2858397838973
 10
177.9710621075419
 20
-374.9275871506061
  0
HATCH
  5
20E
330
140
100
AcDbEntity
  8
Camada 1
 62
     7
440
 33554687
100
AcDbHatch
 10
0.0
 20
0.0
 30
0.0
210
0.0
220
0.0
230
1.0
  2
SOLID
 70
     1
 71
     1
 91
        1
 92
        3
 72
     0
 73
     1
 93
       12
 10
190.6735163653284
 20
-377.1950581073206
 10
189.2223205598184
 20
-377.1723887952085
 10
187.7870126482667
 20
-377.1111622770259
 10
186.3811831462371
 20
-377.0068529941273
 10
185.0252316667065
 20
-376.8640141844153
 10
183.7282093269641
 20
-376.6826043290048
 10
182.5083013993626
 20
-376.46493464592
 10
181.3768287003286
 20
-376.2132333154086
 10
180.3474094246839
 20
-375.9297977158649
 10
179.4290670104619
 20
-375.6191534059362
 10
178.6354473317433
 20
-375.2858397838973
 10
177.9710621075419
 20
-374.9275871506061
 97
        0
 75
     2
 76
     1
 98
        1
 10
0.0
 20
0.0
450
        0
451
        0
460
0.0
461
0.0
452
        0
462
0.0
453
        0
470

  0
LWPOLYLINE
  5
20F
330
140
100
AcDbEntity
  8
Camada 1
 62
   250
370
    35
100
AcDbPolyline
 90
        3
 70
     0
 43
0.0
 10
236.5039179618106
 20
-374.6509329692162
 10
236.8825978873319
 20
-374.1384791909031
 10
237.0095626427137
 20
-373.6169742952998
  0
HATCH
  5
210
330
140
100
AcDbEntity
  8
Camada 1
 62
     7
440
 33554687
100
AcDbHatch
 10
0.0
 20
0.0
 30
0.0
210
0.0
220
0.0
230
1.0
  2
SOLID
 70
     1
 71
     1
 91
        1
 92
        3
 72
     0
 73
     1
 93
        3
 10
236.5039179618106
 20
-374.6509329692162
 10
236.8825978873319
 20
-374.1384791909031
 10
237.0095626427137
 20
-373.6169742952998
 97
        0
 75
     2
 76
     1
 98
        1
 10
0.0
 20
0.0
450
        0
451
        0
460
0.0
461
0.0
452
        0
462
0.0
453
        0
470

  0
LWPOLYLINE
  5
211
330
140
100
AcDbEntity
  8
Camada 1
 62
   250
370
    35
100
AcDbPolyline
 90
        3
 70
     0
 43
0.0
 10
236.4132407133638
 20
-374.7393681977846
 10
236.4608490367236
 20
-374.6962992726985
 10
236.5039179618106
 20
-374.6509329692162
  0
HATCH
  5
212
330
140
100
AcDbEntity
  8
Camada 1
 62
     7
440
 33554687
100
AcDbHatch
 10
0.0
 20
0.0
 30
0.0
210
0.0
220
0.0
230
1.0
  2
SOLID
 70
     1
 71
     1
 91
        1
 92
        3
 72
     0
 73
     1
 93
        3
 10
236.4132407133638
 20
-374.7393681977846
 10
236.4608490367236
 20
-374.6962992726985
 10
236.5039179618106
 20
-374.6509329692162
 97
        0
 75
     2
 76
     1
 98
        1
 10
0.0
 20
0.0
450
        0
451
        0
460
0.0
461
0.0
452
        0
462
0.0
453
        0
470

  0
LINE
  5
213
330
140
100
AcDbEntity
  8
Camada 1
 62
   250
370
    35
100
AcDbLine
 10
235.3883331567358
 20
-375.6849193223934
 30
0.0
 11
236.4132407133638
 21
-374.7393681977846
 31
0.0
  0
LWPOLYLINE
  5
214
330
140
100
AcDbEntity
  8
Camada 1
 62
   250
370
    35
100
AcDbPolyline
 90
       16
 70
     0
 43
0.0
 10
235.9393164618614
 20
-374.6464212502015
 10
235.8667691272531
 20
-375.0250734964648
 10
235.6513414640458
 20
-375.3992140237133
 10
235.2953585298938
 20
-375.7642757544136
 10
234.8033043645546
 20
-376.1180028290564
 10
234.1797460455609
 20
-376.4558558493718
 10
233.4314926703228
 20
-376.7733092567114
 10
232.5675676768724
 20
-377.068079512309
 10
231.5948355211376
 20
-377.3356410575216
 10
230.5268313601664
 20
-377.5737241932138
 10
229.3749590481584
 20
-377.7800730598719
 10
228.1505117222814
 20
-377.9524041187333
 10
226.86710757736
 20
-378.0884476706624
 10
225.5406345073516
 20
-378.185947856151
 10
224.1824133286836
 20
-378.2449046751963
 10
222.8105739551939
 20
-378.2653181277983
  0
HATCH
  5
215
330
140
100
AcDbEntity
  8
Camada 1
 62
     7
440
 33554687
100
AcDbHatch
 10
0.0
 20
0.0
 30
0.0
210
0.0
220
0.0
230
1.0
  2
SOLID
 70
     1
 71
     1
 91
        1
 92
        3
 72
     0
 73
     1
 93
       16
 10
235.9393164618614
 20
-374.6464212502015
 10
235.8667691272531
 20
-375.0250734964648
 10
235.6513414640458
 20
-375.3992140237133
 10
235.2953585298938
 20
-375.7642757544136
 10
234.8033043645546
 20
-376.1180028290564
 10
234.1797460455609
 20
-376.4558558493718
 10
233.4314926703228
 20
-376.7733092567114
 10
232.5675676768724
 20
-377.068079512309
 10
231.5948355211376
 20
-377.3356410575216
 10
230.5268313601664
 20
-377.5737241932138
 10
229.3749590481584
 20
-377.7800730598719
 10
228.1505117222814
 20
-377.9524041187333
 10
226.86710757736
 20
-378.0884476706624
 10
225.5406345073516
 20
-378.185947856151
 10
224.1824133286836
 20
-378.2449046751963
 10
222.8105739551939
 20
-378.2653181277983
 97
        0
 75
     2
 76
     1
 98
        1
 10
0.0
 20
0.0
450
        0
451
        0
460
0.0
461
0.0
452
        0
462
0.0
453
        0
470

  0
LWPOLYLINE
  5
216
330
140
100
AcDbEntity
  8
Camada 1
 62
   250
370
    35
100
AcDbPolyline
 90
       16
 70
     0
 43
0.0
 10
222.8105739551939
 20
-377.9274651074866
 10
224.1552046182978
 20
-377.9093213540182
 10
225.4839473874426
 20
-377.8503645349747
 10
226.7832117470653
 20
-377.7551340486234
 10
228.0394071816008
 20
-377.6213463562017
 10
229.2389154962284
 20
-377.4535546956131
 10
230.3658487969879
 20
-377.2517452272268
 10
231.413425665728
 20
-377.0182014898119
 10
232.3634885093507
 20
-376.7551655032439
 10
233.2115256088409
 20
-376.4672043450564
 10
233.9439464486368
 20
-376.1565461954997
 10
234.5538865728086
 20
-375.8255022725971
 10
235.0368619415986
 20
-375.4785704557325
 10
235.3860634575994
 20
-375.1203178224459
 10
235.5946543441369
 20
-374.7552560917457
 10
235.6649596588677
 20
-374.3856549627708
  0
HATCH
  5
217
330
140
100
AcDbEntity
  8
Camada 1
 62
     7
440
 33554687
100
AcDbHatch
 10
0.0
 20
0.0
 30
0.0
210
0.0
220
0.0
230
1.0
  2
SOLID
 70
     1
 71
     1
 91
        1
 92
        3
 72
     0
 73
     1
 93
       16
 10
222.8105739551939
 20
-377.9274651074866
 10
224.1552046182978
 20
-377.9093213540182
 10
225.4839473874426
 20
-377.8503645349747
 10
226.7832117470653
 20
-377.7551340486234
 10
228.0394071816008
 20
-377.6213463562017
 10
229.2389154962284
 20
-377.4535546956131
 10
230.3658487969879
 20
-377.2517452272268
 10
231.413425665728
 20
-377.0182014898119
 10
232.3634885093507
 20
-376.7551655032439
 10
233.2115256088409
 20
-376.4672043450564
 10
233.9439464486368
 20
-376.1565461954997
 10
234.5538865728086
 20
-375.8255022725971
 10
235.0368619415986
 20
-375.4785704557325
 10
235.3860634575994
 20
-375.1203178224459
 10
235.5946543441369
 20
-374.7552560917457
 10
235.6649596588677
 20
-374.3856549627708
 97
        0
 75
     2
 76
     1
 98
        1
 10
0.0
 20
0.0
450
        0
451
        0
460
0.0
461
0.0
452
        0
462
0.0
453
        0
470

  0
LINE
  5
218
330
140
100
AcDbEntity
  8
Camada 1
 62
   250
370
    35
100
AcDbLine
 10
222.8105739551939
 20
-378.2653181277983
 30
0.0
 11
222.8105739551939
 21
-377.9274651074866
 31
0.0
  0
LWPOLYLINE
  5
219
330
140
100
AcDbEntity
  8
Camada 1
 62
   250
370
    35
100
AcDbPolyline
 90
        3
 70
     0
 43
0.0
 10
177.0345897794832
 20
-374.7076200891251
 10
177.0527473725779
 20
-374.7235079830844
 10
177.0708772864163
 20
-374.7393681977846
  0
HATCH
  5
21A
330
140
100
AcDbEntity
  8
Camada 1
 62
     7
440
 33554687
100
AcDbHatch
 10
0.0
 20
0.0
 30
0.0
210
0.0
220
0.0
230
1.0
  2
SOLID
 70
     1
 71
     1
 91
        1
 92
        3
 72
     0
 73
     1
 93
        3
 10
177.0345897794832
 20
-374.7076200891251
 10
177.0527473725779
 20
-374.7235079830844
 10
177.0708772864163
 20
-374.7393681977846
 97
        0
 75
     2
 76
     1
 98
        1
 10
0.0
 20
0.0
450
        0
451
        0
460
0.0
461
0.0
452
        0
462
0.0
453
        0
470

  0
LWPOLYLINE
  5
21B
330
140
100
AcDbEntity
  8
Camada 1
 62
   250
370
    35
100
AcDbPolyline
 90
        3
 70
     0
 43
0.0
 10
176.4745276778076
 20
-373.6169742952998
 10
176.6151106280112
 20
-374.1679576004271
 10
177.0345897794832
 20
-374.7076200891251
  0
HATCH
  5
21C
330
140
100
AcDbEntity
  8
Camada 1
 62
     7
440
 33554687
100
AcDbHatch
 10
0.0
 20
0.0
 30
0.0
210
0.0
220
0.0
230
1.0
  2
SOLID
 70
     1
 71
     1
 91
        1
 92
        3
 72
     0
 73
     1
 93
        3
 10
176.4745276778076
 20
-373.6169742952998
 10
176.6151106280112
 20
-374.1679576004271
 10
177.0345897794832
 20
-374.7076200891251
 97
        0
 75
     2
 76
     1
 98
        1
 10
0.0
 20
0.0
450
        0
451
        0
460
0.0
461
0.0
452
        0
462
0.0
453
        0
470

  0
LINE
  5
21D
330
140
100
AcDbEntity
  8
Camada 1
 62
   250
370
    35
100
AcDbLine
 10
177.0708772864163
 20
-374.7393681977846
 30
0.0
 11
178.0980545421807
 21
-375.6849193223934
 31
0.0
  0
LWPOLYLINE
  5
21E
330
140
100
AcDbEntity
  8
Camada 1
 62
   250
370
    35
100
AcDbPolyline
 90
       16
 70
     0
 43
0.0
 10
190.6735163653284
 20
-378.2653181277983
 10
189.3017046710956
 20
-378.2449046751963
 10
187.9434834924286
 20
-378.185947856151
 10
186.6169827431622
 20
-378.0884476706624
 10
185.3336062774988
 20
-377.9524041187333
 10
184.1091589516227
 20
-377.7800730598719
 10
182.9572866396138
 20
-377.5737241932138
 10
181.8892824786417
 20
-377.3356410575216
 10
180.9165503229069
 20
-377.068079512309
 10
180.0526253294574
 20
-376.7733092567114
 10
179.3043442749604
 20
-376.4558558493718
 10
178.6807859559676
 20
-376.1180028290564
 10
178.1887594698855
 20
-375.7642757544136
 10
177.8327488564764
 20
-375.3992140237133
 10
177.617348872528
 20
-375.0250734964648
 10
177.544773858659
 20
-374.6464212502015
  0
HATCH
  5
21F
330
140
100
AcDbEntity
  8
Camada 1
 62
     7
440
 33554687
100
AcDbHatch
 10
0.0
 20
0.0
 30
0.0
210
0.0
220
0.0
230
1.0
  2
SOLID
 70
     1
 71
     1
 91
        1
 92
        3
 72
     0
 73
     1
 93
       16
 10
190.6735163653284
 20
-378.2653181277983
 10
189.3017046710956
 20
-378.2449046751963
 10
187.9434834924286
 20
-378.185947856151
 10
186.6169827431622
 20
-378.0884476706624
 10
185.3336062774988
 20
-377.9524041187333
 10
184.1091589516227
 20
-377.7800730598719
 10
182.9572866396138
 20
-377.5737241932138
 10
181.8892824786417
 20
-377.3356410575216
 10
180.9165503229069
 20
-377.068079512309
 10
180.0526253294574
 20
-376.7733092567114
 10
179.3043442749604
 20
-376.4558558493718
 10
178.6807859559676
 20
-376.1180028290564
 10
178.1887594698855
 20
-375.7642757544136
 10
177.8327488564764
 20
-375.3992140237133
 10
177.617348872528
 20
-375.0250734964648
 10
177.544773858659
 20
-374.6464212502015
 97
        0
 75
     2
 76
     1
 98
        1
 10
0.0
 20
0.0
450
        0
451
        0
460
0.0
461
0.0
452
        0
462
0.0
453
        0
470

  0
LINE
  5
220
330
140
100
AcDbEntity
  8
Camada 1
 62
   250
370
    35
100
AcDbLine
 10
190.6735163653284
 20
-378.2653181277983
 30
0.0
 11
190.6735163653284
 21
-377.9274651074866
 31
0.0
  0
LWPOLYLINE
  5
221
330
140
100
AcDbEntity
  8
Camada 1
 62
   250
370
    35
100
AcDbPolyline
 90
       16
 70
     0
 43
0.0
 10
177.8191583409116
 20
-374.3856549627708
 10
177.8894359763835
 20
-374.7552560917457
 10
178.100324241318
 20
-375.1203178224459
 10
178.4472560581798
 20
-375.4785704557325
 10
178.9302314269707
 20
-375.8255022725971
 10
179.5401715511434
 20
-376.1565461954997
 10
180.2725647116785
 20
-376.4672043450564
 10
181.1206018111706
 20
-376.7551655032439
 10
182.0706923340521
 20
-377.0182014898119
 10
183.1182692027923
 20
-377.2517452272268
 10
184.2452025035509
 20
-377.4535546956131
 10
185.4447108181775
 20
-377.6213463562017
 10
186.7008785734561
 20
-377.7551340486234
 10
188.0001706123366
 20
-377.8503645349747
 10
189.3289133814805
 20
-377.9093213540182
 10
190.6735163653284
 20
-377.9274651074866
  0
HATCH
  5
222
330
140
100
AcDbEntity
  8
Camada 1
 62
     7
440
 33554687
100
AcDbHatch
 10
0.0
 20
0.0
 30
0.0
210
0.0
220
0.0
230
1.0
  2
SOLID
 70
     1
 71
     1
 91
        1
 92
        3
 72
     0
 73
     1
 93
       16
 10
177.8191583409116
 20
-374.3856549627708
 10
177.8894359763835
 20
-374.7552560917457
 10
178.100324241318
 20
-375.1203178224459
 10
178.4472560581798
 20
-375.4785704557325
 10
178.9302314269707
 20
-375.8255022725971
 10
179.5401715511434
 20
-376.1565461954997
 10
180.2725647116785
 20
-376.4672043450564
 10
181.1206018111706
 20
-376.7551655032439
 10
182.0706923340521
 20
-377.0182014898119
 10
183.1182692027923
 20
-377.2517452272268
 10
184.2452025035509
 20
-377.4535546956131
 10
185.4447108181775
 20
-377.6213463562017
 10
186.7008785734561
 20
-377.7551340486234
 10
188.0001706123366
 20
-377.8503645349747
 10
189.3289133814805
 20
-377.9093213540182
 10
190.6735163653284
 20
-377.9274651074866
 97
        0
 75
     2
 76
     1
 98
        1
 10
0.0
 20
0.0
450
        0
451
        0
460
0.0
461
0.0
452
        0
462
0.0
453
        0
470

  0
LWPOLYLINE
  5
223
330
140
100
AcDbEntity
  8
Camada 1
 62
   250
370
    35
100
AcDbPolyline
 90
        3
 70
     0
 43
0.0
 10
237.0095626427137
 20
-373.6169742952998
 10
237.175112283423
 20
-373.5104091528947
 10
237.3723823535347
 20
-373.4718519468224
  0
HATCH
  5
224
330
140
100
AcDbEntity
  8
Camada 1
 62
     7
440
 33554687
100
AcDbHatch
 10
0.0
 20
0.0
 30
0.0
210
0.0
220
0.0
230
1.0
  2
SOLID
 70
     1
 71
     1
 91
        1
 92
        3
 72
     0
 73
     1
 93
        3
 10
237.0095626427137
 20
-373.6169742952998
 10
237.175112283423
 20
-373.5104091528947
 10
237.3723823535347
 20
-373.4718519468224
 97
        0
 75
     2
 76
     1
 98
        1
 10
0.0
 20
0.0
450
        0
451
        0
460
0.0
461
0.0
452
        0
462
0.0
453
        0
470

  0
LWPOLYLINE
  5
225
330
140
100
AcDbEntity
  8
Camada 1
 62
   250
370
    35
100
AcDbPolyline
 90
        3
 70
     0
 43
0.0
 10
176.4745276778076
 20
-373.6169742952998
 10
176.3090057163563
 20
-373.5104091528947
 10
176.1117356462464
 20
-373.4718519468224
  0
HATCH
  5
226
330
140
100
AcDbEntity
  8
Camada 1
 62
     7
440
 33554687
100
AcDbHatch
 10
0.0
 20
0.0
 30
0.0
210
0.0
220
0.0
230
1.0
  2
SOLID
 70
     1
 71
     1
 91
        1
 92
        3
 72
     0
 73
     1
 93
        3
 10
176.4745276778076
 20
-373.6169742952998
 10
176.3090057163563
 20
-373.5104091528947
 10
176.1117356462464
 20
-373.4718519468224
 97
        0
 75
     2
 76
     1
 98
        1
 10
0.0
 20
0.0
450
        0
451
        0
460
0.0
461
0.0
452
        0
462
0.0
453
        0
470

  0
LINE
  5
227
330
140
100
AcDbEntity
  8
Camada 1
 62
   250
370
    35
100
AcDbLine
 10
235.6649596588677
 20
-374.3856549627708
 30
0.0
 11
235.6649596588677
 21
-372.6124663516475
 31
0.0
  0
LINE
  5
228
330
140
100
AcDbEntity
  8
Camada 1
 62
   250
370
    35
100
AcDbLine
 10
235.9393164618614
 20
-374.6464212502015
 30
0.0
 11
235.6649596588677
 21
-374.3856549627708
 31
0.0
  0
LINE
  5
229
330
140
100
AcDbEntity
  8
Camada 1
 62
   250
370
    35
100
AcDbLine
 10
235.9393164618614
 20
-374.6464212502015
 30
0.0
 11
237.0095626427137
 21
-373.6169742952998
 31
0.0
  0
LINE
  5
22A
330
140
100
AcDbEntity
  8
Camada 1
 62
   250
370
    35
100
AcDbLine
 10
237.0095626427137
 20
-373.6169742952998
 30
0.0
 11
237.0095626427137
 21
-371.8460553833138
 31
0.0
  0
LINE
  5
22B
330
140
100
AcDbEntity
  8
Camada 1
 62
   250
370
    35
100
AcDbLine
 10
235.9393164618614
 20
-372.8755023382137
 30
0.0
 11
235.9393164618614
 21
-374.6464212502015
 31
0.0
  0
LINE
  5
22C
330
140
100
AcDbEntity
  8
Camada 1
 62
   250
370
    35
100
AcDbLine
 10
176.4745276778076
 20
-371.8460553833138
 30
0.0
 11
176.4745276778076
 21
-373.6169742952998
 31
0.0
  0
LINE
  5
22D
330
140
100
AcDbEntity
  8
Camada 1
 62
   250
370
    35
100
AcDbLine
 10
177.544773858659
 20
-374.6464212502015
 30
0.0
 11
176.4745276778076
 21
-373.6169742952998
 31
0.0
  0
LINE
  5
22E
330
140
100
AcDbEntity
  8
Camada 1
 62
   250
370
    35
100
AcDbLine
 10
177.544773858659
 20
-374.6464212502015
 30
0.0
 11
177.544773858659
 21
-372.8755023382137
 31
0.0
  0
LINE
  5
22F
330
140
100
AcDbEntity
  8
Camada 1
 62
   250
370
    35
100
AcDbLine
 10
177.544773858659
 20
-374.6464212502015
 30
0.0
 11
177.8191583409116
 21
-374.3856549627708
 31
0.0
  0
LINE
  5
230
330
140
100
AcDbEntity
  8
Camada 1
 62
   250
370
    35
100
AcDbLine
 10
177.8191583409116
 20
-372.6124663516475
 30
0.0
 11
177.8191583409116
 21
-374.3856549627708
 31
0.0
  0
LWPOLYLINE
  5
231
330
140
100
AcDbEntity
  8
Camada 1
 62
   250
370
    35
100
AcDbPolyline
 90
        3
 70
     0
 43
0.0
 10
235.6649596588677
 20
-372.6124663516475
 10
235.5606642155981
 20
-372.1612390915152
 10
235.2477502065312
 20
-371.7168209287947
  0
HATCH
  5
232
330
140
100
AcDbEntity
  8
Camada 1
 62
     7
440
 33554687
100
AcDbHatch
 10
0.0
 20
0.0
 30
0.0
210
0.0
220
0.0
230
1.0
  2
SOLID
 70
     1
 71
     1
 91
        1
 92
        3
 72
     0
 73
     1
 93
        3
 10
235.6649596588677
 20
-372.6124663516475
 10
235.5606642155981
 20
-372.1612390915152
 10
235.2477502065312
 20
-371.7168209287947
 97
        0
 75
     2
 76
     1
 98
        1
 10
0.0
 20
0.0
450
        0
451
        0
460
0.0
461
0.0
452
        0
462
0.0
453
        0
470

  0
LINE
  5
233
330
140
100
AcDbEntity
  8
Camada 1
 62
   250
370
    35
100
AcDbLine
 10
235.9393164618614
 20
-372.8755023382137
 30
0.0
 11
235.6649596588677
 21
-372.6124663516475
 31
0.0
  0
LWPOLYLINE
  5
234
330
140
100
AcDbEntity
  8
Camada 1
 62
   250
370
    35
100
AcDbPolyline
 90
        3
 70
     0
 43
0.0
 10
178.2363677932471
 20
-371.7168209287947
 10
177.9234537841812
 20
-372.1612390915152
 10
177.8191583409116
 20
-372.6124663516475
  0
HATCH
  5
235
330
140
100
AcDbEntity
  8
Camada 1
 62
     7
440
 33554687
100
AcDbHatch
 10
0.0
 20
0.0
 30
0.0
210
0.0
220
0.0
230
1.0
  2
SOLID
 70
     1
 71
     1
 91
        1
 92
        3
 72
     0
 73
     1
 93
        3
 10
178.2363677932471
 20
-371.7168209287947
 10
177.9234537841812
 20
-372.1612390915152
 10
177.8191583409116
 20
-372.6124663516475
 97
        0
 75
     2
 76
     1
 98
        1
 10
0.0
 20
0.0
450
        0
451
        0
460
0.0
461
0.0
452
        0
462
0.0
453
        0
470

  0
LINE
  5
236
330
140
100
AcDbEntity
  8
Camada 1
 62
   250
370
    35
100
AcDbLine
 10
177.544773858659
 20
-372.8755023382137
 30
0.0
 11
177.8191583409116
 21
-372.6124663516475
 31
0.0
  0
LINE
  5
237
330
140
100
AcDbEntity
  8
Camada 1
 62
   250
370
    35
100
AcDbLine
 10
235.9393164618614
 20
-372.8755023382137
 30
0.0
 11
237.0095626427137
 21
-371.8460553833138
 31
0.0
  0
LWPOLYLINE
  5
238
330
140
100
AcDbEntity
  8
Camada 1
 62
   250
370
    35
100
AcDbPolyline
 90
       16
 70
     0
 43
0.0
 10
222.8105739551939
 20
-369.2566054606159
 10
224.1824133286836
 20
-369.2770050735917
 10
225.5406345073516
 20
-369.335961892637
 10
226.86710757736
 20
-369.4334482384947
 10
228.1505117222814
 20
-369.5695194696809
 10
229.3749590481584
 20
-369.741850528545
 10
230.5268313601664
 20
-369.9481717159451
 10
231.5948355211376
 20
-370.1862686912646
 10
232.5675676768724
 20
-370.4538163968482
 10
233.4314926703228
 20
-370.7486004920775
 10
234.1797460455609
 20
-371.0660538994152
 10
234.8033043645546
 20
-371.4039069197297
 10
235.2953585298938
 20
-371.7576201547454
 10
235.6513414640458
 20
-372.1227095647027
 10
235.8667691272531
 20
-372.4968224126942
 10
235.9393164618614
 20
-372.8755023382137
  0
HATCH
  5
239
330
140
100
AcDbEntity
  8
Camada 1
 62
     7
440
 33554687
100
AcDbHatch
 10
0.0
 20
0.0
 30
0.0
210
0.0
220
0.0
230
1.0
  2
SOLID
 70
     1
 71
     1
 91
        1
 92
        3
 72
     0
 73
     1
 93
       16
 10
222.8105739551939
 20
-369.2566054606159
 10
224.1824133286836
 20
-369.2770050735917
 10
225.5406345073516
 20
-369.335961892637
 10
226.86710757736
 20
-369.4334482384947
 10
228.1505117222814
 20
-369.5695194696809
 10
229.3749590481584
 20
-369.741850528545
 10
230.5268313601664
 20
-369.9481717159451
 10
231.5948355211376
 20
-370.1862686912646
 10
232.5675676768724
 20
-370.4538163968482
 10
233.4314926703228
 20
-370.7486004920775
 10
234.1797460455609
 20
-371.0660538994152
 10
234.8033043645546
 20
-371.4039069197297
 10
235.2953585298938
 20
-371.7576201547454
 10
235.6513414640458
 20
-372.1227095647027
 10
235.8667691272531
 20
-372.4968224126942
 10
235.9393164618614
 20
-372.8755023382137
 97
        0
 75
     2
 76
     1
 98
        1
 10
0.0
 20
0.0
450
        0
451
        0
460
0.0
461
0.0
452
        0
462
0.0
453
        0
470

  0
LINE
  5
23A
330
140
100
AcDbEntity
  8
Camada 1
 62
   250
370
    35
100
AcDbLine
 10
222.8105739551939
 20
-369.2566054606159
 30
0.0
 11
222.8105739551939
 21
-367.9323744104877
 31
0.0
  0
LINE
  5
23B
330
140
100
AcDbEntity
  8
Camada 1
 62
   250
370
    35
100
AcDbLine
 10
190.6735163653284
 20
-369.2566054606159
 30
0.0
 11
222.8105739551939
 21
-369.2566054606159
 31
0.0
  0
LINE
  5
23C
330
140
100
AcDbEntity
  8
Camada 1
 62
   250
370
    35
100
AcDbLine
 10
190.6735163653284
 20
-369.2566054606159
 30
0.0
 11
190.6735163653284
 21
-367.9323744104877
 31
0.0
  0
LINE
  5
23D
330
140
100
AcDbEntity
  8
Camada 1
 62
   250
370
    35
100
AcDbLine
 10
177.544773858659
 20
-372.8755023382137
 30
0.0
 11
176.4745276778076
 21
-371.8460553833138
 31
0.0
  0
LWPOLYLINE
  5
23E
330
140
100
AcDbEntity
  8
Camada 1
 62
   250
370
    35
100
AcDbPolyline
 90
       16
 70
     0
 43
0.0
 10
177.544773858659
 20
-372.8755023382137
 10
177.617348872528
 20
-372.4968224126942
 10
177.8327488564764
 20
-372.1227095647027
 10
178.1887594698855
 20
-371.7576201547454
 10
178.6807859559676
 20
-371.4039069197297
 10
179.3043442749604
 20
-371.0660538994152
 10
180.0526253294574
 20
-370.7486004920775
 10
180.9165503229069
 20
-370.4538163968482
 10
181.8892824786417
 20
-370.1862686912646
 10
182.9572866396138
 20
-369.9481717159451
 10
184.1091589516227
 20
-369.741850528545
 10
185.3336062774988
 20
-369.5695194696809
 10
186.6169827431622
 20
-369.4334482384947
 10
187.9434834924286
 20
-369.335961892637
 10
189.3017046710956
 20
-369.2770050735917
 10
190.6735163653284
 20
-369.2566054606159
  0
HATCH
  5
23F
330
140
100
AcDbEntity
  8
Camada 1
 62
     7
440
 33554687
100
AcDbHatch
 10
0.0
 20
0.0
 30
0.0
210
0.0
220
0.0
230
1.0
  2
SOLID
 70
     1
 71
     1
 91
        1
 92
        3
 72
     0
 73
     1
 93
       16
 10
177.544773858659
 20
-372.8755023382137
 10
177.617348872528
 20
-372.4968224126942
 10
177.8327488564764
 20
-372.1227095647027
 10
178.1887594698855
 20
-371.7576201547454
 10
178.6807859559676
 20
-371.4039069197297
 10
179.3043442749604
 20
-371.0660538994152
 10
180.0526253294574
 20
-370.7486004920775
 10
180.9165503229069
 20
-370.4538163968482
 10
181.8892824786417
 20
-370.1862686912646
 10
182.9572866396138
 20
-369.9481717159451
 10
184.1091589516227
 20
-369.741850528545
 10
185.3336062774988
 20
-369.5695194696809
 10
186.6169827431622
 20
-369.4334482384947
 10
187.9434834924286
 20
-369.335961892637
 10
189.3017046710956
 20
-369.2770050735917
 10
190.6735163653284
 20
-369.2566054606159
 97
        0
 75
     2
 76
     1
 98
        1
 10
0.0
 20
0.0
450
        0
451
        0
460
0.0
461
0.0
452
        0
462
0.0
453
        0
470

  0
LWPOLYLINE
  5
240
330
140
100
AcDbEntity
  8
Camada 1
 62
   250
370
    35
100
AcDbPolyline
 90
       17
 70
     0
 43
0.0
 10
237.0095626427137
 20
-371.8460553833138
 10
236.9415547063781
 20
-371.462863738775
 10
236.7374755388564
 20
-371.0819141141164
 10
236.3973528194047
 20
-370.7100432860052
 10
235.9279956454348
 20
-370.3472512544431
 10
235.3339157359642
 20
-370.0003194375804
 10
234.6173827901284
 20
-369.6715452138151
 10
233.7874756044748
 20
-369.3631706030237
 10
232.8510032764152
 20
-369.07973500348
 10
231.8193143016342
 20
-368.8212384151866
 10
230.6991624190278
 20
-368.5922202364154
 10
229.5041935026747
 20
-368.3949501663037
 10
228.2434863491244
 20
-368.2294282048524
 10
226.9328734938154
 20
-368.1001660710754
 10
225.5814614125593
 20
-368.0072191234913
 10
224.2028129416576
 20
-367.9505320035823
 10
222.8105739551939
 20
-367.9323744104877
  0
HATCH
  5
241
330
140
100
AcDbEntity
  8
Camada 1
 62
     7
440
 33554687
100
AcDbHatch
 10
0.0
 20
0.0
 30
0.0
210
0.0
220
0.0
230
1.0
  2
SOLID
 70
     1
 71
     1
 91
        1
 92
        3
 72
     0
 73
     1
 93
       17
 10
237.0095626427137
 20
-371.8460553833138
 10
236.9415547063781
 20
-371.462863738775
 10
236.7374755388564
 20
-371.0819141141164
 10
236.3973528194047
 20
-370.7100432860052
 10
235.9279956454348
 20
-370.3472512544431
 10
235.3339157359642
 20
-370.0003194375804
 10
234.6173827901284
 20
-369.6715452138151
 10
233.7874756044748
 20
-369.3631706030237
 10
232.8510032764152
 20
-369.07973500348
 10
231.8193143016342
 20
-368.8212384151866
 10
230.6991624190278
 20
-368.5922202364154
 10
229.5041935026747
 20
-368.3949501663037
 10
228.2434863491244
 20
-368.2294282048524
 10
226.9328734938154
 20
-368.1001660710754
 10
225.5814614125593
 20
-368.0072191234913
 10
224.2028129416576
 20
-367.9505320035823
 10
222.8105739551939
 20
-367.9323744104877
 97
        0
 75
     2
 76
     1
 98
        1
 10
0.0
 20
0.0
450
        0
451
        0
460
0.0
461
0.0
452
        0
462
0.0
453
        0
470

  0
LWPOLYLINE
  5
242
330
140
100
AcDbEntity
  8
Camada 1
 62
   250
370
    35
100
AcDbPolyline
 90
        3
 70
     0
 43
0.0
 10
237.3723823535347
 20
-371.7009330348373
 10
237.175112283423
 20
-371.7394902409078
 10
237.0095626427137
 20
-371.8460553833138
  0
HATCH
  5
243
330
140
100
AcDbEntity
  8
Camada 1
 62
     7
440
 33554687
100
AcDbHatch
 10
0.0
 20
0.0
 30
0.0
210
0.0
220
0.0
230
1.0
  2
SOLID
 70
     1
 71
     1
 91
        1
 92
        3
 72
     0
 73
     1
 93
        3
 10
237.3723823535347
 20
-371.7009330348373
 10
237.175112283423
 20
-371.7394902409078
 10
237.0095626427137
 20
-371.8460553833138
 97
        0
 75
     2
 76
     1
 98
        1
 10
0.0
 20
0.0
450
        0
451
        0
460
0.0
461
0.0
452
        0
462
0.0
453
        0
470

  0
LINE
  5
244
330
140
100
AcDbEntity
  8
Camada 1
 62
   250
370
    35
100
AcDbLine
 10
222.8105739551939
 20
-367.9323744104877
 30
0.0
 11
190.6735163653284
 21
-367.9323744104877
 31
0.0
  0
LWPOLYLINE
  5
245
330
140
100
AcDbEntity
  8
Camada 1
 62
   250
370
    35
100
AcDbPolyline
 90
        3
 70
     0
 43
0.0
 10
222.8105739551939
 20
-367.6874960170153
 10
222.8105739551939
 20
-367.778200944721
 10
222.8105739551939
 20
-367.9323744104877
  0
HATCH
  5
246
330
140
100
AcDbEntity
  8
Camada 1
 62
     7
440
 33554687
100
AcDbHatch
 10
0.0
 20
0.0
 30
0.0
210
0.0
220
0.0
230
1.0
  2
SOLID
 70
     1
 71
     1
 91
        1
 92
        3
 72
     0
 73
     1
 93
        3
 10
222.8105739551939
 20
-367.6874960170153
 10
222.8105739551939
 20
-367.778200944721
 10
222.8105739551939
 20
-367.9323744104877
 97
        0
 75
     2
 76
     1
 98
        1
 10
0.0
 20
0.0
450
        0
451
        0
460
0.0
461
0.0
452
        0
462
0.0
453
        0
470

  0
LWPOLYLINE
  5
247
330
140
100
AcDbEntity
  8
Camada 1
 62
   250
370
    35
100
AcDbPolyline
 90
        3
 70
     0
 43
0.0
 10
176.1117356462464
 20
-371.7009330348373
 10
176.3090057163563
 20
-371.7394902409078
 10
176.4745276778076
 20
-371.8460553833138
  0
HATCH
  5
248
330
140
100
AcDbEntity
  8
Camada 1
 62
     7
440
 33554687
100
AcDbHatch
 10
0.0
 20
0.0
 30
0.0
210
0.0
220
0.0
230
1.0
  2
SOLID
 70
     1
 71
     1
 91
        1
 92
        3
 72
     0
 73
     1
 93
        3
 10
176.1117356462464
 20
-371.7009330348373
 10
176.3090057163563
 20
-371.7394902409078
 10
176.4745276778076
 20
-371.8460553833138
 97
        0
 75
     2
 76
     1
 98
        1
 10
0.0
 20
0.0
450
        0
451
        0
460
0.0
461
0.0
452
        0
462
0.0
453
        0
470

  0
LWPOLYLINE
  5
249
330
140
100
AcDbEntity
  8
Camada 1
 62
   250
370
    35
100
AcDbPolyline
 90
       17
 70
     0
 43
0.0
 10
190.6735163653284
 20
-367.9323744104877
 10
189.2812773788628
 20
-367.9505320035823
 10
187.9026565872209
 20
-368.0072191234913
 10
186.551244505963
 20
-368.1001660710754
 10
185.2406316506558
 20
-368.2294282048524
 10
183.9798968178465
 20
-368.3949501663037
 10
182.7849555807515
 20
-368.5922202364154
 10
181.6670733972805
 20
-368.8212384151866
 10
180.6331147233641
 20
-369.07973500348
 10
179.6988844151838
 20
-369.3631706030237
 10
178.869004908789
 20
-369.6715452138151
 10
178.1524719629524
 20
-370.0003194375804
 10
177.5561223543436
 20
-370.3472512544431
 10
177.0867651803764
 20
-370.7100432860052
 10
176.7489121600601
 20
-371.0819141141164
 10
176.542563293402
 20
-371.462863738775
 10
176.4745276778076
 20
-371.8460553833138
  0
HATCH
  5
24A
330
140
100
AcDbEntity
  8
Camada 1
 62
     7
440
 33554687
100
AcDbHatch
 10
0.0
 20
0.0
 30
0.0
210
0.0
220
0.0
230
1.0
  2
SOLID
 70
     1
 71
     1
 91
        1
 92
        3
 72
     0
 73
     1
 93
       17
 10
190.6735163653284
 20
-367.9323744104877
 10
189.2812773788628
 20
-367.9505320035823
 10
187.9026565872209
 20
-368.0072191234913
 10
186.551244505963
 20
-368.1001660710754
 10
185.2406316506558
 20
-368.2294282048524
 10
183.9798968178465
 20
-368.3949501663037
 10
182.7849555807515
 20
-368.5922202364154
 10
181.6670733972805
 20
-368.8212384151866
 10
180.6331147233641
 20
-369.07973500348
 10
179.6988844151838
 20
-369.3631706030237
 10
178.869004908789
 20
-369.6715452138151
 10
178.1524719629524
 20
-370.0003194375804
 10
177.5561223543436
 20
-370.3472512544431
 10
177.0867651803764
 20
-370.7100432860052
 10
176.7489121600601
 20
-371.0819141141164
 10
176.542563293402
 20
-371.462863738775
 10
176.4745276778076
 20
-371.8460553833138
 97
        0
 75
     2
 76
     1
 98
        1
 10
0.0
 20
0.0
450
        0
451
        0
460
0.0
461
0.0
452
        0
462
0.0
453
        0
470

  0
LWPOLYLINE
  5
24B
330
140
100
AcDbEntity
  8
Camada 1
 62
   250
370
    35
100
AcDbPolyline
 90
        3
 70
     0
 43
0.0
 10
190.6735163653284
 20
-367.6874960170153
 10
190.6735163653284
 20
-367.778200944721
 10
190.6735163653284
 20
-367.9323744104877
  0
HATCH
  5
24C
330
140
100
AcDbEntity
  8
Camada 1
 62
     7
440
 33554687
100
AcDbHatch
 10
0.0
 20
0.0
 30
0.0
210
0.0
220
0.0
230
1.0
  2
SOLID
 70
     1
 71
     1
 91
        1
 92
        3
 72
     0
 73
     1
 93
        3
 10
190.6735163653284
 20
-367.6874960170153
 10
190.6735163653284
 20
-367.778200944721
 10
190.6735163653284
 20
-367.9323744104877
 97
        0
 75
     2
 76
     1
 98
        1
 10
0.0
 20
0.0
450
        0
451
        0
460
0.0
461
0.0
452
        0
462
0.0
453
        0
470

  0
LWPOLYLINE
  5
24D
330
140
100
AcDbEntity
  8
Camada 1
 62
   250
370
    35
100
AcDbPolyline
 90
       17
 70
     0
 43
0.0
 10
222.8105739551939
 20
-367.6874960170153
 10
224.2391004485916
 20
-367.7078956299902
 10
225.6517390480312
 20
-367.7645827498991
 10
227.037168937085
 20
-367.8598270758775
 10
228.3840692993262
 20
-367.9936009286694
 10
229.676524561537
 20
-368.1613925892589
 10
230.9009718874131
 20
-368.3632020576443
 10
232.0483324804063
 20
-368.5990293338264
 10
233.1072301655722
 20
-368.8620653203934
 10
234.0663718057431
 20
-369.1545520372274
 10
234.9189483035079
 20
-369.4720054445661
 10
235.6536111631822
 20
-369.8098584648797
 10
236.2635789666128
 20
-370.1658690782906
 10
236.7465543354037
 20
-370.5354702072654
 10
237.0934861522655
 20
-370.9186618518024
 10
237.3020770388039
 20
-371.3086625937503
 10
237.3723823535347
 20
-371.7009330348373
  0
HATCH
  5
24E
330
140
100
AcDbEntity
  8
Camada 1
 62
     7
440
 33554687
100
AcDbHatch
 10
0.0
 20
0.0
 30
0.0
210
0.0
220
0.0
230
1.0
  2
SOLID
 70
     1
 71
     1
 91
        1
 92
        3
 72
     0
 73
     1
 93
       17
 10
222.8105739551939
 20
-367.6874960170153
 10
224.2391004485916
 20
-367.7078956299902
 10
225.6517390480312
 20
-367.7645827498991
 10
227.037168937085
 20
-367.8598270758775
 10
228.3840692993262
 20
-367.9936009286694
 10
229.676524561537
 20
-368.1613925892589
 10
230.9009718874131
 20
-368.3632020576443
 10
232.0483324804063
 20
-368.5990293338264
 10
233.1072301655722
 20
-368.8620653203934
 10
234.0663718057431
 20
-369.1545520372274
 10
234.9189483035079
 20
-369.4720054445661
 10
235.6536111631822
 20
-369.8098584648797
 10
236.2635789666128
 20
-370.1658690782906
 10
236.7465543354037
 20
-370.5354702072654
 10
237.0934861522655
 20
-370.9186618518024
 10
237.3020770388039
 20
-371.3086625937503
 10
237.3723823535347
 20
-371.7009330348373
 97
        0
 75
     2
 76
     1
 98
        1
 10
0.0
 20
0.0
450
        0
451
        0
460
0.0
461
0.0
452
        0
462
0.0
453
        0
470

  0
LINE
  5
24F
330
140
100
AcDbEntity
  8
Camada 1
 62
   250
370
    35
100
AcDbLine
 10
237.3723823535347
 20
-371.7009330348373
 30
0.0
 11
237.3723823535347
 21
-373.4718519468224
 31
0.0
  0
LWPOLYLINE
  5
250
330
140
100
AcDbEntity
  8
Camada 1
 62
   250
370
    35
100
AcDbPolyline
 90
        5
 70
     0
 43
0.0
 10
237.3723823535347
 20
-373.4718519468224
 10
237.274868328418
 20
-373.9366974017757
 10
236.9868933306015
 20
-374.3924363809238
 10
236.5061876609479
 20
-374.8368822229022
 10
235.8463695142773
 20
-375.2631704717842
  0
HATCH
  5
251
330
140
100
AcDbEntity
  8
Camada 1
 62
     7
440
 33554687
100
AcDbHatch
 10
0.0
 20
0.0
 30
0.0
210
0.0
220
0.0
230
1.0
  2
SOLID
 70
     1
 71
     1
 91
        1
 92
        3
 72
     0
 73
     1
 93
        5
 10
237.3723823535347
 20
-373.4718519468224
 10
237.274868328418
 20
-373.9366974017757
 10
236.9868933306015
 20
-374.3924363809238
 10
236.5061876609479
 20
-374.8368822229022
 10
235.8463695142773
 20
-375.2631704717842
 97
        0
 75
     2
 76
     1
 98
        1
 10
0.0
 20
0.0
450
        0
451
        0
460
0.0
461
0.0
452
        0
462
0.0
453
        0
470

  0
LWPOLYLINE
  5
252
330
140
100
AcDbEntity
  8
Camada 1
 62
   250
370
    35
100
AcDbPolyline
 90
        5
 70
     0
 43
0.0
 10
177.6377484855011
 20
-375.2631704717842
 10
176.9779026595734
 20
-374.8368822229022
 10
176.499466689057
 20
-374.3924363809238
 10
176.2092496713612
 20
-373.9366974017757
 10
176.1117356462464
 20
-373.4718519468224
  0
HATCH
  5
253
330
140
100
AcDbEntity
  8
Camada 1
 62
     7
440
 33554687
100
AcDbHatch
 10
0.0
 20
0.0
 30
0.0
210
0.0
220
0.0
230
1.0
  2
SOLID
 70
     1
 71
     1
 91
        1
 92
        3
 72
     0
 73
     1
 93
        5
 10
177.6377484855011
 20
-375.2631704717842
 10
176.9779026595734
 20
-374.8368822229022
 10
176.499466689057
 20
-374.3924363809238
 10
176.2092496713612
 20
-373.9366974017757
 10
176.1117356462464
 20
-373.4718519468224
 97
        0
 75
     2
 76
     1
 98
        1
 10
0.0
 20
0.0
450
        0
451
        0
460
0.0
461
0.0
452
        0
462
0.0
453
        0
470

  0
LINE
  5
254
330
140
100
AcDbEntity
  8
Camada 1
 62
   250
370
    35
100
AcDbLine
 10
176.1117356462464
 20
-373.4718519468224
 30
0.0
 11
176.1117356462464
 21
-371.7009330348373
 31
0.0
  0
LWPOLYLINE
  5
255
330
140
100
AcDbEntity
  8
Camada 1
 62
   250
370
    35
100
AcDbPolyline
 90
       17
 70
     0
 43
0.0
 10
176.1117356462464
 20
-371.7009330348373
 10
176.1820409609754
 20
-371.3086625937503
 10
176.3906318475137
 20
-370.9186618518024
 10
176.7375636643755
 20
-370.5354702072654
 10
177.2205390331673
 20
-370.1658690782906
 10
177.8304791573391
 20
-369.8098584648797
 10
178.5651420170115
 20
-369.4720054445661
 10
179.4177185147782
 20
-369.1545520372274
 10
180.3768878342071
 20
-368.8620653203934
 10
181.435785519373
 20
-368.5990293338264
 10
182.5831461123662
 20
-368.3632020576443
 10
183.8098354581207
 20
-368.1613925892589
 10
185.1000487004539
 20
-367.9936009286694
 10
186.4469213834363
 20
-367.8598270758775
 10
187.832378951748
 20
-367.7645827498991
 10
189.2450175511876
 20
-367.7078956299902
 10
190.6735163653284
 20
-367.6874960170153
  0
HATCH
  5
256
330
140
100
AcDbEntity
  8
Camada 1
 62
     7
440
 33554687
100
AcDbHatch
 10
0.0
 20
0.0
 30
0.0
210
0.0
220
0.0
230
1.0
  2
SOLID
 70
     1
 71
     1
 91
        1
 92
        3
 72
     0
 73
     1
 93
       17
 10
176.1117356462464
 20
-371.7009330348373
 10
176.1820409609754
 20
-371.3086625937503
 10
176.3906318475137
 20
-370.9186618518024
 10
176.7375636643755
 20
-370.5354702072654
 10
177.2205390331673
 20
-370.1658690782906
 10
177.8304791573391
 20
-369.8098584648797
 10
178.5651420170115
 20
-369.4720054445661
 10
179.4177185147782
 20
-369.1545520372274
 10
180.3768878342071
 20
-368.8620653203934
 10
181.435785519373
 20
-368.5990293338264
 10
182.5831461123662
 20
-368.3632020576443
 10
183.8098354581207
 20
-368.1613925892589
 10
185.1000487004539
 20
-367.9936009286694
 10
186.4469213834363
 20
-367.8598270758775
 10
187.832378951748
 20
-367.7645827498991
 10
189.2450175511876
 20
-367.7078956299902
 10
190.6735163653284
 20
-367.6874960170153
 97
        0
 75
     2
 76
     1
 98
        1
 10
0.0
 20
0.0
450
        0
451
        0
460
0.0
461
0.0
452
        0
462
0.0
453
        0
470

  0
LINE
  5
257
330
140
100
AcDbEntity
  8
Camada 1
 62
   250
370
    35
100
AcDbLine
 10
190.6735163653284
 20
-367.6874960170153
 30
0.0
 11
222.8105739551939
 21
-367.6874960170153
 31
0.0
  0
LINE
  5
258
330
140
100
AcDbEntity
  8
Camada 1
 62
   250
370
    35
100
AcDbLine
 10
166.3774112366782
 20
-383.4365369791631
 30
0.0
 11
166.3774112366782
 21
-365.9755339240737
 31
0.0
  0
LINE
  5
259
330
140
100
AcDbEntity
  8
Camada 1
 62
   250
370
    35
100
AcDbLine
 10
166.3774112366782
 20
-383.4365369791631
 30
0.0
 11
247.1066790838431
 21
-383.4365369791631
 31
0.0
  0
LINE
  5
25A
330
140
100
AcDbEntity
  8
Camada 1
 62
   250
370
    35
100
AcDbLine
 10
247.1066790838431
 20
-383.4365369791631
 30
0.0
 11
247.1066790838431
 21
-365.9755339240737
 31
0.0
  0
LWPOLYLINE
  5
25B
330
140
100
AcDbEntity
  8
Camada 1
 62
   250
370
    35
100
AcDbPolyline
 90
        3
 70
     0
 43
0.0
 10
247.2994097556821
 20
-375.9388765124131
 10
247.2994097556821
 20
-375.9570202658797
 10
247.2994097556821
 20
-376.0159632452951
  0
HATCH
  5
25C
330
140
100
AcDbEntity
  8
Camada 1
 62
     7
440
 33554687
100
AcDbHatch
 10
0.0
 20
0.0
 30
0.0
210
0.0
220
0.0
230
1.0
  2
SOLID
 70
     1
 71
     1
 91
        1
 92
        3
 72
     0
 73
     1
 93
        3
 10
247.2994097556821
 20
-375.9388765124131
 10
247.2994097556821
 20
-375.9570202658797
 10
247.2994097556821
 20
-376.0159632452951
 97
        0
 75
     2
 76
     1
 98
        1
 10
0.0
 20
0.0
450
        0
451
        0
460
0.0
461
0.0
452
        0
462
0.0
453
        0
470

  0
LINE
  5
25D
330
140
100
AcDbEntity
  8
Camada 1
 62
   250
370
    35
100
AcDbLine
 10
247.2994097556821
 20
-375.9388765124131
 30
0.0
 11
247.2427226357722
 21
-375.8368369286509
 31
0.0
  0
LWPOLYLINE
  5
25E
330
140
100
AcDbEntity
  8
Camada 1
 62
   250
370
    35
100
AcDbPolyline
 90
        4
 70
     0
 43
0.0
 10
247.2994097556821
 20
-379.7799963110001
 10
247.2994097556821
 20
-380.1359930847811
 10
247.2994097556821
 20
-380.3604718652787
 10
247.2994097556821
 20
-380.4375585981615
  0
HATCH
  5
25F
330
140
100
AcDbEntity
  8
Camada 1
 62
     7
440
 33554687
100
AcDbHatch
 10
0.0
 20
0.0
 30
0.0
210
0.0
220
0.0
230
1.0
  2
SOLID
 70
     1
 71
     1
 91
        1
 92
        3
 72
     0
 73
     1
 93
        4
 10
247.2994097556821
 20
-379.7799963110001
 10
247.2994097556821
 20
-380.1359930847811
 10
247.2994097556821
 20
-380.3604718652787
 10
247.2994097556821
 20
-380.4375585981615
 97
        0
 75
     2
 76
     1
 98
        1
 10
0.0
 20
0.0
450
        0
451
        0
460
0.0
461
0.0
452
        0
462
0.0
453
        0
470

  0
LWPOLYLINE
  5
260
330
140
100
AcDbEntity
  8
Camada 1
 62
   250
370
    35
100
AcDbPolyline
 90
        4
 70
     0
 43
0.0
 10
247.0998699864322
 20
-380.6983248855932
 10
247.1815237968476
 20
-380.6144290552984
 10
247.2449923349104
 20
-380.5305332250036
 10
247.2518014323195
 20
-380.5191985689489
  0
HATCH
  5
261
330
140
100
AcDbEntity
  8
Camada 1
 62
     7
440
 33554687
100
AcDbHatch
 10
0.0
 20
0.0
 30
0.0
210
0.0
220
0.0
230
1.0
  2
SOLID
 70
     1
 71
     1
 91
        1
 92
        3
 72
     0
 73
     1
 93
        4
 10
247.0998699864322
 20
-380.6983248855932
 10
247.1815237968476
 20
-380.6144290552984
 10
247.2449923349104
 20
-380.5305332250036
 10
247.2518014323195
 20
-380.5191985689489
 97
        0
 75
     2
 76
     1
 98
        1
 10
0.0
 20
0.0
450
        0
451
        0
460
0.0
461
0.0
452
        0
462
0.0
453
        0
470

  0
LINE
  5
262
330
140
100
AcDbEntity
  8
Camada 1
 62
   250
370
    35
100
AcDbLine
 10
247.2427226357722
 20
-380.5373284827874
 30
0.0
 11
247.2994097556821
 21
-380.4375585981615
 31
0.0
  0
LWPOLYLINE
  5
263
330
140
100
AcDbEntity
  8
Camada 1
 62
   250
370
    35
100
AcDbPolyline
 90
        7
 70
     0
 43
0.0
 10
247.0998699864322
 20
-375.6781102249825
 10
247.1815237968476
 20
-375.759736356139
 10
247.2449923349104
 20
-375.8436460260619
 10
247.2699313461589
 20
-375.8867287907778
 10
247.2858192401172
 20
-375.9297977158649
 10
247.2971677358018
 20
-375.9728804805809
 10
247.2994097556821
 20
-376.0159632452951
  0
HATCH
  5
264
330
140
100
AcDbEntity
  8
Camada 1
 62
     7
440
 33554687
100
AcDbHatch
 10
0.0
 20
0.0
 30
0.0
210
0.0
220
0.0
230
1.0
  2
SOLID
 70
     1
 71
     1
 91
        1
 92
        3
 72
     0
 73
     1
 93
        7
 10
247.0998699864322
 20
-375.6781102249825
 10
247.1815237968476
 20
-375.759736356139
 10
247.2449923349104
 20
-375.8436460260619
 10
247.2699313461589
 20
-375.8867287907778
 10
247.2858192401172
 20
-375.9297977158649
 10
247.2971677358018
 20
-375.9728804805809
 10
247.2994097556821
 20
-376.0159632452951
 97
        0
 75
     2
 76
     1
 98
        1
 10
0.0
 20
0.0
450
        0
451
        0
460
0.0
461
0.0
452
        0
462
0.0
453
        0
470

  0
LWPOLYLINE
  5
265
330
140
100
AcDbEntity
  8
Camada 1
 62
   250
370
    35
100
AcDbPolyline
 90
        5
 70
     0
 43
0.0
 10
247.2994097556821
 20
-376.0159632452951
 10
247.2994097556821
 20
-376.2404558654216
 10
247.2994097556821
 20
-376.5987084987119
 10
247.2994097556821
 20
-377.0658098131708
 10
247.2994097556821
 20
-377.6077420010088
  0
HATCH
  5
266
330
140
100
AcDbEntity
  8
Camada 1
 62
     7
440
 33554687
100
AcDbHatch
 10
0.0
 20
0.0
 30
0.0
210
0.0
220
0.0
230
1.0
  2
SOLID
 70
     1
 71
     1
 91
        1
 92
        3
 72
     0
 73
     1
 93
        5
 10
247.2994097556821
 20
-376.0159632452951
 10
247.2994097556821
 20
-376.2404558654216
 10
247.2994097556821
 20
-376.5987084987119
 10
247.2994097556821
 20
-377.0658098131708
 10
247.2994097556821
 20
-377.6077420010088
 97
        0
 75
     2
 76
     1
 98
        1
 10
0.0
 20
0.0
450
        0
451
        0
460
0.0
461
0.0
452
        0
462
0.0
453
        0
470

  0
LWPOLYLINE
  5
267
330
140
100
AcDbEntity
  8
Camada 1
 62
   250
370
    35
100
AcDbPolyline
 90
        9
 70
     0
 43
0.0
 10
247.2994097556821
 20
-376.0159632452951
 10
247.2994097556821
 20
-376.0363766978999
 10
247.2971677358018
 20
-376.059046010012
 10
247.2926283375282
 20
-376.0794594626159
 10
247.2858192401172
 20
-376.1021287747271
 10
247.2699313461589
 20
-376.1429418403068
 10
247.2449923349104
 20
-376.1860246050219
 10
247.1815237968476
 20
-376.2699204353157
 10
247.0998699864322
 20
-376.3538301052395
  0
HATCH
  5
268
330
140
100
AcDbEntity
  8
Camada 1
 62
     7
440
 33554687
100
AcDbHatch
 10
0.0
 20
0.0
 30
0.0
210
0.0
220
0.0
230
1.0
  2
SOLID
 70
     1
 71
     1
 91
        1
 92
        3
 72
     0
 73
     1
 93
        9
 10
247.2994097556821
 20
-376.0159632452951
 10
247.2994097556821
 20
-376.0363766978999
 10
247.2971677358018
 20
-376.059046010012
 10
247.2926283375282
 20
-376.0794594626159
 10
247.2858192401172
 20
-376.1021287747271
 10
247.2699313461589
 20
-376.1429418403068
 10
247.2449923349104
 20
-376.1860246050219
 10
247.1815237968476
 20
-376.2699204353157
 10
247.0998699864322
 20
-376.3538301052395
 97
        0
 75
     2
 76
     1
 98
        1
 10
0.0
 20
0.0
450
        0
451
        0
460
0.0
461
0.0
452
        0
462
0.0
453
        0
470

  0
LWPOLYLINE
  5
269
330
140
100
AcDbEntity
  8
Camada 1
 62
   250
370
    35
100
AcDbPolyline
 90
       11
 70
     0
 43
0.0
 10
247.2994097556821
 20
-377.6077420010088
 10
247.2971677358018
 20
-377.4490152973403
 10
247.2858192401172
 20
-377.2880327341618
 10
247.2812798418436
 20
-377.2494755280913
 10
247.2790101427054
 20
-377.2086624625117
 10
247.2744707444326
 20
-377.1678493969339
 10
247.2676893262796
 20
-377.1293060304906
 10
247.2586105297314
 20
-377.0499357588424
 10
247.2449923349104
 20
-376.9705793268231
 10
247.1815237968476
 20
-376.6599350168945
 10
247.0998699864322
 20
-376.3538301052395
  0
HATCH
  5
26A
330
140
100
AcDbEntity
  8
Camada 1
 62
     7
440
 33554687
100
AcDbHatch
 10
0.0
 20
0.0
 30
0.0
210
0.0
220
0.0
230
1.0
  2
SOLID
 70
     1
 71
     1
 91
        1
 92
        3
 72
     0
 73
     1
 93
       11
 10
247.2994097556821
 20
-377.6077420010088
 10
247.2971677358018
 20
-377.4490152973403
 10
247.2858192401172
 20
-377.2880327341618
 10
247.2812798418436
 20
-377.2494755280913
 10
247.2790101427054
 20
-377.2086624625117
 10
247.2744707444326
 20
-377.1678493969339
 10
247.2676893262796
 20
-377.1293060304906
 10
247.2586105297314
 20
-377.0499357588424
 10
247.2449923349104
 20
-376.9705793268231
 10
247.1815237968476
 20
-376.6599350168945
 10
247.0998699864322
 20
-376.3538301052395
 97
        0
 75
     2
 76
     1
 98
        1
 10
0.0
 20
0.0
450
        0
451
        0
460
0.0
461
0.0
452
        0
462
0.0
453
        0
470

  0
LWPOLYLINE
  5
26B
330
140
100
AcDbEntity
  8
Camada 1
 62
   250
370
    35
100
AcDbPolyline
 90
        5
 70
     0
 43
0.0
 10
247.2994097556821
 20
-377.6077420010088
 10
247.2994097556821
 20
-378.1904872544246
 10
247.2994097556821
 20
-378.7732325078386
 10
247.2994097556821
 20
-379.3151646956758
 10
247.2994097556821
 20
-379.7799963110001
  0
HATCH
  5
26C
330
140
100
AcDbEntity
  8
Camada 1
 62
     7
440
 33554687
100
AcDbHatch
 10
0.0
 20
0.0
 30
0.0
210
0.0
220
0.0
230
1.0
  2
SOLID
 70
     1
 71
     1
 91
        1
 92
        3
 72
     0
 73
     1
 93
        5
 10
247.2994097556821
 20
-377.6077420010088
 10
247.2994097556821
 20
-378.1904872544246
 10
247.2994097556821
 20
-378.7732325078386
 10
247.2994097556821
 20
-379.3151646956758
 10
247.2994097556821
 20
-379.7799963110001
 97
        0
 75
     2
 76
     1
 98
        1
 10
0.0
 20
0.0
450
        0
451
        0
460
0.0
461
0.0
452
        0
462
0.0
453
        0
470

  0
LWPOLYLINE
  5
26D
330
140
100
AcDbEntity
  8
Camada 1
 62
   250
370
    35
100
AcDbPolyline
 90
       11
 70
     0
 43
0.0
 10
247.2994097556821
 20
-377.6077420010088
 10
247.2971677358018
 20
-377.76646870468
 10
247.2858192401172
 20
-377.9251954083484
 10
247.2699313461589
 20
-378.0816524128823
 10
247.2449923349104
 20
-378.2403652769217
 10
247.2314018193456
 20
-378.3174658494336
 10
247.2177836245237
 20
-378.3968222814547
 10
247.1996537106861
 20
-378.4761925531047
 10
247.1815237968476
 20
-378.5532792859867
 10
247.1429665907772
 20
-378.7097362905197
 10
247.0998699864322
 20
-378.861667736408
  0
HATCH
  5
26E
330
140
100
AcDbEntity
  8
Camada 1
 62
     7
440
 33554687
100
AcDbHatch
 10
0.0
 20
0.0
 30
0.0
210
0.0
220
0.0
230
1.0
  2
SOLID
 70
     1
 71
     1
 91
        1
 92
        3
 72
     0
 73
     1
 93
       11
 10
247.2994097556821
 20
-377.6077420010088
 10
247.2971677358018
 20
-377.76646870468
 10
247.2858192401172
 20
-377.9251954083484
 10
247.2699313461589
 20
-378.0816524128823
 10
247.2449923349104
 20
-378.2403652769217
 10
247.2314018193456
 20
-378.3174658494336
 10
247.2177836245237
 20
-378.3968222814547
 10
247.1996537106861
 20
-378.4761925531047
 10
247.1815237968476
 20
-378.5532792859867
 10
247.1429665907772
 20
-378.7097362905197
 10
247.0998699864322
 20
-378.861667736408
 97
        0
 75
     2
 76
     1
 98
        1
 10
0.0
 20
0.0
450
        0
451
        0
460
0.0
461
0.0
452
        0
462
0.0
453
        0
470

  0
LWPOLYLINE
  5
26F
330
140
100
AcDbEntity
  8
Camada 1
 62
   250
370
    35
100
AcDbPolyline
 90
        9
 70
     0
 43
0.0
 10
247.2994097556821
 20
-379.7799963110001
 10
247.2994097556821
 20
-379.8389531300454
 10
247.2971677358018
 20
-379.8978961094626
 10
247.2926283375282
 20
-379.9545832293716
 10
247.2858192401172
 20
-380.0135400484151
 10
247.2699313461589
 20
-380.1291839873693
 10
247.2449923349104
 20
-380.2448279263245
 10
247.1815237968476
 20
-380.4715764059583
 10
247.0998699864322
 20
-380.6983248855932
  0
HATCH
  5
270
330
140
100
AcDbEntity
  8
Camada 1
 62
     7
440
 33554687
100
AcDbHatch
 10
0.0
 20
0.0
 30
0.0
210
0.0
220
0.0
230
1.0
  2
SOLID
 70
     1
 71
     1
 91
        1
 92
        3
 72
     0
 73
     1
 93
        9
 10
247.2994097556821
 20
-379.7799963110001
 10
247.2994097556821
 20
-379.8389531300454
 10
247.2971677358018
 20
-379.8978961094626
 10
247.2926283375282
 20
-379.9545832293716
 10
247.2858192401172
 20
-380.0135400484151
 10
247.2699313461589
 20
-380.1291839873693
 10
247.2449923349104
 20
-380.2448279263245
 10
247.1815237968476
 20
-380.4715764059583
 10
247.0998699864322
 20
-380.6983248855932
 97
        0
 75
     2
 76
     1
 98
        1
 10
0.0
 20
0.0
450
        0
451
        0
460
0.0
461
0.0
452
        0
462
0.0
453
        0
470

  0
LWPOLYLINE
  5
271
330
140
100
AcDbEntity
  8
Camada 1
 62
   250
370
    35
100
AcDbPolyline
 90
        7
 70
     0
 43
0.0
 10
247.0998699864322
 20
-378.861667736408
 10
247.1815237968476
 20
-379.0884162160419
 10
247.2449923349104
 20
-379.3174205551832
 10
247.2699313461589
 20
-379.4307947950019
 10
247.2858192401172
 20
-379.5464387339562
 10
247.2971677358018
 20
-379.6620826729104
 10
247.2994097556821
 20
-379.7799963110001
  0
HATCH
  5
272
330
140
100
AcDbEntity
  8
Camada 1
 62
     7
440
 33554687
100
AcDbHatch
 10
0.0
 20
0.0
 30
0.0
210
0.0
220
0.0
230
1.0
  2
SOLID
 70
     1
 71
     1
 91
        1
 92
        3
 72
     0
 73
     1
 93
        7
 10
247.0998699864322
 20
-378.861667736408
 10
247.1815237968476
 20
-379.0884162160419
 10
247.2449923349104
 20
-379.3174205551832
 10
247.2699313461589
 20
-379.4307947950019
 10
247.2858192401172
 20
-379.5464387339562
 10
247.2971677358018
 20
-379.6620826729104
 10
247.2994097556821
 20
-379.7799963110001
 97
        0
 75
     2
 76
     1
 98
        1
 10
0.0
 20
0.0
450
        0
451
        0
460
0.0
461
0.0
452
        0
462
0.0
453
        0
470

  0
LWPOLYLINE
  5
273
330
140
100
AcDbEntity
  8
Camada 1
 62
   250
370
    35
100
AcDbPolyline
 90
        8
 70
     0
 43
0.0
 10
249.5487646381844
 20
-156.9519929074649
 10
249.5487646381844
 20
-157.0200285230594
 10
249.5487646381844
 20
-157.2195682923066
 10
249.5487646381844
 20
-157.5415334186618
 10
249.5487646381844
 20
-157.9678216675456
 10
249.5487646381844
 20
-158.4802754458578
 10
249.5487646381844
 20
-159.051686043218
 10
249.5487646381844
 20
-159.6525750500996
  0
HATCH
  5
274
330
140
100
AcDbEntity
  8
Camada 1
 62
     7
440
 33554687
100
AcDbHatch
 10
0.0
 20
0.0
 30
0.0
210
0.0
220
0.0
230
1.0
  2
SOLID
 70
     1
 71
     1
 91
        1
 92
        3
 72
     0
 73
     1
 93
        8
 10
249.5487646381844
 20
-156.9519929074649
 10
249.5487646381844
 20
-157.0200285230594
 10
249.5487646381844
 20
-157.2195682923066
 10
249.5487646381844
 20
-157.5415334186618
 10
249.5487646381844
 20
-157.9678216675456
 10
249.5487646381844
 20
-158.4802754458578
 10
249.5487646381844
 20
-159.051686043218
 10
249.5487646381844
 20
-159.6525750500996
 97
        0
 75
     2
 76
     1
 98
        1
 10
0.0
 20
0.0
450
        0
451
        0
460
0.0
461
0.0
452
        0
462
0.0
453
        0
470

  0
LWPOLYLINE
  5
275
330
140
100
AcDbEntity
  8
Camada 1
 62
   250
370
    35
100
AcDbPolyline
 90
        8
 70
     0
 43
0.0
 10
249.5487646381844
 20
-159.6525750500996
 10
249.5487646381844
 20
-160.253464056982
 10
249.5487646381844
 20
-160.822604955204
 10
249.5487646381844
 20
-161.3350310542601
 10
249.5487646381844
 20
-161.7613193031429
 10
249.5487646381844
 20
-162.0833121087562
 10
249.5487646381844
 20
-162.2828518780052
 10
249.5487646381844
 20
-162.3508874935969
  0
HATCH
  5
276
330
140
100
AcDbEntity
  8
Camada 1
 62
     7
440
 33554687
100
AcDbHatch
 10
0.0
 20
0.0
 30
0.0
210
0.0
220
0.0
230
1.0
  2
SOLID
 70
     1
 71
     1
 91
        1
 92
        3
 72
     0
 73
     1
 93
        8
 10
249.5487646381844
 20
-159.6525750500996
 10
249.5487646381844
 20
-160.253464056982
 10
249.5487646381844
 20
-160.822604955204
 10
249.5487646381844
 20
-161.3350310542601
 10
249.5487646381844
 20
-161.7613193031429
 10
249.5487646381844
 20
-162.0833121087562
 10
249.5487646381844
 20
-162.2828518780052
 10
249.5487646381844
 20
-162.3508874935969
 97
        0
 75
     2
 76
     1
 98
        1
 10
0.0
 20
0.0
450
        0
451
        0
460
0.0
461
0.0
452
        0
462
0.0
453
        0
470

  0
LWPOLYLINE
  5
277
330
140
100
AcDbEntity
  8
Camada 1
 62
   250
370
    35
100
AcDbPolyline
 90
        8
 70
     0
 43
0.0
 10
249.3560339663472
 20
-162.5436181654349
 10
249.3560339663472
 20
-162.4710431515686
 10
249.3560339663472
 20
-162.2579128667557
 10
249.3560339663472
 20
-161.9132507490303
 10
249.3560339663472
 20
-161.4552143914889
 10
249.3560339663472
 20
-160.9065007854979
 10
249.3560339663472
 20
-160.296532982069
 10
249.3560339663472
 20
-159.6525750500996
  0
HATCH
  5
278
330
140
100
AcDbEntity
  8
Camada 1
 62
     7
440
 33554687
100
AcDbHatch
 10
0.0
 20
0.0
 30
0.0
210
0.0
220
0.0
230
1.0
  2
SOLID
 70
     1
 71
     1
 91
        1
 92
        3
 72
     0
 73
     1
 93
        8
 10
249.3560339663472
 20
-162.5436181654349
 10
249.3560339663472
 20
-162.4710431515686
 10
249.3560339663472
 20
-162.2579128667557
 10
249.3560339663472
 20
-161.9132507490303
 10
249.3560339663472
 20
-161.4552143914889
 10
249.3560339663472
 20
-160.9065007854979
 10
249.3560339663472
 20
-160.296532982069
 10
249.3560339663472
 20
-159.6525750500996
 97
        0
 75
     2
 76
     1
 98
        1
 10
0.0
 20
0.0
450
        0
451
        0
460
0.0
461
0.0
452
        0
462
0.0
453
        0
470

  0
LWPOLYLINE
  5
279
330
140
100
AcDbEntity
  8
Camada 1
 62
   250
370
    35
100
AcDbPolyline
 90
        8
 70
     0
 43
0.0
 10
249.3560339663472
 20
-159.6525750500996
 10
249.3560339663472
 20
-159.0086171181319
 10
249.3560339663472
 20
-158.396379615564
 10
249.3560339663472
 20
-157.8476383303168
 10
249.3560339663472
 20
-157.3896296520324
 10
249.3560339663472
 20
-157.0449675343079
 10
249.3560339663472
 20
-156.8318095702379
 10
249.3560339663472
 20
-156.7592622356287
  0
HATCH
  5
27A
330
140
100
AcDbEntity
  8
Camada 1
 62
     7
440
 33554687
100
AcDbHatch
 10
0.0
 20
0.0
 30
0.0
210
0.0
220
0.0
230
1.0
  2
SOLID
 70
     1
 71
     1
 91
        1
 92
        3
 72
     0
 73
     1
 93
        8
 10
249.3560339663472
 20
-159.6525750500996
 10
249.3560339663472
 20
-159.0086171181319
 10
249.3560339663472
 20
-158.396379615564
 10
249.3560339663472
 20
-157.8476383303168
 10
249.3560339663472
 20
-157.3896296520324
 10
249.3560339663472
 20
-157.0449675343079
 10
249.3560339663472
 20
-156.8318095702379
 10
249.3560339663472
 20
-156.7592622356287
 97
        0
 75
     2
 76
     1
 98
        1
 10
0.0
 20
0.0
450
        0
451
        0
460
0.0
461
0.0
452
        0
462
0.0
453
        0
470

  0
LINE
  5
27B
330
140
100
AcDbEntity
  8
Camada 1
 62
   250
370
    35
100
AcDbLine
 10
249.3560339663472
 20
-156.7592622356287
 30
0.0
 11
248.9070764053531
 21
-156.7592622356287
 31
0.0
  0
LINE
  5
27C
330
140
100
AcDbEntity
  8
Camada 1
 62
   250
370
    35
100
AcDbLine
 10
248.9070764053531
 20
-162.5436181654349
 30
0.0
 11
249.3560339663472
 21
-162.5436181654349
 31
0.0
  0
ENDBLK
  5
143
330
140
100
AcDbEntity
  8
0
100
AcDbBlockEnd
  0
ENDSEC
  0
SECTION
  2
ENTITIES
  0
MTEXT
  5
79
330
70
100
AcDbEntity
  8
Camada 1
100
AcDbMText
 10
313.501708984375
 20
-426.2581176757812
 30
0.0
 40
0.2
 41
0.0
 46
0.0
 71
     7
 72
     1
  1
\C250;\FTramontina SmCd Titulos|b0|i0|c1;\H16.992000;\W1.000000;113
 73
     1
 44
1.0
  0
LINE
  5
7A
330
70
100
AcDbEntity
  8
Camada 1
 62
   250
370
    18
100
AcDbLine
 10
294.0871672749727
 20
-391.8173911366366
 30
0.0
 11
294.0871672749727
 21
-433.0712168809932
 31
0.0
  0
LINE
  5
7B
330
70
100
AcDbEntity
  8
Camada 1
 62
   250
370
    18
100
AcDbLine
 10
366.9746401345983
 20
-373.2270495297453
 30
0.0
 11
366.9746401345983
 21
-433.0789013815974
 31
0.0
  0
LINE
  5
7C
330
70
100
AcDbEntity
  8
Camada 1
 62
   250
370
    18
100
AcDbLine
 10
367.1697543360697
 20
-431.0710489533721
 30
0.0
 11
294.2416056283491
 21
-431.0710489533721
 31
0.0
  0
MTEXT
  5
7D
330
70
100
AcDbEntity
  8
Camada 1
100
AcDbMText
 10
188.2970581054687
 20
-525.9232482910156
 30
0.0
 40
0.2
 41
0.0
 46
0.0
 71
     7
 72
     1
  1
\C250;\FTramontina SmCd Titulos|b0|i0|c1;\H16.992000;\W1.000000;136
 73
     1
 44
1.0
  0
LINE
  5
7E
330
70
100
AcDbEntity
  8
Camada 1
 62
   250
370
    18
100
AcDbLine
 10
164.8097810541921
 20
-506.0396133588601
 30
0.0
 11
164.8097810541921
 21
-532.0397812864812
 31
0.0
  0
LINE
  5
7F
330
70
100
AcDbEntity
  8
Camada 1
 62
   250
370
    18
100
AcDbLine
 10
248.8364583210187
 20
-506.0396133588601
 30
0.0
 11
248.8364583210187
 21
-532.7597943149958
 31
0.0
  0
LINE
  5
80
330
70
100
AcDbEntity
  8
Camada 1
 62
   250
370
    18
100
AcDbLine
 10
248.7535273656013
 20
-529.2313268398556
 30
0.0
 11
164.735008847083
 21
-529.2313268398556
 31
0.0
  0
MTEXT
  5
81
330
70
100
AcDbEntity
  8
Camada 1
100
AcDbMText
 10
136.0584516525268
 20
-285.8519706726074
 30
0.0
 40
0.2
 41
0.0
 46
0.0
 71
     7
 72
     1
  1
\C250;\FTramontina SmCd Titulos|b0|i0|c1;\H15.208250;\W0.991580;377,5
 11
0.0000000000000001
 21
1.0
 31
0.0
 73
     1
 44
1.0
  0
LINE
  5
82
330
70
100
AcDbEntity
  8
Camada 1
 62
   250
370
    18
100
AcDbLine
 10
159.6086925171348
 20
-140.8075122292175
 30
0.0
 11
139.3498448311129
 21
-140.8075122292175
 31
0.0
  0
LINE
  5
83
330
70
100
AcDbEntity
  8
Camada 1
 62
   250
370
    18
100
AcDbLine
 10
159.7227540655967
 20
-383.471232928774
 30
0.0
 11
139.3498448311129
 21
-383.471232928774
 31
0.0
  0
INSERT
  5
85
330
70
100
AcDbEntity
  8
Camada 1
100
AcDbBlockReference
  2
Block_0
 10
0.0
 20
0.0
 30
0.0
  0
INSERT
  5
F0
330
70
100
AcDbEntity
  8
Camada 1
100
AcDbBlockReference
  2
Block_1
 10
0.0
 20
0.0
 30
0.0
  0
LWPOLYLINE
  5
13C
330
70
100
AcDbEntity
  8
Camada 1
 62
     7
370
    35
100
AcDbPolyline
 90
        6
 70
     0
 43
0.0
 10
163.1644029949875
 20
-379.4081254828889
 10
163.1644029949875
 20
-379.3287690508696
 10
163.1644029949875
 20
-379.1020205712348
 10
163.1644029949875
 20
-378.755088754373
 10
163.1644029949875
 20
-378.3333399037647
 10
163.1644029949875
 20
-377.893447299688
  0
HATCH
  5
13D
330
70
100
AcDbEntity
  8
Camada 1
 62
     7
440
 33554687
100
AcDbHatch
 10
0.0
 20
0.0
 30
0.0
210
0.0
220
0.0
230
1.0
  2
SOLID
 70
     1
 71
     1
 91
        1
 92
        3
 72
     0
 73
     1
 93
        6
 10
163.1644029949875
 20
-379.4081254828889
 10
163.1644029949875
 20
-379.3287690508696
 10
163.1644029949875
 20
-379.1020205712348
 10
163.1644029949875
 20
-378.755088754373
 10
163.1644029949875
 20
-378.3333399037647
 10
163.1644029949875
 20
-377.893447299688
 97
        0
 75
     2
 76
     1
 98
        1
 10
0.0
 20
0.0
450
        0
451
        0
460
0.0
461
0.0
452
        0
462
0.0
453
        0
470

  0
LWPOLYLINE
  5
13E
330
70
100
AcDbEntity
  8
Camada 1
 62
     7
370
    35
100
AcDbPolyline
 90
        5
 70
     0
 43
0.0
 10
163.1644029949875
 20
-377.893447299688
 10
163.1644029949875
 20
-377.523846170714
 10
163.1644029949875
 20
-377.2245365168419
 10
163.1644029949875
 20
-377.0318058450048
 10
163.1644029949875
 20
-376.9660399285494
  0
HATCH
  5
13F
330
70
100
AcDbEntity
  8
Camada 1
 62
     7
440
 33554687
100
AcDbHatch
 10
0.0
 20
0.0
 30
0.0
210
0.0
220
0.0
230
1.0
  2
SOLID
 70
     1
 71
     1
 91
        1
 92
        3
 72
     0
 73
     1
 93
        5
 10
163.1644029949875
 20
-377.893447299688
 10
163.1644029949875
 20
-377.523846170714
 10
163.1644029949875
 20
-377.2245365168419
 10
163.1644029949875
 20
-377.0318058450048
 10
163.1644029949875
 20
-376.9660399285494
 97
        0
 75
     2
 76
     1
 98
        1
 10
0.0
 20
0.0
450
        0
451
        0
460
0.0
461
0.0
452
        0
462
0.0
453
        0
470

  0
INSERT
  5
141
330
70
100
AcDbEntity
  8
Camada 1
100
AcDbBlockReference
  2
Block_2
 10
0.0
 20
0.0
 30
0.0
  0
LINE
  5
27D
330
70
100
AcDbEntity
  8
Camada 1
 62
   250
370
    18
100
AcDbLine
 10
142.4445316623196
 20
-140.9549394546602
 30
0.0
 11
142.4445316623196
 21
-383.6186601542177
 31
0.0
  0
ENDSEC
  0
SECTION
  2
OBJECTS
  0
DICTIONARY
  5
C
330
0
100
AcDbDictionary
281
     1
  3
ACAD_COLOR
350
63
  3
ACAD_DETAILVIEWSTYLE
350
6A
  3
ACAD_GROUP
350
D
  3
ACAD_LAYOUT
350
62
  3
ACAD_MATERIAL
350
10
  3
ACAD_MLEADERSTYLE
350
66
  3
ACAD_MLINESTYLE
350
5F
  3
ACAD_PLOTSETTINGS
350
61
  3
ACAD_PLOTSTYLENAME
350
E
  3
ACAD_SCALELIST
350
42
  3
ACAD_SECTIONVIEWSTYLE
350
68
  3
ACAD_TABLESTYLE
350
64
  3
ACAD_VISUALSTYLE
350
29
  3
ACDB_RECOMPOSE_DATA
350
286
  3
AcDbVariableDictionary
350
27E
  0
DICTIONARY
  5
63
102
{ACAD_REACTORS
330
C
102
}
330
C
100
AcDbDictionary
281
     1
  0
DICTIONARY
  5
6A
102
{ACAD_REACTORS
330
C
102
}
330
C
100
AcDbDictionary
281
     1
  3
Imperial24
350
6B
  0
DICTIONARY
  5
D
102
{ACAD_REACTORS
330
C
102
}
330
C
100
AcDbDictionary
281
     1
  0
DICTIONARY
  5
62
102
{ACAD_REACTORS
330
C
102
}
330
C
100
AcDbDictionary
281
     1
  3
Layout1
350
6F
  3
Layout2
350
77
  3
Model
350
73
  0
DICTIONARY
  5
10
102
{ACAD_REACTORS
330
C
102
}
330
C
100
AcDbDictionary
281
     1
  3
ByBlock
350
19
  3
ByLayer
350
11
  3
Global
350
21
  0
DICTIONARY
  5
66
102
{ACAD_REACTORS
330
C
102
}
330
C
100
AcDbDictionary
281
     1
  3
Standard
350
67
  0
DICTIONARY
  5
5F
102
{ACAD_REACTORS
330
C
102
}
330
C
100
AcDbDictionary
281
     1
  3
Standard
350
60
  0
DICTIONARY
  5
61
102
{ACAD_REACTORS
330
C
102
}
330
C
100
AcDbDictionary
281
     1
  0
ACDBDICTIONARYWDFLT
  5
E
102
{ACAD_REACTORS
330
C
102
}
330
C
100
AcDbDictionary
281
     1
  3
Normal
350
F
100
AcDbDictionaryWithDefault
340
F
  0
DICTIONARY
  5
42
102
{ACAD_REACTORS
330
C
102
}
330
C
100
AcDbDictionary
281
     1
  3
A0
350
43
  3
A1
350
44
  3
A2
350
45
  3
A3
350
46
  3
A4
350
47
  3
A5
350
48
  3
A6
350
49
  3
A7
350
4A
  3
A8
350
4B
  3
A9
350
4C
  3
B0
350
4D
  3
B1
350
4E
  3
B2
350
4F
  3
B3
350
50
  3
B4
350
51
  3
B5
350
52
  3
B6
350
53
  0
DICTIONARY
  5
68
102
{ACAD_REACTORS
330
C
102
}
330
C
100
AcDbDictionary
281
     1
  3
Imperial24
350
69
  0
DICTIONARY
  5
64
102
{ACAD_REACTORS
330
C
102
}
330
C
100
AcDbDictionary
281
     1
  3
Standard
350
65
  0
DICTIONARY
  5
29
102
{ACAD_REACTORS
330
C
102
}
330
C
100
AcDbDictionary
281
     1
  3
2dWireframe
350
2F
  3
Basic
350
2E
  3
Brighten
350
35
  3
ColorChange
350
39
  3
Conceptual
350
32
  3
Dim
350
34
  3
EdgeColorOff
350
41
  3
Facepattern
350
38
  3
Flat
350
2A
  3
FlatWithEdges
350
2B
  3
Gouraud
350
2C
  3
GouraudWithEdges
350
2D
  3
Hidden
350
31
  3
JitterOff
350
3F
  3
Linepattern
350
37
  3
OverhangOff
350
40
  3
Realistic
350
33
  3
Shaded
350
3E
  3
Shaded with edges
350
3D
  3
Shades of Gray
350
3A
  3
Sketchy
350
3B
  3
Thicken
350
36
  3
Wireframe
350
30
  3
X-Ray
350
3C
  0
XRECORD
  5
286
102
{ACAD_REACTORS
330
C
102
}
330
C
100
AcDbXrecord
280
     1
 90
        1
330
65
  0
DICTIONARY
  5
27E
102
{ACAD_REACTORS
330
C
102
}
330
C
100
AcDbDictionary
281
     1
  3
CANNOSCALE
350
283
  3
CMLEADERSTYLE
350
280
  3
CTABLESTYLE
350
27F
  3
CVIEWDETAILSTYLE
350
281
  3
CVIEWSECTIONSTYLE
350
282
  0
ACDBDETAILVIEWSTYLE
  5
6B
102
{ACAD_REACTORS
330
6A
102
}
330
6A
100
AcDbModelDocViewStyle
 70
     0
  3
Imperial24
290
     1
300
Imperial24
 90
        0
100
AcDbDetailViewStyle
 70
     0
 71
     0
 90
        3
 71
     1
340
55
 62
   256
 40
0.24
340
0
 62
   256
 40
0.24
300

 40
0.36
280
     3
 71
     2
340
5D
 90
       25
 62
   256
 71
     3
340
55
 62
   256
 40
0.24
 90
        1
 40
0.75
 90
        1
300
%<\AcVar ViewType \f "%tc1">% %<\AcVar ViewDetailId>%\PSCALE %<\AcVar ViewScale \f "%sn">%
 71
     4
340
5D
 90
       25
 62
   256
340
5D
 90
       25
 62
   256
280
     0
  0
LAYOUT
  5
6F
102
{ACAD_REACTORS
330
62
102
}
330
62
100
AcDbPlotSettings
  1

  2

  4

  6

 40
0.0
 41
0.0
 42
0.0
 43
0.0
 44
0.0
 45
0.0
 46
0.0
 47
0.0
 48
0.0
 49
0.0
140
0.0
141
0.0
142
1.0
143
1.0
 70
   688
 72
     0
 73
     0
 74
     5
  7

 75
    16
147
1.0
 76
     0
 77
     2
 78
   300
148
0.0
149
0.0
100
AcDbLayout
  1
Layout1
 70
     1
 71
     1
 10
0.0
 20
0.0
 11
12.0
 21
9.0
 12
0.0
 22
0.0
 32
0.0
 14
0.0
 24
0.0
 34
0.0
 15
0.0
 25
0.0
 35
0.0
146
0.0
 13
0.0
 23
0.0
 33
0.0
 16
1.0
 26
0.0
 36
0.0
 17
0.0
 27
1.0
 37
0.0
 76
     0
330
6C
  0
LAYOUT
  5
77
102
{ACAD_REACTORS
330
62
102
}
330
62
100
AcDbPlotSettings
  1

  2

  4

  6

 40
0.0
 41
0.0
 42
0.0
 43
0.0
 44
0.0
 45
0.0
 46
0.0
 47
0.0
 48
0.0
 49
0.0
140
0.0
141
0.0
142
1.0
143
1.0
 70
   688
 72
     0
 73
     0
 74
     5
  7

 75
    16
147
1.0
 76
     0
 77
     2
 78
   300
148
0.0
149
0.0
100
AcDbLayout
  1
Layout2
 70
     1
 71
     2
 10
0.0
 20
0.0
 11
12.0
 21
9.0
 12
0.0
 22
0.0
 32
0.0
 14
0.0
 24
0.0
 34
0.0
 15
0.0
 25
0.0
 35
0.0
146
0.0
 13
0.0
 23
0.0
 33
0.0
 16
1.0
 26
0.0
 36
0.0
 17
0.0
 27
1.0
 37
0.0
 76
     0
330
74
  0
LAYOUT
  5
73
102
{ACAD_REACTORS
330
62
102
}
330
62
100
AcDbPlotSettings
  1

  2

  4

  6

 40
0.0
 41
0.0
 42
0.0
 43
0.0
 44
0.0
 45
0.0
 46
0.0
 47
0.0
 48
0.0
 49
0.0
140
0.0
141
0.0
142
1.0
143
1.0
 70
  1712
 72
     0
 73
     0
 74
     0
  7

 75
     0
147
1.0
 76
     0
 77
     2
 78
   300
148
0.0
149
0.0
100
AcDbLayout
  1
Model
 70
     1
 71
     0
 10
0.0
 20
0.0
 11
12.0
 21
9.0
 12
0.0
 22
0.0
 32
0.0
 14
0.0
 24
0.0
 34
0.0
 15
0.0
 25
0.0
 35
0.0
146
0.0
 13
0.0
 23
0.0
 33
0.0
 16
1.0
 26
0.0
 36
0.0
 17
0.0
 27
1.0
 37
0.0
 76
     0
330
70
  0
MATERIAL
  5
19
102
{ACAD_XDICTIONARY
360
1A
102
}
102
{ACAD_REACTORS
330
10
102
}
330
10
100
AcDbMaterial
  1
ByBlock
 72
     0
 43
0.0208333333333333
 43
0.0
 43
0.0
 43
0.0
 43
0.0
 43
0.0208333333333333
 43
0.0
 43
0.0
 43
0.0
 43
0.0
 43
1.0
 43
0.0
 43
0.0
 43
0.0
 43
0.0
 43
1.0
 77
     0
 47
0.0208333333333333
 47
0.0
 47
0.0
 47
0.0
 47
0.0
 47
0.0208333333333333
 47
0.0
 47
0.0
 47
0.0
 47
0.0
 47
1.0
 47
0.0
 47
0.0
 47
0.0
 47
0.0
 47
1.0
171
     0
 49
0.0208333333333333
 49
0.0
 49
0.0
 49
0.0
 49
0.0
 49
0.0208333333333333
 49
0.0
 49
0.0
 49
0.0
 49
0.0
 49
1.0
 49
0.0
 49
0.0
 49
0.0
 49
0.0
 49
1.0
175
     0
142
0.0208333333333333
142
0.0
142
0.0
142
0.0
142
0.0
142
0.0208333333333333
142
0.0
142
0.0
142
0.0
142
0.0
142
1.0
142
0.0
142
0.0
142
0.0
142
0.0
142
1.0
179
     0
144
0.0208333333333333
144
0.0
144
0.0
144
0.0
144
0.0
144
0.0208333333333333
144
0.0
144
0.0
144
0.0
144
0.0
144
1.0
144
0.0
144
0.0
144
0.0
144
0.0
144
1.0
147
0.0208333333333333
147
0.0
147
0.0
147
0.0
147
0.0
147
0.0208333333333333
147
0.0
147
0.0
147
0.0
147
0.0
147
1.0
147
0.0
147
0.0
147
0.0
147
0.0
147
1.0
  0
MATERIAL
  5
11
102
{ACAD_XDICTIONARY
360
12
102
}
102
{ACAD_REACTORS
330
10
102
}
330
10
100
AcDbMaterial
  1
ByLayer
 72
     0
 43
0.0208333333333333
 43
0.0
 43
0.0
 43
0.0
 43
0.0
 43
0.0208333333333333
 43
0.0
 43
0.0
 43
0.0
 43
0.0
 43
1.0
 43
0.0
 43
0.0
 43
0.0
 43
0.0
 43
1.0
 77
     0
 47
0.0208333333333333
 47
0.0
 47
0.0
 47
0.0
 47
0.0
 47
0.0208333333333333
 47
0.0
 47
0.0
 47
0.0
 47
0.0
 47
1.0
 47
0.0
 47
0.0
 47
0.0
 47
0.0
 47
1.0
171
     0
 49
0.0208333333333333
 49
0.0
 49
0.0
 49
0.0
 49
0.0
 49
0.0208333333333333
 49
0.0
 49
0.0
 49
0.0
 49
0.0
 49
1.0
 49
0.0
 49
0.0
 49
0.0
 49
0.0
 49
1.0
175
     0
142
0.0208333333333333
142
0.0
142
0.0
142
0.0
142
0.0
142
0.0208333333333333
142
0.0
142
0.0
142
0.0
142
0.0
142
1.0
142
0.0
142
0.0
142
0.0
142
0.0
142
1.0
179
     0
144
0.0208333333333333
144
0.0
144
0.0
144
0.0
144
0.0
144
0.0208333333333333
144
0.0
144
0.0
144
0.0
144
0.0
144
1.0
144
0.0
144
0.0
144
0.0
144
0.0
144
1.0
147
0.0208333333333333
147
0.0
147
0.0
147
0.0
147
0.0
147
0.0208333333333333
147
0.0
147
0.0
147
0.0
147
0.0
147
1.0
147
0.0
147
0.0
147
0.0
147
0.0
147
1.0
  0
MATERIAL
  5
21
102
{ACAD_XDICTIONARY
360
22
102
}
102
{ACAD_REACTORS
330
10
102
}
330
10
100
AcDbMaterial
  1
Global
 72
     0
 43
0.0208333333333333
 43
0.0
 43
0.0
 43
0.0
 43
0.0
 43
0.0208333333333333
 43
0.0
 43
0.0
 43
0.0
 43
0.0
 43
1.0
 43
0.0
 43
0.0
 43
0.0
 43
0.0
 43
1.0
 77
     0
 47
0.0208333333333333
 47
0.0
 47
0.0
 47
0.0
 47
0.0
 47
0.0208333333333333
 47
0.0
 47
0.0
 47
0.0
 47
0.0
 47
1.0
 47
0.0
 47
0.0
 47
0.0
 47
0.0
 47
1.0
171
     0
 49
0.0208333333333333
 49
0.0
 49
0.0
 49
0.0
 49
0.0
 49
0.0208333333333333
 49
0.0
 49
0.0
 49
0.0
 49
0.0
 49
1.0
 49
0.0
 49
0.0
 49
0.0
 49
0.0
 49
1.0
175
     0
142
0.0208333333333333
142
0.0
142
0.0
142
0.0
142
0.0
142
0.0208333333333333
142
0.0
142
0.0
142
0.0
142
0.0
142
1.0
142
0.0
142
0.0
142
0.0
142
0.0
142
1.0
179
     0
144
0.0208333333333333
144
0.0
144
0.0
144
0.0
144
0.0
144
0.0208333333333333
144
0.0
144
0.0
144
0.0
144
0.0
144
1.0
144
0.0
144
0.0
144
0.0
144
0.0
144
1.0
147
0.0208333333333333
147
0.0
147
0.0
147
0.0
147
0.0
147
0.0208333333333333
147
0.0
147
0.0
147
0.0
147
0.0
147
1.0
147
0.0
147
0.0
147
0.0
147
0.0
147
1.0
  0
MLEADERSTYLE
  5
67
102
{ACAD_REACTORS
330
66
102
}
330
66
100
AcDbMLeaderStyle
179
     2
170
     2
171
     1
172
     0
 90
        2
 40
0.0
 41
0.0
173
     1
 91
-1056964608
340
5B
 92
       -2
290
     1
 42
0.09
291
     1
 43
0.36
  3
Standard
 44
0.18
300

342
55
174
     1
178
     6
175
     1
176
     0
 93
-1056964608
 45
0.18
292
     0
297
     0
 46
0.18
 94
-1056964608
 47
1.0
 49
1.0
140
1.0
293
     1
141
0.0
294
     1
177
     0
142
1.0
295
     1
296
     0
143
0.125
271
     0
272
     9
273
     9
298
     1
  0
MLINESTYLE
  5
60
102
{ACAD_REACTORS
330
5F
102
}
330
5F
100
AcDbMlineStyle
  2
STANDARD
 70
     0
  3

 62
   256
 51
90.0
 52
90.0
 71
     2
 49
0.5
 62
   256
  6
BYLAYER
 49
-0.5
 62
   256
  6
BYLAYER
  0
ACDBPLACEHOLDER
  5
F
102
{ACAD_REACTORS
330
E
102
}
330
E
  0
SCALE
  5
43
102
{ACAD_REACTORS
330
42
102
}
330
42
100
AcDbScale
 70
     0
300
1:1
140
1.0
141
1.0
290
     1
  0
SCALE
  5
44
102
{ACAD_REACTORS
330
42
102
}
330
42
100
AcDbScale
 70
     0
300
1/128" = 1'-0"
140
0.0078125
141
12.0
290
     0
  0
SCALE
  5
45
102
{ACAD_REACTORS
330
42
102
}
330
42
100
AcDbScale
 70
     0
300
1/64" = 1'-0"
140
0.015625
141
12.0
290
     0
  0
SCALE
  5
46
102
{ACAD_REACTORS
330
42
102
}
330
42
100
AcDbScale
 70
     0
300
1/32" = 1'-0"
140
0.03125
141
12.0
290
     0
  0
SCALE
  5
47
102
{ACAD_REACTORS
330
42
102
}
330
42
100
AcDbScale
 70
     0
300
1/16" = 1'-0"
140
0.0625
141
12.0
290
     0
  0
SCALE
  5
48
102
{ACAD_REACTORS
330
42
102
}
330
42
100
AcDbScale
 70
     0
300
3/32" = 1'-0"
140
0.09375
141
12.0
290
     0
  0
SCALE
  5
49
102
{ACAD_REACTORS
330
42
102
}
330
42
100
AcDbScale
 70
     0
300
1/8" = 1'-0"
140
0.125
141
12.0
290
     0
  0
SCALE
  5
4A
102
{ACAD_REACTORS
330
42
102
}
330
42
100
AcDbScale
 70
     0
300
3/16" = 1'-0"
140
0.1875
141
12.0
290
     0
  0
SCALE
  5
4B
102
{ACAD_REACTORS
330
42
102
}
330
42
100
AcDbScale
 70
     0
300
1/4" = 1'-0"
140
0.25
141
12.0
290
     0
  0
SCALE
  5
4C
102
{ACAD_REACTORS
330
42
102
}
330
42
100
AcDbScale
 70
     0
300
3/8" = 1'-0"
140
0.375
141
12.0
290
     0
  0
SCALE
  5
4D
102
{ACAD_REACTORS
330
42
102
}
330
42
100
AcDbScale
 70
     0
300
1/2" = 1'-0"
140
0.5
141
12.0
290
     0
  0
SCALE
  5
4E
102
{ACAD_REACTORS
330
42
102
}
330
42
100
AcDbScale
 70
     0
300
3/4" = 1'-0"
140
0.75
141
12.0
290
     0
  0
SCALE
  5
4F
102
{ACAD_REACTORS
330
42
102
}
330
42
100
AcDbScale
 70
     0
300
1" = 1'-0"
140
1.0
141
12.0
290
     0
  0
SCALE
  5
50
102
{ACAD_REACTORS
330
42
102
}
330
42
100
AcDbScale
 70
     0
300
1-1/2" = 1'-0"
140
1.5
141
12.0
290
     0
  0
SCALE
  5
51
102
{ACAD_REACTORS
330
42
102
}
330
42
100
AcDbScale
 70
     0
300
3" = 1'-0"
140
3.0
141
12.0
290
     0
  0
SCALE
  5
52
102
{ACAD_REACTORS
330
42
102
}
330
42
100
AcDbScale
 70
     0
300
6" = 1'-0"
140
6.0
141
12.0
290
     0
  0
SCALE
  5
53
102
{ACAD_REACTORS
330
42
102
}
330
42
100
AcDbScale
 70
     0
300
1'-0" = 1'-0"
140
12.0
141
12.0
290
     0
  0
ACDBSECTIONVIEWSTYLE
  5
69
102
{ACAD_REACTORS
330
68
102
}
330
68
100
AcDbModelDocViewStyle
 70
     0
  3
Imperial24
290
     1
300
Imperial24
 90
        0
100
AcDbSectionViewStyle
 70
     0
 71
     0
 90
       78
 71
     1
340
55
 62
   256
 40
0.24
340
0
340
0
 62
   256
 40
0.24
300
I, O, Q, S, X, Z
 40
0.48
 90
        3
 40
0.18
 90
        1
 71
     2
340
5D
 90
       25
 62
   256
340
5D
 90
       50
 62
   256
 40
0.24
 40
0.0
 40
0.24
 71
     3
340
55
 62
   256
 40
0.24
 90
        1
 40
0.75
 90
        1
300
%<\AcVar ViewType \f "%tc1">% %<\AcVar ViewSectionStartId>%-%<\AcVar ViewSectionEndId>%\PSCALE %<\AcVar ViewScale \f "%sn">%
 71
     4
 62
   256
 62
   257
300
ANSI31
 40
1.0
 90
        0
290
     0
290
     0
 90
        6
 40
0.0
 40
1.570796326794896
 40
0.2617993877991494
 40
1.308996938995747
 40
-0.2617993877991494
 40
1.832595714594046
  0
TABLESTYLE
  5
65
102
{ACAD_XDICTIONARY
360
284
102
}
102
{ACAD_REACTORS
330
64
102
}
330
64
100
AcDbTableStyle
280
     0
  3
Standard
 70
     0
 71
     0
 40
0.06
 41
0.06
280
     0
281
     0
  7
Standard
140
0.18
170
     2
 62
     0
 63
     7
283
     0
 90
      512
 91
        0
  1

274
    -2
284
     1
 64
     0
275
    -2
285
     1
 65
     0
276
    -2
286
     1
 66
     0
277
    -2
287
     1
 67
     0
278
    -2
288
     1
 68
     0
279
    -2
289
     1
 69
     0
  7
Standard
140
0.25
170
     5
 62
     0
 63
     7
283
     0
 90
      512
 91
        0
  1

274
    -2
284
     1
 64
     0
275
    -2
285
     1
 65
     0
276
    -2
286
     1
 66
     0
277
    -2
287
     1
 67
     0
278
    -2
288
     1
 68
     0
279
    -2
289
     1
 69
     0
  7
Standard
140
0.18
170
     5
 62
     0
 63
     7
283
     0
 90
      512
 91
        0
  1

274
    -2
284
     1
 64
     0
275
    -2
285
     1
 65
     0
276
    -2
286
     1
 66
     0
277
    -2
287
     1
 67
     0
278
    -2
288
     1
 68
     0
279
    -2
289
     1
 69
     0
  0
VISUALSTYLE
  5
2F
102
{ACAD_REACTORS
330
29
102
}
330
29
100
AcDbVisualStyle
  2
2dWireframe
 70
     4
177
     3
291
     0
 70
    58
 90
        0
176
     1
 90
        2
176
     1
 90
        0
176
     1
 90
        0
176
     1
 40
0.6
176
     1
 40
30.0
176
     1
 62
     7
420
 16777215
176
     1
 90
        1
176
     1
 90
        4
176
     1
 62
     7
176
     1
 62
   257
176
     1
 90
        1
176
     1
 90
        1
176
     1
 40
1.0
176
     1
 90
        0
176
     1
 62
   257
176
     1
 40
1.0
176
     1
 90
        1
176
     1
 90
        6
176
     1
 90
        2
176
     1
 62
     7
176
     1
 90
        5
176
     1
 90
        0
176
     1
 90
        0
176
     1
290
     0
176
     1
 90
        1
176
     1
 40
0.0
176
     1
 90
        0
176
     1
290
     1
176
     1
290
     1
176
     1
290
     0
176
     1
290
     0
176
     1
290
     0
176
     1
290
     0
176
     1
290
     0
176
     1
290
     0
176
     1
290
     0
176
     1
 90
       50
176
     1
 40
0.0
176
     1
 40
1.0
176
     1
 90
        0
176
     1
 62
    18
420
        0
176
     1
 90
       50
176
     1
 90
        3
176
     1
 62
     5
420
      255
176
     1
290
     0
176
     1
 90
       50
176
     1
 90
       50
176
     1
 90
       50
176
     1
290
     0
176
     1
 90
       50
176
     1
 62
   256
176
     0
 40
1.0
176
     0
 90
        2
176
     1
  1
strokes_ogs.tif
176
     1
290
     0
176
     1
 40
1.0
176
     1
 40
1.0
176
     1
  0
VISUALSTYLE
  5
2E
102
{ACAD_REACTORS
330
29
102
}
330
29
100
AcDbVisualStyle
  2
Basic
 70
     7
177
     3
291
     1
 70
    58
 90
        1
176
     1
 90
        0
176
     1
 90
        1
176
     1
 90
        0
176
     1
 40
0.6
176
     1
 40
30.0
176
     1
 62
     7
420
 16777215
176
     1
 90
        0
176
     1
 90
        4
176
     1
 62
     7
176
     1
 62
   257
176
     1
 90
        1
176
     1
 90
        1
176
     1
 40
1.0
176
     1
 90
        8
176
     1
 62
     7
176
     1
 40
1.0
176
     1
 90
        1
176
     1
 90
        6
176
     1
 90
        2
176
     1
 62
     7
176
     1
 90
        5
176
     1
 90
        0
176
     1
 90
        0
176
     1
290
     0
176
     1
 90
        1
176
     1
 40
0.0
176
     1
 90
        0
176
     1
290
     0
176
     1
290
     1
176
     1
290
     1
176
     1
290
     0
176
     1
290
     0
176
     1
290
     0
176
     1
290
     0
176
     1
290
     0
176
     1
290
     0
176
     1
 90
       50
176
     1
 40
0.0
176
     1
 40
1.0
176
     1
 90
        0
176
     1
 62
    18
420
        0
176
     1
 90
       50
176
     1
 90
        3
176
     1
 62
     5
420
      255
176
     1
290
     0
176
     1
 90
       50
176
     1
 90
       50
176
     1
 90
       50
176
     1
290
     0
176
     1
 90
       50
176
     1
 62
   256
176
     0
 40
1.0
176
     0
 90
        2
176
     1
  1
strokes_ogs.tif
176
     1
290
     0
176
     1
 40
1.0
176
     1
 40
1.0
176
     1
  0
VISUALSTYLE
  5
35
102
{ACAD_REACTORS
330
29
102
}
330
29
100
AcDbVisualStyle
  2
Brighten
 70
    12
177
     3
291
     1
 70
    58
 90
        2
176
     1
 90
        2
176
     1
 90
        0
176
     1
 90
        0
176
     1
 40
0.6
176
     1
 40
30.0
176
     1
 62
     7
420
 16777215
176
     1
 90
        1
176
     1
 90
        4
176
     1
 62
     7
176
     1
 62
   257
176
     1
 90
        1
176
     1
 90
        1
176
     1
 40
1.0
176
     1
 90
        8
176
     1
 62
     7
176
     1
 40
1.0
176
     1
 90
        1
176
     1
 90
        6
176
     1
 90
        2
176
     1
 62
     7
176
     1
 90
        5
176
     1
 90
        0
176
     1
 90
        0
176
     1
290
     0
176
     1
 90
        1
176
     1
 40
50.0
176
     1
 90
        0
176
     1
290
     0
176
     1
290
     1
176
     1
290
     1
176
     1
290
     0
176
     1
290
     0
176
     1
290
     0
176
     1
290
     0
176
     1
290
     0
176
     1
290
     0
176
     1
 90
       50
176
     1
 40
0.0
176
     1
 40
1.0
176
     1
 90
        0
176
     1
 62
    18
420
        0
176
     1
 90
       50
176
     1
 90
        3
176
     1
 62
     5
420
      255
176
     1
290
     0
176
     1
 90
       50
176
     1
 90
       50
176
     1
 90
       50
176
     1
290
     0
176
     1
 90
       50
176
     1
 62
   256
176
     0
 40
1.0
176
     0
 90
        2
176
     1
  1
strokes_ogs.tif
176
     1
290
     0
176
     1
 40
1.0
176
     1
 40
1.0
176
     1
  0
VISUALSTYLE
  5
39
102
{ACAD_REACTORS
330
29
102
}
330
29
100
AcDbVisualStyle
  2
ColorChange
 70
    16
177
     3
291
     1
 70
    58
 90
        2
176
     1
 90
        2
176
     1
 90
        3
176
     1
 90
        0
176
     1
 40
0.6
176
     1
 40
30.0
176
     1
 62
     8
420
  8421504
176
     1
 90
        1
176
     1
 90
        4
176
     1
 62
     7
176
     1
 62
   257
176
     1
 90
        1
176
     1
 90
        1
176
     1
 40
1.0
176
     1
 90
        8
176
     1
 62
     8
420
  8421504
176
     1
 40
1.0
176
     1
 90
        1
176
     1
 90
        6
176
     1
 90
        2
176
     1
 62
     7
176
     1
 90
        5
176
     1
 90
        0
176
     1
 90
        0
176
     1
290
     0
176
     1
 90
        1
176
     1
 40
0.0
176
     1
 90
        0
176
     1
290
     0
176
     1
290
     1
176
     1
290
     1
176
     1
290
     0
176
     1
290
     0
176
     1
290
     0
176
     1
290
     0
176
     1
290
     0
176
     1
290
     0
176
     1
 90
       50
176
     1
 40
0.0
176
     1
 40
1.0
176
     1
 90
        0
176
     1
 62
    18
420
        0
176
     1
 90
       50
176
     1
 90
        3
176
     1
 62
     5
420
      255
176
     1
290
     0
176
     1
 90
       50
176
     1
 90
       50
176
     1
 90
       50
176
     1
290
     0
176
     1
 90
       50
176
     1
 62
   256
176
     0
 40
1.0
176
     0
 90
        2
176
     1
  1
strokes_ogs.tif
176
     1
290
     0
176
     1
 40
1.0
176
     1
 40
1.0
176
     1
  0
VISUALSTYLE
  5
32
102
{ACAD_REACTORS
330
29
102
}
330
29
100
AcDbVisualStyle
  2
Conceptual
 70
     9
177
     3
291
     0
 70
    58
 90
        3
176
     1
 90
        2
176
     1
 90
        0
176
     1
 90
        0
176
     1
 40
0.6
176
     1
 40
30.0
176
     1
 62
     7
420
 16777215
176
     1
 90
        2
176
     1
 90
        2
176
     1
 62
     7
176
     1
 62
   257
176
     1
 90
        1
176
     1
 90
        1
176
     1
 40
179.0
176
     1
 90
        8
176
     1
 62
     7
176
     1
 40
1.0
176
     1
 90
        1
176
     1
 90
        6
176
     1
 90
        2
176
     1
 62
     7
176
     1
 90
        3
176
     1
 90
        0
176
     1
 90
        0
176
     1
290
     0
176
     1
 90
        1
176
     1
 40
0.0
176
     1
 90
        0
176
     1
290
     0
176
     1
290
     1
176
     1
290
     1
176
     1
290
     0
176
     1
290
     0
176
     1
290
     0
176
     1
290
     0
176
     1
290
     0
176
     1
290
     0
176
     1
 90
       50
176
     1
 40
0.0
176
     1
 40
1.0
176
     1
 90
        0
176
     1
 62
    18
420
        0
176
     1
 90
       50
176
     1
 90
        3
176
     1
 62
     5
420
      255
176
     1
290
     0
176
     1
 90
       50
176
     1
 90
       50
176
     1
 90
       50
176
     1
290
     0
176
     1
 90
       50
176
     1
 62
   256
176
     0
 40
1.0
176
     0
 90
        2
176
     1
  1
strokes_ogs.tif
176
     1
290
     0
176
     1
 40
1.0
176
     1
 40
1.0
176
     1
  0
VISUALSTYLE
  5
34
102
{ACAD_REACTORS
330
29
102
}
330
29
100
AcDbVisualStyle
  2
Dim
 70
    11
177
     3
291
     1
 70
    58
 90
        2
176
     1
 90
        2
176
     1
 90
        0
176
     1
 90
        0
176
     1
 40
0.6
176
     1
 40
30.0
176
     1
 62
     7
420
 16777215
176
     1
 90
        1
176
     1
 90
        4
176
     1
 62
     7
176
     1
 62
   257
176
     1
 90
        1
176
     1
 90
        1
176
     1
 40
1.0
176
     1
 90
        8
176
     1
 62
     7
176
     1
 40
1.0
176
     1
 90
        1
176
     1
 90
        6
176
     1
 90
        2
176
     1
 62
     7
176
     1
 90
        5
176
     1
 90
        0
176
     1
 90
        0
176
     1
290
     0
176
     1
 90
        1
176
     1
 40
-50.0
176
     1
 90
        0
176
     1
290
     0
176
     1
290
     1
176
     1
290
     1
176
     1
290
     0
176
     1
290
     0
176
     1
290
     0
176
     1
290
     0
176
     1
290
     0
176
     1
290
     0
176
     1
 90
       50
176
     1
 40
0.0
176
     1
 40
1.0
176
     1
 90
        0
176
     1
 62
    18
420
        0
176
     1
 90
       50
176
     1
 90
        3
176
     1
 62
     5
420
      255
176
     1
290
     0
176
     1
 90
       50
176
     1
 90
       50
176
     1
 90
       50
176
     1
290
     0
176
     1
 90
       50
176
     1
 62
   256
176
     0
 40
1.0
176
     0
 90
        2
176
     1
  1
strokes_ogs.tif
176
     1
290
     0
176
     1
 40
1.0
176
     1
 40
1.0
176
     1
  0
VISUALSTYLE
  5
41
102
{ACAD_REACTORS
330
29
102
}
330
29
100
AcDbVisualStyle
  2
EdgeColorOff
 70
    22
177
     3
291
     1
 70
    58
 90
        2
176
     0
 90
        2
176
     0
 90
        0
176
     0
 90
        0
176
     0
 40
0.6
176
     0
 40
30.0
176
     0
 62
     7
420
 16777215
176
     0
 90
        1
176
     0
 90
        4
176
     0
 62
     7
176
     0
 62
   257
176
     0
 90
        1
176
     0
 90
        1
176
     0
 40
1.0
176
     0
 90
        8
176
     2
 62
     7
176
     0
 40
1.0
176
     0
 90
        1
176
     0
 90
        6
176
     0
 90
        2
176
     0
 62
     7
176
     0
 90
        5
176
     0
 90
        0
176
     0
 90
        0
176
     0
290
     0
176
     0
 90
        1
176
     0
 40
0.0
176
     0
 90
        0
176
     0
290
     0
176
     0
290
     1
176
     0
290
     1
176
     0
290
     0
176
     0
290
     0
176
     0
290
     0
176
     0
290
     0
176
     0
290
     0
176
     0
290
     0
176
     0
 90
       50
176
     0
 40
0.0
176
     0
 40
1.0
176
     0
 90
        0
176
     0
 62
    18
420
        0
176
     0
 90
       50
176
     0
 90
        3
176
     0
 62
     5
420
      255
176
     0
290
     0
176
     0
 90
       50
176
     0
 90
       50
176
     0
 90
       50
176
     0
290
     0
176
     0
 90
       50
176
     0
 62
   256
176
     0
 40
1.0
176
     0
 90
        2
176
     0
  1
strokes_ogs.tif
176
     0
290
     0
176
     0
 40
1.0
176
     0
 40
1.0
176
     0
  0
VISUALSTYLE
  5
38
102
{ACAD_REACTORS
330
29
102
}
330
29
100
AcDbVisualStyle
  2
Facepattern
 70
    15
177
     3
291
     1
 70
    58
 90
        2
176
     1
 90
        2
176
     1
 90
        0
176
     1
 90
        0
176
     1
 40
0.6
176
     1
 40
30.0
176
     1
 62
     7
420
 16777215
176
     1
 90
        1
176
     1
 90
        4
176
     1
 62
     7
176
     1
 62
   257
176
     1
 90
        1
176
     1
 90
        1
176
     1
 40
1.0
176
     1
 90
        8
176
     1
 62
     7
176
     1
 40
1.0
176
     1
 90
        1
176
     1
 90
        6
176
     1
 90
        2
176
     1
 62
     7
176
     1
 90
        5
176
     1
 90
        0
176
     1
 90
        0
176
     1
290
     0
176
     1
 90
        1
176
     1
 40
0.0
176
     1
 90
        0
176
     1
290
     0
176
     1
290
     1
176
     1
290
     1
176
     1
290
     0
176
     1
290
     0
176
     1
290
     0
176
     1
290
     0
176
     1
290
     0
176
     1
290
     0
176
     1
 90
       50
176
     1
 40
0.0
176
     1
 40
1.0
176
     1
 90
        0
176
     1
 62
    18
420
        0
176
     1
 90
       50
176
     1
 90
        3
176
     1
 62
     5
420
      255
176
     1
290
     0
176
     1
 90
       50
176
     1
 90
       50
176
     1
 90
       50
176
     1
290
     0
176
     1
 90
       50
176
     1
 62
   256
176
     0
 40
1.0
176
     0
 90
        2
176
     1
  1
strokes_ogs.tif
176
     1
290
     0
176
     1
 40
1.0
176
     1
 40
1.0
176
     1
  0
VISUALSTYLE
  5
2A
102
{ACAD_REACTORS
330
29
102
}
330
29
100
AcDbVisualStyle
  2
Flat
 70
     0
177
     3
291
     1
 70
    58
 90
        2
176
     1
 90
        1
176
     1
 90
        1
176
     1
 90
        2
176
     1
 40
0.6
176
     1
 40
30.0
176
     1
 62
     7
420
 16777215
176
     1
 90
        0
176
     1
 90
        0
176
     1
 62
     7
176
     1
 62
   257
176
     1
 90
        1
176
     1
 90
        1
176
     1
 40
1.0
176
     1
 90
        8
176
     1
 62
     7
176
     1
 40
1.0
176
     1
 90
        1
176
     1
 90
        6
176
     1
 90
        2
176
     1
 62
     7
176
     1
 90
        5
176
     1
 90
        0
176
     1
 90
        0
176
     1
290
     0
176
     1
 90
       13
176
     1
 40
0.0
176
     1
 90
        0
176
     1
290
     0
176
     1
290
     1
176
     1
290
     1
176
     1
290
     0
176
     1
290
     0
176
     1
290
     0
176
     1
290
     0
176
     1
290
     0
176
     1
290
     0
176
     1
 90
       50
176
     1
 40
0.0
176
     1
 40
1.0
176
     1
 90
        0
176
     1
 62
    18
420
        0
176
     1
 90
       50
176
     1
 90
        3
176
     1
 62
     5
420
      255
176
     1
290
     0
176
     1
 90
       50
176
     1
 90
       50
176
     1
 90
       50
176
     1
290
     0
176
     1
 90
       50
176
     1
 62
   256
176
     0
 40
1.0
176
     0
 90
        2
176
     1
  1
strokes_ogs.tif
176
     1
290
     0
176
     1
 40
1.0
176
     1
 40
1.0
176
     1
  0
VISUALSTYLE
  5
2B
102
{ACAD_REACTORS
330
29
102
}
330
29
100
AcDbVisualStyle
  2
FlatWithEdges
 70
     1
177
     3
291
     1
 70
    58
 90
        2
176
     1
 90
        1
176
     1
 90
        1
176
     1
 90
        2
176
     1
 40
0.6
176
     1
 40
30.0
176
     1
 62
     7
420
 16777215
176
     1
 90
        1
176
     1
 90
        0
176
     1
 62
     7
176
     1
 62
   257
176
     1
 90
        1
176
     1
 90
        1
176
     1
 40
1.0
176
     1
 90
        0
176
     1
 62
   257
176
     1
 40
1.0
176
     1
 90
        1
176
     1
 90
        6
176
     1
 90
        2
176
     1
 62
     7
176
     1
 90
        5
176
     1
 90
        0
176
     1
 90
        0
176
     1
290
     0
176
     1
 90
       13
176
     1
 40
0.0
176
     1
 90
        0
176
     1
290
     0
176
     1
290
     1
176
     1
290
     1
176
     1
290
     0
176
     1
290
     0
176
     1
290
     0
176
     1
290
     0
176
     1
290
     0
176
     1
290
     0
176
     1
 90
       50
176
     1
 40
0.0
176
     1
 40
1.0
176
     1
 90
        0
176
     1
 62
    18
420
        0
176
     1
 90
       50
176
     1
 90
        3
176
     1
 62
     5
420
      255
176
     1
290
     0
176
     1
 90
       50
176
     1
 90
       50
176
     1
 90
       50
176
     1
290
     0
176
     1
 90
       50
176
     1
 62
   256
176
     0
 40
1.0
176
     0
 90
        2
176
     1
  1
strokes_ogs.tif
176
     1
290
     0
176
     1
 40
1.0
176
     1
 40
1.0
176
     1
  0
VISUALSTYLE
  5
2C
102
{ACAD_REACTORS
330
29
102
}
330
29
100
AcDbVisualStyle
  2
Gouraud
 70
     2
177
     3
291
     1
 70
    58
 90
        2
176
     1
 90
        2
176
     1
 90
        1
176
     1
 90
        2
176
     1
 40
0.6
176
     1
 40
30.0
176
     1
 62
     7
420
 16777215
176
     1
 90
        0
176
     1
 90
        0
176
     1
 62
     7
176
     1
 62
   257
176
     1
 90
        1
176
     1
 90
        1
176
     1
 40
1.0
176
     1
 90
        0
176
     1
 62
     7
176
     1
 40
1.0
176
     1
 90
        1
176
     1
 90
        6
176
     1
 90
        2
176
     1
 62
     7
176
     1
 90
        5
176
     1
 90
        0
176
     1
 90
        0
176
     1
290
     0
176
     1
 90
       13
176
     1
 40
0.0
176
     1
 90
        0
176
     1
290
     0
176
     1
290
     1
176
     1
290
     1
176
     1
290
     0
176
     1
290
     0
176
     1
290
     0
176
     1
290
     0
176
     1
290
     0
176
     1
290
     0
176
     1
 90
       50
176
     1
 40
0.0
176
     1
 40
1.0
176
     1
 90
        0
176
     1
 62
    18
420
        0
176
     1
 90
       50
176
     1
 90
        3
176
     1
 62
     5
420
      255
176
     1
290
     0
176
     1
 90
       50
176
     1
 90
       50
176
     1
 90
       50
176
     1
290
     0
176
     1
 90
       50
176
     1
 62
   256
176
     0
 40
1.0
176
     0
 90
        2
176
     1
  1
strokes_ogs.tif
176
     1
290
     0
176
     1
 40
1.0
176
     1
 40
1.0
176
     1
  0
VISUALSTYLE
  5
2D
102
{ACAD_REACTORS
330
29
102
}
330
29
100
AcDbVisualStyle
  2
GouraudWithEdges
 70
     3
177
     3
291
     1
 70
    58
 90
        2
176
     1
 90
        2
176
     1
 90
        1
176
     1
 90
        2
176
     1
 40
0.6
176
     1
 40
30.0
176
     1
 62
     7
420
 16777215
176
     1
 90
        1
176
     1
 90
        0
176
     1
 62
     7
176
     1
 62
   257
176
     1
 90
        1
176
     1
 90
        1
176
     1
 40
1.0
176
     1
 90
        0
176
     1
 62
   257
176
     1
 40
1.0
176
     1
 90
        1
176
     1
 90
        6
176
     1
 90
        2
176
     1
 62
     7
176
     1
 90
        5
176
     1
 90
        0
176
     1
 90
        0
176
     1
290
     0
176
     1
 90
       13
176
     1
 40
0.0
176
     1
 90
        0
176
     1
290
     0
176
     1
290
     1
176
     1
290
     1
176
     1
290
     0
176
     1
290
     0
176
     1
290
     0
176
     1
290
     0
176
     1
290
     0
176
     1
290
     0
176
     1
 90
       50
176
     1
 40
0.0
176
     1
 40
1.0
176
     1
 90
        0
176
     1
 62
    18
420
        0
176
     1
 90
       50
176
     1
 90
        3
176
     1
 62
     5
420
      255
176
     1
290
     0
176
     1
 90
       50
176
     1
 90
       50
176
     1
 90
       50
176
     1
290
     0
176
     1
 90
       50
176
     1
 62
   256
176
     0
 40
1.0
176
     0
 90
        2
176
     1
  1
strokes_ogs.tif
176
     1
290
     0
176
     1
 40
1.0
176
     1
 40
1.0
176
     1
  0
VISUALSTYLE
  5
31
102
{ACAD_REACTORS
330
29
102
}
330
29
100
AcDbVisualStyle
  2
Hidden
 70
     6
177
     3
291
     0
 70
    58
 90
        1
176
     1
 90
        2
176
     1
 90
        2
176
     1
 90
        0
176
     1
 40
0.6
176
     1
 40
30.0
176
     1
 62
     7
420
 16777215
176
     1
 90
        2
176
     1
 90
        2
176
     1
 62
     7
176
     1
 62
   257
176
     1
 90
        2
176
     1
 90
        1
176
     1
 40
40.0
176
     1
 90
        0
176
     1
 62
   257
176
     1
 40
1.0
176
     1
 90
        1
176
     1
 90
        6
176
     1
 90
        2
176
     1
 62
     7
176
     1
 90
        3
176
     1
 90
        0
176
     1
 90
        0
176
     1
290
     0
176
     1
 90
        1
176
     1
 40
0.0
176
     1
 90
        0
176
     1
290
     0
176
     1
290
     1
176
     1
290
     1
176
     1
290
     0
176
     1
290
     0
176
     1
290
     0
176
     1
290
     0
176
     1
290
     0
176
     1
290
     0
176
     1
 90
       50
176
     1
 40
0.0
176
     1
 40
1.0
176
     1
 90
        0
176
     1
 62
    18
420
        0
176
     1
 90
       50
176
     1
 90
        3
176
     1
 62
     5
420
      255
176
     1
290
     0
176
     1
 90
       50
176
     1
 90
       50
176
     1
 90
       50
176
     1
290
     0
176
     1
 90
       50
176
     1
 62
   256
176
     0
 40
1.0
176
     0
 90
        2
176
     1
  1
strokes_ogs.tif
176
     1
290
     0
176
     1
 40
1.0
176
     1
 40
1.0
176
     1
  0
VISUALSTYLE
  5
3F
102
{ACAD_REACTORS
330
29
102
}
330
29
100
AcDbVisualStyle
  2
JitterOff
 70
    20
177
     3
291
     1
 70
    58
 90
        2
176
     0
 90
        2
176
     0
 90
        0
176
     0
 90
        0
176
     0
 40
0.6
176
     0
 40
30.0
176
     0
 62
     7
420
 16777215
176
     0
 90
        1
176
     0
 90
        4
176
     0
 62
     7
176
     0
 62
   257
176
     0
 90
        1
176
     0
 90
        1
176
     0
 40
1.0
176
     0
 90
       10
176
     2
 62
     7
176
     0
 40
1.0
176
     0
 90
        1
176
     0
 90
        6
176
     0
 90
        2
176
     0
 62
     7
176
     0
 90
        5
176
     0
 90
        0
176
     0
 90
        0
176
     0
290
     0
176
     0
 90
        1
176
     0
 40
0.0
176
     0
 90
        0
176
     0
290
     0
176
     0
290
     1
176
     0
290
     1
176
     0
290
     0
176
     0
290
     0
176
     0
290
     0
176
     0
290
     0
176
     0
290
     0
176
     0
290
     0
176
     0
 90
       50
176
     0
 40
0.0
176
     0
 40
1.0
176
     0
 90
        0
176
     0
 62
    18
420
        0
176
     0
 90
       50
176
     0
 90
        3
176
     0
 62
     5
420
      255
176
     0
290
     0
176
     0
 90
       50
176
     0
 90
       50
176
     0
 90
       50
176
     0
290
     0
176
     0
 90
       50
176
     0
 62
   256
176
     0
 40
1.0
176
     0
 90
        2
176
     0
  1
strokes_ogs.tif
176
     0
290
     0
176
     0
 40
1.0
176
     0
 40
1.0
176
     0
  0
VISUALSTYLE
  5
37
102
{ACAD_REACTORS
330
29
102
}
330
29
100
AcDbVisualStyle
  2
Linepattern
 70
    14
177
     3
291
     1
 70
    58
 90
        2
176
     1
 90
        2
176
     1
 90
        0
176
     1
 90
        0
176
     1
 40
0.6
176
     1
 40
30.0
176
     1
 62
     7
420
 16777215
176
     1
 90
        1
176
     1
 90
        4
176
     1
 62
     7
176
     1
 62
   257
176
     1
 90
        7
176
     1
 90
        7
176
     1
 40
1.0
176
     1
 90
        8
176
     1
 62
     7
176
     1
 40
1.0
176
     1
 90
        1
176
     1
 90
        6
176
     1
 90
        2
176
     1
 62
     7
176
     1
 90
        5
176
     1
 90
        0
176
     1
 90
        0
176
     1
290
     0
176
     1
 90
        1
176
     1
 40
0.0
176
     1
 90
        0
176
     1
290
     0
176
     1
290
     1
176
     1
290
     1
176
     1
290
     0
176
     1
290
     0
176
     1
290
     0
176
     1
290
     0
176
     1
290
     0
176
     1
290
     0
176
     1
 90
       50
176
     1
 40
0.0
176
     1
 40
1.0
176
     1
 90
        0
176
     1
 62
    18
420
        0
176
     1
 90
       50
176
     1
 90
        3
176
     1
 62
     5
420
      255
176
     1
290
     0
176
     1
 90
       50
176
     1
 90
       50
176
     1
 90
       50
176
     1
290
     0
176
     1
 90
       50
176
     1
 62
   256
176
     0
 40
1.0
176
     0
 90
        2
176
     1
  1
strokes_ogs.tif
176
     1
290
     0
176
     1
 40
1.0
176
     1
 40
1.0
176
     1
  0
VISUALSTYLE
  5
40
102
{ACAD_REACTORS
330
29
102
}
330
29
100
AcDbVisualStyle
  2
OverhangOff
 70
    21
177
     3
291
     1
 70
    58
 90
        2
176
     0
 90
        2
176
     0
 90
        0
176
     0
 90
        0
176
     0
 40
0.6
176
     0
 40
30.0
176
     0
 62
     7
420
 16777215
176
     0
 90
        1
176
     0
 90
        4
176
     0
 62
     7
176
     0
 62
   257
176
     0
 90
        1
176
     0
 90
        1
176
     0
 40
1.0
176
     0
 90
        9
176
     2
 62
     7
176
     0
 40
1.0
176
     0
 90
        1
176
     0
 90
        6
176
     0
 90
        2
176
     0
 62
     7
176
     0
 90
        5
176
     0
 90
        0
176
     0
 90
        0
176
     0
290
     0
176
     0
 90
        1
176
     0
 40
0.0
176
     0
 90
        0
176
     0
290
     0
176
     0
290
     1
176
     0
290
     1
176
     0
290
     0
176
     0
290
     0
176
     0
290
     0
176
     0
290
     0
176
     0
290
     0
176
     0
290
     0
176
     0
 90
       50
176
     0
 40
0.0
176
     0
 40
1.0
176
     0
 90
        0
176
     0
 62
    18
420
        0
176
     0
 90
       50
176
     0
 90
        3
176
     0
 62
     5
420
      255
176
     0
290
     0
176
     0
 90
       50
176
     0
 90
       50
176
     0
 90
       50
176
     0
290
     0
176
     0
 90
       50
176
     0
 62
   256
176
     0
 40
1.0
176
     0
 90
        2
176
     0
  1
strokes_ogs.tif
176
     0
290
     0
176
     0
 40
1.0
176
     0
 40
1.0
176
     0
  0
VISUALSTYLE
  5
33
102
{ACAD_REACTORS
330
29
102
}
330
29
100
AcDbVisualStyle
  2
Realistic
 70
     8
177
     3
291
     0
 70
    58
 90
        2
176
     1
 90
        3
176
     1
 90
        0
176
     1
 90
        2
176
     1
 40
0.6
176
     1
 40
30.0
176
     1
 62
     7
420
 16777215
176
     1
 90
        0
176
     1
 90
        0
176
     1
 62
     7
176
     1
 62
   257
176
     1
 90
        1
176
     1
 90
        1
176
     1
 40
1.0
176
     1
 90
        8
176
     1
 62
   257
176
     1
 40
1.0
176
     1
 90
        1
176
     1
 90
        6
176
     1
 90
        2
176
     1
 62
     7
176
     1
 90
        3
176
     1
 90
        0
176
     1
 90
        0
176
     1
290
     0
176
     1
 90
       13
176
     1
 40
0.0
176
     1
 90
        0
176
     1
290
     0
176
     1
290
     1
176
     1
290
     1
176
     1
290
     0
176
     1
290
     0
176
     1
290
     0
176
     1
290
     0
176
     1
290
     0
176
     1
290
     0
176
     1
 90
       50
176
     1
 40
0.0
176
     1
 40
1.0
176
     1
 90
        0
176
     1
 62
    18
420
        0
176
     1
 90
       50
176
     1
 90
        3
176
     1
 62
     5
420
      255
176
     1
290
     0
176
     1
 90
       50
176
     1
 90
       50
176
     1
 90
       50
176
     1
290
     0
176
     1
 90
       50
176
     1
 62
   256
176
     0
 40
1.0
176
     0
 90
        2
176
     1
  1
strokes_ogs.tif
176
     1
290
     0
176
     1
 40
1.0
176
     1
 40
1.0
176
     1
  0
VISUALSTYLE
  5
3E
102
{ACAD_REACTORS
330
29
102
}
330
29
100
AcDbVisualStyle
  2
Shaded
 70
    27
177
     3
291
     0
 70
    58
 90
        2
176
     1
 90
        2
176
     1
 90
        1
176
     1
 90
        2
176
     1
 40
0.6
176
     1
 40
30.0
176
     1
 62
     7
420
 16777215
176
     1
 90
        0
176
     1
 90
        4
176
     1
 62
     7
176
     1
 62
   257
176
     1
 90
        1
176
     1
 90
        1
176
     1
 40
1.0
176
     1
 90
        8
176
     1
 62
   257
176
     1
 40
1.0
176
     1
 90
        1
176
     1
 90
        6
176
     1
 90
        2
176
     1
 62
     8
420
  7895160
176
     1
 90
        3
176
     1
 90
        0
176
     1
 90
        0
176
     1
290
     0
176
     1
 90
        5
176
     1
 40
0.0
176
     1
 90
        0
176
     1
290
     0
176
     1
290
     1
176
     1
290
     1
176
     1
290
     0
176
     1
290
     0
176
     1
290
     0
176
     1
290
     0
176
     1
290
     0
176
     1
290
     0
176
     1
 90
       50
176
     1
 40
0.0
176
     1
 40
1.0
176
     1
 90
        0
176
     1
 62
    18
420
        0
176
     1
 90
       50
176
     1
 90
        3
176
     1
 62
     5
420
      255
176
     1
290
     0
176
     1
 90
       50
176
     1
 90
       50
176
     1
 90
       50
176
     1
290
     0
176
     1
 90
       50
176
     1
 62
   256
176
     0
 40
1.0
176
     0
 90
        2
176
     1
  1
strokes_ogs.tif
176
     1
290
     0
176
     1
 40
1.0
176
     1
 40
1.0
176
     1
  0
VISUALSTYLE
  5
3D
102
{ACAD_REACTORS
330
29
102
}
330
29
100
AcDbVisualStyle
  2
Shaded with edges
 70
    26
177
     3
291
     0
 70
    58
 90
        2
176
     1
 90
        2
176
     1
 90
        1
176
     1
 90
        2
176
     1
 40
0.6
176
     1
 40
30.0
176
     1
 62
     7
420
 16777215
176
     1
 90
        1
176
     1
 90
        2
176
     1
 62
     7
176
     1
 62
   257
176
     1
 90
        2
176
     1
 90
        1
176
     1
 40
1.0
176
     1
 90
        8
176
     1
 62
   257
176
     1
 40
1.0
176
     1
 90
        1
176
     1
 90
        6
176
     1
 90
        2
176
     1
 62
     7
176
     1
 90
        3
176
     1
 90
        0
176
     1
 90
        0
176
     1
290
     0
176
     1
 90
        5
176
     1
 40
0.0
176
     1
 90
        0
176
     1
290
     0
176
     1
290
     1
176
     1
290
     1
176
     1
290
     0
176
     1
290
     0
176
     1
290
     0
176
     1
290
     0
176
     1
290
     0
176
     1
290
     0
176
     1
 90
       50
176
     1
 40
0.0
176
     1
 40
1.0
176
     1
 90
        0
176
     1
 62
    18
420
        0
176
     1
 90
       50
176
     1
 90
        3
176
     1
 62
     5
420
      255
176
     1
290
     0
176
     1
 90
       50
176
     1
 90
       50
176
     1
 90
       50
176
     1
290
     0
176
     1
 90
       50
176
     1
 62
   256
176
     0
 40
1.0
176
     0
 90
        2
176
     1
  1
strokes_ogs.tif
176
     1
290
     0
176
     1
 40
1.0
176
     1
 40
1.0
176
     1
  0
VISUALSTYLE
  5
3A
102
{ACAD_REACTORS
330
29
102
}
330
29
100
AcDbVisualStyle
  2
Shades of Gray
 70
    23
177
     3
291
     0
 70
    58
 90
        2
176
     1
 90
        2
176
     1
 90
        3
176
     1
 90
        0
176
     1
 40
0.6
176
     1
 40
30.0
176
     1
 62
     7
420
 16777215
176
     1
 90
        2
176
     1
 90
        2
176
     1
 62
     7
176
     1
 62
     7
176
     1
 90
        1
176
     1
 90
        1
176
     1
 40
40.0
176
     1
 90
        8
176
     1
 62
     7
176
     1
 40
1.0
176
     1
 90
        1
176
     1
 90
        6
176
     1
 90
        2
176
     1
 62
     7
176
     1
 90
        3
176
     1
 90
        0
176
     1
 90
        0
176
     1
290
     0
176
     1
 90
        1
176
     1
 40
0.0
176
     1
 90
        0
176
     1
290
     0
176
     1
290
     1
176
     1
290
     1
176
     1
290
     0
176
     1
290
     0
176
     1
290
     0
176
     1
290
     0
176
     1
290
     0
176
     1
290
     0
176
     1
 90
       50
176
     1
 40
0.0
176
     1
 40
1.0
176
     1
 90
        0
176
     1
 62
    18
420
        0
176
     1
 90
       50
176
     1
 90
        3
176
     1
 62
     5
420
      255
176
     1
290
     0
176
     1
 90
       50
176
     1
 90
       50
176
     1
 90
       50
176
     1
290
     0
176
     1
 90
       50
176
     1
 62
   256
176
     0
 40
1.0
176
     0
 90
        2
176
     1
  1
strokes_ogs.tif
176
     1
290
     0
176
     1
 40
1.0
176
     1
 40
1.0
176
     1
  0
VISUALSTYLE
  5
3B
102
{ACAD_REACTORS
330
29
102
}
330
29
100
AcDbVisualStyle
  2
Sketchy
 70
    24
177
     3
291
     0
 70
    58
 90
        1
176
     1
 90
        2
176
     1
 90
        2
176
     1
 90
        0
176
     1
 40
0.6
176
     1
 40
30.0
176
     1
 62
     7
420
 16777215
176
     1
 90
        2
176
     1
 90
        2
176
     1
 62
     7
176
     1
 62
     7
176
     1
 90
        1
176
     1
 90
        1
176
     1
 40
40.0
176
     1
 90
       11
176
     1
 62
     7
176
     1
 40
1.0
176
     1
 90
        1
176
     1
 90
        6
176
     1
 90
        2
176
     1
 62
     7
176
     1
 90
        6
176
     1
 90
        0
176
     1
 90
        0
176
     1
290
     0
176
     1
 90
        1
176
     1
 40
0.0
176
     1
 90
        0
176
     1
290
     0
176
     1
290
     1
176
     1
290
     1
176
     1
290
     0
176
     1
290
     0
176
     1
290
     0
176
     1
290
     0
176
     1
290
     0
176
     1
290
     0
176
     1
 90
       50
176
     1
 40
0.0
176
     1
 40
1.0
176
     1
 90
        0
176
     1
 62
    18
420
        0
176
     1
 90
       50
176
     1
 90
        3
176
     1
 62
     5
420
      255
176
     1
290
     0
176
     1
 90
       50
176
     1
 90
       50
176
     1
 90
       50
176
     1
290
     0
176
     1
 90
       50
176
     1
 62
   256
176
     0
 40
1.0
176
     0
 90
        2
176
     1
  1
strokes_ogs.tif
176
     1
290
     0
176
     1
 40
1.0
176
     1
 40
1.0
176
     1
  0
VISUALSTYLE
  5
36
102
{ACAD_REACTORS
330
29
102
}
330
29
100
AcDbVisualStyle
  2
Thicken
 70
    13
177
     3
291
     1
 70
    58
 90
        2
176
     1
 90
        2
176
     1
 90
        0
176
     1
 90
        0
176
     1
 40
0.6
176
     1
 40
30.0
176
     1
 62
     7
420
 16777215
176
     1
 90
        1
176
     1
 90
        4
176
     1
 62
     7
176
     1
 62
   257
176
     1
 90
        1
176
     1
 90
        1
176
     1
 40
1.0
176
     1
 90
       12
176
     1
 62
     7
176
     1
 40
1.0
176
     1
 90
        1
176
     1
 90
        6
176
     1
 90
        2
176
     1
 62
     7
176
     1
 90
        5
176
     1
 90
        0
176
     1
 90
        0
176
     1
290
     0
176
     1
 90
        1
176
     1
 40
0.0
176
     1
 90
        0
176
     1
290
     0
176
     1
290
     1
176
     1
290
     1
176
     1
290
     0
176
     1
290
     0
176
     1
290
     0
176
     1
290
     0
176
     1
290
     0
176
     1
290
     0
176
     1
 90
       50
176
     1
 40
0.0
176
     1
 40
1.0
176
     1
 90
        0
176
     1
 62
    18
420
        0
176
     1
 90
       50
176
     1
 90
        3
176
     1
 62
     5
420
      255
176
     1
290
     0
176
     1
 90
       50
176
     1
 90
       50
176
     1
 90
       50
176
     1
290
     0
176
     1
 90
       50
176
     1
 62
   256
176
     0
 40
1.0
176
     0
 90
        2
176
     1
  1
strokes_ogs.tif
176
     1
290
     0
176
     1
 40
1.0
176
     1
 40
1.0
176
     1
  0
VISUALSTYLE
  5
30
102
{ACAD_REACTORS
330
29
102
}
330
29
100
AcDbVisualStyle
  2
Wireframe
 70
     5
177
     3
291
     0
 70
    58
 90
        0
176
     1
 90
        2
176
     1
 90
        0
176
     1
 90
        0
176
     1
 40
0.6
176
     1
 40
30.0
176
     1
 62
     7
420
 16777215
176
     1
 90
        1
176
     1
 90
        4
176
     1
 62
     7
176
     1
 62
   257
176
     1
 90
        1
176
     1
 90
        1
176
     1
 40
1.0
176
     1
 90
        0
176
     1
 62
   257
176
     1
 40
1.0
176
     1
 90
        1
176
     1
 90
        6
176
     1
 90
        2
176
     1
 62
     7
176
     1
 90
        3
176
     1
 90
        0
176
     1
 90
        0
176
     1
290
     0
176
     1
 90
        1
176
     1
 40
0.0
176
     1
 90
        0
176
     1
290
     0
176
     1
290
     1
176
     1
290
     1
176
     1
290
     0
176
     1
290
     0
176
     1
290
     0
176
     1
290
     0
176
     1
290
     0
176
     1
290
     0
176
     1
 90
       50
176
     1
 40
0.0
176
     1
 40
1.0
176
     1
 90
        0
176
     1
 62
    18
420
        0
176
     1
 90
       50
176
     1
 90
        3
176
     1
 62
     5
420
      255
176
     1
290
     0
176
     1
 90
       50
176
     1
 90
       50
176
     1
 90
       50
176
     1
290
     0
176
     1
 90
       50
176
     1
 62
   256
176
     0
 40
1.0
176
     0
 90
        2
176
     1
  1
strokes_ogs.tif
176
     1
290
     0
176
     1
 40
1.0
176
     1
 40
1.0
176
     1
  0
VISUALSTYLE
  5
3C
102
{ACAD_REACTORS
330
29
102
}
330
29
100
AcDbVisualStyle
  2
X-Ray
 70
    25
177
     3
291
     0
 70
    58
 90
        2
176
     1
 90
        2
176
     1
 90
        1
176
     1
 90
        1
176
     1
 40
0.5
176
     1
 40
30.0
176
     1
 62
     7
420
 16777215
176
     1
 90
        1
176
     1
 90
        0
176
     1
 62
     7
176
     1
 62
   257
176
     1
 90
        1
176
     1
 90
        1
176
     1
 40
1.0
176
     1
 90
        8
176
     1
 62
     7
176
     1
 40
1.0
176
     1
 90
        1
176
     1
 90
        6
176
     1
 90
        2
176
     1
 62
     7
176
     1
 90
        3
176
     1
 90
        0
176
     1
 90
        0
176
     1
290
     0
176
     1
 90
       13
176
     1
 40
0.0
176
     1
 90
        0
176
     1
290
     0
176
     1
290
     1
176
     1
290
     1
176
     1
290
     0
176
     1
290
     0
176
     1
290
     0
176
     1
290
     0
176
     1
290
     0
176
     1
290
     0
176
     1
 90
       50
176
     1
 40
0.0
176
     1
 40
1.0
176
     1
 90
        0
176
     1
 62
    18
420
        0
176
     1
 90
       50
176
     1
 90
        3
176
     1
 62
     5
420
      255
176
     1
290
     0
176
     1
 90
       50
176
     1
 90
       50
176
     1
 90
       50
176
     1
290
     0
176
     1
 90
       50
176
     1
 62
   256
176
     0
 40
1.0
176
     0
 90
        2
176
     1
  1
strokes_ogs.tif
176
     1
290
     0
176
     1
 40
1.0
176
     1
 40
1.0
176
     1
  0
DICTIONARYVAR
  5
283
102
{ACAD_REACTORS
330
27E
102
}
330
27E
100
DictionaryVariables
280
     0
  1
1:1
  0
DICTIONARYVAR
  5
280
102
{ACAD_REACTORS
330
27E
102
}
330
27E
100
DictionaryVariables
280
     0
  1
STANDARD
  0
DICTIONARYVAR
  5
27F
102
{ACAD_REACTORS
330
27E
102
}
330
27E
100
DictionaryVariables
280
     0
  1
STANDARD
  0
DICTIONARYVAR
  5
281
102
{ACAD_REACTORS
330
27E
102
}
330
27E
100
DictionaryVariables
280
     0
  1
Imperial24
  0
DICTIONARYVAR
  5
282
102
{ACAD_REACTORS
330
27E
102
}
330
27E
100
DictionaryVariables
280
     0
  1
Imperial24
  0
DICTIONARY
  5
1A
330
19
100
AcDbDictionary
280
     1
281
     1
  3
BUMPTILE
360
1C
  3
DIFFUSETILE
360
1B
  3
OPACITYTILE
360
1F
  3
REFLECTIONTILE
360
1E
  3
REFRACTIONTILE
360
20
  3
SPECULARTILE
360
1D
  0
DICTIONARY
  5
12
330
11
100
AcDbDictionary
280
     1
281
     1
  3
BUMPTILE
360
14
  3
DIFFUSETILE
360
13
  3
OPACITYTILE
360
17
  3
REFLECTIONTILE
360
16
  3
REFRACTIONTILE
360
18
  3
SPECULARTILE
360
15
  0
DICTIONARY
  5
22
330
21
100
AcDbDictionary
280
     1
281
     1
  3
BUMPTILE
360
24
  3
DIFFUSETILE
360
23
  3
OPACITYTILE
360
27
  3
REFLECTIONTILE
360
26
  3
REFRACTIONTILE
360
28
  3
SPECULARTILE
360
25
  0
DICTIONARY
  5
284
330
65
100
AcDbDictionary
280
     1
281
     1
  3
ACAD_ROUNDTRIP_2008_TABLESTYLE_CELLSTYLEMAP
360
285
  0
XRECORD
  5
1C
102
{ACAD_REACTORS
330
1A
102
}
330
1A
100
AcDbXrecord
280
     1
270
     1
271
     1
  0
XRECORD
  5
1B
102
{ACAD_REACTORS
330
1A
102
}
330
1A
100
AcDbXrecord
280
     1
270
     1
271
     1
  0
XRECORD
  5
1F
102
{ACAD_REACTORS
330
1A
102
}
330
1A
100
AcDbXrecord
280
     1
270
     1
271
     1
  0
XRECORD
  5
1E
102
{ACAD_REACTORS
330
1A
102
}
330
1A
100
AcDbXrecord
280
     1
270
     1
271
     1
  0
XRECORD
  5
20
102
{ACAD_REACTORS
330
1A
102
}
330
1A
100
AcDbXrecord
280
     1
270
     1
271
     1
  0
XRECORD
  5
1D
102
{ACAD_REACTORS
330
1A
102
}
330
1A
100
AcDbXrecord
280
     1
270
     1
271
     1
  0
XRECORD
  5
14
102
{ACAD_REACTORS
330
12
102
}
330
12
100
AcDbXrecord
280
     1
270
     1
271
     1
  0
XRECORD
  5
13
102
{ACAD_REACTORS
330
12
102
}
330
12
100
AcDbXrecord
280
     1
270
     1
271
     1
  0
XRECORD
  5
17
102
{ACAD_REACTORS
330
12
102
}
330
12
100
AcDbXrecord
280
     1
270
     1
271
     1
  0
XRECORD
  5
16
102
{ACAD_REACTORS
330
12
102
}
330
12
100
AcDbXrecord
280
     1
270
     1
271
     1
  0
XRECORD
  5
18
102
{ACAD_REACTORS
330
12
102
}
330
12
100
AcDbXrecord
280
     1
270
     1
271
     1
  0
XRECORD
  5
15
102
{ACAD_REACTORS
330
12
102
}
330
12
100
AcDbXrecord
280
     1
270
     1
271
     1
  0
XRECORD
  5
24
102
{ACAD_REACTORS
330
22
102
}
330
22
100
AcDbXrecord
280
     1
270
     1
271
     1
  0
XRECORD
  5
23
102
{ACAD_REACTORS
330
22
102
}
330
22
100
AcDbXrecord
280
     1
270
     1
271
     1
  0
XRECORD
  5
27
102
{ACAD_REACTORS
330
22
102
}
330
22
100
AcDbXrecord
280
     1
270
     1
271
     1
  0
XRECORD
  5
26
102
{ACAD_REACTORS
330
22
102
}
330
22
100
AcDbXrecord
280
     1
270
     1
271
     1
  0
XRECORD
  5
28
102
{ACAD_REACTORS
330
22
102
}
330
22
100
AcDbXrecord
280
     1
270
     1
271
     1
  0
XRECORD
  5
25
102
{ACAD_REACTORS
330
22
102
}
330
22
100
AcDbXrecord
280
     1
270
     1
271
     1
  0
CELLSTYLEMAP
  5
285
102
{ACAD_REACTORS
330
284
102
}
330
284
100
AcDbCellStyleMap
 90
        3
300
CELLSTYLE
  1
TABLEFORMAT_BEGIN
 90
        5
170
     1
 91
        0
 92
    32768
 62
   257
 93
        1
300
CONTENTFORMAT
  1
CONTENTFORMAT_BEGIN
 90
        0
 91
        0
 92
      512
 93
        0
300

 40
0.0
140
1.0
 94
        5
 62
     0
340
55
144
0.25
309
CONTENTFORMAT_END
171
     0
 94
        0
309
TABLEFORMAT_END
  1
CELLSTYLE_BEGIN
 90
        1
 91
        1
300
_TITLE
309
CELLSTYLE_END
300
CELLSTYLE
  1
TABLEFORMAT_BEGIN
 90
        5
170
     1
 91
        0
 92
        0
 62
   257
 93
        1
300
CONTENTFORMAT
  1
CONTENTFORMAT_BEGIN
 90
        0
 91
        0
 92
      512
 93
        0
300

 40
0.0
140
1.0
 94
        5
 62
     0
340
55
144
0.18
309
CONTENTFORMAT_END
171
     0
 94
        0
309
TABLEFORMAT_END
  1
CELLSTYLE_BEGIN
 90
        2
 91
        1
300
_HEADER
309
CELLSTYLE_END
300
CELLSTYLE
  1
TABLEFORMAT_BEGIN
 90
        5
170
     1
 91
        0
 92
        0
 62
   257
 93
        1
300
CONTENTFORMAT
  1
CONTENTFORMAT_BEGIN
 90
        0
 91
        0
 92
      512
 93
        0
300

 40
0.0
140
1.0
 94
        2
 62
     0
340
55
144
0.18
309
CONTENTFORMAT_END
171
     0
 94
        0
309
TABLEFORMAT_END
  1
CELLSTYLE_BEGIN
 90
        3
 91
        2
300
_DATA
309
CELLSTYLE_END
  0
ENDSEC
  0
EOF
