  0
SECTION
  2
HEADER
  9
$ACADVER
  1
AC1032
  9
$ACADMAINTVER
 90
      197
  9
$DWGCODEPAGE
  3
ANSI_1252
  9
$REQUIREDVERSIONS
160
                 0
  9
$INSBASE
 10
0.0
 20
0.0
 30
0.0
  9
$EXTMIN
 10
1.000000000000000E+20
 20
1.000000000000000E+20
 30
1.000000000000000E+20
  9
$EXTMAX
 10
-1.000000000000000E+20
 20
-1.000000000000000E+20
 30
-1.000000000000000E+20
  9
$LIMMIN
 10
0.0
 20
0.0
  9
$LIMMAX
 10
12.0
 20
9.0
  9
$ORTHOMODE
 70
     0
  9
$REGENMODE
 70
     1
  9
$FILLMODE
 70
     1
  9
$QTEXTMODE
 70
     0
  9
$MIRRTEXT
 70
     0
  9
$LTSCALE
 40
1.0
  9
$ATTMODE
 70
     1
  9
$TEXTSIZE
 40
0.2
  9
$TRACEWID
 40
0.05
  9
$TEXTSTYLE
  7
Standard
  9
$CLAYER
  8
0
  9
$CELTYPE
  6
ByLayer
  9
$CECOLOR
 62
   256
  9
$CELTSCALE
 40
1.0
  9
$DISPSILH
 70
     0
  9
$DIMSCALE
 40
1.0
  9
$DIMASZ
 40
0.18
  9
$DIMEXO
 40
0.0625
  9
$DIMDLI
 40
0.38
  9
$DIMRND
 40
0.0
  9
$DIMDLE
 40
0.0
  9
$DIMEXE
 40
0.18
  9
$DIMTP
 40
0.0
  9
$DIMTM
 40
0.0
  9
$DIMTXT
 40
0.18
  9
$DIMCEN
 40
0.09
  9
$DIMTSZ
 40
0.0
  9
$DIMTOL
 70
     0
  9
$DIMLIM
 70
     0
  9
$DIMTIH
 70
     1
  9
$DIMTOH
 70
     1
  9
$DIMSE1
 70
     0
  9
$DIMSE2
 70
     0
  9
$DIMTAD
 70
     0
  9
$DIMZIN
 70
     0
  9
$DIMBLK
  1

  9
$DIMASO
 70
     1
  9
$DIMSHO
 70
     1
  9
$DIMPOST
  1

  9
$DIMAPOST
  1

  9
$DIMALT
 70
     0
  9
$DIMALTD
 70
     2
  9
$DIMALTF
 40
25.4
  9
$DIMLFAC
 40
1.0
  9
$DIMTOFL
 70
     0
  9
$DIMTVP
 40
0.0
  9
$DIMTIX
 70
     0
  9
$DIMSOXD
 70
     0
  9
$DIMSAH
 70
     0
  9
$DIMBLK1
  1

  9
$DIMBLK2
  1

  9
$DIMSTYLE
  2
Standard
  9
$DIMCLRD
 70
     0
  9
$DIMCLRE
 70
     0
  9
$DIMCLRT
 70
     0
  9
$DIMTFAC
 40
1.0
  9
$DIMGAP
 40
0.09
  9
$DIMJUST
 70
     0
  9
$DIMSD1
 70
     0
  9
$DIMSD2
 70
     0
  9
$DIMTOLJ
 70
     1
  9
$DIMTZIN
 70
     0
  9
$DIMALTZ
 70
     0
  9
$DIMALTTZ
 70
     0
  9
$DIMUPT
 70
     0
  9
$DIMDEC
 70
     4
  9
$DIMTDEC
 70
     4
  9
$DIMALTU
 70
     2
  9
$DIMALTTD
 70
     2
  9
$DIMTXSTY
  7
Standard
  9
$DIMAUNIT
 70
     0
  9
$DIMADEC
 70
     0
  9
$DIMALTRND
 40
0.0
  9
$DIMAZIN
 70
     0
  9
$DIMDSEP
 70
    46
  9
$DIMATFIT
 70
     3
  9
$DIMFRAC
 70
     0
  9
$DIMLDRBLK
  1

  9
$DIMLUNIT
 70
     2
  9
$DIMLWD
 70
    -2
  9
$DIMLWE
 70
    -2
  9
$DIMTMOVE
 70
     0
  9
$DIMFXL
 40
1.0
  9
$DIMFXLON
 70
     0
  9
$DIMJOGANG
 40
0.7853981633974483
  9
$DIMTFILL
 70
     0
  9
$DIMTFILLCLR
 70
     0
  9
$DIMARCSYM
 70
     0
  9
$DIMLTYPE
  6

  9
$DIMLTEX1
  6

  9
$DIMLTEX2
  6

  9
$DIMTXTDIRECTION
 70
     0
  9
$LUNITS
 70
     2
  9
$LUPREC
 70
     4
  9
$SKETCHINC
 40
0.1
  9
$FILLETRAD
 40
0.0
  9
$AUNITS
 70
     0
  9
$AUPREC
 70
     0
  9
$MENU
  1
.
  9
$ELEVATION
 40
0.0
  9
$PELEVATION
 40
0.0
  9
$THICKNESS
 40
0.0
  9
$LIMCHECK
 70
     0
  9
$CHAMFERA
 40
0.0
  9
$CHAMFERB
 40
0.0
  9
$CHAMFERC
 40
0.0
  9
$CHAMFERD
 40
0.0
  9
$SKPOLY
 70
     0
  9
$TDCREATE
 40
2459562.625879629
  9
$TDUCREATE
 40
2459562.750879630
  9
$TDUPDATE
 40
2459562.625879629
  9
$TDUUPDATE
 40
2459562.750879630
  9
$TDINDWG
 40
0.0000000000
  9
$TDUSRTIMER
 40
0.0000000000
  9
$USRTIMER
 70
     1
  9
$ANGBASE
 50
0.0
  9
$ANGDIR
 70
     0
  9
$PDMODE
 70
     0
  9
$PDSIZE
 40
0.0
  9
$PLINEWID
 40
0.0
  9
$SPLFRAME
 70
     0
  9
$SPLINETYPE
 70
     6
  9
$SPLINESEGS
 70
     8
  9
$HANDSEED
  5
18F
  9
$SURFTAB1
 70
     6
  9
$SURFTAB2
 70
     6
  9
$SURFTYPE
 70
     6
  9
$SURFU
 70
     6
  9
$SURFV
 70
     6
  9
$UCSBASE
  2

  9
$UCSNAME
  2

  9
$UCSORG
 10
0.0
 20
0.0
 30
0.0
  9
$UCSXDIR
 10
1.0
 20
0.0
 30
0.0
  9
$UCSYDIR
 10
0.0
 20
1.0
 30
0.0
  9
$UCSORTHOREF
  2

  9
$UCSORTHOVIEW
 70
     0
  9
$UCSORGTOP
 10
0.0
 20
0.0
 30
0.0
  9
$UCSORGBOTTOM
 10
0.0
 20
0.0
 30
0.0
  9
$UCSORGLEFT
 10
0.0
 20
0.0
 30
0.0
  9
$UCSORGRIGHT
 10
0.0
 20
0.0
 30
0.0
  9
$UCSORGFRONT
 10
0.0
 20
0.0
 30
0.0
  9
$UCSORGBACK
 10
0.0
 20
0.0
 30
0.0
  9
$PUCSBASE
  2

  9
$PUCSNAME
  2

  9
$PUCSORG
 10
0.0
 20
0.0
 30
0.0
  9
$PUCSXDIR
 10
1.0
 20
0.0
 30
0.0
  9
$PUCSYDIR
 10
0.0
 20
1.0
 30
0.0
  9
$PUCSORTHOREF
  2

  9
$PUCSORTHOVIEW
 70
     0
  9
$PUCSORGTOP
 10
0.0
 20
0.0
 30
0.0
  9
$PUCSORGBOTTOM
 10
0.0
 20
0.0
 30
0.0
  9
$PUCSORGLEFT
 10
0.0
 20
0.0
 30
0.0
  9
$PUCSORGRIGHT
 10
0.0
 20
0.0
 30
0.0
  9
$PUCSORGFRONT
 10
0.0
 20
0.0
 30
0.0
  9
$PUCSORGBACK
 10
0.0
 20
0.0
 30
0.0
  9
$USERI1
 70
     0
  9
$USERI2
 70
     0
  9
$USERI3
 70
     0
  9
$USERI4
 70
     0
  9
$USERI5
 70
     0
  9
$USERR1
 40
0.0
  9
$USERR2
 40
0.0
  9
$USERR3
 40
0.0
  9
$USERR4
 40
0.0
  9
$USERR5
 40
0.0
  9
$WORLDVIEW
 70
     1
  9
$SHADEDGE
 70
     3
  9
$SHADEDIF
 70
    70
  9
$TILEMODE
 70
     1
  9
$MAXACTVP
 70
    64
  9
$PINSBASE
 10
0.0
 20
0.0
 30
0.0
  9
$PLIMCHECK
 70
     0
  9
$PEXTMIN
 10
1.000000000000000E+20
 20
1.000000000000000E+20
 30
1.000000000000000E+20
  9
$PEXTMAX
 10
-1.000000000000000E+20
 20
-1.000000000000000E+20
 30
-1.000000000000000E+20
  9
$PLIMMIN
 10
0.0
 20
0.0
  9
$PLIMMAX
 10
12.0
 20
9.0
  9
$UNITMODE
 70
     0
  9
$VISRETAIN
 70
     1
  9
$PLINEGEN
 70
     0
  9
$PSLTSCALE
 70
     1
  9
$TREEDEPTH
 70
  3020
  9
$CMLSTYLE
  2
Standard
  9
$CMLJUST
 70
     0
  9
$CMLSCALE
 40
1.0
  9
$PROXYGRAPHICS
 70
     1
  9
$MEASUREMENT
 70
     0
  9
$CELWEIGHT
370
    -1
  9
$ENDCAPS
280
     0
  9
$JOINSTYLE
280
     0
  9
$LWDISPLAY
290
     1
  9
$INSUNITS
 70
     0
  9
$HYPERLINKBASE
  1

  9
$STYLESHEET
  1

  9
$XEDIT
290
     1
  9
$CEPSNTYPE
380
     0
  9
$PSTYLEMODE
290
     1
  9
$FINGERPRINTGUID
  2
{14000865-9428-F444-BE11-BA8E98A69652}
  9
$VERSIONGUID
  2
{89223F92-CC1D-B148-86C9-92BC5FD00948}
  9
$EXTNAMES
290
     1
  9
$PSVPSCALE
 40
0.0
  9
$OLESTARTUP
290
     0
  9
$SORTENTS
280
   127
  9
$INDEXCTL
280
     0
  9
$HIDETEXT
280
     1
  9
$XCLIPFRAME
280
     2
  9
$HALOGAP
280
     0
  9
$OBSCOLOR
 70
   257
  9
$OBSLTYPE
280
     0
  9
$INTERSECTIONDISPLAY
280
     0
  9
$INTERSECTIONCOLOR
 70
   257
  9
$DIMASSOC
280
     2
  9
$PROJECTNAME
  1

  9
$CAMERADISPLAY
290
     0
  9
$LENSLENGTH
 40
50.0
  9
$CAMERAHEIGHT
 40
0.0
  9
$STEPSPERSEC
 40
2.0
  9
$STEPSIZE
 40
6.0
  9
$3DDWFPREC
 40
2.0
  9
$PSOLWIDTH
 40
0.25
  9
$PSOLHEIGHT
 40
4.0
  9
$LOFTANG1
 40
1.570796326794896
  9
$LOFTANG2
 40
1.570796326794896
  9
$LOFTMAG1
 40
0.0
  9
$LOFTMAG2
 40
0.0
  9
$LOFTPARAM
 70
     7
  9
$LOFTNORMALS
280
     1
  9
$LATITUDE
 40
37.795
  9
$LONGITUDE
 40
-122.394
  9
$NORTHDIRECTION
 40
0.0
  9
$TIMEZONE
 70
 -8000
  9
$LIGHTGLYPHDISPLAY
280
     1
  9
$TILEMODELIGHTSYNCH
280
     1
  9
$CMATERIAL
347
11
  9
$SOLIDHIST
280
     0
  9
$SHOWHIST
280
     1
  9
$DWFFRAME
280
     2
  9
$DGNFRAME
280
     0
  9
$REALWORLDSCALE
290
     1
  9
$INTERFERECOLOR
 62
     1
  9
$INTERFEREOBJVS
345
33
  9
$INTERFEREVPVS
346
30
  9
$CSHADOW
280
     0
  9
$SHADOWPLANELOCATION
 40
0.0
  0
ENDSEC
  0
SECTION
  2
CLASSES
  0
CLASS
  1
ACDBDICTIONARYWDFLT
  2
AcDbDictionaryWithDefault
  3
ObjectDBX Classes
 90
        0
 91
        1
280
     0
281
     0
  0
CLASS
  1
MATERIAL
  2
AcDbMaterial
  3
ObjectDBX Classes
 90
     1153
 91
        3
280
     0
281
     0
  0
CLASS
  1
VISUALSTYLE
  2
AcDbVisualStyle
  3
ObjectDBX Classes
 90
     4095
 91
       24
280
     0
281
     0
  0
CLASS
  1
SCALE
  2
AcDbScale
  3
ObjectDBX Classes
 90
     1153
 91
       17
280
     0
281
     0
  0
CLASS
  1
TABLESTYLE
  2
AcDbTableStyle
  3
ObjectDBX Classes
 90
     4095
 91
        1
280
     0
281
     0
  0
CLASS
  1
MLEADERSTYLE
  2
AcDbMLeaderStyle
  3
ACDB_MLEADERSTYLE_CLASS
 90
     4095
 91
        1
280
     0
281
     0
  0
CLASS
  1
ACDBSECTIONVIEWSTYLE
  2
AcDbSectionViewStyle
  3
ObjectDBX Classes
 90
     1025
 91
        1
280
     0
281
     0
  0
CLASS
  1
ACDBDETAILVIEWSTYLE
  2
AcDbDetailViewStyle
  3
ObjectDBX Classes
 90
     1025
 91
        1
280
     0
281
     0
  0
CLASS
  1
DICTIONARYVAR
  2
AcDbDictionaryVar
  3
ObjectDBX Classes
 90
        0
 91
        5
280
     0
281
     0
  0
CLASS
  1
CELLSTYLEMAP
  2
AcDbCellStyleMap
  3
ObjectDBX Classes
 90
     1152
 91
        1
280
     0
281
     0
  0
ENDSEC
  0
SECTION
  2
TABLES
  0
TABLE
  2
VPORT
  5
8
330
0
100
AcDbSymbolTable
 70
     1
  0
VPORT
  5
57
330
8
100
AcDbSymbolTableRecord
100
AcDbViewportTableRecord
  2
*Active
 70
     0
 10
0.0
 20
0.0
 11
1.0
 21
1.0
 12
0.0
 22
0.0
 13
0.0
 23
0.0
 14
1.0
 24
1.0
 15
0.0
 25
0.0
 16
0.0
 26
0.0
 36
1.0
 17
960.0
 27
498.8888888888887
 37
0.0
 40
1185.466666666667
 41
1.652007648183555
 42
50.0
 43
0.0
 44
0.0
 50
0.0
 51
0.0
 71
     0
 72
   100
 73
     1
 74
     1
 75
     0
 76
     0
 77
     0
 78
     0
281
     0
 65
     1
110
0.0
120
0.0
130
0.0
111
1.0
121
0.0
131
0.0
112
0.0
122
1.0
132
0.0
 79
     0
146
0.0
 60
     3
 61
     5
292
     1
282
     1
141
0.0
142
0.0
 63
   250
421
  3355443
  0
ENDTAB
  0
TABLE
  2
LTYPE
  5
5
330
0
100
AcDbSymbolTable
 70
     1
  0
LTYPE
  5
5B
330
5
100
AcDbSymbolTableRecord
100
AcDbLinetypeTableRecord
  2
ByBlock
 70
     0
  3

 72
    65
 73
     0
 40
0.0
  0
LTYPE
  5
5C
330
5
100
AcDbSymbolTableRecord
100
AcDbLinetypeTableRecord
  2
ByLayer
 70
     0
  3

 72
    65
 73
     0
 40
0.0
  0
LTYPE
  5
5D
330
5
100
AcDbSymbolTableRecord
100
AcDbLinetypeTableRecord
  2
Continuous
 70
     0
  3
Solid line
 72
    65
 73
     0
 40
0.0
  0
ENDTAB
  0
TABLE
  2
LAYER
  5
2
330
0
100
AcDbSymbolTable
 70
     6
  0
LAYER
  5
54
330
2
100
AcDbSymbolTableRecord
100
AcDbLayerTableRecord
  2
0
 70
     0
 62
     7
  6
Continuous
370
     0
390
F
347
21
348
0
  0
LAYER
  5
7C
330
2
100
AcDbSymbolTableRecord
100
AcDbLayerTableRecord
  2
1
 70
     0
 62
     7
  6
Continuous
370
     0
390
F
347
21
348
0
  0
LAYER
  5
B9
330
2
100
AcDbSymbolTableRecord
100
AcDbLayerTableRecord
  2
Front$5
 70
     0
 62
     7
  6
Continuous
370
     0
390
F
347
21
348
0
  0
LAYER
  5
BA
330
2
100
AcDbSymbolTableRecord
100
AcDbLayerTableRecord
  2
ORTHO$6
 70
     0
 62
     7
  6
Continuous
370
     0
390
F
347
21
348
0
  0
LAYER
  5
144
330
2
100
AcDbSymbolTableRecord
100
AcDbLayerTableRecord
  2
Front$5_0
 70
     0
 62
     7
  6
Continuous
370
     0
390
F
347
21
348
0
  0
LAYER
  5
149
330
2
100
AcDbSymbolTableRecord
100
AcDbLayerTableRecord
  2
ORTHO$6_1
 70
     0
 62
     7
  6
Continuous
370
     0
390
F
347
21
348
0
  0
ENDTAB
  0
TABLE
  2
STYLE
  5
3
330
0
100
AcDbSymbolTable
 70
     2
  0
STYLE
  5
55
330
3
100
AcDbSymbolTableRecord
100
AcDbTextStyleTableRecord
  2
Standard
 70
     0
 40
0.0
 41
1.0
 50
0.0
 71
     0
 42
0.2
  3
txt
  4

  0
STYLE
  5
5A
330
3
100
AcDbSymbolTableRecord
100
AcDbTextStyleTableRecord
  2
Annotative
 70
     0
 40
0.0
 41
1.0
 50
0.0
 71
     0
 42
0.2
  3
txt
  4

1001
AcadAnnotative
1000
AnnotativeData
1002
{
1070
     1
1070
     1
1002
}
  0
ENDTAB
  0
TABLE
  2
VIEW
  5
6
330
0
100
AcDbSymbolTable
 70
     0
  0
ENDTAB
  0
TABLE
  2
UCS
  5
7
330
0
100
AcDbSymbolTable
 70
     0
  0
ENDTAB
  0
TABLE
  2
APPID
  5
9
330
0
100
AcDbSymbolTable
 70
     2
  0
APPID
  5
56
330
9
100
AcDbSymbolTableRecord
100
AcDbRegAppTableRecord
  2
ACAD
 70
     0
  0
APPID
  5
5E
330
9
100
AcDbSymbolTableRecord
100
AcDbRegAppTableRecord
  2
AcadAnnotative
 70
     0
  0
ENDTAB
  0
TABLE
  2
DIMSTYLE
  5
A
330
0
100
AcDbSymbolTable
 70
     2
100
AcDbDimStyleTable
 71
     0
  0
DIMSTYLE
105
58
330
A
100
AcDbSymbolTableRecord
100
AcDbDimStyleTableRecord
  2
Standard
 70
     0
340
55
  0
DIMSTYLE
105
59
330
A
100
AcDbSymbolTableRecord
100
AcDbDimStyleTableRecord
  2
Annotative
 70
     0
340
55
1001
AcadAnnotative
1000
AnnotativeData
1002
{
1070
     1
1070
     1
1002
}
  0
ENDTAB
  0
TABLE
  2
BLOCK_RECORD
  5
1
330
0
100
AcDbSymbolTable
 70
     9
  0
BLOCK_RECORD
  5
70
330
1
100
AcDbSymbolTableRecord
100
AcDbBlockTableRecord
  2
*Model_Space
340
73
 70
     0
280
     1
281
     0
  0
BLOCK_RECORD
  5
6C
330
1
100
AcDbSymbolTableRecord
100
AcDbBlockTableRecord
  2
*Paper_Space
340
6F
 70
     0
280
     1
281
     0
  0
BLOCK_RECORD
  5
74
330
1
100
AcDbSymbolTableRecord
100
AcDbBlockTableRecord
  2
*Paper_Space0
340
77
 70
     0
280
     1
281
     0
  0
BLOCK_RECORD
  5
78
330
1
100
AcDbSymbolTableRecord
100
AcDbBlockTableRecord
  2
Block_0
340
0
102
{BLKREFS
331
79
102
}
 70
     0
280
     1
281
     0
  0
BLOCK_RECORD
  5
7D
330
1
100
AcDbSymbolTableRecord
100
AcDbBlockTableRecord
  2
Block_1
340
0
102
{BLKREFS
331
7E
102
}
 70
     0
280
     1
281
     0
  0
BLOCK_RECORD
  5
89
330
1
100
AcDbSymbolTableRecord
100
AcDbBlockTableRecord
  2
Block_2
340
0
102
{BLKREFS
331
8A
102
}
 70
     0
280
     1
281
     0
  0
BLOCK_RECORD
  5
95
330
1
100
AcDbSymbolTableRecord
100
AcDbBlockTableRecord
  2
Block_3
340
0
102
{BLKREFS
331
96
102
}
 70
     0
280
     1
281
     0
  0
BLOCK_RECORD
  5
A1
330
1
100
AcDbSymbolTableRecord
100
AcDbBlockTableRecord
  2
Block_4
340
0
102
{BLKREFS
331
A2
102
}
 70
     0
280
     1
281
     0
  0
BLOCK_RECORD
  5
AD
330
1
100
AcDbSymbolTableRecord
100
AcDbBlockTableRecord
  2
Block_5
340
0
102
{BLKREFS
331
AE
102
}
 70
     0
280
     1
281
     0
  0
BLOCK_RECORD
  5
BB
330
1
100
AcDbSymbolTableRecord
100
AcDbBlockTableRecord
  2
Block_6
340
0
102
{BLKREFS
331
BC
102
}
 70
     0
280
     1
281
     0
  0
BLOCK_RECORD
  5
14A
330
1
100
AcDbSymbolTableRecord
100
AcDbBlockTableRecord
  2
Block_7
340
0
102
{BLKREFS
331
14B
102
}
 70
     0
280
     1
281
     0
  0
ENDTAB
  0
ENDSEC
  0
SECTION
  2
BLOCKS
  0
BLOCK
  5
71
330
70
100
AcDbEntity
  8
0
100
AcDbBlockBegin
  2
*Model_Space
 70
     0
 10
0.0
 20
0.0
 30
0.0
  3
*Model_Space
  1

  0
ENDBLK
  5
72
330
70
100
AcDbEntity
  8
0
100
AcDbBlockEnd
  0
BLOCK
  5
6D
330
6C
100
AcDbEntity
 67
     1
  8
0
100
AcDbBlockBegin
  2
*Paper_Space
 70
     0
 10
0.0
 20
0.0
 30
0.0
  3
*Paper_Space
  1

  0
ENDBLK
  5
6E
330
6C
100
AcDbEntity
 67
     1
  8
0
100
AcDbBlockEnd
  0
BLOCK
  5
75
330
74
100
AcDbEntity
 67
     1
  8
0
100
AcDbBlockBegin
  2
*Paper_Space0
 70
     0
 10
0.0
 20
0.0
 30
0.0
  3
*Paper_Space0
  1

  0
ENDBLK
  5
76
330
74
100
AcDbEntity
 67
     1
  8
0
100
AcDbBlockEnd
  0
BLOCK
  5
7A
330
78
100
AcDbEntity
  8
0
100
AcDbBlockBegin
  2
Block_0
 70
     0
 10
0.0
 20
0.0
 30
0.0
  3
Block_0
  1

  0
ENDBLK
  5
7B
330
78
100
AcDbEntity
  8
0
100
AcDbBlockEnd
  0
BLOCK
  5
7F
330
7D
100
AcDbEntity
  8
0
100
AcDbBlockBegin
  2
Block_1
 70
     0
 10
0.0
 20
0.0
 30
0.0
  3
Block_1
  1

  0
MTEXT
  5
81
330
7D
100
AcDbEntity
  8
1
100
AcDbMText
 10
1091.778861999512
 20
171.8639297485351
 30
0.0
 40
0.2
 41
0.0
 46
0.0
 71
     7
 72
     1
  1
\C250;\FMyriad Pro|b0|i0|c1;\H16.463987;\W1.000000;109,49
 73
     1
 44
1.0
  0
LINE
  5
82
330
7D
100
AcDbEntity
  8
1
 62
   250
370
    13
100
AcDbLine
 10
1215.389711618749
 20
224.3332111364525
 30
0.0
 11
1215.389711618749
 21
160.3424453342795
 31
0.0
  0
LINE
  5
83
330
7D
100
AcDbEntity
  8
1
 62
   250
370
    13
100
AcDbLine
 10
1035.125478893414
 20
293.685014946519
 30
0.0
 11
1035.125478893414
 21
160.3424453342795
 31
0.0
  0
LINE
  5
84
330
7D
100
AcDbEntity
  8
1
 62
   250
370
    13
100
AcDbLine
 10
1215.389711618749
 20
163.6352427260372
 30
0.0
 11
1035.125478893414
 21
163.6352427260372
 31
0.0
  0
LWPOLYLINE
  5
85
330
7D
100
AcDbEntity
  8
1
100
AcDbPolyline
 90
        4
 70
     1
 43
0.0
 10
1215.389711618749
 20
163.6352427260372
 10
1190.693744351756
 20
160.3839559846019
 10
1190.693719655781
 20
166.8865311138779
 10
1190.693719655781
 20
166.8865311138779
  0
HATCH
  5
86
330
7D
100
AcDbEntity
  8
1
 62
   250
440
 33554687
100
AcDbHatch
 10
0.0
 20
0.0
 30
0.0
210
0.0
220
0.0
230
1.0
  2
SOLID
 70
     1
 71
     1
 91
        1
 92
        1
 93
        3
 72
     1
 10
1215.389711618749
 20
163.6352427260372
 11
1190.693744351756
 21
160.3839559846019
 72
     1
 10
1190.693744351756
 20
160.3839559846019
 11
1190.693719655781
 21
166.8865311138779
 72
     1
 10
1190.693719655781
 20
166.8865311138779
 11
1215.389711618749
 21
163.6352427260372
 97
        1
330
85
 75
     2
 76
     1
 98
        1
 10
0.0
 20
0.0
450
        0
451
        0
460
0.0
461
0.0
452
        0
462
0.0
453
        0
470

  0
LWPOLYLINE
  5
87
330
7D
100
AcDbEntity
  8
1
100
AcDbPolyline
 90
        4
 70
     1
 43
0.0
 10
1035.125478893414
 20
163.6352427260372
 10
1059.821447806804
 20
166.8865311138779
 10
1059.821470856386
 20
160.3839559846019
 10
1059.821470856386
 20
160.3839559846019
  0
HATCH
  5
88
330
7D
100
AcDbEntity
  8
1
 62
   250
440
 33554687
100
AcDbHatch
 10
0.0
 20
0.0
 30
0.0
210
0.0
220
0.0
230
1.0
  2
SOLID
 70
     1
 71
     1
 91
        1
 92
        1
 93
        3
 72
     1
 10
1035.125478893414
 20
163.6352427260372
 11
1059.821447806804
 21
166.8865311138779
 72
     1
 10
1059.821447806804
 20
166.8865311138779
 11
1059.821470856386
 21
160.3839559846019
 72
     1
 10
1059.821470856386
 20
160.3839559846019
 11
1035.125478893414
 21
163.6352427260372
 97
        1
330
87
 75
     2
 76
     1
 98
        1
 10
0.0
 20
0.0
450
        0
451
        0
460
0.0
461
0.0
452
        0
462
0.0
453
        0
470

  0
ENDBLK
  5
80
330
7D
100
AcDbEntity
  8
0
100
AcDbBlockEnd
  0
BLOCK
  5
8B
330
89
100
AcDbEntity
  8
0
100
AcDbBlockBegin
  2
Block_2
 70
     0
 10
0.0
 20
0.0
 30
0.0
  3
Block_2
  1

  0
MTEXT
  5
8D
330
89
100
AcDbEntity
  8
1
100
AcDbMText
 10
1110.205619812012
 20
892.4259414672851
 30
0.0
 40
0.2
 41
0.0
 46
0.0
 71
     7
 72
     1
  1
\C250;\FMyriad Pro|b0|i0|c1;\H16.463987;\W1.000000;131,87
 73
     1
 44
1.0
  0
LINE
  5
8E
330
89
100
AcDbEntity
  8
1
 62
   250
370
    13
100
AcDbLine
 10
1035.125478893414
 20
840.2893819782729
 30
0.0
 11
1035.125478893414
 21
887.4897622802
 31
0.0
  0
LINE
  5
8F
330
89
100
AcDbEntity
  8
1
 62
   250
370
    13
100
AcDbLine
 10
1252.243101748581
 20
729.4906138433707
 30
0.0
 11
1252.243101748581
 21
887.4897622802
 31
0.0
  0
LINE
  5
90
330
89
100
AcDbEntity
  8
1
 62
   250
370
    13
100
AcDbLine
 10
1035.125478893414
 20
884.1969648884415
 30
0.0
 11
1252.243101748581
 21
884.1969648884415
 31
0.0
  0
LWPOLYLINE
  5
91
330
89
100
AcDbEntity
  8
1
100
AcDbPolyline
 90
        4
 70
     1
 43
0.0
 10
1035.125478893414
 20
884.1969648884415
 10
1059.821447806804
 20
887.4482516298794
 10
1059.821470856386
 20
880.9456781470045
 10
1059.821470856386
 20
880.9456781470045
  0
HATCH
  5
92
330
89
100
AcDbEntity
  8
1
 62
   250
440
 33554687
100
AcDbHatch
 10
0.0
 20
0.0
 30
0.0
210
0.0
220
0.0
230
1.0
  2
SOLID
 70
     1
 71
     1
 91
        1
 92
        1
 93
        3
 72
     1
 10
1035.125478893414
 20
884.1969648884415
 11
1059.821447806804
 21
887.4482516298794
 72
     1
 10
1059.821447806804
 20
887.4482516298794
 11
1059.821470856386
 21
880.9456781470045
 72
     1
 10
1059.821470856386
 20
880.9456781470045
 11
1035.125478893414
 21
884.1969648884415
 97
        1
330
91
 75
     2
 76
     1
 98
        1
 10
0.0
 20
0.0
450
        0
451
        0
460
0.0
461
0.0
452
        0
462
0.0
453
        0
470

  0
LWPOLYLINE
  5
93
330
89
100
AcDbEntity
  8
1
100
AcDbPolyline
 90
        4
 70
     1
 43
0.0
 10
1252.243101748581
 20
884.1969648884415
 10
1227.547132835192
 20
880.9456781470045
 10
1227.54710978561
 20
887.4482516298794
 10
1227.54710978561
 20
887.4482516298794
  0
HATCH
  5
94
330
89
100
AcDbEntity
  8
1
 62
   250
440
 33554687
100
AcDbHatch
 10
0.0
 20
0.0
 30
0.0
210
0.0
220
0.0
230
1.0
  2
SOLID
 70
     1
 71
     1
 91
        1
 92
        1
 93
        3
 72
     1
 10
1252.243101748581
 20
884.1969648884415
 11
1227.547132835192
 21
880.9456781470045
 72
     1
 10
1227.547132835192
 20
880.9456781470045
 11
1227.54710978561
 21
887.4482516298794
 72
     1
 10
1227.54710978561
 20
887.4482516298794
 11
1252.243101748581
 21
884.1969648884415
 97
        1
330
93
 75
     2
 76
     1
 98
        1
 10
0.0
 20
0.0
450
        0
451
        0
460
0.0
461
0.0
452
        0
462
0.0
453
        0
470

  0
ENDBLK
  5
8C
330
89
100
AcDbEntity
  8
0
100
AcDbBlockEnd
  0
BLOCK
  5
97
330
95
100
AcDbEntity
  8
0
100
AcDbBlockBegin
  2
Block_3
 70
     0
 10
0.0
 20
0.0
 30
0.0
  3
Block_3
  1

  0
MTEXT
  5
99
330
95
100
AcDbEntity
  8
1
100
AcDbMText
 10
716.7993698120117
 20
892.4259414672851
 30
0.0
 40
0.2
 41
0.0
 46
0.0
 71
     7
 72
     1
  1
\C250;\FMyriad Pro|b0|i0|c1;\H16.463987;\W1.000000;120
 73
     1
 44
1.0
  0
LINE
  5
9A
330
95
100
AcDbEntity
  8
1
 62
   250
370
    13
100
AcDbLine
 10
635.5075883272839
 20
849.2101726944683
 30
0.0
 11
635.5075883272839
 21
887.4897622802
 31
0.0
  0
LINE
  5
9B
330
95
100
AcDbEntity
  8
1
 62
   250
370
    13
100
AcDbLine
 10
833.0754318327372
 20
849.2101726944683
 30
0.0
 11
833.0754318327372
 21
887.4897622802
 31
0.0
  0
LINE
  5
9C
330
95
100
AcDbEntity
  8
1
 62
   250
370
    13
100
AcDbLine
 10
635.5075883272839
 20
884.1969648884415
 30
0.0
 11
833.0754318327372
 21
884.1969648884415
 31
0.0
  0
LWPOLYLINE
  5
9D
330
95
100
AcDbEntity
  8
1
100
AcDbPolyline
 90
        4
 70
     1
 43
0.0
 10
635.5075883272839
 20
884.1969648884415
 10
660.2035572406748
 20
887.4482516298794
 10
660.2035802902555
 20
880.9456781470045
 10
660.2035802902555
 20
880.9456781470045
  0
HATCH
  5
9E
330
95
100
AcDbEntity
  8
1
 62
   250
440
 33554687
100
AcDbHatch
 10
0.0
 20
0.0
 30
0.0
210
0.0
220
0.0
230
1.0
  2
SOLID
 70
     1
 71
     1
 91
        1
 92
        1
 93
        3
 72
     1
 10
635.5075883272839
 20
884.1969648884415
 11
660.2035572406748
 21
887.4482516298794
 72
     1
 10
660.2035572406748
 20
887.4482516298794
 11
660.2035802902555
 21
880.9456781470045
 72
     1
 10
660.2035802902555
 20
880.9456781470045
 11
635.5075883272839
 21
884.1969648884415
 97
        1
330
9D
 75
     2
 76
     1
 98
        1
 10
0.0
 20
0.0
450
        0
451
        0
460
0.0
461
0.0
452
        0
462
0.0
453
        0
470

  0
LWPOLYLINE
  5
9F
330
95
100
AcDbEntity
  8
1
100
AcDbPolyline
 90
        4
 70
     1
 43
0.0
 10
833.0754318327372
 20
884.1969648884415
 10
808.3794629193462
 20
880.9456781470045
 10
808.3794398697655
 20
887.4482516298794
 10
808.3794398697655
 20
887.4482516298794
  0
HATCH
  5
A0
330
95
100
AcDbEntity
  8
1
 62
   250
440
 33554687
100
AcDbHatch
 10
0.0
 20
0.0
 30
0.0
210
0.0
220
0.0
230
1.0
  2
SOLID
 70
     1
 71
     1
 91
        1
 92
        1
 93
        3
 72
     1
 10
833.0754318327372
 20
884.1969648884415
 11
808.3794629193462
 21
880.9456781470045
 72
     1
 10
808.3794629193462
 20
880.9456781470045
 11
808.3794398697655
 21
887.4482516298794
 72
     1
 10
808.3794398697655
 20
887.4482516298794
 11
833.0754318327372
 21
884.1969648884415
 97
        1
330
9F
 75
     2
 76
     1
 98
        1
 10
0.0
 20
0.0
450
        0
451
        0
460
0.0
461
0.0
452
        0
462
0.0
453
        0
470

  0
ENDBLK
  5
98
330
95
100
AcDbEntity
  8
0
100
AcDbBlockEnd
  0
BLOCK
  5
A3
330
A1
100
AcDbEntity
  8
0
100
AcDbBlockBegin
  2
Block_4
 70
     0
 10
0.0
 20
0.0
 30
0.0
  3
Block_4
  1

  0
MTEXT
  5
A5
330
A1
100
AcDbEntity
  8
1
100
AcDbMText
 10
993.9360885620116
 20
538.8663711547851
 30
0.0
 40
0.2
 41
0.0
 46
0.0
 71
     7
 72
     1
  1
\C250;\FMyriad Pro|b0|i0|c1;\H16.463987;\W1.000000;336,67
 11
0.0000000000000001
 21
1.0
 31
0.0
 73
     1
 44
1.0
  0
LINE
  5
A6
330
A1
100
AcDbEntity
  8
1
 62
   250
370
    13
100
AcDbLine
 10
1034.400592597199
 20
849.6225922749871
 30
0.0
 11
997.2583088882002
 21
849.6225922749871
 31
0.0
  0
LINE
  5
A7
330
A1
100
AcDbEntity
  8
1
 62
   250
370
    13
100
AcDbLine
 10
1033.479080197536
 20
295.3314136423978
 30
0.0
 11
997.2583088882002
 21
295.3314136423978
 31
0.0
  0
LINE
  5
A8
330
A1
100
AcDbEntity
  8
1
 62
   250
370
    13
100
AcDbLine
 10
1000.551106279959
 20
849.6225922749871
 30
0.0
 11
1000.551106279959
 21
295.3314136423978
 31
0.0
  0
LWPOLYLINE
  5
A9
330
A1
100
AcDbEntity
  8
1
100
AcDbPolyline
 90
        4
 70
     1
 43
0.0
 10
1000.551106279959
 20
849.6225922749871
 10
1003.802393021397
 20
824.9266233615971
 10
997.2998178921224
 20
824.9266003120146
 10
997.2998178921224
 20
824.9266003120146
  0
HATCH
  5
AA
330
A1
100
AcDbEntity
  8
1
 62
   250
440
 33554687
100
AcDbHatch
 10
0.0
 20
0.0
 30
0.0
210
0.0
220
0.0
230
1.0
  2
SOLID
 70
     1
 71
     1
 91
        1
 92
        1
 93
        3
 72
     1
 10
1000.551106279959
 20
849.6225922749871
 11
1003.802393021397
 21
824.9266233615971
 72
     1
 10
1003.802393021397
 20
824.9266233615971
 11
997.2998178921224
 21
824.9266003120146
 72
     1
 10
997.2998178921224
 20
824.9266003120146
 11
1000.551106279959
 21
849.6225922749871
 97
        1
330
A9
 75
     2
 76
     1
 98
        1
 10
0.0
 20
0.0
450
        0
451
        0
460
0.0
461
0.0
452
        0
462
0.0
453
        0
470

  0
LWPOLYLINE
  5
AB
330
A1
100
AcDbEntity
  8
1
100
AcDbPolyline
 90
        4
 70
     1
 43
0.0
 10
1000.551106279959
 20
295.3314136423978
 10
997.2998178921224
 20
320.027382555787
 10
1003.802393021397
 20
320.0274072517677
 10
1003.802393021397
 20
320.0274072517677
  0
HATCH
  5
AC
330
A1
100
AcDbEntity
  8
1
 62
   250
440
 33554687
100
AcDbHatch
 10
0.0
 20
0.0
 30
0.0
210
0.0
220
0.0
230
1.0
  2
SOLID
 70
     1
 71
     1
 91
        1
 92
        1
 93
        3
 72
     1
 10
1000.551106279959
 20
295.3314136423978
 11
997.2998178921224
 21
320.027382555787
 72
     1
 10
997.2998178921224
 20
320.027382555787
 11
1003.802393021397
 21
320.0274072517677
 72
     1
 10
1003.802393021397
 20
320.0274072517677
 11
1000.551106279959
 21
295.3314136423978
 97
        1
330
AB
 75
     2
 76
     1
 98
        1
 10
0.0
 20
0.0
450
        0
451
        0
460
0.0
461
0.0
452
        0
462
0.0
453
        0
470

  0
ENDBLK
  5
A4
330
A1
100
AcDbEntity
  8
0
100
AcDbBlockEnd
  0
BLOCK
  5
AF
330
AD
100
AcDbEntity
  8
0
100
AcDbBlockBegin
  2
Block_5
 70
     0
 10
0.0
 20
0.0
 30
0.0
  3
Block_5
  1

  0
MTEXT
  5
B1
330
AD
100
AcDbEntity
  8
1
100
AcDbMText
 10
581.1470260620117
 20
501.7794570922851
 30
0.0
 40
0.2
 41
0.0
 46
0.0
 71
     7
 72
     1
  1
\C250;\FMyriad Pro|b0|i0|c1;\H16.463987;\W1.000000;381,72
 11
0.0000000000000001
 21
1.0
 31
0.0
 73
     1
 44
1.0
  0
LINE
  5
B2
330
AD
100
AcDbEntity
  8
1
 62
   250
370
    13
100
AcDbLine
 10
636.4954275448117
 20
849.6225922749871
 30
0.0
 11
584.4692238158459
 21
849.6225922749871
 31
0.0
  0
LINE
  5
B3
330
AD
100
AcDbEntity
  8
1
 62
   250
370
    13
100
AcDbLine
 10
653.5844516581046
 20
221.1514155911718
 30
0.0
 11
584.4692238158459
 21
221.1514155911718
 31
0.0
  0
LINE
  5
B4
330
AD
100
AcDbEntity
  8
1
 62
   250
370
    13
100
AcDbLine
 10
587.7620212076045
 20
849.6225922749871
 30
0.0
 11
587.7620212076045
 21
221.1514155911718
 31
0.0
  0
LWPOLYLINE
  5
B5
330
AD
100
AcDbEntity
  8
1
100
AcDbPolyline
 90
        4
 70
     1
 43
0.0
 10
587.7620212076045
 20
849.6225922749871
 10
591.0133079490424
 20
824.9266233615971
 10
584.5107328197664
 20
824.9266003120146
 10
584.5107328197664
 20
824.9266003120146
  0
HATCH
  5
B6
330
AD
100
AcDbEntity
  8
1
 62
   250
440
 33554687
100
AcDbHatch
 10
0.0
 20
0.0
 30
0.0
210
0.0
220
0.0
230
1.0
  2
SOLID
 70
     1
 71
     1
 91
        1
 92
        1
 93
        3
 72
     1
 10
587.7620212076045
 20
849.6225922749871
 11
591.0133079490424
 21
824.9266233615971
 72
     1
 10
591.0133079490424
 20
824.9266233615971
 11
584.5107328197664
 21
824.9266003120146
 72
     1
 10
584.5107328197664
 20
824.9266003120146
 11
587.7620212076045
 21
849.6225922749871
 97
        1
330
B5
 75
     2
 76
     1
 98
        1
 10
0.0
 20
0.0
450
        0
451
        0
460
0.0
461
0.0
452
        0
462
0.0
453
        0
470

  0
LWPOLYLINE
  5
B7
330
AD
100
AcDbEntity
  8
1
100
AcDbPolyline
 90
        4
 70
     1
 43
0.0
 10
587.7620212076045
 20
221.1514155911718
 10
584.5107328197664
 20
245.847384504561
 10
591.0133079490424
 20
245.8474075541435
 10
591.0133079490424
 20
245.8474075541435
  0
HATCH
  5
B8
330
AD
100
AcDbEntity
  8
1
 62
   250
440
 33554687
100
AcDbHatch
 10
0.0
 20
0.0
 30
0.0
210
0.0
220
0.0
230
1.0
  2
SOLID
 70
     1
 71
     1
 91
        1
 92
        1
 93
        3
 72
     1
 10
587.7620212076045
 20
221.1514155911718
 11
584.5107328197664
 21
245.847384504561
 72
     1
 10
584.5107328197664
 20
245.847384504561
 11
591.0133079490424
 21
245.8474075541435
 72
     1
 10
591.0133079490424
 20
245.8474075541435
 11
587.7620212076045
 21
221.1514155911718
 97
        1
330
B7
 75
     2
 76
     1
 98
        1
 10
0.0
 20
0.0
450
        0
451
        0
460
0.0
461
0.0
452
        0
462
0.0
453
        0
470

  0
ENDBLK
  5
B0
330
AD
100
AcDbEntity
  8
0
100
AcDbBlockEnd
  0
BLOCK
  5
BD
330
BB
100
AcDbEntity
  8
0
100
AcDbBlockBegin
  2
Block_6
 70
     0
 10
0.0
 20
0.0
 30
0.0
  3
Block_6
  1

  0
LINE
  5
BF
330
BB
100
AcDbEntity
  8
ORTHO$6
 62
   250
370
    25
100
AcDbLine
 10
833.0754318327372
 20
303.5634087681901
 30
0.0
 11
833.5693514415016
 21
303.5634087681901
 31
0.0
  0
LINE
  5
C0
330
BB
100
AcDbEntity
  8
ORTHO$6
 62
   250
370
    25
100
AcDbLine
 10
833.5693514415016
 20
313.4418009434612
 30
0.0
 11
833.0754318327372
 21
313.4418009434612
 31
0.0
  0
LINE
  5
C1
330
BB
100
AcDbEntity
  8
ORTHO$6
 62
   250
370
    25
100
AcDbLine
 10
833.5693514415016
 20
313.4418009434612
 30
0.0
 11
833.0754318327372
 21
313.4418009434612
 31
0.0
  0
LINE
  5
C2
330
BB
100
AcDbEntity
  8
ORTHO$6
 62
   250
370
    25
100
AcDbLine
 10
833.0754318327372
 20
303.5634087681901
 30
0.0
 11
833.5693514415016
 21
303.5634087681901
 31
0.0
  0
LINE
  5
C3
330
BB
100
AcDbEntity
  8
ORTHO$6
 62
   250
370
    25
100
AcDbLine
 10
834.7218354678124
 20
308.4916283157217
 30
0.0
 11
834.7218354678124
 21
308.513581395935
 31
0.0
  0
LINE
  5
C4
330
BB
100
AcDbEntity
  8
ORTHO$6
 62
   250
370
    25
100
AcDbLine
 10
635.5075883272839
 20
313.4418009434612
 30
0.0
 11
635.0136687185213
 21
313.4418009434612
 31
0.0
  0
LINE
  5
C5
330
BB
100
AcDbEntity
  8
ORTHO$6
 62
   250
370
    25
100
AcDbLine
 10
635.0136687185213
 20
303.5634087681901
 30
0.0
 11
635.5075883272839
 21
303.5634087681901
 31
0.0
  0
LINE
  5
C6
330
BB
100
AcDbEntity
  8
ORTHO$6
 62
   250
370
    25
100
AcDbLine
 10
738.4075068197071
 20
735.5784265667816
 30
0.0
 11
738.4075068197071
 21
735.3180947121909
 31
0.0
  0
LINE
  5
C7
330
BB
100
AcDbEntity
  8
ORTHO$6
 62
   250
370
    25
100
AcDbLine
 10
730.175513340314
 20
735.5784265667816
 30
0.0
 11
730.175513340314
 21
735.3180947121909
 31
0.0
  0
LINE
  5
C8
330
BB
100
AcDbEntity
  8
ORTHO$6
 62
   250
370
    25
100
AcDbLine
 10
730.175513340314
 20
735.3180947121909
 30
0.0
 11
730.175513340314
 21
724.0536356956318
 31
0.0
  0
LINE
  5
C9
330
BB
100
AcDbEntity
  8
ORTHO$6
 62
   250
370
    25
100
AcDbLine
 10
738.4075068197071
 20
724.0536356956318
 30
0.0
 11
738.4075068197071
 21
735.3180947121909
 31
0.0
  0
LINE
  5
CA
330
BB
100
AcDbEntity
  8
ORTHO$6
 62
   250
370
    25
100
AcDbLine
 10
633.8611846922085
 20
308.513581395935
 30
0.0
 11
633.8611846922085
 21
308.4916283157217
 31
0.0
  0
LINE
  5
CB
330
BB
100
AcDbEntity
  8
ORTHO$6
 62
   250
370
    25
100
AcDbLine
 10
635.0136687185213
 20
303.5634087681901
 30
0.0
 11
635.5075883272839
 21
303.5634087681901
 31
0.0
  0
LINE
  5
CC
330
BB
100
AcDbEntity
  8
ORTHO$6
 62
   250
370
    25
100
AcDbLine
 10
635.5075883272839
 20
313.4418009434612
 30
0.0
 11
635.0136687185213
 21
313.4418009434612
 31
0.0
  0
LINE
  5
CD
330
BB
100
AcDbEntity
  8
ORTHO$6
 62
   250
370
    25
100
AcDbLine
 10
833.5693514415016
 20
313.4418009434612
 30
0.0
 11
833.5693514415016
 21
303.5634087681901
 31
0.0
  0
LINE
  5
CE
330
BB
100
AcDbEntity
  8
ORTHO$6
 62
   250
370
    25
100
AcDbLine
 10
730.9753552299553
 20
753.5241723518583
 30
0.0
 11
737.6076665764657
 21
753.5241723518583
 31
0.0
  0
LINE
  5
CF
330
BB
100
AcDbEntity
  8
ORTHO$6
 62
   250
370
    25
100
AcDbLine
 10
730.0931934055197
 20
737.8010648062172
 30
0.0
 11
730.0931934055197
 21
720.488912509666
 31
0.0
  0
LINE
  5
D0
330
BB
100
AcDbEntity
  8
ORTHO$6
 62
   250
370
    25
100
AcDbLine
 10
738.4898267545013
 20
720.488912509666
 30
0.0
 11
738.4898267545013
 21
737.8010648062172
 31
0.0
  0
LINE
  5
D1
330
BB
100
AcDbEntity
  8
ORTHO$6
 62
   250
370
    25
100
AcDbLine
 10
636.4954275448117
 20
848.9267945509318
 30
0.0
 11
636.4954275448117
 21
773.8525254128617
 31
0.0
  0
LINE
  5
D2
330
BB
100
AcDbEntity
  8
ORTHO$6
 62
   250
370
    25
100
AcDbLine
 10
832.0875926152103
 20
773.8525254128617
 30
0.0
 11
832.0875926152103
 21
848.9267945509318
 31
0.0
  0
LINE
  5
D3
330
BB
100
AcDbEntity
  8
ORTHO$6
 62
   250
370
    25
100
AcDbLine
 10
636.4954275448117
 20
773.8525254128617
 30
0.0
 11
636.4954275448117
 21
772.9572384980229
 31
0.0
  0
LINE
  5
D4
330
BB
100
AcDbEntity
  8
ORTHO$6
 62
   250
370
    25
100
AcDbLine
 10
832.8286234970356
 20
772.6327827070281
 30
0.0
 11
831.9333382285948
 21
772.6327827070281
 31
0.0
  0
LINE
  5
D5
330
BB
100
AcDbEntity
  8
ORTHO$6
 62
   250
370
    25
100
AcDbLine
 10
830.4411939193306
 20
771.1406383977637
 30
0.0
 11
831.9333382285948
 21
772.6327827070281
 31
0.0
  0
LINE
  5
D6
330
BB
100
AcDbEntity
  8
ORTHO$6
 62
   250
370
    25
100
AcDbLine
 10
636.6496819314261
 20
773.528067975466
 30
0.0
 11
636.6496819314261
 21
772.6327827070281
 31
0.0
  0
LINE
  5
D7
330
BB
100
AcDbEntity
  8
ORTHO$6
 62
   250
370
    25
100
AcDbLine
 10
638.1418262406905
 20
771.1406383977637
 30
0.0
 11
636.6496819314261
 21
772.6327827070281
 31
0.0
  0
LINE
  5
D8
330
BB
100
AcDbEntity
  8
ORTHO$6
 62
   250
370
    25
100
AcDbLine
 10
635.5075883272839
 20
295.3314152887961
 30
0.0
 11
635.5075883272839
 21
772.9572384980229
 31
0.0
  0
LINE
  5
D9
330
BB
100
AcDbEntity
  8
ORTHO$6
 62
   250
370
    25
100
AcDbLine
 10
638.1418262406905
 20
295.3314152887961
 30
0.0
 11
635.5075883272839
 21
295.3314152887961
 31
0.0
  0
LINE
  5
DA
330
BB
100
AcDbEntity
  8
ORTHO$6
 62
   250
370
    25
100
AcDbLine
 10
833.0754318327372
 20
772.9572384980229
 30
0.0
 11
833.0754318327372
 21
295.3314152887961
 31
0.0
  0
LINE
  5
DB
330
BB
100
AcDbEntity
  8
ORTHO$6
 62
   250
370
    25
100
AcDbLine
 10
830.4411939193306
 20
771.1406383977637
 30
0.0
 11
832.8286234970356
 21
772.6327827070281
 31
0.0
  0
LINE
  5
DC
330
BB
100
AcDbEntity
  8
ORTHO$6
 62
   250
370
    25
100
AcDbLine
 10
830.4411939193306
 20
295.3314152887961
 30
0.0
 11
833.0754318327372
 21
295.3314152887961
 31
0.0
  0
LINE
  5
DD
330
BB
100
AcDbEntity
  8
ORTHO$6
 62
   250
370
    25
100
AcDbLine
 10
636.6496819314261
 20
773.528067975466
 30
0.0
 11
831.9333382285948
 21
773.528067975466
 31
0.0
  0
LINE
  5
DE
330
BB
100
AcDbEntity
  8
ORTHO$6
 62
   250
370
    25
100
AcDbLine
 10
638.1418262406905
 20
771.1406383977637
 30
0.0
 11
636.6496819314261
 21
773.528067975466
 31
0.0
  0
LINE
  5
DF
330
BB
100
AcDbEntity
  8
ORTHO$6
 62
   250
370
    25
100
AcDbLine
 10
635.7543966629837
 20
772.6327827070281
 30
0.0
 11
636.6496819314261
 21
772.6327827070281
 31
0.0
  0
LINE
  5
E0
330
BB
100
AcDbEntity
  8
ORTHO$6
 62
   250
370
    25
100
AcDbLine
 10
635.7543966629837
 20
772.6327827070281
 30
0.0
 11
638.1418262406905
 21
771.1406383977637
 31
0.0
  0
LINE
  5
E1
330
BB
100
AcDbEntity
  8
ORTHO$6
 62
   250
370
    25
100
AcDbLine
 10
636.6496819314261
 20
772.6327827070281
 30
0.0
 11
638.1418262406905
 21
771.1406383977637
 31
0.0
  0
LINE
  5
E2
330
BB
100
AcDbEntity
  8
ORTHO$6
 62
   250
370
    25
100
AcDbLine
 10
831.9333382285948
 20
773.528067975466
 30
0.0
 11
831.9333382285948
 21
772.6327827070281
 31
0.0
  0
LINE
  5
E3
330
BB
100
AcDbEntity
  8
ORTHO$6
 62
   250
370
    25
100
AcDbLine
 10
831.9333382285948
 20
773.528067975466
 30
0.0
 11
830.4411939193306
 21
771.1406383977637
 31
0.0
  0
LINE
  5
E4
330
BB
100
AcDbEntity
  8
ORTHO$6
 62
   250
370
    25
100
AcDbLine
 10
831.9333382285948
 20
772.6327827070281
 30
0.0
 11
830.4411939193306
 21
771.1406383977637
 31
0.0
  0
LINE
  5
E5
330
BB
100
AcDbEntity
  8
ORTHO$6
 62
   250
370
    25
100
AcDbLine
 10
833.5693514415016
 20
313.4418009434612
 30
0.0
 11
833.5693514415016
 21
303.5634087681901
 31
0.0
  0
LINE
  5
E6
330
BB
100
AcDbEntity
  8
ORTHO$6
 62
   250
370
    25
100
AcDbLine
 10
635.0136687185213
 20
303.5634087681901
 30
0.0
 11
635.0136687185213
 21
313.4418009434612
 31
0.0
  0
LINE
  5
E7
330
BB
100
AcDbEntity
  8
ORTHO$6
 62
   250
370
    25
100
AcDbLine
 10
737.5843074717677
 20
312.6186015955227
 30
0.0
 11
737.5843074717677
 21
599.9991420062606
 31
0.0
  0
LINE
  5
E8
330
BB
100
AcDbEntity
  8
ORTHO$6
 62
   250
370
    25
100
AcDbLine
 10
731.8219120361927
 20
311.7954022475842
 30
0.0
 11
736.7611081238282
 21
311.7954022475842
 31
0.0
  0
LINE
  5
E9
330
BB
100
AcDbEntity
  8
ORTHO$6
 62
   250
370
    25
100
AcDbLine
 10
730.9987126882533
 20
605.8854454076863
 30
0.0
 11
730.9987126882533
 21
312.6186015955227
 31
0.0
  0
LINE
  5
EA
330
BB
100
AcDbEntity
  8
ORTHO$6
 62
   250
370
    25
100
AcDbLine
 10
830.4411939193306
 20
771.1406383977637
 30
0.0
 11
638.1418262406905
 21
771.1406383977637
 31
0.0
  0
LINE
  5
EB
330
BB
100
AcDbEntity
  8
ORTHO$6
 62
   250
370
    25
100
AcDbLine
 10
638.1418262406905
 20
771.1406383977637
 30
0.0
 11
638.1418262406905
 21
295.3314152887961
 31
0.0
  0
LINE
  5
EC
330
BB
100
AcDbEntity
  8
ORTHO$6
 62
   250
370
    25
100
AcDbLine
 10
638.1418262406905
 20
295.3314152887961
 30
0.0
 11
830.4411939193306
 21
295.3314152887961
 31
0.0
  0
LINE
  5
ED
330
BB
100
AcDbEntity
  8
ORTHO$6
 62
   250
370
    25
100
AcDbLine
 10
830.4411939193306
 20
295.3314152887961
 30
0.0
 11
830.4411939193306
 21
771.1406383977637
 31
0.0
  0
LINE
  5
EE
330
BB
100
AcDbEntity
  8
ORTHO$6
 62
   250
370
    25
100
AcDbLine
 10
739.6423058416167
 20
749.325855677368
 30
0.0
 11
739.6423058416167
 21
723.8066758912464
 31
0.0
  0
LINE
  5
EF
330
BB
100
AcDbEntity
  8
ORTHO$6
 62
   250
370
    25
100
AcDbLine
 10
737.5806096602982
 20
569.2167779187347
 30
0.0
 11
730.9951218926981
 21
569.2167779187347
 31
0.0
  0
LINE
  5
F0
330
BB
100
AcDbEntity
  8
ORTHO$6
 62
   250
370
    25
100
AcDbLine
 10
731.0030707056021
 20
562.8030803302571
 30
0.0
 11
737.5875393524084
 21
562.8030803302571
 31
0.0
  0
LINE
  5
F1
330
BB
100
AcDbEntity
  8
ORTHO$6
 62
   250
370
    25
100
AcDbLine
 10
635.0136687185213
 20
303.5634087681901
 30
0.0
 11
635.0136687185213
 21
306.6165761225584
 31
0.0
  0
LINE
  5
F2
330
BB
100
AcDbEntity
  8
ORTHO$6
 62
   250
370
    25
100
AcDbLine
 10
635.0136687185213
 20
306.6165761225584
 30
0.0
 11
635.0136687185213
 21
313.4418009434612
 31
0.0
  0
LINE
  5
F3
330
BB
100
AcDbEntity
  8
ORTHO$6
 62
   250
370
    25
100
AcDbLine
 10
833.0754318327372
 20
847.4095212583725
 30
0.0
 11
833.0754318327372
 21
847.5637756449868
 31
0.0
  0
LINE
  5
F4
330
BB
100
AcDbEntity
  8
ORTHO$6
 62
   250
370
    25
100
AcDbLine
 10
635.5075883272839
 20
847.5637756449868
 30
0.0
 11
635.5075883272839
 21
847.4095212583725
 31
0.0
  0
LINE
  5
F5
330
BB
100
AcDbEntity
  8
ORTHO$6
 62
   250
370
    25
100
AcDbLine
 10
635.5075883272839
 20
772.9572384980229
 30
0.0
 11
635.5075883272839
 21
847.4095212583725
 31
0.0
  0
LINE
  5
F6
330
BB
100
AcDbEntity
  8
ORTHO$6
 62
   250
370
    25
100
AcDbLine
 10
636.4954275448117
 20
847.4095212583725
 30
0.0
 11
635.5075883272839
 21
847.4095212583725
 31
0.0
  0
LINE
  5
F7
330
BB
100
AcDbEntity
  8
ORTHO$6
 62
   250
370
    25
100
AcDbLine
 10
833.0754318327372
 20
847.4095212583725
 30
0.0
 11
833.0754318327372
 21
772.9572384980229
 31
0.0
  0
LINE
  5
F8
330
BB
100
AcDbEntity
  8
ORTHO$6
 62
   250
370
    25
100
AcDbLine
 10
833.0754318327372
 20
847.4095212583725
 30
0.0
 11
832.0875926152103
 21
847.4095212583725
 31
0.0
  0
LINE
  5
F9
330
BB
100
AcDbEntity
  8
ORTHO$6
 62
   250
370
    25
100
AcDbLine
 10
635.5075883272839
 20
772.9572384980229
 30
0.0
 11
636.4954275448117
 21
772.9572384980229
 31
0.0
  0
LINE
  5
FA
330
BB
100
AcDbEntity
  8
ORTHO$6
 62
   250
370
    25
100
AcDbLine
 10
832.0875926152103
 20
773.8525254128617
 30
0.0
 11
832.0875926152103
 21
772.9572384980229
 31
0.0
  0
LINE
  5
FB
330
BB
100
AcDbEntity
  8
ORTHO$6
 62
   250
370
    25
100
AcDbLine
 10
833.0754318327372
 20
772.9572384980229
 30
0.0
 11
832.0875926152103
 21
772.9572384980229
 31
0.0
  0
LINE
  5
FC
330
BB
100
AcDbEntity
  8
ORTHO$6
 62
   250
370
    25
100
AcDbLine
 10
728.9407143184035
 20
723.8066758912464
 30
0.0
 11
728.9407143184035
 21
749.325855677368
 31
0.0
  0
LINE
  5
FD
330
BB
100
AcDbEntity
  8
ORTHO$6
 62
   250
370
    25
100
AcDbLine
 10
737.3917150451206
 20
600.5282830223231
 30
0.0
 11
732.4525189574851
 21
606.4145880701508
 31
0.0
  0
LINE
  5
FE
330
BB
100
AcDbEntity
  8
ORTHO$6
 62
   250
370
    25
100
AcDbLine
 10
638.1418262406905
 20
849.6225939213854
 30
0.0
 11
830.4411939193306
 21
849.6225939213854
 31
0.0
  0
LINE
  5
FF
330
BB
100
AcDbEntity
  8
ORTHO$6
 62
   250
370
    25
100
AcDbLine
 10
833.0754318327372
 20
847.5637756449868
 30
0.0
 11
832.0875926152103
 21
847.5637756449868
 31
0.0
  0
LINE
  5
100
330
BB
100
AcDbEntity
  8
ORTHO$6
 62
   250
370
    25
100
AcDbLine
 10
636.4954275448117
 20
847.5637756449868
 30
0.0
 11
635.5075883272839
 21
847.5637756449868
 31
0.0
  0
SPLINE
  5
101
330
BB
100
AcDbEntity
  8
ORTHO$6
 62
   250
370
    25
100
AcDbSpline
210
0.0
220
0.0
230
1.0
 70
     8
 71
     3
 72
     8
 73
     4
 74
     0
 42
0.0000000001
 43
0.0000000001
 40
0.0
 40
0.0
 40
0.0
 40
0.0
 40
1.0
 40
1.0
 40
1.0
 40
1.0
 10
833.56935211372
 20
303.5634087005565
 30
0.0
 10
835.1059909410469
 20
306.6769316048085
 30
0.0
 10
835.1059909410469
 20
310.3282781068374
 30
0.0
 10
833.56935211372
 20
313.4418010110949
 30
0.0
  0
SPLINE
  5
102
330
BB
100
AcDbEntity
  8
ORTHO$6
 62
   250
370
    25
100
AcDbSpline
210
0.0
220
0.0
230
1.0
 70
     8
 71
     3
 72
     8
 73
     4
 74
     0
 42
0.0000000001
 43
0.0000000001
 40
0.0
 40
0.0
 40
0.0
 40
0.0
 40
1.0
 40
1.0
 40
1.0
 40
1.0
 10
834.7218354678124
 20
308.513581395935
 30
0.0
 10
834.7218354678124
 20
310.2230974930971
 30
0.0
 10
834.3274472601297
 20
311.9095681956569
 30
0.0
 10
833.5693509220609
 20
313.4418003023165
 30
0.0
  0
SPLINE
  5
103
330
BB
100
AcDbEntity
  8
ORTHO$6
 62
   250
370
    25
100
AcDbSpline
210
0.0
220
0.0
230
1.0
 70
     8
 71
     3
 72
     8
 73
     4
 74
     0
 42
0.0000000001
 43
0.0000000001
 40
0.0
 40
0.0
 40
0.0
 40
0.0
 40
1.0
 40
1.0
 40
1.0
 40
1.0
 10
833.5693509220609
 20
303.5634094093348
 30
0.0
 10
834.3274472601297
 20
305.0956415159944
 30
0.0
 10
834.7218354678124
 20
306.7821122185542
 30
0.0
 10
834.7218354678124
 20
308.4916283157181
 30
0.0
  0
SPLINE
  5
104
330
BB
100
AcDbEntity
  8
ORTHO$6
 62
   250
370
    25
100
AcDbSpline
210
0.0
220
0.0
230
1.0
 70
     8
 71
     3
 72
     8
 73
     4
 74
     0
 42
0.0000000001
 43
0.0000000001
 40
0.0
 40
0.0
 40
0.0
 40
0.0
 40
1.0
 40
1.0
 40
1.0
 40
1.0
 10
635.013668046301
 20
313.4418010110949
 30
0.0
 10
633.4770292189751
 20
310.3282781068374
 30
0.0
 10
633.4770292189751
 20
306.6769316048085
 30
0.0
 10
635.013668046301
 20
303.5634087005565
 30
0.0
  0
SPLINE
  5
105
330
BB
100
AcDbEntity
  8
ORTHO$6
 62
   250
370
    25
100
AcDbSpline
210
0.0
220
0.0
230
1.0
 70
     8
 71
     3
 72
     8
 73
     4
 74
     0
 42
0.0000000001
 43
0.0000000001
 40
0.0
 40
0.0
 40
0.0
 40
0.0
 40
1.0
 40
1.0
 40
1.0
 40
1.0
 10
633.8611846922085
 20
308.4916283157181
 30
0.0
 10
633.8611846922085
 20
306.7821122185542
 30
0.0
 10
634.2555728998941
 20
305.0956415159944
 30
0.0
 10
635.013669237961
 20
303.5634094093348
 30
0.0
  0
SPLINE
  5
106
330
BB
100
AcDbEntity
  8
ORTHO$6
 62
   250
370
    25
100
AcDbSpline
210
0.0
220
0.0
230
1.0
 70
     8
 71
     3
 72
     8
 73
     4
 74
     0
 42
0.0000000001
 43
0.0000000001
 40
0.0
 40
0.0
 40
0.0
 40
0.0
 40
1.0
 40
1.0
 40
1.0
 40
1.0
 10
635.013669237961
 20
313.4418003023165
 30
0.0
 10
634.2555728998941
 20
311.9095681956569
 30
0.0
 10
633.8611846922085
 20
310.2230974930971
 30
0.0
 10
633.8611846922085
 20
308.513581395935
 30
0.0
  0
SPLINE
  5
107
330
BB
100
AcDbEntity
  8
ORTHO$6
 62
   250
370
    25
100
AcDbSpline
210
0.0
220
0.0
230
1.0
 70
     8
 71
     3
 72
    11
 73
     7
 74
     0
 42
0.0000000001
 43
0.0000000001
 40
0.0
 40
0.0
 40
0.0
 40
0.0
 40
1.0
 40
1.0
 40
1.0
 40
2.0
 40
2.0
 40
2.0
 40
2.0
 10
730.0931934055197
 20
737.8010648062172
 30
0.0
 10
730.0931934055197
 20
740.1197310804982
 30
0.0
 10
731.9728438057291
 20
741.9993814807085
 30
0.0
 10
734.2915100800118
 20
741.9993814807085
 30
0.0
 10
736.610176354292
 20
741.9993814807085
 30
0.0
 10
738.4898267545013
 20
740.1197310804982
 30
0.0
 10
738.4898267545013
 20
737.8010648062172
 30
0.0
  0
SPLINE
  5
108
330
BB
100
AcDbEntity
  8
ORTHO$6
 62
   250
370
    25
100
AcDbSpline
210
0.0
220
0.0
230
1.0
 70
     8
 71
     3
 72
     8
 73
     4
 74
     0
 42
0.0000000001
 43
0.0000000001
 40
0.0
 40
0.0
 40
0.0
 40
0.0
 40
1.0
 40
1.0
 40
1.0
 40
1.0
 10
737.5843074717677
 20
312.6186015955227
 30
0.0
 10
737.5843074717677
 20
312.1639611495866
 30
0.0
 10
737.215748569768
 20
311.7954022475842
 30
0.0
 10
736.7611081238282
 20
311.7954022475842
 30
0.0
  0
SPLINE
  5
109
330
BB
100
AcDbEntity
  8
ORTHO$6
 62
   250
370
    25
100
AcDbSpline
210
0.0
220
0.0
230
1.0
 70
     8
 71
     3
 72
     8
 73
     4
 74
     0
 42
0.0000000001
 43
0.0000000001
 40
0.0
 40
0.0
 40
0.0
 40
0.0
 40
1.0
 40
1.0
 40
1.0
 40
1.0
 10
731.8219120361927
 20
311.7954022475842
 30
0.0
 10
731.3672715902558
 20
311.7954022475842
 30
0.0
 10
730.9987126882533
 20
312.1639611495866
 30
0.0
 10
730.9987126882533
 20
312.6186015955227
 30
0.0
  0
SPLINE
  5
10A
330
BB
100
AcDbEntity
  8
ORTHO$6
 62
   250
370
    25
100
AcDbSpline
210
0.0
220
0.0
230
1.0
 70
     8
 71
     3
 72
    11
 73
     7
 74
     0
 42
0.0000000001
 43
0.0000000001
 40
0.0
 40
0.0
 40
0.0
 40
0.0
 40
1.0
 40
1.0
 40
1.0
 40
2.0
 40
2.0
 40
2.0
 40
2.0
 10
730.9987126882533
 20
605.8854454076863
 30
0.0
 10
730.9987126882533
 20
606.1287772766582
 30
0.0
 10
731.1063666689761
 20
606.3596419833365
 30
0.0
 10
731.2927696950337
 20
606.5160526937525
 30
0.0
 10
731.6410444822613
 20
606.8082899392647
 30
0.0
 10
732.1602820767493
 20
606.7628625360712
 30
0.0
 10
732.4525193222607
 20
606.4145877488426
 30
0.0
  0
SPLINE
  5
10B
330
BB
100
AcDbEntity
  8
ORTHO$6
 62
   250
370
    25
100
AcDbSpline
210
0.0
220
0.0
230
1.0
 70
     8
 71
     3
 72
    11
 73
     7
 74
     0
 42
0.0000000001
 43
0.0000000001
 40
0.0
 40
0.0
 40
0.0
 40
0.0
 40
1.0
 40
1.0
 40
1.0
 40
2.0
 40
2.0
 40
2.0
 40
2.0
 10
728.9407143184035
 20
749.325855677368
 30
0.0
 10
728.9407143184035
 20
752.2810185759644
 30
0.0
 10
731.3363471814163
 20
754.6766514389737
 30
0.0
 10
734.2915100800118
 20
754.6766514389737
 30
0.0
 10
737.2466729786055
 20
754.6766514389737
 30
0.0
 10
739.6423058416167
 20
752.2810185759644
 30
0.0
 10
739.6423058416167
 20
749.325855677368
 30
0.0
  0
SPLINE
  5
10C
330
BB
100
AcDbEntity
  8
ORTHO$6
 62
   250
370
    25
100
AcDbSpline
210
0.0
220
0.0
230
1.0
 70
     8
 71
     3
 72
     8
 73
     4
 74
     0
 42
0.0000000001
 43
0.0000000001
 40
0.0
 40
0.0
 40
0.0
 40
0.0
 40
1.0
 40
1.0
 40
1.0
 40
1.0
 10
734.2915100800118
 20
739.6944233064768
 30
0.0
 10
732.0183078503232
 20
739.6944233064768
 30
0.0
 10
730.175513340314
 20
737.8516287964685
 30
0.0
 10
730.175513340314
 20
735.5784265667816
 30
0.0
  0
SPLINE
  5
10D
330
BB
100
AcDbEntity
  8
ORTHO$6
 62
   250
370
    25
100
AcDbSpline
210
0.0
220
0.0
230
1.0
 70
     8
 71
     3
 72
     8
 73
     4
 74
     0
 42
0.0000000001
 43
0.0000000001
 40
0.0
 40
0.0
 40
0.0
 40
0.0
 40
1.0
 40
1.0
 40
1.0
 40
1.0
 10
738.4075068197071
 20
735.5784265667816
 30
0.0
 10
738.4075068197071
 20
737.8516287964685
 30
0.0
 10
736.5647123096977
 20
739.6944233064768
 30
0.0
 10
734.2915100800118
 20
739.6944233064768
 30
0.0
  0
SPLINE
  5
10E
330
BB
100
AcDbEntity
  8
ORTHO$6
 62
   250
370
    25
100
AcDbSpline
210
0.0
220
0.0
230
1.0
 70
     8
 71
     3
 72
    11
 73
     7
 74
     0
 42
0.0000000001
 43
0.0000000001
 40
0.0
 40
0.0
 40
0.0
 40
0.0
 40
1.0
 40
1.0
 40
1.0
 40
2.0
 40
2.0
 40
2.0
 40
2.0
 10
739.6423058416167
 20
723.8066758912464
 30
0.0
 10
739.6423058416167
 20
720.8515129926554
 30
0.0
 10
737.2466729786055
 20
718.4558801296443
 30
0.0
 10
734.2915100800118
 20
718.4558801296443
 30
0.0
 10
731.3363471814163
 20
718.4558801296443
 30
0.0
 10
728.9407143184035
 20
720.8515129926554
 30
0.0
 10
728.9407143184035
 20
723.8066758912464
 30
0.0
  0
SPLINE
  5
10F
330
BB
100
AcDbEntity
  8
ORTHO$6
 62
   250
370
    25
100
AcDbSpline
210
0.0
220
0.0
230
1.0
 70
     8
 71
     3
 72
     8
 73
     4
 74
     0
 42
0.0000000001
 43
0.0000000001
 40
0.0
 40
0.0
 40
0.0
 40
0.0
 40
1.0
 40
1.0
 40
1.0
 40
1.0
 10
737.3917154098972
 20
600.528284347416
 30
0.0
 10
737.5161181717385
 20
600.3800269090625
 30
0.0
 10
737.5843074717677
 20
600.1926783469817
 30
0.0
 10
737.5843074717677
 20
599.9991420062606
 30
0.0
  0
SPLINE
  5
110
330
BB
100
AcDbEntity
  8
ORTHO$6
 62
   250
370
    25
100
AcDbSpline
210
0.0
220
0.0
230
1.0
 70
     8
 71
     3
 72
     8
 73
     4
 74
     0
 42
0.0000000001
 43
0.0000000001
 40
0.0
 40
0.0
 40
0.0
 40
0.0
 40
1.0
 40
1.0
 40
1.0
 40
1.0
 10
831.9333378782221
 20
773.5280691667822
 30
0.0
 10
832.0349409332985
 20
773.6296722963516
 30
0.0
 10
832.0875926154585
 20
773.7404187632001
 30
0.0
 10
832.0875926154585
 20
773.8525254128617
 30
0.0
  0
SPLINE
  5
111
330
BB
100
AcDbEntity
  8
ORTHO$6
 62
   250
370
    25
100
AcDbSpline
210
0.0
220
0.0
230
1.0
 70
     8
 71
     3
 72
     8
 73
     4
 74
     0
 42
0.0000000001
 43
0.0000000001
 40
0.0
 40
0.0
 40
0.0
 40
0.0
 40
1.0
 40
1.0
 40
1.0
 40
1.0
 10
832.0875926152103
 20
848.9267945509318
 30
0.0
 10
832.0875926152103
 20
849.3110730228954
 30
0.0
 10
831.3504748112062
 20
849.6225922749854
 30
0.0
 10
830.4411939193306
 20
849.6225922749854
 30
0.0
  0
SPLINE
  5
112
330
BB
100
AcDbEntity
  8
ORTHO$6
 62
   250
370
    25
100
AcDbSpline
210
0.0
220
0.0
230
1.0
 70
     8
 71
     3
 72
     8
 73
     4
 74
     0
 42
0.0000000001
 43
0.0000000001
 40
0.0
 40
0.0
 40
0.0
 40
0.0
 40
1.0
 40
1.0
 40
1.0
 40
1.0
 10
636.4954275449426
 20
773.8525254128617
 30
0.0
 10
636.4954275449426
 20
773.7404187632128
 30
0.0
 10
636.5480792271028
 20
773.6296722963788
 30
0.0
 10
636.6496822821791
 20
773.5280691668222
 30
0.0
  0
SPLINE
  5
113
330
BB
100
AcDbEntity
  8
ORTHO$6
 62
   250
370
    25
100
AcDbSpline
210
0.0
220
0.0
230
1.0
 70
     8
 71
     3
 72
     8
 73
     4
 74
     0
 42
0.0000000001
 43
0.0000000001
 40
0.0
 40
0.0
 40
0.0
 40
0.0
 40
1.0
 40
1.0
 40
1.0
 40
1.0
 10
636.4954275447544
 20
772.9572384980229
 30
0.0
 10
636.4954275447544
 20
772.8451318483676
 30
0.0
 10
636.5480792269136
 20
772.7343853815291
 30
0.0
 10
636.6496822819899
 20
772.6327822519634
 30
0.0
  0
SPLINE
  5
114
330
BB
100
AcDbEntity
  8
ORTHO$6
 62
   250
370
    25
100
AcDbSpline
210
0.0
220
0.0
230
1.0
 70
     8
 71
     3
 72
     8
 73
     4
 74
     0
 42
0.0000000001
 43
0.0000000001
 40
0.0
 40
0.0
 40
0.0
 40
0.0
 40
1.0
 40
1.0
 40
1.0
 40
1.0
 10
831.9333378782221
 20
772.6327822519433
 30
0.0
 10
832.0349409332985
 20
772.7343853815145
 30
0.0
 10
832.0875926154585
 20
772.8451318483612
 30
0.0
 10
832.0875926154585
 20
772.9572384980229
 30
0.0
  0
SPLINE
  5
115
330
BB
100
AcDbEntity
  8
ORTHO$6
 62
   250
370
    25
100
AcDbSpline
210
0.0
220
0.0
230
1.0
 70
     8
 71
     3
 72
     8
 73
     4
 74
     0
 42
0.0000000001
 43
0.0000000001
 40
0.0
 40
0.0
 40
0.0
 40
0.0
 40
1.0
 40
1.0
 40
1.0
 40
1.0
 10
636.4954275446043
 20
772.9572384980229
 30
0.0
 10
636.4954275446043
 20
772.8451318483621
 30
0.0
 10
636.5480792267645
 20
772.7343853815164
 30
0.0
 10
636.6496822818398
 20
772.6327822519488
 30
0.0
  0
SPLINE
  5
116
330
BB
100
AcDbEntity
  8
ORTHO$6
 62
   250
370
    25
100
AcDbSpline
210
0.0
220
0.0
230
1.0
 70
     8
 71
     3
 72
     8
 73
     4
 74
     0
 42
0.0000000001
 43
0.0000000001
 40
0.0
 40
0.0
 40
0.0
 40
0.0
 40
1.0
 40
1.0
 40
1.0
 40
1.0
 10
635.5075883276031
 20
772.9572384980229
 30
0.0
 10
635.5075883276031
 20
772.8451320407084
 30
0.0
 10
635.5918310190591
 20
772.7343857638725
 30
0.0
 10
635.754395907179
 20
772.6327828086295
 30
0.0
  0
SPLINE
  5
117
330
BB
100
AcDbEntity
  8
ORTHO$6
 62
   250
370
    25
100
AcDbSpline
210
0.0
220
0.0
230
1.0
 70
     8
 71
     3
 72
     8
 73
     4
 74
     0
 42
0.0000000001
 43
0.0000000001
 40
0.0
 40
0.0
 40
0.0
 40
0.0
 40
1.0
 40
1.0
 40
1.0
 40
1.0
 10
832.8286242534186
 20
772.6327828085905
 30
0.0
 10
832.9911891415395
 20
772.7343857638479
 30
0.0
 10
833.0754318329955
 20
772.8451320406947
 30
0.0
 10
833.0754318329955
 20
772.9572384980229
 30
0.0
  0
ELLIPSE
  5
118
330
BB
100
AcDbEntity
  8
ORTHO$6
 62
   250
370
    25
100
AcDbEllipse
 10
734.291510080011
 20
724.0536356956308
 30
0.0
 11
3.786717000522912
 21
0.0
 31
0.0
210
0.0
220
0.0
230
1.0
 40
0.9209389999996041
 41
0.0
 42
6.283185307179586
  0
SPLINE
  5
119
330
BB
100
AcDbEntity
  8
ORTHO$6
 62
   250
370
    25
100
AcDbSpline
210
0.0
220
0.0
230
1.0
 70
     8
 71
     3
 72
     8
 73
     4
 74
     0
 42
0.0000000001
 43
0.0000000001
 40
0.0
 40
0.0
 40
0.0
 40
0.0
 40
1.0
 40
1.0
 40
1.0
 40
1.0
 10
734.2915100800118
 20
739.1086766336502
 30
0.0
 10
732.0183078503232
 20
739.1086766336502
 30
0.0
 10
730.175513340314
 20
737.4115753003953
 30
0.0
 10
730.175513340314
 20
735.3180947121909
 30
0.0
  0
SPLINE
  5
11A
330
BB
100
AcDbEntity
  8
ORTHO$6
 62
   250
370
    25
100
AcDbSpline
210
0.0
220
0.0
230
1.0
 70
     8
 71
     3
 72
     8
 73
     4
 74
     0
 42
0.0000000001
 43
0.0000000001
 40
0.0
 40
0.0
 40
0.0
 40
0.0
 40
1.0
 40
1.0
 40
1.0
 40
1.0
 10
738.4075068197071
 20
735.3180947121909
 30
0.0
 10
738.4075068197071
 20
737.4115753003953
 30
0.0
 10
736.5647123097005
 20
739.1086766336493
 30
0.0
 10
734.2915100800137
 20
739.1086766336502
 30
0.0
  0
ELLIPSE
  5
11B
330
BB
100
AcDbEntity
  8
ORTHO$6
 62
   250
370
    25
100
AcDbEllipse
 10
734.2915100800112
 20
724.0536356956304
 30
0.0
 11
4.115996739697266
 21
0.0
 31
0.0
210
0.0
220
0.0
230
1.0
 40
0.9209389999994852
 41
0.0
 42
6.283185307179586
  0
SPLINE
  5
11C
330
BB
100
AcDbEntity
  8
ORTHO$6
 62
   250
370
    25
100
AcDbSpline
210
0.0
220
0.0
230
1.0
 70
     8
 71
     3
 72
     8
 73
     4
 74
     0
 42
0.0000000001
 43
0.0000000001
 40
0.0
 40
0.0
 40
0.0
 40
0.0
 40
1.0
 40
1.0
 40
1.0
 40
1.0
 10
831.9333378782221
 20
772.6327822519433
 30
0.0
 10
832.0349409332985
 20
772.7343853815145
 30
0.0
 10
832.0875926154585
 20
772.8451318483612
 30
0.0
 10
832.0875926154585
 20
772.9572384980229
 30
0.0
  0
SPLINE
  5
11D
330
BB
100
AcDbEntity
  8
ORTHO$6
 62
   250
370
    25
100
AcDbSpline
210
0.0
220
0.0
230
1.0
 70
     8
 71
     3
 72
     8
 73
     4
 74
     0
 42
0.0000000001
 43
0.0000000001
 40
0.0
 40
0.0
 40
0.0
 40
0.0
 40
1.0
 40
1.0
 40
1.0
 40
1.0
 10
638.1418262406905
 20
849.6225922749854
 30
0.0
 10
637.2325453488147
 20
849.6225922749854
 30
0.0
 10
636.4954275448117
 20
849.3110730228954
 30
0.0
 10
636.4954275448117
 20
848.9267945509318
 30
0.0
  0
SPLINE
  5
11E
330
BB
100
AcDbEntity
  8
ORTHO$6
 62
   250
370
    25
100
AcDbSpline
210
0.0
220
0.0
230
1.0
 70
     8
 71
     3
 72
    14
 73
    10
 74
     0
 42
0.0000000001
 43
0.0000000001
 40
0.0
 40
0.0
 40
0.0
 40
0.0
 40
1.0
 40
1.0
 40
1.0
 40
2.0
 40
2.0
 40
2.0
 40
3.0
 40
3.0
 40
3.0
 40
3.0
 10
650.7367749860877
 20
265.7675434942667
 30
0.0
 10
650.7367749175974
 20
270.5532264915073
 30
0.0
 10
650.7367749110563
 20
275.3389858847877
 30
0.0
 10
650.7367749470759
 20
280.124893019638
 30
0.0
 10
650.736774981392
 20
284.6842672742041
 30
0.0
 10
650.7367750543326
 20
289.243775615143
 30
0.0
 10
650.7367752195668
 20
293.8032205712934
 30
0.0
 10
650.736775238095
 20
294.3144688430275
 30
0.0
 10
650.7367752577829
 20
294.8257163178241
 30
0.0
 10
650.7367752783721
 20
295.3369631448495
 30
0.0
  0
SPLINE
  5
11F
330
BB
100
AcDbEntity
  8
ORTHO$6
 62
   250
370
    25
100
AcDbSpline
210
0.0
220
0.0
230
1.0
 70
     8
 71
     3
 72
    14
 73
    10
 74
     0
 42
0.0000000001
 43
0.0000000001
 40
0.0
 40
0.0
 40
0.0
 40
0.0
 40
1.0
 40
1.0
 40
1.0
 40
2.0
 40
2.0
 40
2.0
 40
3.0
 40
3.0
 40
3.0
 40
3.0
 10
643.3279765941124
 20
295.3370880172497
 30
0.0
 10
643.3279761115564
 20
293.6491429646321
 30
0.0
 10
643.3279756993051
 20
291.9611918798728
 30
0.0
 10
643.3279754970417
 20
290.2732243228129
 30
0.0
 10
643.3279750154333
 20
286.254019044829
 30
0.0
 10
643.3279757243735
 20
282.2347203755289
 30
0.0
 10
643.3279758817316
 20
278.2155931540146
 30
0.0
 10
643.3279760441919
 20
274.066131708887
 30
0.0
 10
643.3279756187157
 20
269.9168530114257
 30
0.0
 10
643.3279752176677
 20
265.7676639698129
 30
0.0
  0
SPLINE
  5
120
330
BB
100
AcDbEntity
  8
ORTHO$6
 62
   250
370
    25
100
AcDbSpline
210
0.0
220
0.0
230
1.0
 70
     8
 71
     3
 72
    14
 73
    10
 74
     0
 42
0.0000000001
 43
0.0000000001
 40
0.0
 40
0.0
 40
0.0
 40
0.0
 40
1.0
 40
1.0
 40
1.0
 40
2.0
 40
2.0
 40
2.0
 40
3.0
 40
3.0
 40
3.0
 40
3.0
 10
817.8462494831819
 20
295.3364239360217
 30
0.0
 10
817.8462496919602
 20
294.2829097436734
 30
0.0
 10
817.8462498122508
 20
293.2293952266773
 30
0.0
 10
817.8462497897463
 20
292.1758801991127
 30
0.0
 10
817.846249699467
 20
287.9497884283282
 30
0.0
 10
817.846247311396
 20
283.7236884418217
 30
0.0
 10
817.8462497980516
 20
279.4976142445121
 30
0.0
 10
817.8462524912511
 20
274.9205124745113
 30
0.0
 10
817.8462609026245
 20
270.3434409558558
 30
0.0
 10
817.8462723032126
 20
265.7663867505744
 30
0.0
  0
SPLINE
  5
121
330
BB
100
AcDbEntity
  8
ORTHO$6
 62
   250
370
    25
100
AcDbSpline
210
0.0
220
0.0
230
1.0
 70
     8
 71
     3
 72
    14
 73
    10
 74
     0
 42
0.0000000001
 43
0.0000000001
 40
0.0
 40
0.0
 40
0.0
 40
0.0
 40
1.0
 40
1.0
 40
1.0
 40
2.0
 40
2.0
 40
2.0
 40
3.0
 40
3.0
 40
3.0
 40
3.0
 10
825.255086652287
 20
265.766309908513
 30
0.0
 10
825.2550674553768
 20
270.4226498470143
 30
0.0
 10
825.2550531486841
 20
275.0790068935276
 30
0.0
 10
825.2550483913292
 20
279.7353944192382
 30
0.0
 10
825.2550438971903
 20
284.1341523597057
 30
0.0
 10
825.2550479249238
 20
288.5329374999546
 30
0.0
 10
825.2550477575596
 20
292.9317133435962
 30
0.0
 10
825.2550477270641
 20
293.7332586994653
 30
0.0
 10
825.2550475572707
 20
294.5348037466447
 30
0.0
 10
825.2550472950987
 20
295.3363485846585
 30
0.0
  0
SPLINE
  5
122
330
BB
100
AcDbEntity
  8
ORTHO$6
 62
   250
370
    25
100
AcDbSpline
210
0.0
220
0.0
230
1.0
 70
    24
 71
     3
 72
     8
 73
     4
 74
     0
 42
0.0000000001
 43
0.0000000001
 40
0.0
 40
0.0
 40
0.0
 40
0.0
 40
1.0
 40
1.0
 40
1.0
 40
1.0
 10
650.7367798030409
 20
264.0791076310925
 30
0.0
 10
650.7367781973908
 20
264.6419195854814
 30
0.0
 10
650.7367765917397
 20
265.204731539874
 30
0.0
 10
650.7367749860877
 20
265.7675434942667
 30
0.0
  0
SPLINE
  5
123
330
BB
100
AcDbEntity
  8
ORTHO$6
 62
   250
370
    25
100
AcDbSpline
210
0.0
220
0.0
230
1.0
 70
    24
 71
     3
 72
     8
 73
     4
 74
     0
 42
0.0000000001
 43
0.0000000001
 40
0.0
 40
0.0
 40
0.0
 40
0.0
 40
1.0
 40
1.0
 40
1.0
 40
1.0
 10
643.3279752176677
 20
265.7676639698129
 30
0.0
 10
643.3279839128244
 20
265.2046823954788
 30
0.0
 10
643.3279926079822
 20
264.6417008211447
 30
0.0
 10
643.328001303139
 20
264.0787192468124
 30
0.0
  0
SPLINE
  5
124
330
BB
100
AcDbEntity
  8
ORTHO$6
 62
   250
370
    25
100
AcDbSpline
210
0.0
220
0.0
230
1.0
 70
    24
 71
     3
 72
     8
 73
     4
 74
     0
 42
0.0000000001
 43
0.0000000001
 40
0.0
 40
0.0
 40
0.0
 40
0.0
 40
1.0
 40
1.0
 40
1.0
 40
1.0
 10
817.8462723032126
 20
265.7663867505744
 30
0.0
 10
817.8462418960307
 20
265.2045570285027
 30
0.0
 10
817.8462114888471
 20
264.642727306431
 30
0.0
 10
817.8461810816653
 20
264.0808975843593
 30
0.0
  0
SPLINE
  5
125
330
BB
100
AcDbEntity
  8
ORTHO$6
 62
   250
370
    25
100
AcDbSpline
210
0.0
220
0.0
230
1.0
 70
    24
 71
     3
 72
     8
 73
     4
 74
     0
 42
0.0000000001
 43
0.0000000001
 40
0.0
 40
0.0
 40
0.0
 40
0.0
 40
1.0
 40
1.0
 40
1.0
 40
1.0
 10
825.2549305037227
 20
264.081125681405
 30
0.0
 10
825.2549825532433
 20
264.6428537571046
 30
0.0
 10
825.2550346027655
 20
265.2045818328097
 30
0.0
 10
825.255086652287
 20
265.766309908513
 30
0.0
  0
SPLINE
  5
126
330
BB
100
AcDbEntity
  8
ORTHO$6
 62
   250
370
    25
100
AcDbSpline
210
0.0
220
0.0
230
1.0
 70
     8
 71
     3
 72
    20
 73
    16
 74
     0
 42
0.0000000001
 43
0.0000000001
 40
0.0
 40
0.0
 40
0.0
 40
0.0
 40
1.0
 40
1.0
 40
1.0
 40
2.0
 40
2.0
 40
2.0
 40
3.0
 40
3.0
 40
3.0
 40
4.0
 40
4.0
 40
4.0
 40
5.0
 40
5.0
 40
5.0
 40
5.0
 10
817.8461810816653
 20
264.0808975843593
 30
0.0
 10
817.8456828806147
 20
261.0894369747257
 30
0.0
 10
817.8455092686599
 20
258.0980452055592
 30
0.0
 10
817.8456955872261
 20
255.1067249512052
 30
0.0
 10
817.8458776128355
 20
252.1843275806805
 30
0.0
 10
817.8464031737558
 20
249.261998467402
 30
0.0
 10
817.8471702797024
 20
246.3397298935579
 30
0.0
 10
817.8476363772388
 20
244.564144406213
 30
0.0
 10
817.848191649341
 20
242.788581269062
 30
0.0
 10
817.8472204902863
 20
241.0130101443028
 30
0.0
 10
817.8463783434063
 20
239.4733121171739
 30
0.0
 10
817.8443883807704
 20
237.933608083682
 30
0.0
 10
817.8445213790473
 20
236.3939749103556
 30
0.0
 10
817.8446256890657
 20
235.1864467492251
 30
0.0
 10
817.8460358753081
 20
233.9789621756172
 30
0.0
 10
817.8480293418578
 20
232.7715042078016
 30
0.0
  0
SPLINE
  5
127
330
BB
100
AcDbEntity
  8
ORTHO$6
 62
   250
370
    25
100
AcDbSpline
210
0.0
220
0.0
230
1.0
 70
     8
 71
     3
 72
    20
 73
    16
 74
     0
 42
0.0000000001
 43
0.0000000001
 40
0.0
 40
0.0
 40
0.0
 40
0.0
 40
1.0
 40
1.0
 40
1.0
 40
2.0
 40
2.0
 40
2.0
 40
3.0
 40
3.0
 40
3.0
 40
4.0
 40
4.0
 40
4.0
 40
5.0
 40
5.0
 40
5.0
 40
5.0
 10
825.2571996169955
 20
232.7114547592337
 30
0.0
 10
825.2540589380533
 20
233.9354654251147
 30
0.0
 10
825.2518673433806
 20
235.1594268360332
 30
0.0
 10
825.251830372883
 20
236.3833280175404
 30
0.0
 10
825.2517838958
 20
237.9219428929064
 30
0.0
 10
825.2551425877399
 20
239.4604625816846
 30
0.0
 10
825.2565804448941
 20
240.9989355683592
 30
0.0
 10
825.2582409962451
 20
242.7756860504305
 30
0.0
 10
825.2573396418574
 20
244.5523742437654
 30
0.0
 10
825.256570526345
 20
246.3290481175682
 30
0.0
 10
825.2553042776717
 20
249.2541106027547
 30
0.0
 10
825.2543964669648
 20
252.1791342743527
 30
0.0
 10
825.2540866921927
 20
255.1042335908114
 30
0.0
 10
825.253769807975
 20
258.0964650045007
 30
0.0
 10
825.2540787249754
 20
261.0887755750464
 30
0.0
 10
825.2549305037227
 20
264.081125681405
 30
0.0
  0
SPLINE
  5
128
330
BB
100
AcDbEntity
  8
ORTHO$6
 62
   250
370
    25
100
AcDbSpline
210
0.0
220
0.0
230
1.0
 70
     8
 71
     3
 72
    20
 73
    16
 74
     0
 42
0.0000000001
 43
0.0000000001
 40
0.0
 40
0.0
 40
0.0
 40
0.0
 40
1.0
 40
1.0
 40
1.0
 40
2.0
 40
2.0
 40
2.0
 40
3.0
 40
3.0
 40
3.0
 40
4.0
 40
4.0
 40
4.0
 40
5.0
 40
5.0
 40
5.0
 40
5.0
 10
650.7364580964694
 20
232.7388642740207
 30
0.0
 10
650.7366772736623
 20
233.9369833036817
 30
0.0
 10
650.7368356427122
 20
235.1351762801187
 30
0.0
 10
650.7368480261066
 20
236.3334510285713
 30
0.0
 10
650.7368632385878
 20
237.8054811465263
 30
0.0
 10
650.7366581428195
 20
239.2776346673581
 30
0.0
 10
650.7365944600723
 20
240.7498783598003
 30
0.0
 10
650.736521142253
 20
242.4448695519786
 30
0.0
 10
650.736635265559
 20
244.1399802654523
 30
0.0
 10
650.7367148179219
 20
245.8349145434677
 30
0.0
 10
650.736849668423
 20
248.7080251895059
 30
0.0
 10
650.7368851821047
 20
251.5806288625153
 30
0.0
 10
650.7368920847184
 20
254.4531844293942
 30
0.0
 10
650.7368997952207
 20
257.661946752085
 30
0.0
 10
650.7368718053876
 20
260.8706490488858
 30
0.0
 10
650.7367798030409
 20
264.0791076310925
 30
0.0
  0
SPLINE
  5
129
330
BB
100
AcDbEntity
  8
ORTHO$6
 62
   250
370
    25
100
AcDbSpline
210
0.0
220
0.0
230
1.0
 70
     8
 71
     3
 72
    29
 73
    25
 74
     0
 42
0.0000000001
 43
0.0000000001
 40
0.0
 40
0.0
 40
0.0
 40
0.0
 40
1.0
 40
1.0
 40
1.0
 40
2.0
 40
2.0
 40
2.0
 40
3.0
 40
3.0
 40
3.0
 40
4.0
 40
4.0
 40
4.0
 40
5.0
 40
5.0
 40
5.0
 40
6.0
 40
6.0
 40
6.0
 40
7.0
 40
7.0
 40
7.0
 40
8.0
 40
8.0
 40
8.0
 40
8.0
 10
643.328001303139
 20
264.0787192468124
 30
0.0
 10
643.3284998991876
 20
260.8659658901252
 30
0.0
 10
643.3287166478785
 20
257.6529075893995
 30
0.0
 10
643.3286196271438
 20
254.4397510714971
 30
0.0
 10
643.3285330284107
 20
251.5717529521316
 30
0.0
 10
643.3281964500738
 20
248.7036765832891
 30
0.0
 10
643.3276892496206
 20
245.835008046859
 30
0.0
 10
643.3275353442332
 20
244.9645365374781
 30
0.0
 10
643.3273657285744
 20
244.0940105034315
 30
0.0
 10
643.3272334490657
 20
243.2234740670283
 30
0.0
 10
643.3271086285885
 20
242.4020257629727
 30
0.0
 10
643.3270170523301
 20
241.5805681966285
 30
0.0
 10
643.3270681594885
 20
240.7591206086363
 30
0.0
 10
643.3271159809137
 20
239.9904847677717
 30
0.0
 10
643.3272887289749
 20
239.2218576634605
 30
0.0
 10
643.3274113886918
 20
238.4532361784131
 30
0.0
 10
643.3275250266488
 20
237.7411476821126
 30
0.0
 10
643.3275956734032
 20
237.0290640088642
 30
0.0
 10
643.3284811433568
 20
236.317105488999
 30
0.0
 10
643.3292915833272
 20
235.6654745235847
 30
0.0
 10
643.3307846093812
 20
235.0139484004994
 30
0.0
 10
643.330482475978
 20
234.362263144114
 30
0.0
 10
643.3302247221336
 20
233.8063021727212
 30
0.0
 10
643.3286604489276
 20
233.2502253839048
 30
0.0
 10
643.3264217051373
 20
232.6941001152864
 30
0.0
  0
SPLINE
  5
12A
330
BB
100
AcDbEntity
  8
ORTHO$6
 62
   250
370
    25
100
AcDbSpline
210
0.0
220
0.0
230
1.0
 70
     8
 71
     3
 72
    20
 73
    16
 74
     0
 42
0.0000000001
 43
0.0000000001
 40
0.0
 40
0.0
 40
0.0
 40
0.0
 40
1.0
 40
1.0
 40
1.0
 40
2.0
 40
2.0
 40
2.0
 40
3.0
 40
3.0
 40
3.0
 40
4.0
 40
4.0
 40
4.0
 40
5.0
 40
5.0
 40
5.0
 40
5.0
 10
817.8480293418578
 20
232.7715042078016
 30
0.0
 10
817.8521429136271
 20
232.2603598388505
 30
0.0
 10
817.7679302038677
 20
231.7813877346253
 30
0.0
 10
817.5892389499923
 20
231.3225524840746
 30
0.0
 10
817.4102151922342
 20
230.8628634452252
 30
0.0
 10
817.1363609569562
 20
230.4233862700094
 30
0.0
 10
816.7861903143757
 20
230.0403392507542
 30
0.0
 10
816.4034022732767
 20
229.6216124920848
 30
0.0
 10
815.9294183616193
 20
229.2703181163106
 30
0.0
 10
815.3955255657866
 20
229.019142157309
 30
0.0
 10
815.0933557059497
 20
228.8769828981513
 30
0.0
 10
814.7719953856421
 20
228.7668943167537
 30
0.0
 10
814.4429051591842
 20
228.6904742359693
 30
0.0
 10
814.0698808939415
 20
228.6038519597914
 30
0.0
 10
813.6869250470063
 20
228.5604878367867
 30
0.0
 10
813.2893384618082
 20
228.5597267136873
 30
0.0
  0
SPLINE
  5
12B
330
BB
100
AcDbEntity
  8
ORTHO$6
 62
   250
370
    25
100
AcDbSpline
210
0.0
220
0.0
230
1.0
 70
     8
 71
     3
 72
    26
 73
    22
 74
     0
 42
0.0000000001
 43
0.0000000001
 40
0.0
 40
0.0
 40
0.0
 40
0.0
 40
1.0
 40
1.0
 40
1.0
 40
2.0
 40
2.0
 40
2.0
 40
3.0
 40
3.0
 40
3.0
 40
4.0
 40
4.0
 40
4.0
 40
5.0
 40
5.0
 40
5.0
 40
6.0
 40
6.0
 40
6.0
 40
7.0
 40
7.0
 40
7.0
 40
7.0
 10
813.3844184222725
 20
221.1523506468893
 30
0.0
 10
813.8221063945948
 20
221.1603280948602
 30
0.0
 10
814.2571302596589
 20
221.1888351540401
 30
0.0
 10
814.6910769919722
 20
221.2349716019453
 30
0.0
 10
815.1860292271949
 20
221.287594046853
 30
0.0
 10
815.6795801887374
 20
221.3631510821979
 30
0.0
 10
816.1657907169056
 20
221.4724966217327
 30
0.0
 10
817.0313652483354
 20
221.6671586223747
 30
0.0
 10
817.8736759118983
 20
221.9689057577634
 30
0.0
 10
818.6670550564567
 20
222.3620230930064
 30
0.0
 10
820.0478701526053
 20
223.046213438547
 30
0.0
 10
821.2804681900152
 20
224.0071706320068
 30
0.0
 10
822.3150058966284
 20
225.1441356298492
 30
0.0
 10
823.2721499612653
 20
226.1960444123251
 30
0.0
 10
824.05975898613
 20
227.3986117845125
 30
0.0
 10
824.5418562464564
 20
228.7051059541172
 30
0.0
 10
824.7950503107949
 20
229.391267432431
 30
0.0
 10
824.9639757997165
 20
230.1060947893857
 30
0.0
 10
825.0805565986665
 20
230.8262732201438
 30
0.0
 10
825.1813045794506
 20
231.448644342634
 30
0.0
 10
825.2429602552201
 20
232.0750117789703
 30
0.0
 10
825.2571996169955
 20
232.7114547592373
 30
0.0
  0
SPLINE
  5
12C
330
BB
100
AcDbEntity
  8
ORTHO$6
 62
   250
370
    25
100
AcDbSpline
210
0.0
220
0.0
230
1.0
 70
     8
 71
     3
 72
    20
 73
    16
 74
     0
 42
0.0000000001
 43
0.0000000001
 40
0.0
 40
0.0
 40
0.0
 40
0.0
 40
1.0
 40
1.0
 40
1.0
 40
2.0
 40
2.0
 40
2.0
 40
3.0
 40
3.0
 40
3.0
 40
4.0
 40
4.0
 40
4.0
 40
5.0
 40
5.0
 40
5.0
 40
5.0
 10
655.3057231698467
 20
228.560086845675
 30
0.0
 10
654.9526900466108
 20
228.5586089498301
 30
0.0
 10
654.6102984862609
 20
228.5915999981298
 30
0.0
 10
654.2750615680643
 20
228.6596586514843
 30
0.0
 10
653.9523880973028
 20
228.7251667166729
 30
0.0
 10
653.636343057833
 20
228.8231632286079
 30
0.0
 10
653.3367436215703
 20
228.9519627010304
 30
0.0
 10
652.7764966173299
 20
229.1928160199586
 30
0.0
 10
652.2737574337643
 20
229.5413826957847
 30
0.0
 10
651.8666737298672
 20
229.965048036227
 30
0.0
 10
651.4937130303397
 20
230.3532004486733
 30
0.0
 10
651.2010436439359
 20
230.8043891912585
 30
0.0
 10
651.0103457182922
 20
231.2773862213726
 30
0.0
 10
650.8241001039168
 20
231.7393399745288
 30
0.0
 10
650.7351199871027
 20
232.2220955669582
 30
0.0
 10
650.7364580964694
 20
232.7388642740207
 30
0.0
  0
SPLINE
  5
12D
330
BB
100
AcDbEntity
  8
ORTHO$6
 62
   250
370
    25
100
AcDbSpline
210
0.0
220
0.0
230
1.0
 70
     8
 71
     3
 72
    29
 73
    25
 74
     0
 42
0.0000000001
 43
0.0000000001
 40
0.0
 40
0.0
 40
0.0
 40
0.0
 40
1.0
 40
1.0
 40
1.0
 40
2.0
 40
2.0
 40
2.0
 40
3.0
 40
3.0
 40
3.0
 40
4.0
 40
4.0
 40
4.0
 40
5.0
 40
5.0
 40
5.0
 40
6.0
 40
6.0
 40
6.0
 40
7.0
 40
7.0
 40
7.0
 40
8.0
 40
8.0
 40
8.0
 40
8.0
 10
643.3264217051373
 20
232.6941001152864
 30
0.0
 10
643.3380269974341
 20
232.0115201081462
 30
0.0
 10
643.4053845352109
 20
231.3404651590772
 30
0.0
 10
643.5276578024522
 20
230.6764382784149
 30
0.0
 10
643.6549827474627
 20
229.984977356693
 30
0.0
 10
643.8418548063955
 20
229.3011372240253
 30
0.0
 10
644.0909591848521
 20
228.6393531591275
 30
0.0
 10
644.3469917689135
 20
227.9591632512857
 30
0.0
 10
644.6687664790633
 20
227.3022733393172
 30
0.0
 10
645.0570129172411
 20
226.6850688244449
 30
0.0
 10
645.455435141881
 20
226.0516876219572
 30
0.0
 10
645.9238591525718
 20
225.4600993554923
 30
0.0
 10
646.4471920685691
 20
224.9157497335018
 30
0.0
 10
647.5387710803497
 20
223.7803336259549
 30
0.0
 10
648.8692395782436
 20
222.8504363762422
 30
0.0
 10
650.3217954302581
 20
222.1925475177086
 30
0.0
 10
651.0963387807451
 20
221.8417428033626
 30
0.0
 10
651.9055954759251
 20
221.5682787858459
 30
0.0
 10
652.7373691764051
 20
221.4014734126376
 30
0.0
 10
653.187125904069
 20
221.3112784007371
 30
0.0
 10
653.6434661129078
 20
221.2522680498296
 30
0.0
 10
654.100253666591
 20
221.2115774251579
 30
0.0
 10
654.4763251655085
 20
221.1780769847701
 30
0.0
 10
654.8526998822708
 20
221.156993962295
 30
0.0
 10
655.2308509800741
 20
221.1514169704023
 30
0.0
  0
SPLINE
  5
12E
330
BB
100
AcDbEntity
  8
ORTHO$6
 62
   250
370
    25
100
AcDbSpline
210
0.0
220
0.0
230
1.0
 70
     8
 71
     3
 72
    35
 73
    31
 74
     0
 42
0.0000000001
 43
0.0000000001
 40
0.0
 40
0.0
 40
0.0
 40
0.0
 40
1.0
 40
1.0
 40
1.0
 40
2.0
 40
2.0
 40
2.0
 40
3.0
 40
3.0
 40
3.0
 40
4.0
 40
4.0
 40
4.0
 40
5.0
 40
5.0
 40
5.0
 40
6.0
 40
6.0
 40
6.0
 40
7.0
 40
7.0
 40
7.0
 40
8.0
 40
8.0
 40
8.0
 40
9.0
 40
9.0
 40
9.0
 40
10.0
 40
10.0
 40
10.0
 40
10.0
 10
813.2893384618082
 20
228.5597267136873
 30
0.0
 10
811.4588767965123
 20
228.5603945005478
 30
0.0
 10
809.6284147720707
 20
228.5608853366812
 30
0.0
 10
807.7979522260429
 20
228.5610493663644
 30
0.0
 10
805.8032805022858
 20
228.5612281110098
 30
0.0
 10
803.8086081591609
 20
228.5610187841212
 30
0.0
 10
801.81393575947
 20
228.5609405819778
 30
0.0
 10
798.9240391095509
 20
228.5608272821191
 30
0.0
 10
796.0341423408991
 20
228.5609892188222
 30
0.0
 10
793.1442452925412
 20
228.561047661171
 30
0.0
 10
791.7743358360913
 20
228.5610753648271
 30
0.0
 10
790.404426316788
 20
228.5610798124508
 30
0.0
 10
789.0345167521163
 20
228.5610916423538
 30
0.0
 10
787.9496715262685
 20
228.5611010105731
 30
0.0
 10
786.864826271968
 20
228.5611150083787
 30
0.0
 10
785.7799810282377
 20
228.5611279911427
 30
0.0
 10
784.522777755481
 20
228.5611430365843
 30
0.0
 10
783.2655744969224
 20
228.5611567188244
 30
0.0
 10
782.0083712466712
 20
228.5611701985872
 30
0.0
 10
779.2144168247614
 20
228.5612001554309
 30
0.0
 10
776.4204624438925
 20
228.5612291122325
 30
0.0
 10
773.6265080928514
 20
228.5612550037258
 30
0.0
 10
769.9831270078321
 20
228.561288766834
 30
0.0
 10
766.3397459735379
 20
228.5613173174479
 30
0.0
 10
762.6963649682738
 20
228.5613409022098
 30
0.0
 10
758.2556072724737
 20
228.5613696486489
 30
0.0
 10
753.8148496198019
 20
228.5613910177617
 30
0.0
 10
749.3740920193686
 20
228.5614020789089
 30
0.0
 10
744.3465948931152
 20
228.5614146015159
 30
0.0
 10
739.3190978338179
 20
228.5614139123081
 30
0.0
 10
734.2916008377478
 20
228.5614012105434
 30
0.0
  0
SPLINE
  5
12F
330
BB
100
AcDbEntity
  8
ORTHO$6
 62
   250
370
    25
100
AcDbSpline
210
0.0
220
0.0
230
1.0
 70
     8
 71
     3
 72
    41
 73
    37
 74
     0
 42
0.0000000001
 43
0.0000000001
 40
0.0
 40
0.0
 40
0.0
 40
0.0
 40
1.0
 40
1.0
 40
1.0
 40
2.0
 40
2.0
 40
2.0
 40
3.0
 40
3.0
 40
3.0
 40
4.0
 40
4.0
 40
4.0
 40
5.0
 40
5.0
 40
5.0
 40
6.0
 40
6.0
 40
6.0
 40
7.0
 40
7.0
 40
7.0
 40
8.0
 40
8.0
 40
8.0
 40
9.0
 40
9.0
 40
9.0
 40
10.0
 40
10.0
 40
10.0
 40
11.0
 40
11.0
 40
11.0
 40
12.0
 40
12.0
 40
12.0
 40
12.0
 10
734.2948107649317
 20
221.1527076027142
 30
0.0
 10
738.601656980928
 20
221.1527133633972
 30
0.0
 10
742.9085033347346
 20
221.1527099012819
 30
0.0
 10
747.2153498254392
 20
221.1526947714065
 30
0.0
 10
750.9464235330806
 20
221.152681664209
 30
0.0
 10
754.6774973434621
 20
221.152659800393
 30
0.0
 10
758.4085712587475
 20
221.152634967937
 30
0.0
 10
761.4154345842434
 20
221.1526149555175
 30
0.0
 10
764.4222979778687
 20
221.1525930150565
 30
0.0
 10
767.4291614978938
 20
221.1525693484946
 30
0.0
 10
769.6726500515351
 20
221.1525516903421
 30
0.0
 10
771.9161386755376
 20
221.1525330712738
 30
0.0
 10
774.1596273042796
 20
221.1525124634791
 30
0.0
 10
775.858729125608
 20
221.1524968562062
 30
0.0
 10
777.5578309496568
 20
221.1524801082433
 30
0.0
 10
779.2569327448646
 20
221.1524638333576
 30
0.0
 10
781.5116362163635
 20
221.1524422366292
 30
0.0
 10
783.7663396370726
 20
221.1524214729434
 30
0.0
 10
786.0210430240932
 20
221.1524047129151
 30
0.0
 10
788.702946766768
 20
221.1523847773551
 30
0.0
 10
791.3848504617772
 20
221.1523705063318
 30
0.0
 10
794.0667540917202
 20
221.1523621533997
 30
0.0
 10
795.4191771738432
 20
221.1523579412096
 30
0.0
 10
796.771600239419
 20
221.1523552339586
 30
0.0
 10
798.124023282111
 20
221.1523613657664
 30
0.0
 10
799.4890225752051
 20
221.1523675545941
 30
0.0
 10
800.8540218449898
 20
221.1523827476231
 30
0.0
 10
802.2190210888693
 20
221.1523831589002
 30
0.0
 10
803.5536433951328
 20
221.1523835610224
 30
0.0
 10
804.8882656766354
 20
221.1523698319815
 30
0.0
 10
806.222887881633
 20
221.1524520651892
 30
0.0
 10
807.4700186267973
 20
221.152528907578
 30
0.0
 10
808.7171493051583
 20
221.1526895429597
 30
0.0
 10
809.9642799342174
 20
221.1526884888099
 30
0.0
 10
811.1043261397744
 20
221.1526875251729
 30
0.0
 10
812.2443723041333
 20
221.1525514467358
 30
0.0
 10
813.3844184222725
 20
221.1523506468893
 30
0.0
  0
SPLINE
  5
130
330
BB
100
AcDbEntity
  8
ORTHO$6
 62
   250
370
    25
100
AcDbSpline
210
0.0
220
0.0
230
1.0
 70
     8
 71
     3
 72
    41
 73
    37
 74
     0
 42
0.0000000001
 43
0.0000000001
 40
0.0
 40
0.0
 40
0.0
 40
0.0
 40
1.0
 40
1.0
 40
1.0
 40
2.0
 40
2.0
 40
2.0
 40
3.0
 40
3.0
 40
3.0
 40
4.0
 40
4.0
 40
4.0
 40
5.0
 40
5.0
 40
5.0
 40
6.0
 40
6.0
 40
6.0
 40
7.0
 40
7.0
 40
7.0
 40
8.0
 40
8.0
 40
8.0
 40
9.0
 40
9.0
 40
9.0
 40
10.0
 40
10.0
 40
10.0
 40
11.0
 40
11.0
 40
11.0
 40
12.0
 40
12.0
 40
12.0
 40
12.0
 10
734.2916008377478
 20
228.5614012105434
 30
0.0
 10
730.2007364104465
 20
228.5613802955286
 30
0.0
 10
726.1098719729361
 20
228.5613512153013
 30
0.0
 10
722.0190075336095
 20
228.5613121908864
 30
0.0
 10
718.6283724387203
 20
228.5612798462444
 30
0.0
 10
715.2377373425842
 20
228.5612406703349
 30
0.0
 10
711.8471022267094
 20
228.5611985818032
 30
0.0
 10
709.0576371977013
 20
228.5611639556901
 30
0.0
 10
706.2681721553335
 20
228.5611273582254
 30
0.0
 10
703.4787070813036
 20
228.5610914847966
 30
0.0
 10
701.2054483466235
 20
228.5610622499498
 30
0.0
 10
698.9321895909197
 20
228.5610334959638
 30
0.0
 10
696.6589307985214
 20
228.5610081200776
 30
0.0
 10
694.8298420728815
 20
228.5609877023726
 30
0.0
 10
693.0007533234884
 20
228.5609694716441
 30
0.0
 10
691.1716645325614
 20
228.5609552859605
 30
0.0
 10
689.7261840456685
 20
228.5609440753906
 30
0.0
 10
688.2807035328351
 20
228.5609353910804
 30
0.0
 10
686.8352230243409
 20
228.560932393786
 30
0.0
 10
685.4270874658014
 20
228.5609294739279
 30
0.0
 10
684.0189519113801
 20
228.5609319510295
 30
0.0
 10
682.6108163912577
 20
228.5609369830599
 30
0.0
 10
680.7560015625385
 20
228.5609436113209
 30
0.0
 10
678.9011867933331
 20
228.5609546725173
 30
0.0
 10
677.0463720599937
 20
228.5609944279877
 30
0.0
 10
674.8965948904142
 20
228.5610405055795
 30
0.0
 10
672.7468177690171
 20
228.5611251293285
 30
0.0
 10
670.5970407697232
 20
228.5611699514484
 30
0.0
 10
668.8218277195037
 20
228.5612069640356
 30
0.0
 10
667.046614752544
 20
228.5612168363023
 30
0.0
 10
665.2714017624758
 20
228.5614620874294
 30
0.0
 10
663.5321917212859
 20
228.5617023646355
 30
0.0
 10
661.7929816579117
 20
228.5621685701153
 30
0.0
 10
660.0537721377604
 20
228.5619796095216
 30
0.0
 10
658.4710887522451
 20
228.5618076550836
 30
0.0
 10
656.8884058165731
 20
228.5610931557567
 30
0.0
 10
655.3057231698467
 20
228.560086845675
 30
0.0
  0
SPLINE
  5
131
330
BB
100
AcDbEntity
  8
ORTHO$6
 62
   250
370
    25
100
AcDbSpline
210
0.0
220
0.0
230
1.0
 70
     8
 71
     3
 72
    44
 73
    40
 74
     0
 42
0.0000000001
 43
0.0000000001
 40
0.0
 40
0.0
 40
0.0
 40
0.0
 40
1.0
 40
1.0
 40
1.0
 40
2.0
 40
2.0
 40
2.0
 40
3.0
 40
3.0
 40
3.0
 40
4.0
 40
4.0
 40
4.0
 40
5.0
 40
5.0
 40
5.0
 40
6.0
 40
6.0
 40
6.0
 40
7.0
 40
7.0
 40
7.0
 40
8.0
 40
8.0
 40
8.0
 40
9.0
 40
9.0
 40
9.0
 40
10.0
 40
10.0
 40
10.0
 40
11.0
 40
11.0
 40
11.0
 40
12.0
 40
12.0
 40
12.0
 40
13.0
 40
13.0
 40
13.0
 40
13.0
 10
655.2308509800741
 20
221.1514169704023
 30
0.0
 10
656.8148890868069
 20
221.1526064536319
 30
0.0
 10
658.3989274034247
 20
221.1534300514322
 30
0.0
 10
659.9829659052902
 20
221.1535705031856
 30
0.0
 10
661.5883442221402
 20
221.1537128470754
 30
0.0
 10
663.1937227292637
 20
221.1531535145514
 30
0.0
 10
664.7991015022325
 20
221.152865772925
 30
0.0
 10
666.3005942976442
 20
221.1525966514037
 30
0.0
 10
667.80208732561
 20
221.1525651081283
 30
0.0
 10
669.3035804746742
 20
221.15250431005
 30
0.0
 10
670.5735089287063
 20
221.1524528884274
 30
0.0
 10
671.8434374693652
 20
221.1523805397101
 30
0.0
 10
673.1133661335161
 20
221.1523321142522
 30
0.0
 10
674.0946120784501
 20
221.1522946969617
 30
0.0
 10
675.0758580971123
 20
221.152271562607
 30
0.0
 10
676.0571041108269
 20
221.1522515462402
 30
0.0
 10
677.0288796400636
 20
221.1522317230647
 30
0.0
 10
678.0006551644455
 20
221.1522149579778
 30
0.0
 10
678.9724306808639
 20
221.1522030850538
 30
0.0
 10
680.1690422893025
 20
221.1521884651356
 30
0.0
 10
681.3656538856612
 20
221.1521812630199
 30
0.0
 10
682.5622654728568
 20
221.1521786108533
 30
0.0
 10
684.2347316120221
 20
221.1521749039948
 30
0.0
 10
685.9071977332832
 20
221.1521800853534
 30
0.0
 10
687.5796638446518
 20
221.1521910379379
 30
0.0
 10
689.6369820095078
 20
221.1522045108268
 30
0.0
 10
691.6943001593936
 20
221.1522267165747
 30
0.0
 10
693.7516183030347
 20
221.1522530006678
 30
0.0
 10
696.2575192790136
 20
221.1522850158199
 30
0.0
 10
698.7634202457293
 20
221.1523230817147
 30
0.0
 10
701.2693212107596
 20
221.1523619953259
 30
0.0
 10
704.29796297756
 20
221.1524090264629
 30
0.0
 10
707.3266047418956
 20
221.1524572958751
 30
0.0
 10
710.3552465092925
 20
221.1525015557527
 30
0.0
 10
713.9921278220226
 20
221.1525547043038
 30
0.0
 10
717.6290091391656
 20
221.1526020711481
 30
0.0
 10
721.2658904645231
 20
221.1526364901037
 30
0.0
 10
725.6088638868423
 20
221.1526775914244
 30
0.0
 10
729.9518373208775
 20
221.1527002292132
 30
0.0
 10
734.2948107649317
 20
221.1527076027142
 30
0.0
  0
LWPOLYLINE
  5
132
330
BB
100
AcDbEntity
  8
ORTHO$6
 62
   250
370
    25
100
AcDbPolyline
 90
      103
 70
     0
 43
0.0
 10
650.7367749860886
 20
265.767543879585
 10
650.7358623689997
 20
265.7778307830922
 10
650.733092096565
 20
265.7882050115859
 10
650.7284166853678
 20
265.7986597707022
 10
650.7217903500222
 20
265.8091878814667
 10
650.7131692146958
 20
265.8197817847995
 10
650.7025115270916
 20
265.8304335479497
 10
650.6897778736684
 20
265.8411348729824
 10
650.6749313947839
 20
265.8518771073359
 10
650.6579379984132
 20
265.8626512565661
 10
650.6387665708926
 20
265.8734479992181
 10
650.6173891832149
 20
265.8842577039359
 10
650.5937812912634
 20
265.8950704487543
 10
650.5679219283465
 20
265.9058760425942
 10
650.5397938883916
 20
265.916664048862
 10
650.5093838981356
 20
265.9274238111848
 10
650.4766827766697
 20
265.938144481097
 10
650.4416855807103
 20
265.9488150476591
 10
650.4043917340786
 20
265.9594243688207
 10
650.3648051398658
 20
265.9699612044406
 10
650.3229342739196
 20
265.9804142507055
 10
650.2787922583884
 20
265.9907721758864
 10
650.2323969141725
 20
266.001023657067
 10
650.1837707913527
 20
266.011157417779
 10
650.1329411767128
 20
266.0211622661809
 10
650.0799400778515
 20
266.0310271336057
 10
650.0248041833819
 20
266.0407411131637
 10
649.9675747990895
 20
266.0502934981578
 10
649.9082977600265
 20
266.0596738200657
 10
649.8470233188308
 20
266.0688718857291
 10
649.7838060107214
 20
266.0778778135773
 10
649.7187044958927
 20
266.0866820685715
 10
649.6517813802183
 20
266.0952754955888
 10
649.5831030154086
 20
266.1036493510637
 10
649.5127392799531
 20
266.1117953326138
 10
649.4407633423443
 20
266.1197056064375
 10
649.3672514083154
 20
266.1273728323394
 10
649.2922824538527
 20
266.13479018615
 10
649.2159379459908
 20
266.1419513794572
 10
649.1383015534047
 20
266.1488506764945
 10
649.0594588489402
 20
266.155482908127
 10
648.8985044925857
 20
266.1679283947815
 10
648.7337859391955
 20
266.1792581617338
 10
648.5660251056942
 20
266.1894519894631
 10
648.3959451013361
 20
266.1984990421806
 10
648.224260984869
 20
266.2063976178342
 10
648.0516711610671
 20
266.2131547392528
 10
647.7064390121395
 20
266.2233129401757
 10
647.5350450954383
 20
266.2267662247377
 10
647.3652318711947
 20
266.2291809059916
 10
647.1975181531115
 20
266.2305975405106
 10
647.0323751018477
 20
266.2310609376782
 10
646.8672320505866
 20
266.2306028010571
 10
646.6995183325061
 20
266.2291915089736
 10
646.5297051082598
 20
266.2267822370359
 10
646.3583111915604
 20
266.2233344121396
 10
646.0130790426319
 20
266.2131872084119
 10
645.84048921883
 20
266.2064355847524
 10
645.668805102362
 20
266.1985424780105
 10
645.4987250980066
 20
266.1895008431074
 10
645.3309642645072
 20
266.1793123593124
 10
645.1662457111151
 20
266.1679878393843
 10
645.0052913547624
 20
266.1555474798533
 10
644.9264486502961
 20
266.1489177597123
 10
644.8488122577118
 20
266.1420209357402
 10
644.7724677498499
 20
266.1348621743528
 10
644.697498795389
 20
266.127447208637
 10
644.6239868613584
 20
266.119782324422
 10
644.5520109237513
 20
266.1118743433544
 10
644.481647188295
 20
266.1037306032067
 10
644.4129688234871
 20
266.0953589354449
 10
644.3460457078126
 20
266.0867676402286
 10
644.2809441929839
 20
266.0779654590097
 10
644.2177268848736
 20
266.0689615449155
 10
644.1564524436789
 20
266.0597654311205
 10
644.0971754046159
 20
266.0503869974509
 10
644.0399460203252
 20
266.0408364354698
 10
643.9848101258576
 20
266.0311242122389
 10
643.9318090269944
 20
266.0212610331364
 10
643.8809794123563
 20
266.0112578038825
 10
643.8323532895374
 20
266.0011255921345
 10
643.7859579453243
 20
265.9908755888555
 10
643.7418159297931
 20
265.9805190697989
 10
643.699945063845
 20
265.9700673573061
 10
643.6603584696313
 20
265.959531782697
 10
643.6230646230015
 20
265.9489236495101
 10
643.5880674270419
 20
265.9382541977684
 10
643.5553663055753
 20
265.9275345695351
 10
643.524956315321
 20
265.9167757759042
 10
643.496828275367
 20
265.9059886656414
 10
643.4709689124502
 20
265.8951838955381
 10
643.4473610205004
 20
265.8843719027355
 10
643.4259836328219
 20
265.8735628789837
 10
643.4068122053012
 20
265.86276674703
 10
643.3898188089333
 20
265.8519931391165
 10
643.3749723300516
 20
265.8412513776857
 10
643.3622386766264
 20
265.8305504582786
 10
643.3515809890223
 20
265.8198990346245
 10
643.3429598536958
 20
265.8093054059118
 10
643.3363335183503
 20
265.7987775062265
 10
643.3316581071549
 20
265.7883228960454
 10
643.3288878347211
 20
265.7779487557964
 10
643.3279752176304
 20
265.7676618813566
  0
LWPOLYLINE
  5
133
330
BB
100
AcDbEntity
  8
ORTHO$6
 62
   250
370
    25
100
AcDbPolyline
 90
      103
 70
     0
 43
0.0
 10
817.8462723031916
 20
265.7663883142159
 10
817.8471849220795
 20
265.7767720213124
 10
817.8499551999648
 20
265.787243825167
 10
817.8546306203633
 20
265.7977968661817
 10
817.861256968753
 20
265.8084238965766
 10
817.8698781210432
 20
265.8191172849238
 10
817.880535829623
 20
265.8298690226784
 10
817.8932695081112
 20
265.8406707327304
 10
817.9081160162159
 20
265.851513680087
 10
817.925109446026
 20
265.862388784717
 10
817.9442809112769
 20
265.873286636579
 10
817.9656583410269
 20
265.8841975129071
 10
817.989266279439
 20
265.8951113976818
 10
818.0151256932486
 20
265.9060180033321
 10
818.0432537885618
 20
265.9169067945568
 10
818.0736638386651
 20
265.9277670143238
 10
818.1063650244878
 20
265.9385877117984
 10
818.141362289325
 20
265.9493577722715
 10
818.1786562093511
 20
265.9600659488006
 10
818.2182428814767
 20
265.9707008955338
 10
818.2601138298242
 20
265.9812512025128
 10
818.3042559322284
 20
265.9917054316738
 10
818.3506513677503
 20
266.0020521540209
 10
818.3992775862671
 20
266.0122799875389
 10
818.4501073009423
 20
266.0223776357907
 10
818.5031085041119
 20
266.032333926778
 10
818.5582445070913
 20
266.042137851935
 10
818.6154740040164
 20
266.0517786049186
 10
818.674751159734
 20
266.0612456198851
 10
818.7360257215205
 20
266.0705286091015
 10
818.7992431540461
 20
266.0796175994583
 10
818.8643447969944
 20
266.0885029677447
 10
818.9312680443762
 20
266.0971754743568
 10
818.9999465443461
 20
266.1056262952243
 10
819.0703104182821
 20
266.1138470516962
 10
819.1422864975402
 20
266.1218298382173
 10
819.2157985762433
 20
266.1295672475589
 10
819.2907676782461
 20
266.1370523934493
 10
819.3671123363573
 20
266.144278930491
 10
819.4447488817322
 20
266.1512410711803
 10
819.5235917413629
 20
266.1579336000468
 10
819.6845464144789
 20
266.1704918839951
 10
819.8492652920421
 20
266.1819238445168
 10
820.0170264557009
 20
266.1922090912794
 10
820.1871067947804
 20
266.2013367060263
 10
820.3587912491238
 20
266.2093049900195
 10
820.5313814125894
 20
266.2161210510585
 10
820.876614240943
 20
266.2263655401566
 10
821.0480084949512
 20
266.2298466983993
 10
821.2178220533925
 20
266.2322795199125
 10
821.3855361015411
 20
266.2337049570433
 10
821.5506794778075
 20
266.2341682536753
 10
821.7158228540784
 20
266.2337013423385
 10
821.8835369022235
 20
266.2322722342415
 10
822.0533504606637
 20
266.2298356958054
 10
822.2247447146719
 20
266.2263507860389
 10
822.5699775430221
 20
266.216098740395
 10
822.7425677064866
 20
266.2092789016587
 10
822.91425216083
 20
266.2013068597862
 10
823.0843324999078
 20
266.1921755222793
 10
823.2520936635655
 20
266.1818866035192
 10
823.4168125411251
 20
266.1704510375821
 10
823.5777672142402
 20
266.1578892306152
 10
823.6566100738691
 20
266.151194976017
 10
823.734246619243
 20
266.1442311359969
 10
823.8105912773535
 20
266.1370029279078
 10
823.8855603793563
 20
266.1295161410744
 10
823.9590724580565
 20
266.121777122682
 10
824.0310485373138
 20
266.1137927607269
 10
824.101412411248
 20
266.105570464113
 10
824.1700909112168
 20
266.0971181399927
 10
824.237014158597
 20
266.0884441685448
 10
824.3021158015453
 20
266.0795573752967
 10
824.3653332340681
 20
266.0704670012219
 10
824.4266077958519
 20
266.0611826708136
 10
824.4858849515722
 20
266.0517143583675
 10
824.5431144484937
 20
266.042072352735
 10
824.5982504514705
 20
266.032267220744
 10
824.6512516546381
 20
266.0223097696507
 10
824.7020813693106
 20
266.0122110088287
 10
824.7507075878274
 20
266.0019821109636
 10
824.7971030233467
 20
265.9916343731038
 10
824.841245125749
 20
265.9811791777483
 10
824.8831160740984
 20
265.9706279542916
 10
824.9227027462184
 20
265.9599921410682
 10
824.9599966662444
 20
265.9492831482421
 10
824.99499393108
 20
265.9385123217417
 10
825.0276951168999
 20
265.9276909084892
 10
825.0581051670014
 20
265.9168300231049
 10
825.0862332623119
 20
265.9059406162014
 10
825.1120926761204
 20
265.8950334445381
 10
825.1357006145326
 20
265.8841190430248
 10
825.1570780442779
 20
265.8732076987817
 10
825.1762495095281
 20
265.862309427288
 10
825.19324293934
 20
265.8514339507056
 10
825.2080894474392
 20
265.8405906783828
 10
825.2208231259265
 20
265.8297886896107
 10
825.2314808345035
 20
265.8190367185762
 10
825.2401019867948
 20
265.8083431415271
 10
825.2467283351807
 20
265.7977159660986
 10
825.2514037555766
 20
265.787162822744
 10
825.2541740334608
 20
265.7766909582515
 10
825.2550866523471
 20
265.7663072311789
  0
LWPOLYLINE
  5
134
330
BB
100
AcDbEntity
  8
ORTHO$6
 62
   250
370
    25
100
AcDbPolyline
 90
      107
 70
     0
 43
0.0
 10
817.8461810811668
 20
264.0809155337829
 10
817.8470936920584
 20
264.1052196312557
 10
817.8498639456657
 20
264.1297300201186
 10
817.8545393250942
 20
264.1544306472024
 10
817.8611656154116
 20
264.179304550662
 10
817.8697866921584
 20
264.2043338706226
 10
817.8804443073405
 20
264.2294998643938
 10
817.893177874239
 20
264.254782926524
 10
817.9080242522378
 20
264.2801626137643
 10
817.9250175331343
 20
264.3056176751343
 10
817.944188830379
 20
264.3311260871014
 10
817.9655660727949
 20
264.3566650939956
 10
817.989173804327
 20
264.3822112535963
 10
818.015032991525
 20
264.4077404878972
 10
818.043160840345
 20
264.4332281389161
 10
818.0735706239566
 20
264.4586490294296
 10
818.1062715232119
 20
264.4839775284527
 10
818.1412684813576
 20
264.50918762117
 10
818.1785620745714
 20
264.5342529830941
 10
818.2181483997874
 20
264.5591470580002
 10
818.2600189812118
 20
264.5838431393368
 10
818.3041606967908
 20
264.6083144546083
 10
818.3505557257376
 20
264.6325342522559
 10
818.3991815181334
 20
264.6564758904915
 10
818.4500107873736
 20
264.6801129275536
 10
818.5030115260833
 20
264.7034192127321
 10
818.558147045891
 20
264.7263689776155
 10
818.615376041299
 20
264.7489369268496
 10
818.6746526775605
 20
264.7710983278139
 10
818.735926702384
 20
264.7928290985746
 10
818.799143580918
 20
264.814105893407
 10
818.8642446533695
 20
264.8349061853533
 10
818.9311673142865
 20
264.855208345125
 10
818.99984521241
 20
264.8749917158347
 10
819.0702084697305
 20
264.8942366829833
 10
819.1421839182467
 20
264.912924739212
 10
819.2156953527446
 20
264.9310385434055
 10
819.2906637977793
 20
264.9485619736515
 10
819.3670077868627
 20
264.9654801738852
 10
819.444643651891
 20
264.981779593747
 10
819.5234858206022
 20
264.9974480216624
 10
819.6034471199592
 20
265.0124746107795
 10
819.6844390832392
 20
265.0268498978749
 10
819.8491565173307
 20
265.0536156947892
 10
820.0169162108595
 20
265.0776976509114
 10
820.1869950594874
 20
265.0990701749997
 10
820.358678009321
 20
265.1177292553639
 10
820.5312666603376
 20
265.1336914936819
 10
820.7040870480314
 20
265.1469928129372
 10
820.8764964633374
 20
265.1576868964021
 10
821.0478892153796
 20
265.1658434186102
 10
821.2177012857036
 20
265.1715461304302
 10
821.3854138641345
 20
265.1748908588615
 10
821.5505557932129
 20
265.1759834780478
 10
821.715697722294
 20
265.1748988571926
 10
821.883410300723
 20
265.1715622515931
 10
822.0532223710479
 20
265.1658677642936
 10
822.2246151230892
 20
265.1577195431691
 10
822.3970245383934
 20
265.1470338100189
 10
822.5698449260853
 20
265.1337408609852
 10
822.742433577102
 20
265.1177869816711
 10
822.9141165269348
 20
265.0991362164368
 10
823.0841953755607
 20
265.0777719297894
 10
823.2519550690877
 20
265.0536980987817
 10
823.4166725031782
 20
265.0269402796366
 10
823.4976644664538
 20
265.0125689152319
 10
823.5776257658145
 20
264.9975461988888
 10
823.6564679345219
 20
264.9818815895396
 10
823.7341037995493
 20
264.9655859298182
 10
823.8104477886327
 20
264.9486714271625
 10
823.8854162336638
 20
264.9311516278649
 10
823.9589276681609
 20
264.9130413840612
 10
824.0309031166761
 20
264.8943568138202
 10
824.1012663739947
 20
264.8751152545829
 10
824.1699442721182
 20
264.8553352101535
 10
824.2368669330371
 20
264.8350362916535
 10
824.3019680054839
 20
264.8142391527526
 10
824.3651848840173
 20
264.7929654197032
 10
824.4264589088379
 20
264.7712376166364
 10
824.4857355450985
 20
264.7490790866195
 10
824.5429645405037
 20
264.7265139091633
 10
824.5981000603114
 20
264.7035668146636
 10
824.6511007990184
 20
264.6802630964721
 10
824.7019300682568
 20
264.6566285212302
 10
824.7505558606508
 20
264.6326892380876
 10
824.7969508895966
 20
264.6084716874939
 10
824.8410926051729
 20
264.5840025101388
 10
824.8829631865973
 20
264.5593084567245
 10
824.9225495118107
 20
264.5344162991059
 10
824.9598431050198
 20
264.5093527434274
 10
824.9948400631655
 20
264.4841443457153
 10
825.027540962421
 20
264.4588174304991
 10
825.0579507460306
 20
264.4333980128286
 10
825.0860785948471
 20
264.4079117241308
 10
825.1119377820431
 20
264.382383742266
 10
825.1355455135735
 20
264.3568387260584
 10
825.1569227559857
 20
264.3313007545312
 10
825.1760940532303
 20
264.3057932710872
 10
825.1930873341253
 20
264.2803390327554
 10
825.2079337121204
 20
264.2549600645707
 10
825.2206672790197
 20
264.229677619167
 10
825.2313248942009
 20
264.2045121415776
 10
825.239945970944
 20
264.1794832391643
 10
825.2465722612605
 20
264.1546096566326
 10
825.2512476406854
 20
264.129909255993
 10
825.2540178942945
 20
264.1053990013006
 10
825.2549305051807
 20
264.0810949480292
  0
LWPOLYLINE
  5
135
330
BB
100
AcDbEntity
  8
ORTHO$6
 62
   250
370
    25
100
AcDbPolyline
 90
      107
 70
     0
 43
0.0
 10
650.736779803191
 20
264.079098053413
 10
650.7358671887195
 20
264.1026533149379
 10
650.7330969242357
 20
264.126408386699
 10
650.7284215264562
 20
264.1503477068873
 10
650.72179521013
 20
264.1744548331426
 10
650.7131740995474
 20
264.1987124528478
 10
650.7025164425295
 20
264.2231023979312
 10
650.6897828256524
 20
264.2476056642881
 10
650.6749363893777
 20
264.2722024360101
 10
650.6579430417795
 20
264.2968721145171
 10
650.6387716692842
 20
264.3215933526881
 10
650.6173943429612
 20
264.3463440940359
 10
650.5937865187661
 20
264.3711016169054
 10
650.5679272300658
 20
264.3958425836754
 10
650.5397992708394
 20
264.4205430948714
 10
650.5093893678668
 20
264.445178748052
 10
650.4766883402544
 20
264.46972470127
 10
650.4416912447404
 20
264.4941557408529
 10
650.4043975051445
 20
264.5184463532896
 10
650.3648110245485
 20
264.5425708007824
 10
650.3229402787738
 20
264.5665032001343
 10
650.2787983899342
 20
264.5902176045747
 10
650.2324031788794
 20
264.613688087913
 10
650.1837771956206
 20
264.6368888306915
 10
650.1329477268663
 20
264.6597942076169
 10
650.0799467801225
 20
264.6823788758138
 10
650.0248110438978
 20
264.7046178632354
 10
649.9675818238593
 20
264.7264866566402
 10
649.908304954928
 20
264.7479612884836
 10
649.847030689596
 20
264.7690184221519
 10
649.7838135629272
 20
264.7896354348632
 10
649.7187122349441
 20
264.8097904976494
 10
649.6517893113459
 20
264.8294626518163
 10
649.5831111436509
 20
264.8486318813739
 10
649.5127476101425
 20
264.8672791808512
 10
649.4407718791135
 20
264.8853866180161
 10
649.367260156071
 20
264.9029373911562
 10
649.2922914167747
 20
264.9199158803985
 10
649.215947128031
 20
264.936307692873
 10
649.1383109582693
 20
264.9520997013624
 10
649.0594684800889
 20
264.9672800762855
 10
648.9795068668727
 20
264.9818383108559
 10
648.8985145856904
 20
264.995765239395
 10
648.7337965050573
 20
265.0216952824885
 10
648.5660361530472
 20
265.0450239643396
 10
648.3959566368366
 20
265.0657265310329
 10
648.2242730131202
 20
265.0837991428289
 10
648.0516836846673
 20
265.0992579371486
 10
647.8788626186323
 20
265.1121377758227
 10
647.7064525265896
 20
265.1224907316773
 10
647.5350591018068
 20
265.1303843736241
 10
647.3652463649441
 20
265.1358999104359
 10
647.1975331282173
 20
265.1391302519023
 10
647.0323905509303
 20
265.1401780421875
 10
646.8672479736451
 20
265.1391156700629
 10
646.6995347369183
 20
265.1358705197745
 10
646.5297220000565
 20
265.1303399887565
 10
646.3583285752747
 20
265.1224312130307
 10
646.1859184832356
 20
265.1120630336227
 10
646.0130974171979
 20
265.09916793511
 10
645.840508088746
 20
265.0836939014153
 10
645.6688244650313
 20
265.0656061302179
 10
645.4987449488217
 20
265.044888545759
 10
645.3309845968133
 20
265.021545050924
 10
645.1662665161811
 20
264.9956004634751
 10
645.0852742350007
 20
264.9816663834445
 10
645.0053126217835
 20
264.9671010883776
 10
644.9264701436041
 20
264.9519137517891
 10
644.848833973845
 20
264.9361148881453
 10
644.7724896851013
 20
264.9197163345834
 10
644.6975209458078
 20
264.9027312257112
 10
644.6240092227663
 20
264.8851739616002
 10
644.5520334917382
 20
264.8670601690883
 10
644.4816699582324
 20
264.8484066566216
 10
644.4129917905383
 20
264.8292313628826
 10
644.3460688669402
 20
264.8095532995194
 10
644.2809675389598
 20
264.7893924883902
 10
644.2177504122919
 20
264.7687698936989
 10
644.1564761469617
 20
264.7477073496066
 10
644.0971992780305
 20
264.7262274837049
 10
644.0399700579928
 20
264.7043536370511
 10
643.9848343217708
 20
264.6821097812262
 10
643.9318333750271
 20
264.6595204331243
 10
643.8810039062746
 20
264.6366105680336
 10
643.8323779230159
 20
264.6134055316561
 10
643.7859827119654
 20
264.5899309516917
 10
643.741840823126
 20
264.5662126495936
 10
643.699970077353
 20
264.5422765531112
 10
643.660383596758
 20
264.5181486101937
 10
643.6230898571648
 20
264.4938547047786
 10
643.5880927616526
 20
264.469420575002
 10
643.5553917340421
 20
264.4448717343366
 10
643.5249818310676
 20
264.4202333960075
 10
643.496853871844
 20
264.3955304011543
 10
643.4709945831473
 20
264.3707871510487
 10
643.447386758954
 20
264.3460275436428
 10
643.4260094326328
 20
264.3212749147115
 10
643.4068380601366
 20
264.2965519837344
 10
643.3898447125411
 20
264.2718808047393
 10
643.374998276271
 20
264.2472827221045
 10
643.3622646593922
 20
264.2227783313847
 10
643.351607002377
 20
264.198387445249
 10
643.3429858917953
 20
264.1741290643113
 10
643.3363595754681
 20
264.1500213529635
 10
643.3316841776932
 20
264.126081619941
 10
643.3289139132102
 20
264.1023263035731
 10
643.3280012987397
 20
264.0787709614651
  0
LWPOLYLINE
  5
136
330
BB
100
AcDbEntity
  8
ORTHO$6
 62
   250
370
    25
100
AcDbPolyline
 90
      107
 70
     0
 43
0.0
 10
817.8479747872479
 20
232.7654125375338
 10
817.8488933304478
 20
232.790402999779
 10
817.8516816924439
 20
232.8155952280631
 10
817.8563878080986
 20
232.8409723201076
 10
817.8630578909869
 20
232.8665164403592
 10
817.8717362184542
 20
232.8922088323598
 10
817.8824649141597
 20
232.9180298359461
 10
817.8952837293772
 20
232.9439589094891
 10
817.9102298243979
 20
232.9699746572988
 10
817.9273375514284
 20
232.996054862293
 10
817.946638240528
 20
233.0221765240731
 10
817.9681599901451
 20
233.0483159023788
 10
817.991927463856
 20
233.0744485659361
 10
818.0179616950363
 20
233.1005494466608
 10
818.0462799010856
 20
233.1265928990942
 10
818.0768953089454
 20
233.1525527648737
 10
818.109816993584
 20
233.1784024421122
 10
818.1450497310697
 20
233.2041149593115
 10
818.1825938678748
 20
233.2296630535639
 10
818.2224452078417
 20
233.2550192526178
 10
818.264594918298
 20
233.2801559604177
 10
818.3090294565591
 20
233.3050455455814
 10
818.3557305179965
 20
233.3296604323477
 10
818.4046750066327
 20
233.3539731934234
 10
818.4558350290844
 20
233.3779566440626
 10
818.5091779124586
 20
233.4015839368494
 10
818.5646662466124
 20
233.4248286564634
 10
818.6222579509367
 20
233.447664913745
 10
818.6819063656676
 20
233.4700674384803
 10
818.7435603673693
 20
233.4920116701087
 10
818.8071645081745
 20
233.5134738457582
 10
818.8726591779751
 20
233.5344310849487
 10
818.9399807886085
 20
233.5548614703366
 10
819.0090619788925
 20
233.5747441238582
 10
819.0798318390925
 20
233.5940592778043
 10
819.1522161532647
 20
233.6127883402496
 10
819.2261376577445
 20
233.6309139544028
 10
819.3015163138779
 20
233.6484200514933
 10
819.3782695930204
 20
233.6652918968521
 10
819.4563127716646
 20
233.6815161289251
 10
819.5355592345377
 20
233.6970807910002
 10
819.6159207834599
 20
233.7119753555508
 10
819.6973079496883
 20
233.7261907411521
 10
819.8627967872589
 20
233.7525549295806
 10
820.0312964646609
 20
233.7761298032074
 10
820.2020771642846
 20
233.7968948020025
 10
820.3744178854503
 20
233.8148516590481
 10
820.5476151296789
 20
233.8300233157261
 10
820.7209907359038
 20
233.8424525056762
 10
820.8938987259134
 20
233.852200068548
 10
821.0657310662609
 20
233.8593430581004
 10
821.2359222977365
 20
233.8639727101563
 10
821.4039530258842
 20
233.866192333533
 10
821.5693834850418
 20
233.8661149570835
 10
821.7353536158515
 20
233.8637867926536
 10
821.9038634330427
 20
233.8591083142346
 10
822.0744319963124
 20
233.8519737628612
 10
822.2465303156031
 20
233.8422883205421
 10
822.4195839546464
 20
233.8299702078439
 10
822.5929767517172
 20
233.8149527385303
 10
822.7660556812542
 20
233.7971862713311
 10
822.9381368414742
 20
233.7766399950033
 10
823.1085125101991
 20
233.7533034820444
 10
823.2764591656914
 20
233.7271879479704
 10
823.441246323725
 20
233.6983271582103
 10
823.522227230268
 20
233.6828841432943
 10
823.6021459990434
 20
233.6667779330237
 10
823.6809136402353
 20
233.6500192429157
 10
823.7584425619033
 20
233.6326202121945
 10
823.8346468811752
 20
233.6145943802203
 10
823.9094427310302
 20
233.5959566555193
 10
823.9827485604337
 20
233.5767232775452
 10
824.0544854255949
 20
233.5569117713603
 10
824.1245772702223
 20
233.536540895444
 10
824.1929511927047
 20
233.5156305830224
 10
824.2595376982544
 20
233.4942018772072
 10
824.3242709341775
 20
233.4722768604734
 10
824.3870889066092
 20
233.4498785789037
 10
824.447933677241
 20
233.4270309617987
 10
824.5067515386754
 20
233.4037587371931
 10
824.5634931674048
 20
233.3800873439232
 10
824.6181137534431
 20
233.3560428408982
 10
824.6705731060483
 20
233.3316518142364
 10
824.7208357350636
 20
233.3069412829136
 10
824.7688709077293
 20
233.2819386036717
 10
824.8146526809923
 20
233.2566713757824
 10
824.8581599095924
 20
233.2311673463864
 10
824.8993762304516
 20
233.2054543170034
 10
824.9382900239751
 20
233.1795600518599
 10
824.9748943532241
 20
233.1535121886027
 10
825.0091868819863
 20
233.1273381518877
 10
825.0411697729314
 20
233.1010650704175
 10
825.0708495672279
 20
233.0747196978009
 10
825.0982370470611
 20
233.0483283376725
 10
825.1233470825637
 20
233.0219167733685
 10
825.1461984648285
 20
232.9955102024924
 10
825.1668137266433
 20
232.9691331765662
 10
825.1852189526099
 20
232.942809545928
 10
825.2014435803948
 20
232.916562410046
 10
825.2155201947489
 20
232.8904140732593
 10
825.227484315963
 20
232.8643860059983
 10
825.2373741844067
 20
232.8384988114576
 10
825.2452305426176
 20
232.8127721976125
 10
825.2510964165139
 20
232.7872249545308
 10
825.2550168970302
 20
232.7618749367375
 10
825.2570389235525
 20
232.7367390505624
 10
825.2572099458356
 20
232.7117954611022
  0
LWPOLYLINE
  5
137
330
BB
100
AcDbEntity
  8
ORTHO$6
 62
   250
370
    25
100
AcDbPolyline
 90
      107
 70
     0
 43
0.0
 10
650.7364735751971
 20
232.735620120904
 10
650.7355568363991
 20
232.7605813343362
 10
650.7327739844241
 20
232.7857461629392
 10
650.7280772247768
 20
232.8110978195255
 10
650.7214204769115
 20
232.8366185855048
 10
650.7127595880938
 20
232.8622898229369
 10
650.7020525497537
 20
232.8880919913336
 10
650.6892597150763
 20
232.9140046695156
 10
650.6743440165173
 20
232.9400065825448
 10
650.6572711818171
 20
232.9660756339599
 10
650.6380099470207
 20
232.9921889432971
 10
650.6165322649439
 20
233.0183228890692
 10
650.5928135074627
 20
233.0444531570011
 10
650.5668326599653
 20
233.0705547936941
 10
650.5385725063233
 20
233.0966022654229
 10
650.5080198026362
 20
233.1225695220219
 10
650.4751654381416
 20
233.1484300656029
 10
650.4400045816037
 20
233.1741570238428
 10
650.4025368116645
 20
233.1997232275662
 10
650.3627662295821
 20
233.2251012921388
 10
650.3207015530188
 20
233.2502637024027
 10
650.2763561895545
 20
233.2751829005429
 10
650.229748288808
 20
233.299831376442
 10
650.1809007721676
 20
233.3241817599519
 10
650.1298413393469
 20
233.348206914472
 10
650.0766024511285
 20
233.3718800312163
 10
650.0212212879069
 20
233.3951747235333
 10
649.9637396838534
 20
233.4180651206097
 10
649.904204036713
 20
233.4405259598807
 10
649.8426651935361
 20
233.4625326774713
 10
649.7791783128004
 20
233.4840614960285
 10
649.7138027037071
 20
233.5050895092718
 10
649.646601643546
 20
233.5255947626411
 10
649.5776421743366
 20
233.545556329469
 10
649.5069948800901
 20
233.5649543821091
 10
649.4347336462415
 20
233.5837702574954
 10
649.3609354030032
 20
233.6019865167255
 10
649.2856798544472
 20
233.6195869982166
 10
649.2090491953749
 20
233.6365568641522
 10
649.1311278179928
 20
233.6528826399081
 10
649.0520020106141
 20
233.6685522462594
 10
648.971759650527
 20
233.6835550242813
 10
648.8904898933324
 20
233.6978817528325
 10
648.7252293299934
 20
233.7244774190385
 10
648.5569473106534
 20
233.7482944331532
 10
648.3863715747721
 20
233.7693108880885
 10
648.2142212933295
 20
233.7875271059875
 10
648.0411984088296
 20
233.8029645784027
 10
647.867979816252
 20
233.8156645749095
 10
647.6952105247591
 20
233.8256864803388
 10
647.5234978945891
 20
233.8331059247248
 10
647.3534069986936
 20
233.8380127707005
 10
647.185457116876
 20
233.8405090213401
 10
647.0201050621471
 20
233.8407066272594
 10
646.8543814338636
 20
233.8386605875876
 10
646.6861076554351
 20
233.834276358788
 10
646.5157615507759
 20
233.827447603473
 10
646.3438688725346
 20
233.8180787465644
 10
646.1710007502452
 20
233.8060870653717
 10
645.9977700294757
 20
233.7914047404083
 10
645.8248264772537
 20
233.7739808076276
 10
645.652850866948
 20
233.7537829488974
 10
645.4825479982956
 20
233.7307990563186
 10
645.3146387532479
 20
233.7050385076291
 10
645.1498513335809
 20
233.6765330946837
 10
645.0688555709075
 20
233.6612672675674
 10
644.9889118689943
 20
233.6453375551027
 10
644.9101090625008
 20
233.6287544005918
 10
644.8325346219972
 20
233.6115296683729
 10
644.7562743440339
 20
233.5936766214127
 10
644.6814120454036
 20
233.5752098915673
 10
644.6080292638189
 20
233.5561454425624
 10
644.5362049671821
 20
233.53650052593
 10
644.4660152736187
 20
233.5162936300785
 10
644.3975331842912
 20
233.4955444228581
 10
644.3308283309997
 20
233.4742736879325
 10
644.265966740365
 20
233.4525032554593
 10
644.2030106162738
 20
233.4302559274874
 10
644.1420181421071
 20
233.4075553986768
 10
644.083043304031
 20
233.3844261728591
 10
644.0261357364934
 20
233.3608934760941
 10
643.9713405907959
 20
233.3369831668206
 10
643.9186984273992
 20
233.3127216438352
 10
643.8682451324202
 20
233.2881357526367
 10
643.8200118585191
 20
233.2632526909838
 10
643.7740249901308
 20
233.2380999141769
 10
643.7303061328211
 20
233.2127050408144
 10
643.6888721262875
 20
233.1870957596529
 10
643.649735080352
 20
233.1612997381162
 10
643.612902433073
 20
233.1353445331461
 10
643.578377029964
 20
233.1092575047733
 10
643.5461572231369
 20
233.0830657331044
 10
643.5162369890385
 20
233.0567959389591
 10
643.4886060633589
 20
233.030474408748
 10
643.4632500915896
 20
233.0041269237645
 10
643.4401507936327
 20
232.9777786943396
 10
643.4192861408109
 20
232.9514542989618
 10
643.4006305435986
 20
232.9251776286237
 10
643.3841550484203
 20
232.898971836481
 10
643.3698275417891
 20
232.8728592929437
 10
643.3576129601988
 20
232.8468615461734
 10
643.3474735041145
 20
232.8209992879747
 10
643.3393688545456
 20
232.7952923250796
 10
643.333256390727
 20
232.7697595556128
 10
643.3290914074887
 20
232.7444189507078
 10
643.3268273310459
 20
232.7192875409746
 10
643.326416280106
 20
232.694364118086
  0
LWPOLYLINE
  5
138
330
BB
100
AcDbEntity
  8
ORTHO$6
 62
   250
370
    25
100
AcDbPolyline
 90
      103
 70
     0
 43
0.0
 10
813.289355383964
 20
228.5597314928855
 10
813.2897393840531
 20
228.558672307674
 10
813.2901541260981
 20
228.5553638860565
 10
813.2905997237804
 20
228.5497718238494
 10
813.2910762334068
 20
228.541865397292
 10
813.2915836522206
 20
228.5316177603708
 10
813.2921219169221
 20
228.5190061292833
 10
813.2926909024627
 20
228.5040119522837
 10
813.2932904211074
 20
228.4866210633336
 10
813.2939202217748
 20
228.4668238179456
 10
813.2945799896761
 20
228.4446152097553
 10
813.2952693462812
 20
228.4199949665726
 10
813.2959878495803
 20
228.3929676246444
 10
813.2967349946756
 20
228.3635425802477
 10
813.2975102147101
 20
228.3317341177081
 10
813.2983128820896
 20
228.2975614133284
 10
813.2991423100575
 20
228.261048514787
 10
813.299997754556
 20
228.2222242958487
 10
813.3008784164093
 20
228.1811223864934
 10
813.3017834437815
 20
228.1377810787526
 10
813.3027119349099
 20
228.0922432087082
 10
813.3036629411117
 20
228.0445560155422
 10
813.3046354699981
 20
227.994770978501
 10
813.3056284889145
 20
227.9429436330083
 10
813.3066409285747
 20
227.8891333672673
 10
813.3076716868236
 20
227.8334032009098
 10
813.3087196325895
 20
227.7758195474143
 10
813.3097836098768
 20
227.7164519620637
 10
813.3108624418609
 20
227.6553728774434
 10
813.3119549350531
 20
227.5926573284487
 10
813.3130598834251
 20
227.5283826689465
 10
813.3141760725674
 20
227.4626282821027
 10
813.3153022837969
 20
227.3954752866357
 10
813.3164372981672
 20
227.3270062409392
 10
813.3175799004247
 20
227.2573048472604
 10
813.3198830488044
 20
227.1145437851137
 10
813.3222022221797
 20
226.9678735415346
 10
813.3245282011003
 20
226.8179756144946
 10
813.3268521507599
 20
226.6655231743079
 10
813.3291657045283
 20
226.5111734152561
 10
813.3337308967911
 20
226.1992910937351
 10
813.338182427875
 20
225.8860354566914
 10
813.3393001346394
 20
225.8059752361769
 10
813.3404263681331
 20
225.7247314963079
 10
813.3427012553575
 20
225.5588626132758
 10
813.3450003664083
 20
225.3888019557762
 10
813.3473163543058
 20
225.2149783589393
 10
813.3496412897175
 20
225.037875478105
 10
813.3519667174168
 20
224.8580297998779
 10
813.3542837277763
 20
224.6760274646604
 10
813.3565830428434
 20
224.4924998696443
 10
813.3610902433556
 20
224.1235859799453
 10
813.3632786852613
 20
223.9396326387941
 10
813.3654107941474
 20
223.7570034229502
 10
813.3674771465203
 20
223.576450667968
 10
813.3694686749532
 20
223.3987237712263
 10
813.3713767965682
 20
223.2245590900839
 10
813.3722970602002
 20
223.1390366508003
 10
813.3731935342558
 20
223.0546699063943
 10
813.3740653343792
 20
222.971542821655
 10
813.3749116271346
 20
222.8897367405116
 10
813.3757316326581
 20
222.8093301215777
 10
813.3765246270058
 20
222.730398289279
 10
813.3772899442419
 20
222.6530132022344
 10
813.3780269781828
 20
222.5772432403283
 10
813.3787351838408
 20
222.5031530117685
 10
813.3794140785804
 20
222.430803181187
 10
813.3800632428792
 20
222.3602503197017
 10
813.3806823208342
 20
222.2915467775201
 10
813.3812710203082
 20
222.2247405795479
 10
813.3818291127708
 20
222.1598753441976
 10
813.382356432845
 20
222.0969902254146
 10
813.3828528775321
 20
222.0361198776354
 10
813.3833184051928
 20
221.9772944433462
 10
813.3837530342271
 20
221.9205395625631
 10
813.3841568415263
 20
221.8658764035045
 10
813.3845299606928
 20
221.813321713471
 10
813.3848725800461
 20
221.76288788893
 10
813.3851849404381
 20
221.7145830634909
 10
813.3854673329196
 20
221.6684112126131
 10
813.3857200962374
 20
221.6243722735617
 10
813.3859436142275
 20
221.5824622791751
 10
813.3861383131034
 20
221.5426735040328
 10
813.3863046586684
 20
221.5049946214185
 10
813.3864431534693
 20
221.4694108696185
 10
813.3865543338979
 20
221.4359042260312
 10
813.3866387673332
 20
221.4044535875983
 10
813.3866970492036
 20
221.3750349561014
 10
813.3867298001332
 20
221.3476216269719
 10
813.3867376618045
 20
221.3221771477838
 10
813.386720934961
 20
221.2984017370418
 10
813.3866790868159
 20
221.2761959925174
 10
813.3866114820975
 20
221.2556215135064
 10
813.3865175088976
 20
221.2367391754451
 10
813.3863965815343
 20
221.219608916057
 10
813.3862481434334
 20
221.2042895146897
 10
813.386071670012
 20
221.19083836565
 10
813.385866671595
 20
221.1793112468222
 10
813.3856326962767
 20
221.1697620846353
 10
813.3853693327473
 20
221.1622427168477
 10
813.3850762130551
 20
221.1568026544846
 10
813.3847530152916
 20
221.1534888445258
 10
813.3843994661592
 20
221.1523454349226
  0
LWPOLYLINE
  5
139
330
BB
100
AcDbEntity
  8
ORTHO$6
 62
   250
370
    25
100
AcDbPolyline
 90
      103
 70
     0
 43
0.0
 10
655.305709330476
 20
228.5600917330339
 10
655.3054069569279
 20
228.5590288357834
 10
655.3050803769365
 20
228.5557164326765
 10
655.3047295009965
 20
228.5501201197476
 10
655.3043542847672
 20
228.5422091737419
 10
655.303954730417
 20
228.5319567494062
 10
655.3035308877733
 20
228.5193400639637
 10
655.3030828552937
 20
228.5043405669385
 10
655.3026107807881
 20
228.4869440938383
 10
655.3021148619391
 20
228.4671410019473
 10
655.3015953465928
 20
228.4449262869366
 10
655.3010525327845
 20
228.4202996788772
 10
655.3004867685277
 20
228.3932657165224
 10
655.2998984513497
 20
228.3638337988868
 10
655.2992880275724
 20
228.3320182132593
 10
655.2986559913261
 20
228.2978381391458
 10
655.2980028833326
 20
228.2613176276263
 10
655.2973292894285
 20
228.2224855561162
 10
655.2966358388484
 20
228.1813755584626
 10
655.2959232022922
 20
228.1380259307589
 10
655.2951920897694
 20
228.0924795133924
 10
655.2944432482336
 20
228.0447835500581
 10
655.2936774590607
 20
227.9949895247282
 10
655.29289553531
 20
227.9431529777721
 10
655.2920983189178
 20
227.8893333025426
 10
655.2912866776669
 20
227.8335935240502
 10
655.290461502138
 20
227.7760000613434
 10
655.289623702527
 20
227.7166224755019
 10
655.2887742054272
 20
227.6555332050921
 10
655.2879139505712
 20
227.5928072912193
 10
655.2870438875479
 20
227.5285220941423
 10
655.2861649725582
 20
227.4627570036246
 10
655.2852781651772
 20
227.3955931451474
 10
655.284384425181
 20
227.3271130840785
 10
655.2834847094418
 20
227.2574005297975
 10
655.2816711457944
 20
227.1146167400984
 10
655.2798449597949
 20
226.9679232775779
 10
655.2780134108343
 20
226.818001702477
 10
655.2761834554912
 20
226.6655252490527
 10
655.2743616817633
 20
226.5111511766809
 10
655.2707668747634
 20
226.199219591248
 10
655.2672615802684
 20
225.8859168522649
 10
655.2663814737789
 20
225.8058462450845
 10
655.2654946522944
 20
225.724591984661
 10
655.2637033521977
 20
225.5587016588379
 10
655.2618929732289
 20
225.3886190240137
 10
655.2600692998512
 20
225.2147729185653
 10
655.2582385750784
 20
225.03764700391
 10
655.2564074560377
 20
224.8577777763021
 10
655.2545829577011
 20
224.6757513901721
 10
655.2527723851071
 20
224.492199261942
 10
655.2492232077429
 20
224.1232349668444
 10
655.2474999124243
 20
223.9392558252821
 10
655.2458209654369
 20
223.7566004715591
 10
655.2441937869434
 20
223.576021297522
 10
655.2426255168811
 20
223.3982677655494
 10
655.2411229137906
 20
223.2240763065965
 10
655.2403982214655
 20
223.1385404502089
 10
655.2396922593707
 20
223.0541602843441
 10
655.2390057239372
 20
222.9710197852055
 10
655.2383392715009
 20
222.8892003085348
 10
655.2376935162337
 20
222.8087803251401
 10
655.2370690282741
 20
222.7298351719964
 10
655.2364663320968
 20
222.6524368205446
 10
655.2358859051355
 20
222.5766536637493
 10
655.2353281766327
 20
222.5025503230845
 10
655.2347935267534
 20
222.4301874765988
 10
655.2342822859627
 20
222.359621708918
 10
655.2337947346377
 20
222.2909053837866
 10
655.2333311029497
 20
222.2240865396143
 10
655.232891570984
 20
222.159208808247
 10
655.2324762691086
 20
222.0963113569123
 10
655.2320852785642
 20
222.0354288531307
 10
655.2317186322861
 20
221.9765914522322
 10
655.2313763159308
 20
221.9198248067496
 10
655.2310582690934
 20
221.8651500970755
 10
655.2307643867179
 20
221.8125840822704
 10
655.2304945206588
 20
221.7621391700868
 10
655.2302484814008
 20
221.7138235049552
 10
655.2300260399006
 20
221.6676410725977
 10
655.229826929557
 20
221.6235918199654
 10
655.2296508482559
 20
221.5816717889847
 10
655.2294974605102
 20
221.5418732626895
 10
655.2293663996579
 20
221.5041849221525
 10
655.229257270099
 20
221.4685920127977
 10
655.2291696495658
 20
221.4350765184445
 10
655.2291030914038
 20
221.4036173417662
 10
655.2290571268513
 20
221.3741904895778
 10
655.2290312673085
 20
221.3467692616323
 10
655.2290250075184
 20
221.3213174935772
 10
655.2290381082967
 20
221.2975362417946
 10
655.2290709879307
 20
221.2753246562679
 10
655.22912414668
 20
221.2547443420354
 10
655.229198066424
 20
221.235856180856
 10
655.2292932084001
 20
221.2187201174093
 10
655.2294100109384
 20
221.2033949386186
 10
655.2295488871768
 20
221.189938047035
 10
655.2297102227931
 20
221.1784052294443
 10
655.2298943737241
 20
221.1688504218528
 10
655.2301016639594
 20
221.161325472267
 10
655.2303323833529
 20
221.1558799026479
 10
655.2305867855148
 20
221.1525606715677
 10
655.2308650857922
 20
221.1514119392268
  0
LINE
  5
13A
330
BB
100
AcDbEntity
  8
ORTHO$6
 62
   250
370
    25
100
AcDbLine
 10
734.2915100800118
 20
739.6944233064768
 30
0.0
 11
734.2915100800118
 21
739.6944233064768
 31
0.0
  0
LINE
  5
13B
330
BB
100
AcDbEntity
  8
ORTHO$6
 62
   250
370
    25
100
AcDbLine
 10
734.2915100800118
 20
295.3314152887961
 30
0.0
 11
734.2915100800118
 21
295.3314152887961
 31
0.0
  0
LWPOLYLINE
  5
13C
330
BB
100
AcDbEntity
  8
ORTHO$6
 62
   250
370
    25
100
AcDbPolyline
 90
        1
 70
     0
 43
0.0
 10
734.2915100800118
 20
295.3314152887961
  0
LINE
  5
13D
330
BB
100
AcDbEntity
  8
ORTHO$6
 62
   250
370
    25
100
AcDbLine
 10
734.2915100800118
 20
295.3314152887961
 30
0.0
 11
734.2915100800118
 21
295.3314152887961
 31
0.0
  0
LWPOLYLINE
  5
13E
330
BB
100
AcDbEntity
  8
ORTHO$6
 62
   250
370
    25
100
AcDbPolyline
 90
        1
 70
     0
 43
0.0
 10
734.2915100800118
 20
295.3314152887961
  0
LWPOLYLINE
  5
13F
330
BB
100
AcDbEntity
  8
ORTHO$6
 62
   250
370
    25
100
AcDbPolyline
 90
        1
 70
     0
 43
0.0
 10
734.2915100800118
 20
295.3314152887961
  0
LINE
  5
140
330
BB
100
AcDbEntity
  8
ORTHO$6
 62
   250
370
    25
100
AcDbLine
 10
734.2915100800118
 20
295.3314152887961
 30
0.0
 11
734.2915100800118
 21
295.3314152887961
 31
0.0
  0
LINE
  5
141
330
BB
100
AcDbEntity
  8
ORTHO$6
 62
   250
370
    25
100
AcDbLine
 10
734.2915100800118
 20
295.3314152887961
 30
0.0
 11
734.2915100800118
 21
295.3314152887961
 31
0.0
  0
LWPOLYLINE
  5
142
330
BB
100
AcDbEntity
  8
ORTHO$6
 62
   250
370
    25
100
AcDbPolyline
 90
        1
 70
     0
 43
0.0
 10
734.2915100800118
 20
849.6225939213854
  0
LINE
  5
143
330
BB
100
AcDbEntity
  8
ORTHO$6
 62
   250
370
    25
100
AcDbLine
 10
734.2915100800118
 20
739.1086752400397
 30
0.0
 11
734.2915100800118
 21
739.6944233064768
 31
0.0
  0
ENDBLK
  5
BE
330
BB
100
AcDbEntity
  8
0
100
AcDbBlockEnd
  0
BLOCK
  5
14C
330
14A
100
AcDbEntity
  8
0
100
AcDbBlockBegin
  2
Block_7
 70
     0
 10
0.0
 20
0.0
 30
0.0
  3
Block_7
  1

  0
LINE
  5
14E
330
14A
100
AcDbEntity
  8
ORTHO$6_1
 62
   250
370
    25
100
AcDbLine
 10
1167.825213781241
 20
295.3314152887961
 30
0.0
 11
1167.825213781241
 21
295.3314152887961
 31
0.0
  0
LINE
  5
14F
330
14A
100
AcDbEntity
  8
ORTHO$6_1
 62
   250
370
    25
100
AcDbLine
 10
1167.825213781241
 20
295.3314152887961
 30
0.0
 11
1167.825213781241
 21
295.3314152887961
 31
0.0
  0
LINE
  5
150
330
14A
100
AcDbEntity
  8
ORTHO$6_1
 62
   250
370
    25
100
AcDbLine
 10
1167.825213781241
 20
295.3314152887961
 30
0.0
 11
1167.825213781241
 21
295.3314152887961
 31
0.0
  0
LINE
  5
151
330
14A
100
AcDbEntity
  8
ORTHO$6_1
 62
   250
370
    25
100
AcDbLine
 10
1208.329983645999
 20
223.7322970156383
 30
0.0
 11
1208.329720222205
 21
223.7331136293942
 31
0.0
  0
LINE
  5
152
330
14A
100
AcDbEntity
  8
ORTHO$6_1
 62
   250
370
    25
100
AcDbLine
 10
1222.569261195789
 20
731.4623903135171
 30
0.0
 11
1249.035034619312
 21
720.2630545973688
 31
0.0
  0
LINE
  5
153
330
14A
100
AcDbEntity
  8
ORTHO$6_1
 62
   250
370
    25
100
AcDbLine
 10
1222.73617309558
 20
739.6944233064768
 30
0.0
 11
1200.751699354398
 21
739.6944233064768
 31
0.0
  0
LINE
  5
154
330
14A
100
AcDbEntity
  8
ORTHO$6_1
 62
   250
370
    25
100
AcDbLine
 10
1200.751699354398
 20
731.4624298270846
 30
0.0
 11
1222.568391897279
 21
731.4624298270846
 31
0.0
  0
LINE
  5
155
330
14A
100
AcDbEntity
  8
ORTHO$6_1
 62
   250
370
    25
100
AcDbLine
 10
1199.232226473181
 20
773.528067975466
 30
0.0
 11
1198.536428749124
 21
773.8525254128617
 31
0.0
  0
LINE
  5
156
330
14A
100
AcDbEntity
  8
ORTHO$6_1
 62
   250
370
    25
100
AcDbLine
 10
1199.232226473181
 20
773.528067975466
 30
0.0
 11
1198.8647025387
 21
772.7399089309719
 31
0.0
  0
LINE
  5
157
330
14A
100
AcDbEntity
  8
ORTHO$6_1
 62
   250
370
    25
100
AcDbLine
 10
1035.629512329364
 20
848.7273070065475
 30
0.0
 11
1037.121656638632
 21
848.0315092824939
 31
0.0
  0
LINE
  5
158
330
14A
100
AcDbEntity
  8
ORTHO$6_1
 62
   250
370
    25
100
AcDbLine
 10
1037.539135602343
 20
848.9267945509318
 30
0.0
 11
1198.536428749124
 21
773.8525254128617
 31
0.0
  0
LINE
  5
159
330
14A
100
AcDbEntity
  8
ORTHO$6_1
 62
   250
370
    25
100
AcDbLine
 10
1037.539135602343
 20
848.9267945509318
 30
0.0
 11
1037.121656638632
 21
848.0315092824939
 31
0.0
  0
LINE
  5
15A
330
14A
100
AcDbEntity
  8
ORTHO$6_1
 62
   250
370
    25
100
AcDbLine
 10
1037.121656638632
 20
848.0315092824939
 30
0.0
 11
1038.457430938957
 21
847.4086272638805
 31
0.0
  0
LINE
  5
15B
330
14A
100
AcDbEntity
  8
ORTHO$6_1
 62
   250
370
    25
100
AcDbLine
 10
1198.536428749124
 20
773.8525254128617
 30
0.0
 11
1198.118949785414
 21
772.9572384980229
 31
0.0
  0
LINE
  5
15C
330
14A
100
AcDbEntity
  8
ORTHO$6_1
 62
   250
370
    25
100
AcDbLine
 10
1200.753187698818
 20
295.3314152887961
 30
0.0
 11
1198.118949785414
 21
295.3314152887961
 31
0.0
  0
LINE
  5
15D
330
14A
100
AcDbEntity
  8
ORTHO$6_1
 62
   250
370
    25
100
AcDbLine
 10
1200.753187698818
 20
771.1406383977637
 30
0.0
 11
1200.753187698818
 21
295.3314152887961
 31
0.0
  0
LINE
  5
15E
330
14A
100
AcDbEntity
  8
ORTHO$6_1
 62
   250
370
    25
100
AcDbLine
 10
1198.118949785414
 20
772.9572384980229
 30
0.0
 11
1199.232226473181
 21
772.6327827070281
 31
0.0
  0
LINE
  5
15F
330
14A
100
AcDbEntity
  8
ORTHO$6_1
 62
   250
370
    25
100
AcDbLine
 10
1036.11331811094
 20
308.5026048558266
 30
0.0
 11
1036.11331811094
 21
845.9173769491098
 31
0.0
  0
LINE
  5
160
330
14A
100
AcDbEntity
  8
ORTHO$6_1
 62
   250
370
    25
100
AcDbLine
 10
1198.118949785414
 20
295.3314152887961
 30
0.0
 11
1049.284507677968
 21
295.3314152887961
 31
0.0
  0
LINE
  5
161
330
14A
100
AcDbEntity
  8
ORTHO$6_1
 62
   250
370
    25
100
AcDbLine
 10
1198.118949785414
 20
295.3314152887961
 30
0.0
 11
1198.118949785414
 21
772.9572384980229
 31
0.0
  0
LINE
  5
162
330
14A
100
AcDbEntity
  8
ORTHO$6_1
 62
   250
370
    25
100
AcDbLine
 10
1198.118949785414
 20
772.9572384980229
 30
0.0
 11
1038.455514530875
 21
847.4095212583725
 31
0.0
  0
LINE
  5
163
330
14A
100
AcDbEntity
  8
ORTHO$6_1
 62
   250
370
    25
100
AcDbLine
 10
1036.046991293078
 20
849.6225939213854
 30
0.0
 11
1037.539135602343
 21
848.9267945509318
 31
0.0
  0
LINE
  5
164
330
14A
100
AcDbEntity
  8
ORTHO$6_1
 62
   250
370
    25
100
AcDbLine
 10
1035.125478893414
 20
805.715011011217
 30
0.0
 11
1036.113285182966
 21
805.715011011217
 31
0.0
  0
LINE
  5
165
330
14A
100
AcDbEntity
  8
ORTHO$6_1
 62
   250
370
    25
100
AcDbLine
 10
1035.125478893414
 20
805.715011011217
 30
0.0
 11
1035.125478893414
 21
295.3314152887961
 31
0.0
  0
LINE
  5
166
330
14A
100
AcDbEntity
  8
ORTHO$6_1
 62
   250
370
    25
100
AcDbLine
 10
1037.759716806818
 20
302.1338720621334
 30
0.0
 11
1037.759716806818
 21
295.3314152887961
 31
0.0
  0
LINE
  5
167
330
14A
100
AcDbEntity
  8
ORTHO$6_1
 62
   250
370
    25
100
AcDbLine
 10
1225.623432853365
 20
739.1086758104511
 30
0.0
 11
1222.415365724093
 21
731.5275136139316
 31
0.0
  0
LINE
  5
168
330
14A
100
AcDbEntity
  8
ORTHO$6_1
 62
   250
370
    25
100
AcDbLine
 10
1222.73617309558
 20
739.6944233064768
 30
0.0
 11
1222.73617309558
 21
731.4624298270846
 31
0.0
  0
LINE
  5
169
330
14A
100
AcDbEntity
  8
ORTHO$6_1
 62
   250
370
    25
100
AcDbLine
 10
1037.759716806818
 20
295.3314152887961
 30
0.0
 11
1049.284507677968
 21
295.3314152887961
 31
0.0
  0
LINE
  5
16A
330
14A
100
AcDbEntity
  8
ORTHO$6_1
 62
   250
370
    25
100
AcDbLine
 10
1035.125478893414
 20
295.3314152887961
 30
0.0
 11
1037.759716806818
 21
295.3314152887961
 31
0.0
  0
LINE
  5
16B
330
14A
100
AcDbEntity
  8
ORTHO$6_1
 62
   250
370
    25
100
AcDbLine
 10
1252.243101748581
 20
727.8442167938901
 30
0.0
 11
1225.623432853365
 21
739.1086758104511
 31
0.0
  0
LINE
  5
16C
330
14A
100
AcDbEntity
  8
ORTHO$6_1
 62
   250
370
    25
100
AcDbLine
 10
1252.243101748581
 20
727.8442167938901
 30
0.0
 11
1249.035034619312
 21
720.2630545973688
 31
0.0
  0
LINE
  5
16D
330
14A
100
AcDbEntity
  8
ORTHO$6_1
 62
   250
370
    25
100
AcDbLine
 10
1035.629512329364
 20
848.7273070065475
 30
0.0
 11
1036.046991293078
 21
849.6225939213854
 31
0.0
  0
LINE
  5
16E
330
14A
100
AcDbEntity
  8
ORTHO$6_1
 62
   250
370
    25
100
AcDbLine
 10
1035.125478893414
 20
838.6429849287925
 30
0.0
 11
1035.125478893414
 21
805.715011011217
 31
0.0
  0
SPLINE
  5
16F
330
14A
100
AcDbEntity
  8
ORTHO$6_1
 62
   250
370
    25
100
AcDbSpline
210
0.0
220
0.0
230
1.0
 70
     8
 71
     3
 72
     8
 73
     4
 74
     0
 42
0.0000000001
 43
0.0000000001
 40
0.0
 40
0.0
 40
0.0
 40
0.0
 40
1.0
 40
1.0
 40
1.0
 40
1.0
 10
1225.623433540524
 20
739.1086752400397
 30
0.0
 10
1224.709928909771
 20
739.4952365737163
 30
0.0
 10
1223.728100701351
 20
739.6944233064768
 30
0.0
 10
1222.73617309558
 20
739.6944233064768
 30
0.0
  0
SPLINE
  5
170
330
14A
100
AcDbEntity
  8
ORTHO$6_1
 62
   250
370
    25
100
AcDbSpline
210
0.0
220
0.0
230
1.0
 70
     8
 71
     3
 72
     8
 73
     4
 74
     0
 42
0.0000000001
 43
0.0000000001
 40
0.0
 40
0.0
 40
0.0
 40
0.0
 40
1.0
 40
1.0
 40
1.0
 40
1.0
 10
1199.232226833388
 20
773.5280687315881
 30
0.0
 10
1200.160056811286
 20
773.0954145074274
 30
0.0
 10
1200.753187698818
 20
772.1643855079255
 30
0.0
 10
1200.753187698818
 20
771.1406383977637
 30
0.0
  0
CIRCLE
  5
171
330
14A
100
AcDbEntity
  8
ORTHO$6_1
 62
   250
370
    25
100
AcDbCircle
 10
1049.28450767797
 20
308.5026048558261
 30
0.0
 40
4.939196087636673
  0
CIRCLE
  5
172
330
14A
100
AcDbEntity
  8
ORTHO$6_1
 62
   250
370
    25
100
AcDbCircle
 10
1049.28450767797
 20
308.5026048558261
 30
0.0
 40
4.939196087634853
  0
SPLINE
  5
173
330
14A
100
AcDbEntity
  8
ORTHO$6_1
 62
   250
370
    25
100
AcDbSpline
210
0.0
220
0.0
230
1.0
 70
     8
 71
     3
 72
     8
 73
     4
 74
     0
 42
0.0000000001
 43
0.0000000001
 40
0.0
 40
0.0
 40
0.0
 40
0.0
 40
1.0
 40
1.0
 40
1.0
 40
1.0
 10
1036.11331811094
 20
308.5026048558266
 30
0.0
 10
1036.11331811094
 20
301.2283577208236
 30
0.0
 10
1042.010260542967
 20
295.3314152887961
 30
0.0
 10
1049.284507677968
 20
295.3314152887961
 30
0.0
  0
SPLINE
  5
174
330
14A
100
AcDbEntity
  8
ORTHO$6_1
 62
   250
370
    25
100
AcDbSpline
210
0.0
220
0.0
230
1.0
 70
     8
 71
     3
 72
    11
 73
     7
 74
     0
 42
0.0000000001
 43
0.0000000001
 40
0.0
 40
0.0
 40
0.0
 40
0.0
 40
1.0
 40
1.0
 40
1.0
 40
2.0
 40
2.0
 40
2.0
 40
2.0
 10
1038.455514961802
 20
847.4095209077523
 30
0.0
 10
1037.631426608895
 20
847.7937996177088
 30
0.0
 10
1036.651851558134
 20
847.4372634570027
 30
0.0
 10
1036.267572848177
 20
846.6131751040938
 30
0.0
 10
1036.165969793099
 20
846.3952866493382
 30
0.0
 10
1036.11331811094
 20
846.1577902588834
 30
0.0
 10
1036.11331811094
 20
845.9173769491098
 30
0.0
  0
SPLINE
  5
175
330
14A
100
AcDbEntity
  8
ORTHO$6_1
 62
   250
370
    25
100
AcDbSpline
210
0.0
220
0.0
230
1.0
 70
     8
 71
     3
 72
     8
 73
     4
 74
     0
 42
0.0000000001
 43
0.0000000001
 40
0.0
 40
0.0
 40
0.0
 40
0.0
 40
1.0
 40
1.0
 40
1.0
 40
1.0
 10
1035.125478893414
 20
838.6429849287925
 30
0.0
 10
1035.125478893414
 20
839.4428778738328
 30
0.0
 10
1035.488927346729
 20
840.199440304279
 30
0.0
 10
1036.113351756463
 20
840.6993631783825
 30
0.0
  0
SPLINE
  5
176
330
14A
100
AcDbEntity
  8
ORTHO$6_1
 62
   250
370
    25
100
AcDbSpline
210
0.0
220
0.0
230
1.0
 70
     8
 71
     3
 72
     8
 73
     4
 74
     0
 42
0.0000000001
 43
0.0000000001
 40
0.0
 40
0.0
 40
0.0
 40
0.0
 40
1.0
 40
1.0
 40
1.0
 40
1.0
 10
1199.232226833385
 20
772.6327823564043
 30
0.0
 10
1200.160056811281
 20
772.3623734663051
 30
0.0
 10
1200.753187698816
 20
771.7804803416165
 30
0.0
 10
1200.753187698816
 20
771.1406383977637
 30
0.0
  0
SPLINE
  5
177
330
14A
100
AcDbEntity
  8
ORTHO$6_1
 62
   250
370
    25
100
AcDbSpline
210
0.0
220
0.0
230
1.0
 70
     8
 71
     3
 72
    23
 73
    19
 74
     0
 42
0.0000000001
 43
0.0000000001
 40
0.0
 40
0.0
 40
0.0
 40
0.0
 40
1.0
 40
1.0
 40
1.0
 40
2.0
 40
2.0
 40
2.0
 40
3.0
 40
3.0
 40
3.0
 40
4.0
 40
4.0
 40
4.0
 40
5.0
 40
5.0
 40
5.0
 40
6.0
 40
6.0
 40
6.0
 40
6.0
 10
1215.389947940077
 20
225.9788725939888
 30
0.0
 10
1215.390415449526
 20
225.9773739663178
 30
0.0
 10
1215.377438788782
 20
226.0181572693218
 30
0.0
 10
1215.350994698116
 20
226.1013081373767
 30
0.0
 10
1215.322845709506
 20
226.1898198909948
 30
0.0
 10
1215.279436773373
 20
226.3263383409721
 30
0.0
 10
1215.220845360272
 20
226.5105782672617
 30
0.0
 10
1215.10427810793
 20
226.8771224559568
 30
0.0
 10
1214.927617313202
 20
227.4325523294647
 30
0.0
 10
1214.710915344869
 20
228.113853716397
 30
0.0
 10
1214.59981064516
 20
228.4631619695192
 30
0.0
 10
1214.478180367648
 20
228.8455579243327
 30
0.0
 10
1214.345910558904
 20
229.2614601738205
 30
0.0
 10
1214.210891963154
 20
229.6860055650068
 30
0.0
 10
1214.064787026822
 20
230.145464354755
 30
0.0
 10
1213.913792424846
 20
230.6202550071666
 30
0.0
 10
1213.596201973168
 20
231.6188932086498
 30
0.0
 10
1213.256979794485
 20
232.6853590883275
 30
0.0
 10
1212.889444988075
 20
233.8407643389219
 30
0.0
  0
SPLINE
  5
178
330
14A
100
AcDbEntity
  8
ORTHO$6_1
 62
   250
370
    25
100
AcDbSpline
210
0.0
220
0.0
230
1.0
 70
     8
 71
     3
 72
    23
 73
    19
 74
     0
 42
0.0000000001
 43
0.0000000001
 40
0.0
 40
0.0
 40
0.0
 40
0.0
 40
1.0
 40
1.0
 40
1.0
 40
2.0
 40
2.0
 40
2.0
 40
3.0
 40
3.0
 40
3.0
 40
4.0
 40
4.0
 40
4.0
 40
5.0
 40
5.0
 40
5.0
 40
6.0
 40
6.0
 40
6.0
 40
6.0
 10
1205.828824939053
 20
231.5960731292071
 30
0.0
 10
1206.196553302172
 20
230.440224158594
 30
0.0
 10
1206.535929609547
 20
229.3733717991236
 30
0.0
 10
1206.853585845012
 20
228.3744718168964
 30
0.0
 10
1207.004529340436
 20
227.8998157640253
 30
0.0
 10
1207.150568555438
 20
227.4405030081107
 30
0.0
 10
1207.285557176556
 20
227.0160366814489
 30
0.0
 10
1207.417847359213
 20
226.6000554867314
 30
0.0
 10
1207.53952433746
 20
226.2175414776048
 30
0.0
 10
1207.650678232157
 20
225.8681016903665
 30
0.0
 10
1207.867470542473
 20
225.1865613898681
 30
0.0
 10
1208.044233239274
 20
224.6308348123784
 30
0.0
 10
1208.16079727796
 20
224.2642744129098
 30
0.0
 10
1208.219384288241
 20
224.0800351043217
 30
0.0
 10
1208.262763711493
 20
223.9435835904369
 30
0.0
 10
1208.29092171439
 20
223.8550390644832
 30
0.0
 10
1208.31737573162
 20
223.7718528234454
 30
0.0
 10
1208.33039483934
 20
223.7309508129529
 30
0.0
 10
1208.329983191248
 20
223.7322972431593
 30
0.0
  0
LWPOLYLINE
  5
179
330
14A
100
AcDbEntity
  8
ORTHO$6_1
 62
   250
370
    25
100
AcDbPolyline
 90
        5
 70
     0
 43
0.0
 10
1215.390067518281
 20
225.9784898676444
 10
1215.389918707759
 20
225.9789578242635
 10
1215.389664874567
 20
225.9797545045567
 10
1215.389368450193
 20
225.9806839789744
 10
1215.389947940092
 20
225.978872593947
  0
SPLINE
  5
17A
330
14A
100
AcDbEntity
  8
ORTHO$6_1
 62
   250
370
    25
100
AcDbSpline
210
0.0
220
0.0
230
1.0
 70
     8
 71
     3
 72
    17
 73
    13
 74
     0
 42
0.0000000001
 43
0.0000000001
 40
0.0
 40
0.0
 40
0.0
 40
0.0
 40
1.0
 40
1.0
 40
1.0
 40
2.0
 40
2.0
 40
2.0
 40
3.0
 40
3.0
 40
3.0
 40
4.0
 40
4.0
 40
4.0
 40
4.0
 10
1202.717591281591
 20
266.2310609374908
 30
0.0
 10
1202.437212171935
 20
269.0493970148145
 30
0.0
 10
1202.157352758318
 20
271.867784548409
 30
0.0
 10
1201.878460319412
 20
274.6862678101333
 30
0.0
 10
1201.600722717796
 20
277.4930803016614
 30
0.0
 10
1201.323944099371
 20
280.2999877301772
 30
0.0
 10
1201.04679187325
 20
283.1068581951895
 30
0.0
 10
1200.784377543224
 20
285.7644700169167
 30
0.0
 10
1200.521628283108
 20
288.4220487017828
 30
0.0
 10
1200.258952621378
 20
291.0796346705465
 30
0.0
 10
1200.118836330472
 20
292.4972425534124
 30
0.0
 10
1199.978740980979
 20
293.9148525088076
 30
0.0
 10
1199.838651715905
 20
295.3324630662682
 30
0.0
  0
SPLINE
  5
17B
330
14A
100
AcDbEntity
  8
ORTHO$6_1
 62
   250
370
    25
100
AcDbSpline
210
0.0
220
0.0
230
1.0
 70
     8
 71
     3
 72
    17
 73
    13
 74
     0
 42
0.0000000001
 43
0.0000000001
 40
0.0
 40
0.0
 40
0.0
 40
0.0
 40
1.0
 40
1.0
 40
1.0
 40
2.0
 40
2.0
 40
2.0
 40
3.0
 40
3.0
 40
3.0
 40
4.0
 40
4.0
 40
4.0
 40
4.0
 10
1192.397403414714
 20
295.3341338767769
 30
0.0
 10
1192.41524841335
 20
295.1540630231921
 30
0.0
 10
1192.433095222932
 20
294.9739923488414
 30
0.0
 10
1192.450943964461
 20
294.7939218656957
 30
0.0
 10
1192.780126100491
 20
291.4729041805876
 30
0.0
 10
1193.109965369081
 20
288.1519515322943
 30
0.0
 10
1193.437304093699
 20
284.8307514028911
 30
0.0
 10
1193.761999984934
 20
281.5363656339942
 30
0.0
 10
1194.08423554647
 20
278.2417363640306
 30
0.0
 10
1194.410656423333
 20
274.9475224686648
 30
0.0
 10
1194.729206709862
 20
271.7327379538456
 30
0.0
 10
1195.051742914109
 20
268.5183490242671
 30
0.0
 10
1195.376138265363
 20
265.3041448234253
 30
0.0
  0
SPLINE
  5
17C
330
14A
100
AcDbEntity
  8
ORTHO$6_1
 62
   250
370
    25
100
AcDbSpline
210
0.0
220
0.0
230
1.0
 70
    24
 71
     3
 72
     8
 73
     4
 74
     0
 42
0.0000000001
 43
0.0000000001
 40
0.0
 40
0.0
 40
0.0
 40
0.0
 40
1.0
 40
1.0
 40
1.0
 40
1.0
 10
1202.930207058798
 20
265.1401780421748
 30
0.0
 10
1202.859335133062
 20
265.5038056739468
 30
0.0
 10
1202.788463207326
 20
265.8674333057188
 30
0.0
 10
1202.717591281591
 20
266.2310609374908
 30
0.0
  0
SPLINE
  5
17D
330
14A
100
AcDbEntity
  8
ORTHO$6_1
 62
   250
370
    25
100
AcDbSpline
210
0.0
220
0.0
230
1.0
 70
    24
 71
     3
 72
     8
 73
     4
 74
     0
 42
0.0000000001
 43
0.0000000001
 40
0.0
 40
0.0
 40
0.0
 40
0.0
 40
1.0
 40
1.0
 40
1.0
 40
1.0
 10
1195.376138265363
 20
265.3041448234253
 30
0.0
 10
1195.526506575501
 20
264.5419935398786
 30
0.0
 10
1195.676874885637
 20
263.7798422563283
 30
0.0
 10
1195.827243195777
 20
263.0176909727798
 30
0.0
  0
LWPOLYLINE
  5
17E
330
14A
100
AcDbEntity
  8
ORTHO$6_1
 62
   250
370
    25
100
AcDbPolyline
 90
        4
 70
     0
 43
0.0
 10
1208.334121869455
 20
223.7193765489465
 10
1208.334860480066
 20
223.7170895118016
 10
1208.337357296501
 20
223.7093957233192
 10
1208.339863923717
 20
223.7017287539639
  0
SPLINE
  5
17F
330
14A
100
AcDbEntity
  8
ORTHO$6_1
 62
   250
370
    25
100
AcDbSpline
210
0.0
220
0.0
230
1.0
 70
     8
 71
     3
 72
    29
 73
    25
 74
     0
 42
0.0000000001
 43
0.0000000001
 40
0.0
 40
0.0
 40
0.0
 40
0.0
 40
1.0
 40
1.0
 40
1.0
 40
2.0
 40
2.0
 40
2.0
 40
3.0
 40
3.0
 40
3.0
 40
4.0
 40
4.0
 40
4.0
 40
5.0
 40
5.0
 40
5.0
 40
6.0
 40
6.0
 40
6.0
 40
7.0
 40
7.0
 40
7.0
 40
8.0
 40
8.0
 40
8.0
 40
8.0
 10
1212.889444988075
 20
233.8407643389219
 30
0.0
 10
1212.612265577798
 20
234.711937058888
 30
0.0
 10
1212.335119502211
 20
235.5831204348706
 30
0.0
 10
1212.057928646478
 20
236.4542896495895
 30
0.0
 10
1211.727254280889
 20
237.4935495004993
 30
0.0
 10
1211.396516187526
 20
238.5327891981506
 30
0.0
 10
1211.06602988777
 20
239.5721089845174
 30
0.0
 10
1210.692854588171
 20
240.7456779734348
 30
0.0
 10
1210.320000331831
 20
241.9193490775033
 30
0.0
 10
1209.947107629498
 20
243.0930079363188
 30
0.0
 10
1209.536881528567
 20
244.384171572563
 30
0.0
 10
1209.126608897964
 20
245.6753203888657
 30
0.0
 10
1208.716230279811
 20
246.9664355387813
 30
0.0
 10
1208.273829666023
 20
248.3582968822521
 30
0.0
 10
1207.831305878848
 20
249.7501191003467
 30
0.0
 10
1207.388466246799
 20
251.1418408258869
 30
0.0
 10
1206.918903359088
 20
252.6175463071377
 30
0.0
 10
1206.448985356886
 20
254.0931388013905
 30
0.0
 10
1205.978883938485
 20
255.5686728318051
 30
0.0
 10
1205.485503285716
 20
257.1172747177134
 30
0.0
 10
1204.991920601582
 20
258.6658122062035
 30
0.0
 10
1204.498592532865
 20
260.2144308131137
 30
0.0
 10
1203.975567091303
 20
261.8562731935508
 30
0.0
 10
1203.452827842522
 20
263.4982067527071
 30
0.0
 10
1202.930207058798
 20
265.1401780421748
 30
0.0
  0
SPLINE
  5
180
330
14A
100
AcDbEntity
  8
ORTHO$6_1
 62
   250
370
    25
100
AcDbSpline
210
0.0
220
0.0
230
1.0
 70
     8
 71
     3
 72
    29
 73
    25
 74
     0
 42
0.0000000001
 43
0.0000000001
 40
0.0
 40
0.0
 40
0.0
 40
0.0
 40
1.0
 40
1.0
 40
1.0
 40
2.0
 40
2.0
 40
2.0
 40
3.0
 40
3.0
 40
3.0
 40
4.0
 40
4.0
 40
4.0
 40
5.0
 40
5.0
 40
5.0
 40
6.0
 40
6.0
 40
6.0
 40
7.0
 40
7.0
 40
7.0
 40
8.0
 40
8.0
 40
8.0
 40
8.0
 10
1195.827243195777
 20
263.0176909727798
 30
0.0
 10
1196.317634053332
 20
261.479259878779
 30
0.0
 10
1196.808066495259
 20
259.9408420304226
 30
0.0
 10
1197.298611708071
 20
258.4024601785186
 30
0.0
 10
1197.838273958063
 20
256.7100440874838
 30
0.0
 10
1198.378072692434
 20
255.0176715622529
 30
0.0
 10
1198.917757285706
 20
253.3252625042897
 30
0.0
 10
1199.504173415054
 20
251.4863069709627
 30
0.0
 10
1200.090454780415
 20
249.647308304211
 30
0.0
 10
1200.675665709044
 20
247.8079690046816
 30
0.0
 10
1201.038696891181
 20
246.6669487544041
 30
0.0
 10
1201.401316142761
 20
245.5257974202013
 30
0.0
 10
1201.763810570119
 20
244.3846064925419
 30
0.0
 10
1202.126860198303
 20
243.2416677031397
 30
0.0
 10
1202.489784619611
 20
242.0986891989087
 30
0.0
 10
1202.85264001762
 20
240.9556887176222
 30
0.0
 10
1203.207577399462
 20
239.8376301177177
 30
0.0
 10
1203.562448737508
 20
238.7195504894353
 30
0.0
 10
1203.917792619941
 20
237.601621090269
 30
0.0
 10
1204.2551063562
 20
236.5404154212047
 30
0.0
 10
1204.592845899638
 20
235.479345122787
 30
0.0
 10
1204.930554228353
 20
234.4182650103085
 30
0.0
 10
1205.229960851228
 20
233.4775289192603
 30
0.0
 10
1205.529342938389
 20
232.5367851140673
 30
0.0
 10
1205.828824939053
 20
231.5960731292071
 30
0.0
  0
LWPOLYLINE
  5
181
330
14A
100
AcDbEntity
  8
ORTHO$6_1
 62
   250
370
    25
100
AcDbPolyline
 90
      101
 70
     0
 43
0.0
 10
1202.930207051646
 20
265.1401780257657
 10
1202.929326966958
 20
265.1399110663752
 10
1202.926665855648
 20
265.1391118720494
 10
1202.922178202938
 20
265.1377668448295
 10
1202.915820122511
 20
265.1358628734925
 10
1202.907549559215
 20
265.133387394173
 10
1202.897326494239
 20
265.1303284516325
 10
1202.885113151402
 20
265.1266747609006
 10
1202.870874203399
 20
265.122415768923
 10
1202.854576976624
 20
265.1175417157465
 10
1202.836191653241
 20
265.1120436948913
 10
1202.815691468853
 20
265.1059137124157
 10
1202.793052904468
 20
265.0991447442812
 10
1202.768255871015
 20
265.0917307914678
 10
1202.741283884938
 20
265.0836669324381
 10
1202.712124233196
 20
265.0749493724415
 10
1202.680768126185
 20
265.0655754891777
 10
1202.647210836936
 20
265.0555438744086
 10
1202.611451825194
 20
265.044854370999
 10
1202.573494844879
 20
265.0335081050271
 10
1202.533348033654
 20
265.0215075125361
 10
1202.491023983364
 20
265.0088563605605
 10
1202.446539790259
 20
264.9955597621302
 10
1202.399917084089
 20
264.9816241849348
 10
1202.351182035265
 20
264.9670574534702
 10
1202.300365339566
 20
264.9518687444324
 10
1202.247502179911
 20
264.9360685752981
 10
1202.192632165111
 20
264.9196687859931
 10
1202.135799245539
 20
264.9026825136843
 10
1202.077051606009
 20
264.8851241607499
 10
1202.016441536307
 20
264.8670093560959
 10
1201.954025280058
 20
264.8483549099619
 10
1201.889862862796
 20
264.8291787625385
 10
1201.82401790037
 20
264.8094999267069
 10
1201.756557388871
 20
264.7893384252566
 10
1201.68755147768
 20
264.7687152230428
 10
1201.617073227091
 20
264.747652154565
 10
1201.545198352363
 20
264.7261718474783
 10
1201.47200495606
 20
264.704297642591
 10
1201.397573250609
 20
264.6820535109601
 10
1201.321985273116
 20
264.6594639686773
 10
1201.167676025407
 20
264.6133489191416
 10
1201.009758880078
 20
264.566156199242
 10
1200.848925899379
 20
264.5180926168159
 10
1200.685870278794
 20
264.469365314706
 10
1200.355817022446
 20
264.3707340975434
 10
1200.024847364677
 20
264.271830781745
 10
1199.860534876956
 20
264.2227300676186
 10
1199.697738141483
 20
264.174082687463
 10
1199.536954474306
 20
264.1260372321558
 10
1199.378635507077
 20
264.0787286396335
 10
1199.220311611645
 20
264.0314189305591
 10
1199.059523572981
 20
263.9833732616662
 10
1198.896723098965
 20
263.9347266283185
 10
1198.732407577185
 20
263.885627674108
 10
1198.401434229083
 20
263.7867311014506
 10
1198.071380825397
 20
263.6881111617567
 10
1197.908326565031
 20
263.6393912554595
 10
1197.747495933859
 20
263.5913362507108
 10
1197.589582135883
 20
263.544153284538
 10
1197.435277227545
 20
263.4980491474307
 10
1197.359691785901
 20
263.475465487245
 10
1197.285262855399
 20
263.453227515567
 10
1197.212072468252
 20
263.4313597430264
 10
1197.140200831065
 20
263.4098861345064
 10
1197.069726039684
 20
263.3888300239578
 10
1197.000723801795
 20
263.3682140314995
 10
1196.933267169295
 20
263.3480599834383
 10
1196.867426282346
 20
263.3283888358365
 10
1196.803268127119
 20
263.3092206021029
 10
1196.740856308824
 20
263.2905742851745
 10
1196.680250841731
 20
263.2724678148115
 10
1196.621507957639
 20
263.2549179903508
 10
1196.564679933985
 20
263.2379404293661
 10
1196.509814942801
 20
263.2215495225482
 10
1196.456956921331
 20
263.20575839505
 10
1196.406145464933
 20
263.1905788745062
 10
1196.357415742892
 20
263.176021465888
 10
1196.310798437182
 20
263.1620953332131
 10
1196.266319704355
 20
263.148808288186
 10
1196.224001160297
 20
263.1361667856418
 10
1196.183859887471
 20
263.1241759257445
 10
1196.145908464095
 20
263.1128394626958
 10
1196.110155014395
 20
263.1021598197931
 10
1196.076603279152
 20
263.0921381104963
 10
1196.045252705291
 20
263.0827741652338
 10
1196.016098553422
 20
263.0740665635403
 10
1195.989132021945
 20
263.0660126711573
 10
1195.96434038633
 20
263.0586086816566
 10
1195.941707152033
 20
263.0518496621625
 10
1195.921212219577
 20
263.0457296026579
 10
1195.902832060139
 20
263.0402414684977
 10
1195.886539900128
 20
263.0353772555572
 10
1195.872305913112
 20
263.0311280475871
 10
1195.860097417573
 20
263.0274840753118
 10
1195.849879078942
 20
263.024434776813
 10
1195.841613114426
 20
263.0219688587458
 10
1195.835259499268
 20
263.0200743579589
 10
1195.830776173054
 20
263.0187387031638
 10
1195.828119244816
 20
263.0179487762125
 10
1195.827243195803
 20
263.0176909726943
  0
LWPOLYLINE
  5
182
330
14A
100
AcDbEntity
  8
ORTHO$6_1
 62
   250
370
    25
100
AcDbPolyline
 90
      101
 70
     0
 43
0.0
 10
1212.889445457889
 20
233.8407628139612
 10
1212.888690224457
 20
233.8401023051647
 10
1212.886165595193
 20
233.8388757090361
 10
1212.881826248198
 20
233.8370688947052
 10
1212.875628475865
 20
233.8346682602459
 10
1212.867530386475
 20
233.8316607965444
 10
1212.857492108178
 20
233.828034151913
 10
1212.845475994158
 20
233.8237766969705
 10
1212.831446827798
 20
233.8188775893996
 10
1212.815372026411
 20
233.8133268382444
 10
1212.797221842236
 20
233.8071153671644
 10
1212.776969559196
 20
233.8002350763072
 10
1212.754591683891
 20
233.7926789022349
 10
1212.730068129271
 20
233.7844408754336
 10
1212.703382389449
 20
233.7755161749301
 10
1212.674521704035
 20
233.7659011794894
 10
1212.643477210425
 20
233.7555935148775
 10
1212.610244082547
 20
233.7445920967857
 10
1212.574821654532
 20
233.7328971688494
 10
1212.537213527925
 20
233.7205103353936
 10
1212.497427661114
 20
233.707434588443
 10
1212.455476439754
 20
233.6936743286697
 10
1212.411376727126
 20
233.679235379881
 10
1212.365149893459
 20
233.6641249968216
 10
1212.31682182354
 20
233.6483518660134
 10
1212.266422901895
 20
233.6319260994896
 10
1212.213987975288
 20
233.6148592212849
 10
1212.159556292243
 20
233.5971641466421
 10
1212.103171419676
 20
233.5788551539445
 10
1212.044881136824
 20
233.5599478494915
 10
1211.98473730699
 20
233.5404591252318
 10
1211.922795727681
 20
233.5204071097105
 10
1211.859115960149
 20
233.4998111124769
 10
1211.793761139228
 20
233.4786915623809
 10
1211.72679776493
 20
233.4570699400756
 10
1211.658295477096
 20
233.4349687052727
 10
1211.588326814828
 20
233.412411219213
 10
1211.516966962279
 20
233.3894216629833
 10
1211.444293482833
 20
233.3660249521527
 10
1211.370386043518
 20
233.3422466484917
 10
1211.2953261317
 20
233.3181128693377
 10
1211.142082204322
 20
233.2688855767429
 10
1210.985238953252
 20
233.2185595962401
 10
1210.82548407336
 20
233.1673543830002
 10
1210.663506494558
 20
233.1154894013962
 10
1210.335592886236
 20
233.0106414936599
 10
1210.00671605243
 20
232.9056711497815
 10
1209.843424067534
 20
232.8536168850205
 10
1209.681626702257
 20
232.8020802256215
 10
1209.521818773057
 20
232.7512168242847
 10
1209.364449733859
 20
232.7011677384998
 10
1209.207064501817
 20
232.6511511636927
 10
1209.047218726293
 20
232.6003912950036
 10
1208.885360898592
 20
232.5490325467054
 10
1208.721984966414
 20
232.497233610653
 10
1208.392866901098
 20
232.39301636438
 10
1208.064610903559
 20
232.2892569799224
 10
1207.902423548734
 20
232.238064509238
 10
1207.742433193312
 20
232.1876173669516
 10
1207.58532902936
 20
232.1381342163513
 10
1207.431799217351
 20
232.0898330093114
 10
1207.356587200287
 20
232.0661928303107
 10
1207.28252168001
 20
232.0429280564549
 10
1207.209684259174
 20
232.0200644194101
 10
1207.138154732336
 20
231.9976270528678
 10
1207.068010802337
 20
231.9756404029322
 10
1206.999327804353
 20
231.9541281411075
 10
1206.932178439634
 20
231.9331130804276
 10
1206.866632520854
 20
231.9126170954332
 10
1206.802756730969
 20
231.8926610465296
 10
1206.740614397318
 20
231.8732647092765
 10
1206.68026528255
 20
231.8544467091524
 10
1206.621765393846
 20
231.8362244621658
 10
1206.565166811702
 20
231.8186141218193
 10
1206.510517539362
 20
231.8016305326437
 10
1206.457861373768
 20
231.7852871906671
 10
1206.407237798725
 20
231.7695962109574
 10
1206.358681900707
 20
231.75456830242
 10
1206.31222430759
 20
231.7402127498772
 10
1206.267891150291
 20
231.7265374034723
 10
1206.225704047188
 20
231.713548675245
 10
1206.185680110846
 20
231.7012515428978
 10
1206.147831976592
 20
231.6896495603469
 10
1206.112167852079
 20
231.6787448750365
 10
1206.078691586917
 20
231.6685382515097
 10
1206.047402761393
 20
231.6590291010198
 10
1206.018296792965
 20
231.6502155167382
 10
1205.991365059237
 20
231.6420943141547
 10
1205.966595036088
 20
231.6346610761557
 10
1205.943970449343
 20
231.6279102024182
 10
1205.923471438555
 20
231.6218349625051
 10
1205.905074731286
 20
231.6164275522533
 10
1205.88875382631
 20
231.6116791528693
 10
1205.874479184191
 20
231.6075799923437
 10
1205.862218423648
 20
231.6041194085337
 10
1205.85193652218
 20
231.6012859136008
 10
1205.843596019575
 20
231.5990672591888
 10
1205.837157222771
 20
231.5974505020022
 10
1205.832578410838
 20
231.5964220693313
 10
1205.829816038793
 20
231.5959678240961
 10
1205.82882493909
 20
231.5960731290797
  0
LWPOLYLINE
  5
183
330
14A
100
AcDbEntity
  8
ORTHO$6_1
 62
   250
370
    25
100
AcDbPolyline
 90
      101
 70
     0
 43
0.0
 10
1202.717591281551
 20
266.2310609376782
 10
1202.716686544034
 20
266.2309480695876
 10
1202.713941033915
 20
266.2306028010571
 10
1202.70930769969
 20
266.2300191905615
 10
1202.702741172445
 20
266.2291915089736
 10
1202.694197975501
 20
266.2281142660122
 10
1202.683636736407
 20
266.2267822370359
 10
1202.671018400231
 20
266.2251904899513
 10
1202.656306442743
 20
266.2233344121396
 10
1202.639467082181
 20
266.2212097371994
 10
1202.620469488083
 20
266.218812571311
 10
1202.599285985707
 20
266.2161394190389
 10
1202.57589225445
 20
266.2131872084119
 10
1202.550267518622
 20
266.2099533149776
 10
1202.522394728976
 20
266.2064355847524
 10
1202.492260733339
 20
266.2026323557638
 10
1202.459856434692
 20
266.1985424780105
 10
1202.425176935134
 20
266.1941653316207
 10
1202.388221664172
 20
266.1895008431074
 10
1202.348994489879
 20
266.1845494993449
 10
1202.3075038115
 20
266.1793123593124
 10
1202.263762632377
 20
266.1737910632782
 10
1202.21778861187
 20
266.1679878393843
 10
1202.169604095526
 20
266.1619055074316
 10
1202.119236122547
 20
266.1555474798533
 10
1202.066716410025
 20
266.1489177597123
 10
1202.012081313518
 20
266.1420209357402
 10
1201.955371763757
 20
266.1348621743528
 10
1201.896633179589
 20
266.127447208637
 10
1201.835915357253
 20
266.119782324422
 10
1201.773272336637
 20
266.1118743433544
 10
1201.708762245096
 20
266.1037306032067
 10
1201.642447119779
 20
266.0953589354449
 10
1201.57439270961
 20
266.0867676402286
 10
1201.504668258207
 20
266.0779654590097
 10
1201.433346269276
 20
266.0689615449137
 10
1201.360502256118
 20
266.0597654311205
 10
1201.286214477106
 20
266.0503869974509
 10
1201.210563658982
 20
266.0408364354698
 10
1201.1336327101
 20
266.0311242122389
 10
1201.055506425638
 20
266.0212610331364
 10
1200.896014657503
 20
266.0011255921345
 10
1200.732792954408
 20
265.9805190697989
 10
1200.566556671814
 20
265.959531782697
 10
1200.39802234626
 20
265.9382541977684
 10
1200.056877298786
 20
265.8951838955381
 10
1199.714782934834
 20
265.8519931391165
 10
1199.544946866863
 20
265.8305504582786
 10
1199.376677164713
 20
265.8093054059118
 10
1199.210487924376
 20
265.7883228960454
 10
1199.046846021803
 20
265.7676618813566
 10
1198.883204156511
 20
265.7470007493557
 10
1198.717015030597
 20
265.726017879475
 10
1198.548745523627
 20
265.7047722129919
 10
1198.378909734876
 20
265.6833286536057
 10
1198.036816192491
 20
265.6401353121837
 10
1197.695672330519
 20
265.5970612798465
 10
1197.527138736841
 20
265.5757813921191
 10
1197.360903278919
 20
265.5547915102324
 10
1197.197682492431
 20
265.5341821038746
 10
1197.038191731182
 20
265.5140434947607
 10
1196.960065983305
 20
265.5041786273378
 10
1196.883135592619
 20
265.4944646477816
 10
1196.807485353882
 20
265.4849122627839
 10
1196.733198174994
 20
265.475531940876
 10
1196.660354782181
 20
265.4663338752143
 10
1196.589033433258
 20
265.4573279473625
 10
1196.519309640942
 20
265.4485236923701
 10
1196.451255908301
 20
265.4399302653528
 10
1196.384941478283
 20
265.4315564098779
 10
1196.320432099106
 20
265.4234104283296
 10
1196.257789807176
 20
265.4155001545023
 10
1196.197072729074
 20
265.4078329286003
 10
1196.138334903889
 20
265.4004155747898
 10
1196.081626127045
 20
265.3932543814844
 10
1196.026991816527
 20
265.3863550844471
 10
1195.974472902207
 20
265.379722852811
 10
1195.924105738762
 20
265.3733622780892
 10
1195.875922042389
 20
265.3672773661619
 10
1195.829948851378
 20
265.3614715323092
 10
1195.786208510366
 20
265.3559475992079
 10
1195.744718677806
 20
265.3507077978811
 10
1195.705492356108
 20
265.3457537714749
 10
1195.668537943613
 20
265.3410865818587
 10
1195.633859307478
 20
265.336706718761
 10
1195.601455876311
 20
265.3326141115304
 10
1195.571322751322
 20
265.3288081431074
 10
1195.543450834615
 20
265.32528766625
 10
1195.517826973146
 20
265.3220510216888
 10
1195.494434116835
 20
265.3190960581051
 10
1195.473251489162
 20
265.3164201536492
 10
1195.454254768718
 20
265.3140202388586
 10
1195.437416279989
 20
265.3118928207696
 10
1195.422705191751
 20
265.31003400792
 10
1195.410087721515
 20
265.3084395362075
 10
1195.399527344358
 20
265.307104795209
 10
1195.390985004664
 20
265.3060248549536
 10
1195.384419329353
 20
265.3051944928102
 10
1195.379786841127
 20
265.304608220431
 10
1195.377042170497
 20
265.304260310515
 10
1195.376138265404
 20
265.3041448232652
  0
LWPOLYLINE
  5
184
330
14A
100
AcDbEntity
  8
ORTHO$6_1
 62
   250
370
    25
100
AcDbPolyline
 90
      129
 70
     0
 43
0.0
 10
1215.39006194915
 20
225.9785141884913
 10
1215.41411007287
 20
225.8998913115283
 10
1215.436599694269
 20
225.8200407107088
 10
1215.457469119586
 20
225.7389997407427
 10
1215.476657341262
 20
225.6568091990066
 10
1215.494104250327
 20
225.5735133553808
 10
1215.509750855817
 20
225.4891599679431
 10
1215.523539510343
 20
225.4038002836096
 10
1215.535414140593
 20
225.3174890228111
 10
1215.545320481717
 20
225.2302843474045
 10
1215.553206314125
 20
225.142247811089
 10
1215.559021701414
 20
225.0534442917142
 10
1215.562719227819
 20
224.9639419050218
 10
1215.564254233639
 20
224.8738118994097
 10
1215.56358504693
 20
224.7831285315879
 10
1215.560673209795
 20
224.6919689230253
 10
1215.555483697452
 20
224.6004128973218
 10
1215.547985128323
 20
224.5085427988452
 10
1215.538149963349
 20
224.4164432930865
 10
1215.525954692752
 20
224.3242011494385
 10
1215.511380008534
 20
224.2319050072365
 10
1215.49441096106
 20
224.1396451261408
 10
1215.47503709806
 20
224.0475131220992
 10
1215.453252584713
 20
223.955601690297
 10
1215.429056303361
 20
223.8640043166652
 10
1215.402451931695
 20
223.7728149797003
 10
1215.373447998421
 20
223.682127844484
 10
1215.342057915501
 20
223.5920369508203
 10
1215.30829998642
 20
223.502635897652
 10
1215.272197389964
 20
223.4140175258945
 10
1215.23377813935
 20
223.3262736018623
 10
1215.193075016786
 20
223.2394945035685
 10
1215.150125483609
 20
223.1537689120923
 10
1215.104971566581
 20
223.0691835102425
 10
1215.057659721013
 20
222.9858226906672
 10
1215.008240671699
 20
222.9037682753897
 10
1214.956769232709
 20
222.8230992488771
 10
1214.903304107487
 20
222.7438915062976
 10
1214.847907670715
 20
222.6662176187838
 10
1214.790645733568
 20
222.590146617078
 10
1214.731587294278
 20
222.5157437949747
 10
1214.670804275802
 20
222.4430705336163
 10
1214.608371252723
 20
222.3721841475435
 10
1214.544365169344
 20
222.3031377532316
 10
1214.478865051153
 20
222.2359801605362
 10
1214.411951711749
 20
222.1707557872869
 10
1214.34370745735
 20
222.1075045971192
 10
1214.274215790921
 20
222.0462620602975
 10
1214.203561117985
 20
221.9870591371837
 10
1214.131828455947
 20
221.9299222837635
 10
1214.059103148862
 20
221.8748734784767
 10
1213.985470589272
 20
221.8219302694834
 10
1213.911015948761
 20
221.7711058412606
 10
1213.835823918569
 20
221.7224090993732
 10
1213.759978461654
 20
221.6758447721477
 10
1213.683562577231
 20
221.6314135278972
 10
1213.606658078819
 20
221.5891121061996
 10
1213.529345386545
 20
221.5489334618506
 10
1213.451703334398
 20
221.5108669198617
 10
1213.373808992828
 20
221.4748983400932
 10
1213.295737507098
 20
221.441010289971
 10
1213.217561951496
 20
221.4091822237642
 10
1213.13935319948
 20
221.3793906670417
 10
1213.06117980965
 20
221.3516094048046
 10
1212.983107927292
 20
221.3258096721147
 10
1212.904491209061
 20
221.3017515865249
 10
1212.824646585344
 20
221.2792516037043
 10
1212.743611365891
 20
221.2583714124976
 10
1212.661426328663
 20
221.2391720250234
 10
1212.578135724001
 20
221.2217135561641
 10
1212.493787290434
 20
221.2060550042043
 10
1212.408432255384
 20
221.1922540252781
 10
1212.322125319966
 20
221.1803667029071
 10
1212.234924626962
 20
221.1704473136415
 10
1212.146891711372
 20
221.1625480902585
 10
1212.058091432816
 20
221.1567189838588
 10
1211.968591889381
 20
221.1530074263974
 10
1211.878464312504
 20
221.1514580952444
 10
1211.787782942731
 20
221.1521126814659
 10
1211.69662488627
 20
221.1550096635019
 10
1211.605069952482
 20
221.1601840880376
 10
1211.513200472633
 20
221.167667359874
 10
1211.421101100315
 20
221.1774870425306
 10
1211.328858594366
 20
221.1896666713947
 10
1211.236561584966
 20
221.2042255811393
 10
1211.144300324144
 20
221.2211787490614
 10
1211.052166421776
 20
221.240536655916
 10
1210.960252568624
 20
221.2623051657593
 10
1210.868652247915
 20
221.2864854260806
 10
1210.777459437197
 20
221.3130737894917
 10
1210.686768302372
 20
221.3420617579195
 10
1210.596672885906
 20
221.3734359501959
 10
1210.507266791219
 20
221.4071780936829
 10
1210.418642865534
 20
221.4432650403233
 10
1210.330892883279
 20
221.481668807326
 10
1210.244107232376
 20
221.5223566425066
 10
1210.158374605562
 20
221.5652911139677
 10
1210.073781699
 20
221.6104302236618
 10
1209.990412920306
 20
221.6577275441123
 10
1209.908350108053
 20
221.7071323773926
 10
1209.827672264693
 20
221.7585899351379
 10
1209.748455304778
 20
221.8120415383601
 10
1209.670771820072
 20
221.8674248354964
 10
1209.594690863105
 20
221.9246740370035
 10
1209.520277750485
 20
221.9837201647515
 10
1209.447593887074
 20
222.0444913142401
 10
1209.376696611904
 20
222.1069129276675
 10
1209.307639066572
 20
222.1709080757573
 10
1209.240470086555
 20
222.236397746281
 10
1209.175234115688
 20
222.3033011370808
 10
1209.111971143818
 20
222.3715359515681
 10
1209.050716667532
 20
222.441018694577
 10
1208.991501673476
 20
222.5116649665943
 10
1208.934352643751
 20
222.5833897544198
 10
1208.879291582642
 20
222.6561077164715
 10
1208.826336063755
 20
222.729733460963
 10
1208.775499296496
 20
222.8041818154161
 10
1208.726790210771
 20
222.8793680861072
 10
1208.680213558531
 20
222.9552083060953
 10
1208.635770030944
 20
223.0316194707193
 10
1208.593456389586
 20
223.1085197596621
 10
1208.553265610308
 20
223.1858287447285
 10
1208.515187038205
 20
223.2634675826794
 10
1208.4792065522
 20
223.3413591927347
 10
1208.445306737693
 20
223.4194284182977
 10
1208.413467065833
 20
223.497602172858
 10
1208.383664077937
 20
223.575809569942
 10
1208.355871573641
 20
223.6539820372236
 10
1208.330060801458
 20
223.7320534150749
  0
SPLINE
  5
185
330
14A
100
AcDbEntity
  8
ORTHO$6_1
 62
   250
370
    25
100
AcDbSpline
210
0.0
220
0.0
230
1.0
 70
     8
 71
     3
 72
    41
 73
    37
 74
     0
 42
0.0000000001
 43
0.0000000001
 40
0.0
 40
0.0
 40
0.0
 40
0.0
 40
1.0
 40
1.0
 40
1.0
 40
2.0
 40
2.0
 40
2.0
 40
3.0
 40
3.0
 40
3.0
 40
4.0
 40
4.0
 40
4.0
 40
5.0
 40
5.0
 40
5.0
 40
6.0
 40
6.0
 40
6.0
 40
7.0
 40
7.0
 40
7.0
 40
8.0
 40
8.0
 40
8.0
 40
9.0
 40
9.0
 40
9.0
 40
10.0
 40
10.0
 40
10.0
 40
11.0
 40
11.0
 40
11.0
 40
12.0
 40
12.0
 40
12.0
 40
12.0
 10
1208.329498703931
 20
223.7338085891261
 30
0.0
 10
1208.422864160191
 20
223.4436644918642
 30
0.0
 10
1208.546238972276
 20
223.1733920375573
 30
0.0
 10
1208.701901695682
 20
222.91975878003
 30
0.0
 10
1208.853238682433
 20
222.6731737782102
 30
0.0
 10
1209.035094006438
 20
222.442316043911
 30
0.0
 10
1209.240945077794
 20
222.2364387732305
 30
0.0
 10
1209.433038271638
 20
222.0443211310703
 30
0.0
 10
1209.646026927203
 20
221.8739564401239
 30
0.0
 10
1209.874875972373
 20
221.7287140942262
 30
0.0
 10
1210.080376992866
 20
221.5982899088031
 30
0.0
 10
1210.298667220079
 20
221.4881234139157
 30
0.0
 10
1210.526166059812
 20
221.4004550252048
 30
0.0
 10
1210.887789500479
 20
221.2611007128853
 30
0.0
 10
1211.27268040108
 20
221.1785925088243
 30
0.0
 10
1211.659766091148
 20
221.1575043826869
 30
0.0
 10
1211.928738457769
 20
221.1428509781799
 30
0.0
 10
1212.198770551304
 20
221.1578534975852
 30
0.0
 10
1212.464174262262
 20
221.201759680338
 30
0.0
 10
1212.780594733438
 20
221.2541056516275
 30
0.0
 10
1213.090436439012
 20
221.3475351814668
 30
0.0
 10
1213.383547263915
 20
221.4800594528569
 30
0.0
 10
1213.808754812419
 20
221.6723086492948
 30
0.0
 10
1214.198753091177
 20
221.9468306996241
 30
0.0
 10
1214.523107488781
 20
222.2818916257474
 30
0.0
 10
1214.728505743689
 20
222.4940698173214
 30
0.0
 10
1214.907580223689
 20
222.7305246316555
 30
0.0
 10
1215.056418472559
 20
222.9847977630088
 30
0.0
 10
1215.222371617321
 20
223.268309737221
 30
0.0
 10
1215.350735004398
 20
223.5739734874351
 30
0.0
 10
1215.436346791914
 20
223.8922230215121
 30
0.0
 10
1215.527544373028
 20
224.2312369416795
 30
0.0
 10
1215.570229652763
 20
224.5845325576502
 30
0.0
 10
1215.563277838952
 20
224.9323991796154
 30
0.0
 10
1215.556237404118
 20
225.2847003702955
 30
0.0
 10
1215.49828627191
 20
225.6314332681832
 30
0.0
 10
1215.389807365984
 20
225.9793081701155
 30
0.0
  0
ENDBLK
  5
14D
330
14A
100
AcDbEntity
  8
0
100
AcDbBlockEnd
  0
ENDSEC
  0
SECTION
  2
ENTITIES
  0
INSERT
  5
79
330
70
100
AcDbEntity
  8
0
100
AcDbBlockReference
  2
Block_0
 10
0.0
 20
0.0
 30
0.0
  0
INSERT
  5
7E
330
70
100
AcDbEntity
  8
1
100
AcDbBlockReference
  2
Block_1
 10
0.0
 20
0.0
 30
0.0
  0
INSERT
  5
8A
330
70
100
AcDbEntity
  8
1
100
AcDbBlockReference
  2
Block_2
 10
0.0
 20
0.0
 30
0.0
  0
INSERT
  5
96
330
70
100
AcDbEntity
  8
1
100
AcDbBlockReference
  2
Block_3
 10
0.0
 20
0.0
 30
0.0
  0
INSERT
  5
A2
330
70
100
AcDbEntity
  8
1
100
AcDbBlockReference
  2
Block_4
 10
0.0
 20
0.0
 30
0.0
  0
INSERT
  5
AE
330
70
100
AcDbEntity
  8
1
100
AcDbBlockReference
  2
Block_5
 10
0.0
 20
0.0
 30
0.0
  0
INSERT
  5
BC
330
70
100
AcDbEntity
  8
ORTHO$6
100
AcDbBlockReference
  2
Block_6
 10
0.0
 20
0.0
 30
0.0
  0
LWPOLYLINE
  5
145
330
70
100
AcDbEntity
  8
Front$5_0
 62
    16
370
    35
100
AcDbPolyline
 90
        1
 70
     0
 43
0.0
 10
1167.825213781241
 20
295.3314152887961
  0
LWPOLYLINE
  5
146
330
70
100
AcDbEntity
  8
Front$5_0
 62
    16
370
    35
100
AcDbPolyline
 90
        1
 70
     0
 43
0.0
 10
1167.825213781241
 20
295.3314152887961
  0
LWPOLYLINE
  5
147
330
70
100
AcDbEntity
  8
Front$5_0
 62
   153
370
    35
100
AcDbPolyline
 90
        1
 70
     0
 43
0.0
 10
1167.825213781241
 20
295.3314152887961
  0
LWPOLYLINE
  5
148
330
70
100
AcDbEntity
  8
Front$5_0
 62
   153
370
    35
100
AcDbPolyline
 90
        1
 70
     0
 43
0.0
 10
1167.825213781241
 20
295.3314152887961
  0
INSERT
  5
14B
330
70
100
AcDbEntity
  8
ORTHO$6_1
100
AcDbBlockReference
  2
Block_7
 10
0.0
 20
0.0
 30
0.0
  0
ENDSEC
  0
SECTION
  2
OBJECTS
  0
DICTIONARY
  5
C
330
0
100
AcDbDictionary
281
     1
  3
ACAD_COLOR
350
63
  3
ACAD_DETAILVIEWSTYLE
350
6A
  3
ACAD_GROUP
350
D
  3
ACAD_LAYOUT
350
62
  3
ACAD_MATERIAL
350
10
  3
ACAD_MLEADERSTYLE
350
66
  3
ACAD_MLINESTYLE
350
5F
  3
ACAD_PLOTSETTINGS
350
61
  3
ACAD_PLOTSTYLENAME
350
E
  3
ACAD_SCALELIST
350
42
  3
ACAD_SECTIONVIEWSTYLE
350
68
  3
ACAD_TABLESTYLE
350
64
  3
ACAD_VISUALSTYLE
350
29
  3
ACDB_RECOMPOSE_DATA
350
18E
  3
AcDbVariableDictionary
350
186
  0
DICTIONARY
  5
63
102
{ACAD_REACTORS
330
C
102
}
330
C
100
AcDbDictionary
281
     1
  0
DICTIONARY
  5
6A
102
{ACAD_REACTORS
330
C
102
}
330
C
100
AcDbDictionary
281
     1
  3
Imperial24
350
6B
  0
DICTIONARY
  5
D
102
{ACAD_REACTORS
330
C
102
}
330
C
100
AcDbDictionary
281
     1
  0
DICTIONARY
  5
62
102
{ACAD_REACTORS
330
C
102
}
330
C
100
AcDbDictionary
281
     1
  3
Layout1
350
6F
  3
Layout2
350
77
  3
Model
350
73
  0
DICTIONARY
  5
10
102
{ACAD_REACTORS
330
C
102
}
330
C
100
AcDbDictionary
281
     1
  3
ByBlock
350
19
  3
ByLayer
350
11
  3
Global
350
21
  0
DICTIONARY
  5
66
102
{ACAD_REACTORS
330
C
102
}
330
C
100
AcDbDictionary
281
     1
  3
Standard
350
67
  0
DICTIONARY
  5
5F
102
{ACAD_REACTORS
330
C
102
}
330
C
100
AcDbDictionary
281
     1
  3
Standard
350
60
  0
DICTIONARY
  5
61
102
{ACAD_REACTORS
330
C
102
}
330
C
100
AcDbDictionary
281
     1
  0
ACDBDICTIONARYWDFLT
  5
E
102
{ACAD_REACTORS
330
C
102
}
330
C
100
AcDbDictionary
281
     1
  3
Normal
350
F
100
AcDbDictionaryWithDefault
340
F
  0
DICTIONARY
  5
42
102
{ACAD_REACTORS
330
C
102
}
330
C
100
AcDbDictionary
281
     1
  3
A0
350
43
  3
A1
350
44
  3
A2
350
45
  3
A3
350
46
  3
A4
350
47
  3
A5
350
48
  3
A6
350
49
  3
A7
350
4A
  3
A8
350
4B
  3
A9
350
4C
  3
B0
350
4D
  3
B1
350
4E
  3
B2
350
4F
  3
B3
350
50
  3
B4
350
51
  3
B5
350
52
  3
B6
350
53
  0
DICTIONARY
  5
68
102
{ACAD_REACTORS
330
C
102
}
330
C
100
AcDbDictionary
281
     1
  3
Imperial24
350
69
  0
DICTIONARY
  5
64
102
{ACAD_REACTORS
330
C
102
}
330
C
100
AcDbDictionary
281
     1
  3
Standard
350
65
  0
DICTIONARY
  5
29
102
{ACAD_REACTORS
330
C
102
}
330
C
100
AcDbDictionary
281
     1
  3
2dWireframe
350
2F
  3
Basic
350
2E
  3
Brighten
350
35
  3
ColorChange
350
39
  3
Conceptual
350
32
  3
Dim
350
34
  3
EdgeColorOff
350
41
  3
Facepattern
350
38
  3
Flat
350
2A
  3
FlatWithEdges
350
2B
  3
Gouraud
350
2C
  3
GouraudWithEdges
350
2D
  3
Hidden
350
31
  3
JitterOff
350
3F
  3
Linepattern
350
37
  3
OverhangOff
350
40
  3
Realistic
350
33
  3
Shaded
350
3E
  3
Shaded with edges
350
3D
  3
Shades of Gray
350
3A
  3
Sketchy
350
3B
  3
Thicken
350
36
  3
Wireframe
350
30
  3
X-Ray
350
3C
  0
XRECORD
  5
18E
102
{ACAD_REACTORS
330
C
102
}
330
C
100
AcDbXrecord
280
     1
 90
        1
330
65
  0
DICTIONARY
  5
186
102
{ACAD_REACTORS
330
C
102
}
330
C
100
AcDbDictionary
281
     1
  3
CANNOSCALE
350
18B
  3
CMLEADERSTYLE
350
188
  3
CTABLESTYLE
350
187
  3
CVIEWDETAILSTYLE
350
189
  3
CVIEWSECTIONSTYLE
350
18A
  0
ACDBDETAILVIEWSTYLE
  5
6B
102
{ACAD_REACTORS
330
6A
102
}
330
6A
100
AcDbModelDocViewStyle
 70
     0
  3
Imperial24
290
     1
300
Imperial24
 90
        0
100
AcDbDetailViewStyle
 70
     0
 71
     0
 90
        3
 71
     1
340
55
 62
   256
 40
0.24
340
0
 62
   256
 40
0.24
300

 40
0.36
280
     3
 71
     2
340
5D
 90
       25
 62
   256
 71
     3
340
55
 62
   256
 40
0.24
 90
        1
 40
0.75
 90
        1
300
%<\AcVar ViewType \f "%tc1">% %<\AcVar ViewDetailId>%\PSCALE %<\AcVar ViewScale \f "%sn">%
 71
     4
340
5D
 90
       25
 62
   256
340
5D
 90
       25
 62
   256
280
     0
  0
LAYOUT
  5
6F
102
{ACAD_REACTORS
330
62
102
}
330
62
100
AcDbPlotSettings
  1

  2

  4

  6

 40
0.0
 41
0.0
 42
0.0
 43
0.0
 44
0.0
 45
0.0
 46
0.0
 47
0.0
 48
0.0
 49
0.0
140
0.0
141
0.0
142
1.0
143
1.0
 70
   688
 72
     0
 73
     0
 74
     5
  7

 75
    16
147
1.0
 76
     0
 77
     2
 78
   300
148
0.0
149
0.0
100
AcDbLayout
  1
Layout1
 70
     1
 71
     1
 10
0.0
 20
0.0
 11
12.0
 21
9.0
 12
0.0
 22
0.0
 32
0.0
 14
0.0
 24
0.0
 34
0.0
 15
0.0
 25
0.0
 35
0.0
146
0.0
 13
0.0
 23
0.0
 33
0.0
 16
1.0
 26
0.0
 36
0.0
 17
0.0
 27
1.0
 37
0.0
 76
     0
330
6C
  0
LAYOUT
  5
77
102
{ACAD_REACTORS
330
62
102
}
330
62
100
AcDbPlotSettings
  1

  2

  4

  6

 40
0.0
 41
0.0
 42
0.0
 43
0.0
 44
0.0
 45
0.0
 46
0.0
 47
0.0
 48
0.0
 49
0.0
140
0.0
141
0.0
142
1.0
143
1.0
 70
   688
 72
     0
 73
     0
 74
     5
  7

 75
    16
147
1.0
 76
     0
 77
     2
 78
   300
148
0.0
149
0.0
100
AcDbLayout
  1
Layout2
 70
     1
 71
     2
 10
0.0
 20
0.0
 11
12.0
 21
9.0
 12
0.0
 22
0.0
 32
0.0
 14
0.0
 24
0.0
 34
0.0
 15
0.0
 25
0.0
 35
0.0
146
0.0
 13
0.0
 23
0.0
 33
0.0
 16
1.0
 26
0.0
 36
0.0
 17
0.0
 27
1.0
 37
0.0
 76
     0
330
74
  0
LAYOUT
  5
73
102
{ACAD_REACTORS
330
62
102
}
330
62
100
AcDbPlotSettings
  1

  2

  4

  6

 40
0.0
 41
0.0
 42
0.0
 43
0.0
 44
0.0
 45
0.0
 46
0.0
 47
0.0
 48
0.0
 49
0.0
140
0.0
141
0.0
142
1.0
143
1.0
 70
  1712
 72
     0
 73
     0
 74
     0
  7

 75
     0
147
1.0
 76
     0
 77
     2
 78
   300
148
0.0
149
0.0
100
AcDbLayout
  1
Model
 70
     1
 71
     0
 10
0.0
 20
0.0
 11
12.0
 21
9.0
 12
0.0
 22
0.0
 32
0.0
 14
0.0
 24
0.0
 34
0.0
 15
0.0
 25
0.0
 35
0.0
146
0.0
 13
0.0
 23
0.0
 33
0.0
 16
1.0
 26
0.0
 36
0.0
 17
0.0
 27
1.0
 37
0.0
 76
     0
330
70
  0
MATERIAL
  5
19
102
{ACAD_XDICTIONARY
360
1A
102
}
102
{ACAD_REACTORS
330
10
102
}
330
10
100
AcDbMaterial
  1
ByBlock
 72
     0
 43
0.0208333333333333
 43
0.0
 43
0.0
 43
0.0
 43
0.0
 43
0.0208333333333333
 43
0.0
 43
0.0
 43
0.0
 43
0.0
 43
1.0
 43
0.0
 43
0.0
 43
0.0
 43
0.0
 43
1.0
 77
     0
 47
0.0208333333333333
 47
0.0
 47
0.0
 47
0.0
 47
0.0
 47
0.0208333333333333
 47
0.0
 47
0.0
 47
0.0
 47
0.0
 47
1.0
 47
0.0
 47
0.0
 47
0.0
 47
0.0
 47
1.0
171
     0
 49
0.0208333333333333
 49
0.0
 49
0.0
 49
0.0
 49
0.0
 49
0.0208333333333333
 49
0.0
 49
0.0
 49
0.0
 49
0.0
 49
1.0
 49
0.0
 49
0.0
 49
0.0
 49
0.0
 49
1.0
175
     0
142
0.0208333333333333
142
0.0
142
0.0
142
0.0
142
0.0
142
0.0208333333333333
142
0.0
142
0.0
142
0.0
142
0.0
142
1.0
142
0.0
142
0.0
142
0.0
142
0.0
142
1.0
179
     0
144
0.0208333333333333
144
0.0
144
0.0
144
0.0
144
0.0
144
0.0208333333333333
144
0.0
144
0.0
144
0.0
144
0.0
144
1.0
144
0.0
144
0.0
144
0.0
144
0.0
144
1.0
147
0.0208333333333333
147
0.0
147
0.0
147
0.0
147
0.0
147
0.0208333333333333
147
0.0
147
0.0
147
0.0
147
0.0
147
1.0
147
0.0
147
0.0
147
0.0
147
0.0
147
1.0
  0
MATERIAL
  5
11
102
{ACAD_XDICTIONARY
360
12
102
}
102
{ACAD_REACTORS
330
10
102
}
330
10
100
AcDbMaterial
  1
ByLayer
 72
     0
 43
0.0208333333333333
 43
0.0
 43
0.0
 43
0.0
 43
0.0
 43
0.0208333333333333
 43
0.0
 43
0.0
 43
0.0
 43
0.0
 43
1.0
 43
0.0
 43
0.0
 43
0.0
 43
0.0
 43
1.0
 77
     0
 47
0.0208333333333333
 47
0.0
 47
0.0
 47
0.0
 47
0.0
 47
0.0208333333333333
 47
0.0
 47
0.0
 47
0.0
 47
0.0
 47
1.0
 47
0.0
 47
0.0
 47
0.0
 47
0.0
 47
1.0
171
     0
 49
0.0208333333333333
 49
0.0
 49
0.0
 49
0.0
 49
0.0
 49
0.0208333333333333
 49
0.0
 49
0.0
 49
0.0
 49
0.0
 49
1.0
 49
0.0
 49
0.0
 49
0.0
 49
0.0
 49
1.0
175
     0
142
0.0208333333333333
142
0.0
142
0.0
142
0.0
142
0.0
142
0.0208333333333333
142
0.0
142
0.0
142
0.0
142
0.0
142
1.0
142
0.0
142
0.0
142
0.0
142
0.0
142
1.0
179
     0
144
0.0208333333333333
144
0.0
144
0.0
144
0.0
144
0.0
144
0.0208333333333333
144
0.0
144
0.0
144
0.0
144
0.0
144
1.0
144
0.0
144
0.0
144
0.0
144
0.0
144
1.0
147
0.0208333333333333
147
0.0
147
0.0
147
0.0
147
0.0
147
0.0208333333333333
147
0.0
147
0.0
147
0.0
147
0.0
147
1.0
147
0.0
147
0.0
147
0.0
147
0.0
147
1.0
  0
MATERIAL
  5
21
102
{ACAD_XDICTIONARY
360
22
102
}
102
{ACAD_REACTORS
330
10
102
}
330
10
100
AcDbMaterial
  1
Global
 72
     0
 43
0.0208333333333333
 43
0.0
 43
0.0
 43
0.0
 43
0.0
 43
0.0208333333333333
 43
0.0
 43
0.0
 43
0.0
 43
0.0
 43
1.0
 43
0.0
 43
0.0
 43
0.0
 43
0.0
 43
1.0
 77
     0
 47
0.0208333333333333
 47
0.0
 47
0.0
 47
0.0
 47
0.0
 47
0.0208333333333333
 47
0.0
 47
0.0
 47
0.0
 47
0.0
 47
1.0
 47
0.0
 47
0.0
 47
0.0
 47
0.0
 47
1.0
171
     0
 49
0.0208333333333333
 49
0.0
 49
0.0
 49
0.0
 49
0.0
 49
0.0208333333333333
 49
0.0
 49
0.0
 49
0.0
 49
0.0
 49
1.0
 49
0.0
 49
0.0
 49
0.0
 49
0.0
 49
1.0
175
     0
142
0.0208333333333333
142
0.0
142
0.0
142
0.0
142
0.0
142
0.0208333333333333
142
0.0
142
0.0
142
0.0
142
0.0
142
1.0
142
0.0
142
0.0
142
0.0
142
0.0
142
1.0
179
     0
144
0.0208333333333333
144
0.0
144
0.0
144
0.0
144
0.0
144
0.0208333333333333
144
0.0
144
0.0
144
0.0
144
0.0
144
1.0
144
0.0
144
0.0
144
0.0
144
0.0
144
1.0
147
0.0208333333333333
147
0.0
147
0.0
147
0.0
147
0.0
147
0.0208333333333333
147
0.0
147
0.0
147
0.0
147
0.0
147
1.0
147
0.0
147
0.0
147
0.0
147
0.0
147
1.0
  0
MLEADERSTYLE
  5
67
102
{ACAD_REACTORS
330
66
102
}
330
66
100
AcDbMLeaderStyle
179
     2
170
     2
171
     1
172
     0
 90
        2
 40
0.0
 41
0.0
173
     1
 91
-1056964608
340
5B
 92
       -2
290
     1
 42
0.09
291
     1
 43
0.36
  3
Standard
 44
0.18
300

342
55
174
     1
178
     6
175
     1
176
     0
 93
-1056964608
 45
0.18
292
     0
297
     0
 46
0.18
 94
-1056964608
 47
1.0
 49
1.0
140
1.0
293
     1
141
0.0
294
     1
177
     0
142
1.0
295
     1
296
     0
143
0.125
271
     0
272
     9
273
     9
298
     1
  0
MLINESTYLE
  5
60
102
{ACAD_REACTORS
330
5F
102
}
330
5F
100
AcDbMlineStyle
  2
STANDARD
 70
     0
  3

 62
   256
 51
90.0
 52
90.0
 71
     2
 49
0.5
 62
   256
  6
BYLAYER
 49
-0.5
 62
   256
  6
BYLAYER
  0
ACDBPLACEHOLDER
  5
F
102
{ACAD_REACTORS
330
E
102
}
330
E
  0
SCALE
  5
43
102
{ACAD_REACTORS
330
42
102
}
330
42
100
AcDbScale
 70
     0
300
1:1
140
1.0
141
1.0
290
     1
  0
SCALE
  5
44
102
{ACAD_REACTORS
330
42
102
}
330
42
100
AcDbScale
 70
     0
300
1/128" = 1'-0"
140
0.0078125
141
12.0
290
     0
  0
SCALE
  5
45
102
{ACAD_REACTORS
330
42
102
}
330
42
100
AcDbScale
 70
     0
300
1/64" = 1'-0"
140
0.015625
141
12.0
290
     0
  0
SCALE
  5
46
102
{ACAD_REACTORS
330
42
102
}
330
42
100
AcDbScale
 70
     0
300
1/32" = 1'-0"
140
0.03125
141
12.0
290
     0
  0
SCALE
  5
47
102
{ACAD_REACTORS
330
42
102
}
330
42
100
AcDbScale
 70
     0
300
1/16" = 1'-0"
140
0.0625
141
12.0
290
     0
  0
SCALE
  5
48
102
{ACAD_REACTORS
330
42
102
}
330
42
100
AcDbScale
 70
     0
300
3/32" = 1'-0"
140
0.09375
141
12.0
290
     0
  0
SCALE
  5
49
102
{ACAD_REACTORS
330
42
102
}
330
42
100
AcDbScale
 70
     0
300
1/8" = 1'-0"
140
0.125
141
12.0
290
     0
  0
SCALE
  5
4A
102
{ACAD_REACTORS
330
42
102
}
330
42
100
AcDbScale
 70
     0
300
3/16" = 1'-0"
140
0.1875
141
12.0
290
     0
  0
SCALE
  5
4B
102
{ACAD_REACTORS
330
42
102
}
330
42
100
AcDbScale
 70
     0
300
1/4" = 1'-0"
140
0.25
141
12.0
290
     0
  0
SCALE
  5
4C
102
{ACAD_REACTORS
330
42
102
}
330
42
100
AcDbScale
 70
     0
300
3/8" = 1'-0"
140
0.375
141
12.0
290
     0
  0
SCALE
  5
4D
102
{ACAD_REACTORS
330
42
102
}
330
42
100
AcDbScale
 70
     0
300
1/2" = 1'-0"
140
0.5
141
12.0
290
     0
  0
SCALE
  5
4E
102
{ACAD_REACTORS
330
42
102
}
330
42
100
AcDbScale
 70
     0
300
3/4" = 1'-0"
140
0.75
141
12.0
290
     0
  0
SCALE
  5
4F
102
{ACAD_REACTORS
330
42
102
}
330
42
100
AcDbScale
 70
     0
300
1" = 1'-0"
140
1.0
141
12.0
290
     0
  0
SCALE
  5
50
102
{ACAD_REACTORS
330
42
102
}
330
42
100
AcDbScale
 70
     0
300
1-1/2" = 1'-0"
140
1.5
141
12.0
290
     0
  0
SCALE
  5
51
102
{ACAD_REACTORS
330
42
102
}
330
42
100
AcDbScale
 70
     0
300
3" = 1'-0"
140
3.0
141
12.0
290
     0
  0
SCALE
  5
52
102
{ACAD_REACTORS
330
42
102
}
330
42
100
AcDbScale
 70
     0
300
6" = 1'-0"
140
6.0
141
12.0
290
     0
  0
SCALE
  5
53
102
{ACAD_REACTORS
330
42
102
}
330
42
100
AcDbScale
 70
     0
300
1'-0" = 1'-0"
140
12.0
141
12.0
290
     0
  0
ACDBSECTIONVIEWSTYLE
  5
69
102
{ACAD_REACTORS
330
68
102
}
330
68
100
AcDbModelDocViewStyle
 70
     0
  3
Imperial24
290
     1
300
Imperial24
 90
        0
100
AcDbSectionViewStyle
 70
     0
 71
     0
 90
       78
 71
     1
340
55
 62
   256
 40
0.24
340
0
340
0
 62
   256
 40
0.24
300
I, O, Q, S, X, Z
 40
0.48
 90
        3
 40
0.18
 90
        1
 71
     2
340
5D
 90
       25
 62
   256
340
5D
 90
       50
 62
   256
 40
0.24
 40
0.0
 40
0.24
 71
     3
340
55
 62
   256
 40
0.24
 90
        1
 40
0.75
 90
        1
300
%<\AcVar ViewType \f "%tc1">% %<\AcVar ViewSectionStartId>%-%<\AcVar ViewSectionEndId>%\PSCALE %<\AcVar ViewScale \f "%sn">%
 71
     4
 62
   256
 62
   257
300
ANSI31
 40
1.0
 90
        0
290
     0
290
     0
 90
        6
 40
0.0
 40
1.570796326794896
 40
0.2617993877991494
 40
1.308996938995747
 40
-0.2617993877991494
 40
1.832595714594046
  0
TABLESTYLE
  5
65
102
{ACAD_XDICTIONARY
360
18C
102
}
102
{ACAD_REACTORS
330
64
102
}
330
64
100
AcDbTableStyle
280
     0
  3
Standard
 70
     0
 71
     0
 40
0.06
 41
0.06
280
     0
281
     0
  7
Standard
140
0.18
170
     2
 62
     0
 63
     7
283
     0
 90
      512
 91
        0
  1

274
    -2
284
     1
 64
     0
275
    -2
285
     1
 65
     0
276
    -2
286
     1
 66
     0
277
    -2
287
     1
 67
     0
278
    -2
288
     1
 68
     0
279
    -2
289
     1
 69
     0
  7
Standard
140
0.25
170
     5
 62
     0
 63
     7
283
     0
 90
      512
 91
        0
  1

274
    -2
284
     1
 64
     0
275
    -2
285
     1
 65
     0
276
    -2
286
     1
 66
     0
277
    -2
287
     1
 67
     0
278
    -2
288
     1
 68
     0
279
    -2
289
     1
 69
     0
  7
Standard
140
0.18
170
     5
 62
     0
 63
     7
283
     0
 90
      512
 91
        0
  1

274
    -2
284
     1
 64
     0
275
    -2
285
     1
 65
     0
276
    -2
286
     1
 66
     0
277
    -2
287
     1
 67
     0
278
    -2
288
     1
 68
     0
279
    -2
289
     1
 69
     0
  0
VISUALSTYLE
  5
2F
102
{ACAD_REACTORS
330
29
102
}
330
29
100
AcDbVisualStyle
  2
2dWireframe
 70
     4
177
     3
291
     0
 70
    58
 90
        0
176
     1
 90
        2
176
     1
 90
        0
176
     1
 90
        0
176
     1
 40
0.6
176
     1
 40
30.0
176
     1
 62
     7
420
 16777215
176
     1
 90
        1
176
     1
 90
        4
176
     1
 62
     7
176
     1
 62
   257
176
     1
 90
        1
176
     1
 90
        1
176
     1
 40
1.0
176
     1
 90
        0
176
     1
 62
   257
176
     1
 40
1.0
176
     1
 90
        1
176
     1
 90
        6
176
     1
 90
        2
176
     1
 62
     7
176
     1
 90
        5
176
     1
 90
        0
176
     1
 90
        0
176
     1
290
     0
176
     1
 90
        1
176
     1
 40
0.0
176
     1
 90
        0
176
     1
290
     1
176
     1
290
     1
176
     1
290
     0
176
     1
290
     0
176
     1
290
     0
176
     1
290
     0
176
     1
290
     0
176
     1
290
     0
176
     1
290
     0
176
     1
 90
       50
176
     1
 40
0.0
176
     1
 40
1.0
176
     1
 90
        0
176
     1
 62
    18
420
        0
176
     1
 90
       50
176
     1
 90
        3
176
     1
 62
     5
420
      255
176
     1
290
     0
176
     1
 90
       50
176
     1
 90
       50
176
     1
 90
       50
176
     1
290
     0
176
     1
 90
       50
176
     1
 62
   256
176
     0
 40
1.0
176
     0
 90
        2
176
     1
  1
strokes_ogs.tif
176
     1
290
     0
176
     1
 40
1.0
176
     1
 40
1.0
176
     1
  0
VISUALSTYLE
  5
2E
102
{ACAD_REACTORS
330
29
102
}
330
29
100
AcDbVisualStyle
  2
Basic
 70
     7
177
     3
291
     1
 70
    58
 90
        1
176
     1
 90
        0
176
     1
 90
        1
176
     1
 90
        0
176
     1
 40
0.6
176
     1
 40
30.0
176
     1
 62
     7
420
 16777215
176
     1
 90
        0
176
     1
 90
        4
176
     1
 62
     7
176
     1
 62
   257
176
     1
 90
        1
176
     1
 90
        1
176
     1
 40
1.0
176
     1
 90
        8
176
     1
 62
     7
176
     1
 40
1.0
176
     1
 90
        1
176
     1
 90
        6
176
     1
 90
        2
176
     1
 62
     7
176
     1
 90
        5
176
     1
 90
        0
176
     1
 90
        0
176
     1
290
     0
176
     1
 90
        1
176
     1
 40
0.0
176
     1
 90
        0
176
     1
290
     0
176
     1
290
     1
176
     1
290
     1
176
     1
290
     0
176
     1
290
     0
176
     1
290
     0
176
     1
290
     0
176
     1
290
     0
176
     1
290
     0
176
     1
 90
       50
176
     1
 40
0.0
176
     1
 40
1.0
176
     1
 90
        0
176
     1
 62
    18
420
        0
176
     1
 90
       50
176
     1
 90
        3
176
     1
 62
     5
420
      255
176
     1
290
     0
176
     1
 90
       50
176
     1
 90
       50
176
     1
 90
       50
176
     1
290
     0
176
     1
 90
       50
176
     1
 62
   256
176
     0
 40
1.0
176
     0
 90
        2
176
     1
  1
strokes_ogs.tif
176
     1
290
     0
176
     1
 40
1.0
176
     1
 40
1.0
176
     1
  0
VISUALSTYLE
  5
35
102
{ACAD_REACTORS
330
29
102
}
330
29
100
AcDbVisualStyle
  2
Brighten
 70
    12
177
     3
291
     1
 70
    58
 90
        2
176
     1
 90
        2
176
     1
 90
        0
176
     1
 90
        0
176
     1
 40
0.6
176
     1
 40
30.0
176
     1
 62
     7
420
 16777215
176
     1
 90
        1
176
     1
 90
        4
176
     1
 62
     7
176
     1
 62
   257
176
     1
 90
        1
176
     1
 90
        1
176
     1
 40
1.0
176
     1
 90
        8
176
     1
 62
     7
176
     1
 40
1.0
176
     1
 90
        1
176
     1
 90
        6
176
     1
 90
        2
176
     1
 62
     7
176
     1
 90
        5
176
     1
 90
        0
176
     1
 90
        0
176
     1
290
     0
176
     1
 90
        1
176
     1
 40
50.0
176
     1
 90
        0
176
     1
290
     0
176
     1
290
     1
176
     1
290
     1
176
     1
290
     0
176
     1
290
     0
176
     1
290
     0
176
     1
290
     0
176
     1
290
     0
176
     1
290
     0
176
     1
 90
       50
176
     1
 40
0.0
176
     1
 40
1.0
176
     1
 90
        0
176
     1
 62
    18
420
        0
176
     1
 90
       50
176
     1
 90
        3
176
     1
 62
     5
420
      255
176
     1
290
     0
176
     1
 90
       50
176
     1
 90
       50
176
     1
 90
       50
176
     1
290
     0
176
     1
 90
       50
176
     1
 62
   256
176
     0
 40
1.0
176
     0
 90
        2
176
     1
  1
strokes_ogs.tif
176
     1
290
     0
176
     1
 40
1.0
176
     1
 40
1.0
176
     1
  0
VISUALSTYLE
  5
39
102
{ACAD_REACTORS
330
29
102
}
330
29
100
AcDbVisualStyle
  2
ColorChange
 70
    16
177
     3
291
     1
 70
    58
 90
        2
176
     1
 90
        2
176
     1
 90
        3
176
     1
 90
        0
176
     1
 40
0.6
176
     1
 40
30.0
176
     1
 62
     8
420
  8421504
176
     1
 90
        1
176
     1
 90
        4
176
     1
 62
     7
176
     1
 62
   257
176
     1
 90
        1
176
     1
 90
        1
176
     1
 40
1.0
176
     1
 90
        8
176
     1
 62
     8
420
  8421504
176
     1
 40
1.0
176
     1
 90
        1
176
     1
 90
        6
176
     1
 90
        2
176
     1
 62
     7
176
     1
 90
        5
176
     1
 90
        0
176
     1
 90
        0
176
     1
290
     0
176
     1
 90
        1
176
     1
 40
0.0
176
     1
 90
        0
176
     1
290
     0
176
     1
290
     1
176
     1
290
     1
176
     1
290
     0
176
     1
290
     0
176
     1
290
     0
176
     1
290
     0
176
     1
290
     0
176
     1
290
     0
176
     1
 90
       50
176
     1
 40
0.0
176
     1
 40
1.0
176
     1
 90
        0
176
     1
 62
    18
420
        0
176
     1
 90
       50
176
     1
 90
        3
176
     1
 62
     5
420
      255
176
     1
290
     0
176
     1
 90
       50
176
     1
 90
       50
176
     1
 90
       50
176
     1
290
     0
176
     1
 90
       50
176
     1
 62
   256
176
     0
 40
1.0
176
     0
 90
        2
176
     1
  1
strokes_ogs.tif
176
     1
290
     0
176
     1
 40
1.0
176
     1
 40
1.0
176
     1
  0
VISUALSTYLE
  5
32
102
{ACAD_REACTORS
330
29
102
}
330
29
100
AcDbVisualStyle
  2
Conceptual
 70
     9
177
     3
291
     0
 70
    58
 90
        3
176
     1
 90
        2
176
     1
 90
        0
176
     1
 90
        0
176
     1
 40
0.6
176
     1
 40
30.0
176
     1
 62
     7
420
 16777215
176
     1
 90
        2
176
     1
 90
        2
176
     1
 62
     7
176
     1
 62
   257
176
     1
 90
        1
176
     1
 90
        1
176
     1
 40
179.0
176
     1
 90
        8
176
     1
 62
     7
176
     1
 40
1.0
176
     1
 90
        1
176
     1
 90
        6
176
     1
 90
        2
176
     1
 62
     7
176
     1
 90
        3
176
     1
 90
        0
176
     1
 90
        0
176
     1
290
     0
176
     1
 90
        1
176
     1
 40
0.0
176
     1
 90
        0
176
     1
290
     0
176
     1
290
     1
176
     1
290
     1
176
     1
290
     0
176
     1
290
     0
176
     1
290
     0
176
     1
290
     0
176
     1
290
     0
176
     1
290
     0
176
     1
 90
       50
176
     1
 40
0.0
176
     1
 40
1.0
176
     1
 90
        0
176
     1
 62
    18
420
        0
176
     1
 90
       50
176
     1
 90
        3
176
     1
 62
     5
420
      255
176
     1
290
     0
176
     1
 90
       50
176
     1
 90
       50
176
     1
 90
       50
176
     1
290
     0
176
     1
 90
       50
176
     1
 62
   256
176
     0
 40
1.0
176
     0
 90
        2
176
     1
  1
strokes_ogs.tif
176
     1
290
     0
176
     1
 40
1.0
176
     1
 40
1.0
176
     1
  0
VISUALSTYLE
  5
34
102
{ACAD_REACTORS
330
29
102
}
330
29
100
AcDbVisualStyle
  2
Dim
 70
    11
177
     3
291
     1
 70
    58
 90
        2
176
     1
 90
        2
176
     1
 90
        0
176
     1
 90
        0
176
     1
 40
0.6
176
     1
 40
30.0
176
     1
 62
     7
420
 16777215
176
     1
 90
        1
176
     1
 90
        4
176
     1
 62
     7
176
     1
 62
   257
176
     1
 90
        1
176
     1
 90
        1
176
     1
 40
1.0
176
     1
 90
        8
176
     1
 62
     7
176
     1
 40
1.0
176
     1
 90
        1
176
     1
 90
        6
176
     1
 90
        2
176
     1
 62
     7
176
     1
 90
        5
176
     1
 90
        0
176
     1
 90
        0
176
     1
290
     0
176
     1
 90
        1
176
     1
 40
-50.0
176
     1
 90
        0
176
     1
290
     0
176
     1
290
     1
176
     1
290
     1
176
     1
290
     0
176
     1
290
     0
176
     1
290
     0
176
     1
290
     0
176
     1
290
     0
176
     1
290
     0
176
     1
 90
       50
176
     1
 40
0.0
176
     1
 40
1.0
176
     1
 90
        0
176
     1
 62
    18
420
        0
176
     1
 90
       50
176
     1
 90
        3
176
     1
 62
     5
420
      255
176
     1
290
     0
176
     1
 90
       50
176
     1
 90
       50
176
     1
 90
       50
176
     1
290
     0
176
     1
 90
       50
176
     1
 62
   256
176
     0
 40
1.0
176
     0
 90
        2
176
     1
  1
strokes_ogs.tif
176
     1
290
     0
176
     1
 40
1.0
176
     1
 40
1.0
176
     1
  0
VISUALSTYLE
  5
41
102
{ACAD_REACTORS
330
29
102
}
330
29
100
AcDbVisualStyle
  2
EdgeColorOff
 70
    22
177
     3
291
     1
 70
    58
 90
        2
176
     0
 90
        2
176
     0
 90
        0
176
     0
 90
        0
176
     0
 40
0.6
176
     0
 40
30.0
176
     0
 62
     7
420
 16777215
176
     0
 90
        1
176
     0
 90
        4
176
     0
 62
     7
176
     0
 62
   257
176
     0
 90
        1
176
     0
 90
        1
176
     0
 40
1.0
176
     0
 90
        8
176
     2
 62
     7
176
     0
 40
1.0
176
     0
 90
        1
176
     0
 90
        6
176
     0
 90
        2
176
     0
 62
     7
176
     0
 90
        5
176
     0
 90
        0
176
     0
 90
        0
176
     0
290
     0
176
     0
 90
        1
176
     0
 40
0.0
176
     0
 90
        0
176
     0
290
     0
176
     0
290
     1
176
     0
290
     1
176
     0
290
     0
176
     0
290
     0
176
     0
290
     0
176
     0
290
     0
176
     0
290
     0
176
     0
290
     0
176
     0
 90
       50
176
     0
 40
0.0
176
     0
 40
1.0
176
     0
 90
        0
176
     0
 62
    18
420
        0
176
     0
 90
       50
176
     0
 90
        3
176
     0
 62
     5
420
      255
176
     0
290
     0
176
     0
 90
       50
176
     0
 90
       50
176
     0
 90
       50
176
     0
290
     0
176
     0
 90
       50
176
     0
 62
   256
176
     0
 40
1.0
176
     0
 90
        2
176
     0
  1
strokes_ogs.tif
176
     0
290
     0
176
     0
 40
1.0
176
     0
 40
1.0
176
     0
  0
VISUALSTYLE
  5
38
102
{ACAD_REACTORS
330
29
102
}
330
29
100
AcDbVisualStyle
  2
Facepattern
 70
    15
177
     3
291
     1
 70
    58
 90
        2
176
     1
 90
        2
176
     1
 90
        0
176
     1
 90
        0
176
     1
 40
0.6
176
     1
 40
30.0
176
     1
 62
     7
420
 16777215
176
     1
 90
        1
176
     1
 90
        4
176
     1
 62
     7
176
     1
 62
   257
176
     1
 90
        1
176
     1
 90
        1
176
     1
 40
1.0
176
     1
 90
        8
176
     1
 62
     7
176
     1
 40
1.0
176
     1
 90
        1
176
     1
 90
        6
176
     1
 90
        2
176
     1
 62
     7
176
     1
 90
        5
176
     1
 90
        0
176
     1
 90
        0
176
     1
290
     0
176
     1
 90
        1
176
     1
 40
0.0
176
     1
 90
        0
176
     1
290
     0
176
     1
290
     1
176
     1
290
     1
176
     1
290
     0
176
     1
290
     0
176
     1
290
     0
176
     1
290
     0
176
     1
290
     0
176
     1
290
     0
176
     1
 90
       50
176
     1
 40
0.0
176
     1
 40
1.0
176
     1
 90
        0
176
     1
 62
    18
420
        0
176
     1
 90
       50
176
     1
 90
        3
176
     1
 62
     5
420
      255
176
     1
290
     0
176
     1
 90
       50
176
     1
 90
       50
176
     1
 90
       50
176
     1
290
     0
176
     1
 90
       50
176
     1
 62
   256
176
     0
 40
1.0
176
     0
 90
        2
176
     1
  1
strokes_ogs.tif
176
     1
290
     0
176
     1
 40
1.0
176
     1
 40
1.0
176
     1
  0
VISUALSTYLE
  5
2A
102
{ACAD_REACTORS
330
29
102
}
330
29
100
AcDbVisualStyle
  2
Flat
 70
     0
177
     3
291
     1
 70
    58
 90
        2
176
     1
 90
        1
176
     1
 90
        1
176
     1
 90
        2
176
     1
 40
0.6
176
     1
 40
30.0
176
     1
 62
     7
420
 16777215
176
     1
 90
        0
176
     1
 90
        0
176
     1
 62
     7
176
     1
 62
   257
176
     1
 90
        1
176
     1
 90
        1
176
     1
 40
1.0
176
     1
 90
        8
176
     1
 62
     7
176
     1
 40
1.0
176
     1
 90
        1
176
     1
 90
        6
176
     1
 90
        2
176
     1
 62
     7
176
     1
 90
        5
176
     1
 90
        0
176
     1
 90
        0
176
     1
290
     0
176
     1
 90
       13
176
     1
 40
0.0
176
     1
 90
        0
176
     1
290
     0
176
     1
290
     1
176
     1
290
     1
176
     1
290
     0
176
     1
290
     0
176
     1
290
     0
176
     1
290
     0
176
     1
290
     0
176
     1
290
     0
176
     1
 90
       50
176
     1
 40
0.0
176
     1
 40
1.0
176
     1
 90
        0
176
     1
 62
    18
420
        0
176
     1
 90
       50
176
     1
 90
        3
176
     1
 62
     5
420
      255
176
     1
290
     0
176
     1
 90
       50
176
     1
 90
       50
176
     1
 90
       50
176
     1
290
     0
176
     1
 90
       50
176
     1
 62
   256
176
     0
 40
1.0
176
     0
 90
        2
176
     1
  1
strokes_ogs.tif
176
     1
290
     0
176
     1
 40
1.0
176
     1
 40
1.0
176
     1
  0
VISUALSTYLE
  5
2B
102
{ACAD_REACTORS
330
29
102
}
330
29
100
AcDbVisualStyle
  2
FlatWithEdges
 70
     1
177
     3
291
     1
 70
    58
 90
        2
176
     1
 90
        1
176
     1
 90
        1
176
     1
 90
        2
176
     1
 40
0.6
176
     1
 40
30.0
176
     1
 62
     7
420
 16777215
176
     1
 90
        1
176
     1
 90
        0
176
     1
 62
     7
176
     1
 62
   257
176
     1
 90
        1
176
     1
 90
        1
176
     1
 40
1.0
176
     1
 90
        0
176
     1
 62
   257
176
     1
 40
1.0
176
     1
 90
        1
176
     1
 90
        6
176
     1
 90
        2
176
     1
 62
     7
176
     1
 90
        5
176
     1
 90
        0
176
     1
 90
        0
176
     1
290
     0
176
     1
 90
       13
176
     1
 40
0.0
176
     1
 90
        0
176
     1
290
     0
176
     1
290
     1
176
     1
290
     1
176
     1
290
     0
176
     1
290
     0
176
     1
290
     0
176
     1
290
     0
176
     1
290
     0
176
     1
290
     0
176
     1
 90
       50
176
     1
 40
0.0
176
     1
 40
1.0
176
     1
 90
        0
176
     1
 62
    18
420
        0
176
     1
 90
       50
176
     1
 90
        3
176
     1
 62
     5
420
      255
176
     1
290
     0
176
     1
 90
       50
176
     1
 90
       50
176
     1
 90
       50
176
     1
290
     0
176
     1
 90
       50
176
     1
 62
   256
176
     0
 40
1.0
176
     0
 90
        2
176
     1
  1
strokes_ogs.tif
176
     1
290
     0
176
     1
 40
1.0
176
     1
 40
1.0
176
     1
  0
VISUALSTYLE
  5
2C
102
{ACAD_REACTORS
330
29
102
}
330
29
100
AcDbVisualStyle
  2
Gouraud
 70
     2
177
     3
291
     1
 70
    58
 90
        2
176
     1
 90
        2
176
     1
 90
        1
176
     1
 90
        2
176
     1
 40
0.6
176
     1
 40
30.0
176
     1
 62
     7
420
 16777215
176
     1
 90
        0
176
     1
 90
        0
176
     1
 62
     7
176
     1
 62
   257
176
     1
 90
        1
176
     1
 90
        1
176
     1
 40
1.0
176
     1
 90
        0
176
     1
 62
     7
176
     1
 40
1.0
176
     1
 90
        1
176
     1
 90
        6
176
     1
 90
        2
176
     1
 62
     7
176
     1
 90
        5
176
     1
 90
        0
176
     1
 90
        0
176
     1
290
     0
176
     1
 90
       13
176
     1
 40
0.0
176
     1
 90
        0
176
     1
290
     0
176
     1
290
     1
176
     1
290
     1
176
     1
290
     0
176
     1
290
     0
176
     1
290
     0
176
     1
290
     0
176
     1
290
     0
176
     1
290
     0
176
     1
 90
       50
176
     1
 40
0.0
176
     1
 40
1.0
176
     1
 90
        0
176
     1
 62
    18
420
        0
176
     1
 90
       50
176
     1
 90
        3
176
     1
 62
     5
420
      255
176
     1
290
     0
176
     1
 90
       50
176
     1
 90
       50
176
     1
 90
       50
176
     1
290
     0
176
     1
 90
       50
176
     1
 62
   256
176
     0
 40
1.0
176
     0
 90
        2
176
     1
  1
strokes_ogs.tif
176
     1
290
     0
176
     1
 40
1.0
176
     1
 40
1.0
176
     1
  0
VISUALSTYLE
  5
2D
102
{ACAD_REACTORS
330
29
102
}
330
29
100
AcDbVisualStyle
  2
GouraudWithEdges
 70
     3
177
     3
291
     1
 70
    58
 90
        2
176
     1
 90
        2
176
     1
 90
        1
176
     1
 90
        2
176
     1
 40
0.6
176
     1
 40
30.0
176
     1
 62
     7
420
 16777215
176
     1
 90
        1
176
     1
 90
        0
176
     1
 62
     7
176
     1
 62
   257
176
     1
 90
        1
176
     1
 90
        1
176
     1
 40
1.0
176
     1
 90
        0
176
     1
 62
   257
176
     1
 40
1.0
176
     1
 90
        1
176
     1
 90
        6
176
     1
 90
        2
176
     1
 62
     7
176
     1
 90
        5
176
     1
 90
        0
176
     1
 90
        0
176
     1
290
     0
176
     1
 90
       13
176
     1
 40
0.0
176
     1
 90
        0
176
     1
290
     0
176
     1
290
     1
176
     1
290
     1
176
     1
290
     0
176
     1
290
     0
176
     1
290
     0
176
     1
290
     0
176
     1
290
     0
176
     1
290
     0
176
     1
 90
       50
176
     1
 40
0.0
176
     1
 40
1.0
176
     1
 90
        0
176
     1
 62
    18
420
        0
176
     1
 90
       50
176
     1
 90
        3
176
     1
 62
     5
420
      255
176
     1
290
     0
176
     1
 90
       50
176
     1
 90
       50
176
     1
 90
       50
176
     1
290
     0
176
     1
 90
       50
176
     1
 62
   256
176
     0
 40
1.0
176
     0
 90
        2
176
     1
  1
strokes_ogs.tif
176
     1
290
     0
176
     1
 40
1.0
176
     1
 40
1.0
176
     1
  0
VISUALSTYLE
  5
31
102
{ACAD_REACTORS
330
29
102
}
330
29
100
AcDbVisualStyle
  2
Hidden
 70
     6
177
     3
291
     0
 70
    58
 90
        1
176
     1
 90
        2
176
     1
 90
        2
176
     1
 90
        0
176
     1
 40
0.6
176
     1
 40
30.0
176
     1
 62
     7
420
 16777215
176
     1
 90
        2
176
     1
 90
        2
176
     1
 62
     7
176
     1
 62
   257
176
     1
 90
        2
176
     1
 90
        1
176
     1
 40
40.0
176
     1
 90
        0
176
     1
 62
   257
176
     1
 40
1.0
176
     1
 90
        1
176
     1
 90
        6
176
     1
 90
        2
176
     1
 62
     7
176
     1
 90
        3
176
     1
 90
        0
176
     1
 90
        0
176
     1
290
     0
176
     1
 90
        1
176
     1
 40
0.0
176
     1
 90
        0
176
     1
290
     0
176
     1
290
     1
176
     1
290
     1
176
     1
290
     0
176
     1
290
     0
176
     1
290
     0
176
     1
290
     0
176
     1
290
     0
176
     1
290
     0
176
     1
 90
       50
176
     1
 40
0.0
176
     1
 40
1.0
176
     1
 90
        0
176
     1
 62
    18
420
        0
176
     1
 90
       50
176
     1
 90
        3
176
     1
 62
     5
420
      255
176
     1
290
     0
176
     1
 90
       50
176
     1
 90
       50
176
     1
 90
       50
176
     1
290
     0
176
     1
 90
       50
176
     1
 62
   256
176
     0
 40
1.0
176
     0
 90
        2
176
     1
  1
strokes_ogs.tif
176
     1
290
     0
176
     1
 40
1.0
176
     1
 40
1.0
176
     1
  0
VISUALSTYLE
  5
3F
102
{ACAD_REACTORS
330
29
102
}
330
29
100
AcDbVisualStyle
  2
JitterOff
 70
    20
177
     3
291
     1
 70
    58
 90
        2
176
     0
 90
        2
176
     0
 90
        0
176
     0
 90
        0
176
     0
 40
0.6
176
     0
 40
30.0
176
     0
 62
     7
420
 16777215
176
     0
 90
        1
176
     0
 90
        4
176
     0
 62
     7
176
     0
 62
   257
176
     0
 90
        1
176
     0
 90
        1
176
     0
 40
1.0
176
     0
 90
       10
176
     2
 62
     7
176
     0
 40
1.0
176
     0
 90
        1
176
     0
 90
        6
176
     0
 90
        2
176
     0
 62
     7
176
     0
 90
        5
176
     0
 90
        0
176
     0
 90
        0
176
     0
290
     0
176
     0
 90
        1
176
     0
 40
0.0
176
     0
 90
        0
176
     0
290
     0
176
     0
290
     1
176
     0
290
     1
176
     0
290
     0
176
     0
290
     0
176
     0
290
     0
176
     0
290
     0
176
     0
290
     0
176
     0
290
     0
176
     0
 90
       50
176
     0
 40
0.0
176
     0
 40
1.0
176
     0
 90
        0
176
     0
 62
    18
420
        0
176
     0
 90
       50
176
     0
 90
        3
176
     0
 62
     5
420
      255
176
     0
290
     0
176
     0
 90
       50
176
     0
 90
       50
176
     0
 90
       50
176
     0
290
     0
176
     0
 90
       50
176
     0
 62
   256
176
     0
 40
1.0
176
     0
 90
        2
176
     0
  1
strokes_ogs.tif
176
     0
290
     0
176
     0
 40
1.0
176
     0
 40
1.0
176
     0
  0
VISUALSTYLE
  5
37
102
{ACAD_REACTORS
330
29
102
}
330
29
100
AcDbVisualStyle
  2
Linepattern
 70
    14
177
     3
291
     1
 70
    58
 90
        2
176
     1
 90
        2
176
     1
 90
        0
176
     1
 90
        0
176
     1
 40
0.6
176
     1
 40
30.0
176
     1
 62
     7
420
 16777215
176
     1
 90
        1
176
     1
 90
        4
176
     1
 62
     7
176
     1
 62
   257
176
     1
 90
        7
176
     1
 90
        7
176
     1
 40
1.0
176
     1
 90
        8
176
     1
 62
     7
176
     1
 40
1.0
176
     1
 90
        1
176
     1
 90
        6
176
     1
 90
        2
176
     1
 62
     7
176
     1
 90
        5
176
     1
 90
        0
176
     1
 90
        0
176
     1
290
     0
176
     1
 90
        1
176
     1
 40
0.0
176
     1
 90
        0
176
     1
290
     0
176
     1
290
     1
176
     1
290
     1
176
     1
290
     0
176
     1
290
     0
176
     1
290
     0
176
     1
290
     0
176
     1
290
     0
176
     1
290
     0
176
     1
 90
       50
176
     1
 40
0.0
176
     1
 40
1.0
176
     1
 90
        0
176
     1
 62
    18
420
        0
176
     1
 90
       50
176
     1
 90
        3
176
     1
 62
     5
420
      255
176
     1
290
     0
176
     1
 90
       50
176
     1
 90
       50
176
     1
 90
       50
176
     1
290
     0
176
     1
 90
       50
176
     1
 62
   256
176
     0
 40
1.0
176
     0
 90
        2
176
     1
  1
strokes_ogs.tif
176
     1
290
     0
176
     1
 40
1.0
176
     1
 40
1.0
176
     1
  0
VISUALSTYLE
  5
40
102
{ACAD_REACTORS
330
29
102
}
330
29
100
AcDbVisualStyle
  2
OverhangOff
 70
    21
177
     3
291
     1
 70
    58
 90
        2
176
     0
 90
        2
176
     0
 90
        0
176
     0
 90
        0
176
     0
 40
0.6
176
     0
 40
30.0
176
     0
 62
     7
420
 16777215
176
     0
 90
        1
176
     0
 90
        4
176
     0
 62
     7
176
     0
 62
   257
176
     0
 90
        1
176
     0
 90
        1
176
     0
 40
1.0
176
     0
 90
        9
176
     2
 62
     7
176
     0
 40
1.0
176
     0
 90
        1
176
     0
 90
        6
176
     0
 90
        2
176
     0
 62
     7
176
     0
 90
        5
176
     0
 90
        0
176
     0
 90
        0
176
     0
290
     0
176
     0
 90
        1
176
     0
 40
0.0
176
     0
 90
        0
176
     0
290
     0
176
     0
290
     1
176
     0
290
     1
176
     0
290
     0
176
     0
290
     0
176
     0
290
     0
176
     0
290
     0
176
     0
290
     0
176
     0
290
     0
176
     0
 90
       50
176
     0
 40
0.0
176
     0
 40
1.0
176
     0
 90
        0
176
     0
 62
    18
420
        0
176
     0
 90
       50
176
     0
 90
        3
176
     0
 62
     5
420
      255
176
     0
290
     0
176
     0
 90
       50
176
     0
 90
       50
176
     0
 90
       50
176
     0
290
     0
176
     0
 90
       50
176
     0
 62
   256
176
     0
 40
1.0
176
     0
 90
        2
176
     0
  1
strokes_ogs.tif
176
     0
290
     0
176
     0
 40
1.0
176
     0
 40
1.0
176
     0
  0
VISUALSTYLE
  5
33
102
{ACAD_REACTORS
330
29
102
}
330
29
100
AcDbVisualStyle
  2
Realistic
 70
     8
177
     3
291
     0
 70
    58
 90
        2
176
     1
 90
        3
176
     1
 90
        0
176
     1
 90
        2
176
     1
 40
0.6
176
     1
 40
30.0
176
     1
 62
     7
420
 16777215
176
     1
 90
        0
176
     1
 90
        0
176
     1
 62
     7
176
     1
 62
   257
176
     1
 90
        1
176
     1
 90
        1
176
     1
 40
1.0
176
     1
 90
        8
176
     1
 62
   257
176
     1
 40
1.0
176
     1
 90
        1
176
     1
 90
        6
176
     1
 90
        2
176
     1
 62
     7
176
     1
 90
        3
176
     1
 90
        0
176
     1
 90
        0
176
     1
290
     0
176
     1
 90
       13
176
     1
 40
0.0
176
     1
 90
        0
176
     1
290
     0
176
     1
290
     1
176
     1
290
     1
176
     1
290
     0
176
     1
290
     0
176
     1
290
     0
176
     1
290
     0
176
     1
290
     0
176
     1
290
     0
176
     1
 90
       50
176
     1
 40
0.0
176
     1
 40
1.0
176
     1
 90
        0
176
     1
 62
    18
420
        0
176
     1
 90
       50
176
     1
 90
        3
176
     1
 62
     5
420
      255
176
     1
290
     0
176
     1
 90
       50
176
     1
 90
       50
176
     1
 90
       50
176
     1
290
     0
176
     1
 90
       50
176
     1
 62
   256
176
     0
 40
1.0
176
     0
 90
        2
176
     1
  1
strokes_ogs.tif
176
     1
290
     0
176
     1
 40
1.0
176
     1
 40
1.0
176
     1
  0
VISUALSTYLE
  5
3E
102
{ACAD_REACTORS
330
29
102
}
330
29
100
AcDbVisualStyle
  2
Shaded
 70
    27
177
     3
291
     0
 70
    58
 90
        2
176
     1
 90
        2
176
     1
 90
        1
176
     1
 90
        2
176
     1
 40
0.6
176
     1
 40
30.0
176
     1
 62
     7
420
 16777215
176
     1
 90
        0
176
     1
 90
        4
176
     1
 62
     7
176
     1
 62
   257
176
     1
 90
        1
176
     1
 90
        1
176
     1
 40
1.0
176
     1
 90
        8
176
     1
 62
   257
176
     1
 40
1.0
176
     1
 90
        1
176
     1
 90
        6
176
     1
 90
        2
176
     1
 62
     8
420
  7895160
176
     1
 90
        3
176
     1
 90
        0
176
     1
 90
        0
176
     1
290
     0
176
     1
 90
        5
176
     1
 40
0.0
176
     1
 90
        0
176
     1
290
     0
176
     1
290
     1
176
     1
290
     1
176
     1
290
     0
176
     1
290
     0
176
     1
290
     0
176
     1
290
     0
176
     1
290
     0
176
     1
290
     0
176
     1
 90
       50
176
     1
 40
0.0
176
     1
 40
1.0
176
     1
 90
        0
176
     1
 62
    18
420
        0
176
     1
 90
       50
176
     1
 90
        3
176
     1
 62
     5
420
      255
176
     1
290
     0
176
     1
 90
       50
176
     1
 90
       50
176
     1
 90
       50
176
     1
290
     0
176
     1
 90
       50
176
     1
 62
   256
176
     0
 40
1.0
176
     0
 90
        2
176
     1
  1
strokes_ogs.tif
176
     1
290
     0
176
     1
 40
1.0
176
     1
 40
1.0
176
     1
  0
VISUALSTYLE
  5
3D
102
{ACAD_REACTORS
330
29
102
}
330
29
100
AcDbVisualStyle
  2
Shaded with edges
 70
    26
177
     3
291
     0
 70
    58
 90
        2
176
     1
 90
        2
176
     1
 90
        1
176
     1
 90
        2
176
     1
 40
0.6
176
     1
 40
30.0
176
     1
 62
     7
420
 16777215
176
     1
 90
        1
176
     1
 90
        2
176
     1
 62
     7
176
     1
 62
   257
176
     1
 90
        2
176
     1
 90
        1
176
     1
 40
1.0
176
     1
 90
        8
176
     1
 62
   257
176
     1
 40
1.0
176
     1
 90
        1
176
     1
 90
        6
176
     1
 90
        2
176
     1
 62
     7
176
     1
 90
        3
176
     1
 90
        0
176
     1
 90
        0
176
     1
290
     0
176
     1
 90
        5
176
     1
 40
0.0
176
     1
 90
        0
176
     1
290
     0
176
     1
290
     1
176
     1
290
     1
176
     1
290
     0
176
     1
290
     0
176
     1
290
     0
176
     1
290
     0
176
     1
290
     0
176
     1
290
     0
176
     1
 90
       50
176
     1
 40
0.0
176
     1
 40
1.0
176
     1
 90
        0
176
     1
 62
    18
420
        0
176
     1
 90
       50
176
     1
 90
        3
176
     1
 62
     5
420
      255
176
     1
290
     0
176
     1
 90
       50
176
     1
 90
       50
176
     1
 90
       50
176
     1
290
     0
176
     1
 90
       50
176
     1
 62
   256
176
     0
 40
1.0
176
     0
 90
        2
176
     1
  1
strokes_ogs.tif
176
     1
290
     0
176
     1
 40
1.0
176
     1
 40
1.0
176
     1
  0
VISUALSTYLE
  5
3A
102
{ACAD_REACTORS
330
29
102
}
330
29
100
AcDbVisualStyle
  2
Shades of Gray
 70
    23
177
     3
291
     0
 70
    58
 90
        2
176
     1
 90
        2
176
     1
 90
        3
176
     1
 90
        0
176
     1
 40
0.6
176
     1
 40
30.0
176
     1
 62
     7
420
 16777215
176
     1
 90
        2
176
     1
 90
        2
176
     1
 62
     7
176
     1
 62
     7
176
     1
 90
        1
176
     1
 90
        1
176
     1
 40
40.0
176
     1
 90
        8
176
     1
 62
     7
176
     1
 40
1.0
176
     1
 90
        1
176
     1
 90
        6
176
     1
 90
        2
176
     1
 62
     7
176
     1
 90
        3
176
     1
 90
        0
176
     1
 90
        0
176
     1
290
     0
176
     1
 90
        1
176
     1
 40
0.0
176
     1
 90
        0
176
     1
290
     0
176
     1
290
     1
176
     1
290
     1
176
     1
290
     0
176
     1
290
     0
176
     1
290
     0
176
     1
290
     0
176
     1
290
     0
176
     1
290
     0
176
     1
 90
       50
176
     1
 40
0.0
176
     1
 40
1.0
176
     1
 90
        0
176
     1
 62
    18
420
        0
176
     1
 90
       50
176
     1
 90
        3
176
     1
 62
     5
420
      255
176
     1
290
     0
176
     1
 90
       50
176
     1
 90
       50
176
     1
 90
       50
176
     1
290
     0
176
     1
 90
       50
176
     1
 62
   256
176
     0
 40
1.0
176
     0
 90
        2
176
     1
  1
strokes_ogs.tif
176
     1
290
     0
176
     1
 40
1.0
176
     1
 40
1.0
176
     1
  0
VISUALSTYLE
  5
3B
102
{ACAD_REACTORS
330
29
102
}
330
29
100
AcDbVisualStyle
  2
Sketchy
 70
    24
177
     3
291
     0
 70
    58
 90
        1
176
     1
 90
        2
176
     1
 90
        2
176
     1
 90
        0
176
     1
 40
0.6
176
     1
 40
30.0
176
     1
 62
     7
420
 16777215
176
     1
 90
        2
176
     1
 90
        2
176
     1
 62
     7
176
     1
 62
     7
176
     1
 90
        1
176
     1
 90
        1
176
     1
 40
40.0
176
     1
 90
       11
176
     1
 62
     7
176
     1
 40
1.0
176
     1
 90
        1
176
     1
 90
        6
176
     1
 90
        2
176
     1
 62
     7
176
     1
 90
        6
176
     1
 90
        0
176
     1
 90
        0
176
     1
290
     0
176
     1
 90
        1
176
     1
 40
0.0
176
     1
 90
        0
176
     1
290
     0
176
     1
290
     1
176
     1
290
     1
176
     1
290
     0
176
     1
290
     0
176
     1
290
     0
176
     1
290
     0
176
     1
290
     0
176
     1
290
     0
176
     1
 90
       50
176
     1
 40
0.0
176
     1
 40
1.0
176
     1
 90
        0
176
     1
 62
    18
420
        0
176
     1
 90
       50
176
     1
 90
        3
176
     1
 62
     5
420
      255
176
     1
290
     0
176
     1
 90
       50
176
     1
 90
       50
176
     1
 90
       50
176
     1
290
     0
176
     1
 90
       50
176
     1
 62
   256
176
     0
 40
1.0
176
     0
 90
        2
176
     1
  1
strokes_ogs.tif
176
     1
290
     0
176
     1
 40
1.0
176
     1
 40
1.0
176
     1
  0
VISUALSTYLE
  5
36
102
{ACAD_REACTORS
330
29
102
}
330
29
100
AcDbVisualStyle
  2
Thicken
 70
    13
177
     3
291
     1
 70
    58
 90
        2
176
     1
 90
        2
176
     1
 90
        0
176
     1
 90
        0
176
     1
 40
0.6
176
     1
 40
30.0
176
     1
 62
     7
420
 16777215
176
     1
 90
        1
176
     1
 90
        4
176
     1
 62
     7
176
     1
 62
   257
176
     1
 90
        1
176
     1
 90
        1
176
     1
 40
1.0
176
     1
 90
       12
176
     1
 62
     7
176
     1
 40
1.0
176
     1
 90
        1
176
     1
 90
        6
176
     1
 90
        2
176
     1
 62
     7
176
     1
 90
        5
176
     1
 90
        0
176
     1
 90
        0
176
     1
290
     0
176
     1
 90
        1
176
     1
 40
0.0
176
     1
 90
        0
176
     1
290
     0
176
     1
290
     1
176
     1
290
     1
176
     1
290
     0
176
     1
290
     0
176
     1
290
     0
176
     1
290
     0
176
     1
290
     0
176
     1
290
     0
176
     1
 90
       50
176
     1
 40
0.0
176
     1
 40
1.0
176
     1
 90
        0
176
     1
 62
    18
420
        0
176
     1
 90
       50
176
     1
 90
        3
176
     1
 62
     5
420
      255
176
     1
290
     0
176
     1
 90
       50
176
     1
 90
       50
176
     1
 90
       50
176
     1
290
     0
176
     1
 90
       50
176
     1
 62
   256
176
     0
 40
1.0
176
     0
 90
        2
176
     1
  1
strokes_ogs.tif
176
     1
290
     0
176
     1
 40
1.0
176
     1
 40
1.0
176
     1
  0
VISUALSTYLE
  5
30
102
{ACAD_REACTORS
330
29
102
}
330
29
100
AcDbVisualStyle
  2
Wireframe
 70
     5
177
     3
291
     0
 70
    58
 90
        0
176
     1
 90
        2
176
     1
 90
        0
176
     1
 90
        0
176
     1
 40
0.6
176
     1
 40
30.0
176
     1
 62
     7
420
 16777215
176
     1
 90
        1
176
     1
 90
        4
176
     1
 62
     7
176
     1
 62
   257
176
     1
 90
        1
176
     1
 90
        1
176
     1
 40
1.0
176
     1
 90
        0
176
     1
 62
   257
176
     1
 40
1.0
176
     1
 90
        1
176
     1
 90
        6
176
     1
 90
        2
176
     1
 62
     7
176
     1
 90
        3
176
     1
 90
        0
176
     1
 90
        0
176
     1
290
     0
176
     1
 90
        1
176
     1
 40
0.0
176
     1
 90
        0
176
     1
290
     0
176
     1
290
     1
176
     1
290
     1
176
     1
290
     0
176
     1
290
     0
176
     1
290
     0
176
     1
290
     0
176
     1
290
     0
176
     1
290
     0
176
     1
 90
       50
176
     1
 40
0.0
176
     1
 40
1.0
176
     1
 90
        0
176
     1
 62
    18
420
        0
176
     1
 90
       50
176
     1
 90
        3
176
     1
 62
     5
420
      255
176
     1
290
     0
176
     1
 90
       50
176
     1
 90
       50
176
     1
 90
       50
176
     1
290
     0
176
     1
 90
       50
176
     1
 62
   256
176
     0
 40
1.0
176
     0
 90
        2
176
     1
  1
strokes_ogs.tif
176
     1
290
     0
176
     1
 40
1.0
176
     1
 40
1.0
176
     1
  0
VISUALSTYLE
  5
3C
102
{ACAD_REACTORS
330
29
102
}
330
29
100
AcDbVisualStyle
  2
X-Ray
 70
    25
177
     3
291
     0
 70
    58
 90
        2
176
     1
 90
        2
176
     1
 90
        1
176
     1
 90
        1
176
     1
 40
0.5
176
     1
 40
30.0
176
     1
 62
     7
420
 16777215
176
     1
 90
        1
176
     1
 90
        0
176
     1
 62
     7
176
     1
 62
   257
176
     1
 90
        1
176
     1
 90
        1
176
     1
 40
1.0
176
     1
 90
        8
176
     1
 62
     7
176
     1
 40
1.0
176
     1
 90
        1
176
     1
 90
        6
176
     1
 90
        2
176
     1
 62
     7
176
     1
 90
        3
176
     1
 90
        0
176
     1
 90
        0
176
     1
290
     0
176
     1
 90
       13
176
     1
 40
0.0
176
     1
 90
        0
176
     1
290
     0
176
     1
290
     1
176
     1
290
     1
176
     1
290
     0
176
     1
290
     0
176
     1
290
     0
176
     1
290
     0
176
     1
290
     0
176
     1
290
     0
176
     1
 90
       50
176
     1
 40
0.0
176
     1
 40
1.0
176
     1
 90
        0
176
     1
 62
    18
420
        0
176
     1
 90
       50
176
     1
 90
        3
176
     1
 62
     5
420
      255
176
     1
290
     0
176
     1
 90
       50
176
     1
 90
       50
176
     1
 90
       50
176
     1
290
     0
176
     1
 90
       50
176
     1
 62
   256
176
     0
 40
1.0
176
     0
 90
        2
176
     1
  1
strokes_ogs.tif
176
     1
290
     0
176
     1
 40
1.0
176
     1
 40
1.0
176
     1
  0
DICTIONARYVAR
  5
18B
102
{ACAD_REACTORS
330
186
102
}
330
186
100
DictionaryVariables
280
     0
  1
1:1
  0
DICTIONARYVAR
  5
188
102
{ACAD_REACTORS
330
186
102
}
330
186
100
DictionaryVariables
280
     0
  1
STANDARD
  0
DICTIONARYVAR
  5
187
102
{ACAD_REACTORS
330
186
102
}
330
186
100
DictionaryVariables
280
     0
  1
STANDARD
  0
DICTIONARYVAR
  5
189
102
{ACAD_REACTORS
330
186
102
}
330
186
100
DictionaryVariables
280
     0
  1
Imperial24
  0
DICTIONARYVAR
  5
18A
102
{ACAD_REACTORS
330
186
102
}
330
186
100
DictionaryVariables
280
     0
  1
Imperial24
  0
DICTIONARY
  5
1A
330
19
100
AcDbDictionary
280
     1
281
     1
  3
BUMPTILE
360
1C
  3
DIFFUSETILE
360
1B
  3
OPACITYTILE
360
1F
  3
REFLECTIONTILE
360
1E
  3
REFRACTIONTILE
360
20
  3
SPECULARTILE
360
1D
  0
DICTIONARY
  5
12
330
11
100
AcDbDictionary
280
     1
281
     1
  3
BUMPTILE
360
14
  3
DIFFUSETILE
360
13
  3
OPACITYTILE
360
17
  3
REFLECTIONTILE
360
16
  3
REFRACTIONTILE
360
18
  3
SPECULARTILE
360
15
  0
DICTIONARY
  5
22
330
21
100
AcDbDictionary
280
     1
281
     1
  3
BUMPTILE
360
24
  3
DIFFUSETILE
360
23
  3
OPACITYTILE
360
27
  3
REFLECTIONTILE
360
26
  3
REFRACTIONTILE
360
28
  3
SPECULARTILE
360
25
  0
DICTIONARY
  5
18C
330
65
100
AcDbDictionary
280
     1
281
     1
  3
ACAD_ROUNDTRIP_2008_TABLESTYLE_CELLSTYLEMAP
360
18D
  0
XRECORD
  5
1C
102
{ACAD_REACTORS
330
1A
102
}
330
1A
100
AcDbXrecord
280
     1
270
     1
271
     1
  0
XRECORD
  5
1B
102
{ACAD_REACTORS
330
1A
102
}
330
1A
100
AcDbXrecord
280
     1
270
     1
271
     1
  0
XRECORD
  5
1F
102
{ACAD_REACTORS
330
1A
102
}
330
1A
100
AcDbXrecord
280
     1
270
     1
271
     1
  0
XRECORD
  5
1E
102
{ACAD_REACTORS
330
1A
102
}
330
1A
100
AcDbXrecord
280
     1
270
     1
271
     1
  0
XRECORD
  5
20
102
{ACAD_REACTORS
330
1A
102
}
330
1A
100
AcDbXrecord
280
     1
270
     1
271
     1
  0
XRECORD
  5
1D
102
{ACAD_REACTORS
330
1A
102
}
330
1A
100
AcDbXrecord
280
     1
270
     1
271
     1
  0
XRECORD
  5
14
102
{ACAD_REACTORS
330
12
102
}
330
12
100
AcDbXrecord
280
     1
270
     1
271
     1
  0
XRECORD
  5
13
102
{ACAD_REACTORS
330
12
102
}
330
12
100
AcDbXrecord
280
     1
270
     1
271
     1
  0
XRECORD
  5
17
102
{ACAD_REACTORS
330
12
102
}
330
12
100
AcDbXrecord
280
     1
270
     1
271
     1
  0
XRECORD
  5
16
102
{ACAD_REACTORS
330
12
102
}
330
12
100
AcDbXrecord
280
     1
270
     1
271
     1
  0
XRECORD
  5
18
102
{ACAD_REACTORS
330
12
102
}
330
12
100
AcDbXrecord
280
     1
270
     1
271
     1
  0
XRECORD
  5
15
102
{ACAD_REACTORS
330
12
102
}
330
12
100
AcDbXrecord
280
     1
270
     1
271
     1
  0
XRECORD
  5
24
102
{ACAD_REACTORS
330
22
102
}
330
22
100
AcDbXrecord
280
     1
270
     1
271
     1
  0
XRECORD
  5
23
102
{ACAD_REACTORS
330
22
102
}
330
22
100
AcDbXrecord
280
     1
270
     1
271
     1
  0
XRECORD
  5
27
102
{ACAD_REACTORS
330
22
102
}
330
22
100
AcDbXrecord
280
     1
270
     1
271
     1
  0
XRECORD
  5
26
102
{ACAD_REACTORS
330
22
102
}
330
22
100
AcDbXrecord
280
     1
270
     1
271
     1
  0
XRECORD
  5
28
102
{ACAD_REACTORS
330
22
102
}
330
22
100
AcDbXrecord
280
     1
270
     1
271
     1
  0
XRECORD
  5
25
102
{ACAD_REACTORS
330
22
102
}
330
22
100
AcDbXrecord
280
     1
270
     1
271
     1
  0
CELLSTYLEMAP
  5
18D
102
{ACAD_REACTORS
330
18C
102
}
330
18C
100
AcDbCellStyleMap
 90
        3
300
CELLSTYLE
  1
TABLEFORMAT_BEGIN
 90
        5
170
     1
 91
        0
 92
    32768
 62
   257
 93
        1
300
CONTENTFORMAT
  1
CONTENTFORMAT_BEGIN
 90
        0
 91
        0
 92
      512
 93
        0
300

 40
0.0
140
1.0
 94
        5
 62
     0
340
55
144
0.25
309
CONTENTFORMAT_END
171
     0
 94
        0
309
TABLEFORMAT_END
  1
CELLSTYLE_BEGIN
 90
        1
 91
        1
300
_TITLE
309
CELLSTYLE_END
300
CELLSTYLE
  1
TABLEFORMAT_BEGIN
 90
        5
170
     1
 91
        0
 92
        0
 62
   257
 93
        1
300
CONTENTFORMAT
  1
CONTENTFORMAT_BEGIN
 90
        0
 91
        0
 92
      512
 93
        0
300

 40
0.0
140
1.0
 94
        5
 62
     0
340
55
144
0.18
309
CONTENTFORMAT_END
171
     0
 94
        0
309
TABLEFORMAT_END
  1
CELLSTYLE_BEGIN
 90
        2
 91
        1
300
_HEADER
309
CELLSTYLE_END
300
CELLSTYLE
  1
TABLEFORMAT_BEGIN
 90
        5
170
     1
 91
        0
 92
        0
 62
   257
 93
        1
300
CONTENTFORMAT
  1
CONTENTFORMAT_BEGIN
 90
        0
 91
        0
 92
      512
 93
        0
300

 40
0.0
140
1.0
 94
        2
 62
     0
340
55
144
0.18
309
CONTENTFORMAT_END
171
     0
 94
        0
309
TABLEFORMAT_END
  1
CELLSTYLE_BEGIN
 90
        3
 91
        2
300
_DATA
309
CELLSTYLE_END
  0
ENDSEC
  0
EOF
