  0
SECTION
  2
HEADER
  9
$ACADVER
  1
AC1032
  9
$ACADMAINTVER
 90
      251
  9
$DWGCODEPAGE
  3
ANSI_1252
  9
$REQUIREDVERSIONS
160
                 0
  9
$INSBASE
 10
0.0
 20
0.0
 30
0.0
  9
$EXTMIN
 10
1.000000000000000E+20
 20
1.000000000000000E+20
 30
1.000000000000000E+20
  9
$EXTMAX
 10
-1.000000000000000E+20
 20
-1.000000000000000E+20
 30
-1.000000000000000E+20
  9
$LIMMIN
 10
0.0
 20
0.0
  9
$LIMMAX
 10
12.0
 20
9.0
  9
$ORTHOMODE
 70
     0
  9
$REGENMODE
 70
     1
  9
$FILLMODE
 70
     1
  9
$QTEXTMODE
 70
     0
  9
$MIRRTEXT
 70
     0
  9
$LTSCALE
 40
1.0
  9
$ATTMODE
 70
     1
  9
$TEXTSIZE
 40
0.2
  9
$TRACEWID
 40
0.05
  9
$TEXTSTYLE
  7
Standard
  9
$CLAYER
  8
0
  9
$CELTYPE
  6
ByLayer
  9
$CECOLOR
 62
   256
  9
$CELTSCALE
 40
1.0
  9
$DISPSILH
 70
     0
  9
$DIMSCALE
 40
1.0
  9
$DIMASZ
 40
0.18
  9
$DIMEXO
 40
0.0625
  9
$DIMDLI
 40
0.38
  9
$DIMRND
 40
0.0
  9
$DIMDLE
 40
0.0
  9
$DIMEXE
 40
0.18
  9
$DIMTP
 40
0.0
  9
$DIMTM
 40
0.0
  9
$DIMTXT
 40
0.18
  9
$DIMCEN
 40
0.09
  9
$DIMTSZ
 40
0.0
  9
$DIMTOL
 70
     0
  9
$DIMLIM
 70
     0
  9
$DIMTIH
 70
     1
  9
$DIMTOH
 70
     1
  9
$DIMSE1
 70
     0
  9
$DIMSE2
 70
     0
  9
$DIMTAD
 70
     0
  9
$DIMZIN
 70
     0
  9
$DIMBLK
  1

  9
$DIMASO
 70
     1
  9
$DIMSHO
 70
     1
  9
$DIMPOST
  1

  9
$DIMAPOST
  1

  9
$DIMALT
 70
     0
  9
$DIMALTD
 70
     2
  9
$DIMALTF
 40
25.4
  9
$DIMLFAC
 40
1.0
  9
$DIMTOFL
 70
     0
  9
$DIMTVP
 40
0.0
  9
$DIMTIX
 70
     0
  9
$DIMSOXD
 70
     0
  9
$DIMSAH
 70
     0
  9
$DIMBLK1
  1

  9
$DIMBLK2
  1

  9
$DIMSTYLE
  2
Standard
  9
$DIMCLRD
 70
     0
  9
$DIMCLRE
 70
     0
  9
$DIMCLRT
 70
     0
  9
$DIMTFAC
 40
1.0
  9
$DIMGAP
 40
0.09
  9
$DIMJUST
 70
     0
  9
$DIMSD1
 70
     0
  9
$DIMSD2
 70
     0
  9
$DIMTOLJ
 70
     1
  9
$DIMTZIN
 70
     0
  9
$DIMALTZ
 70
     0
  9
$DIMALTTZ
 70
     0
  9
$DIMUPT
 70
     0
  9
$DIMDEC
 70
     4
  9
$DIMTDEC
 70
     4
  9
$DIMALTU
 70
     2
  9
$DIMALTTD
 70
     2
  9
$DIMTXSTY
  7
Standard
  9
$DIMAUNIT
 70
     0
  9
$DIMADEC
 70
     0
  9
$DIMALTRND
 40
0.0
  9
$DIMAZIN
 70
     0
  9
$DIMDSEP
 70
    46
  9
$DIMATFIT
 70
     3
  9
$DIMFRAC
 70
     0
  9
$DIMLDRBLK
  1

  9
$DIMLUNIT
 70
     2
  9
$DIMLWD
 70
    -2
  9
$DIMLWE
 70
    -2
  9
$DIMTMOVE
 70
     0
  9
$DIMFXL
 40
1.0
  9
$DIMFXLON
 70
     0
  9
$DIMJOGANG
 40
0.7853981633974483
  9
$DIMTFILL
 70
     0
  9
$DIMTFILLCLR
 70
     0
  9
$DIMARCSYM
 70
     0
  9
$DIMLTYPE
  6

  9
$DIMLTEX1
  6

  9
$DIMLTEX2
  6

  9
$DIMTXTDIRECTION
 70
     0
  9
$LUNITS
 70
     2
  9
$LUPREC
 70
     4
  9
$SKETCHINC
 40
0.1
  9
$FILLETRAD
 40
0.0
  9
$AUNITS
 70
     0
  9
$AUPREC
 70
     0
  9
$MENU
  1
.
  9
$ELEVATION
 40
0.0
  9
$PELEVATION
 40
0.0
  9
$THICKNESS
 40
0.0
  9
$LIMCHECK
 70
     0
  9
$CHAMFERA
 40
0.0
  9
$CHAMFERB
 40
0.0
  9
$CHAMFERC
 40
0.0
  9
$CHAMFERD
 40
0.0
  9
$SKPOLY
 70
     0
  9
$TDCREATE
 40
2460173.335011574
  9
$TDUCREATE
 40
2460173.460011574
  9
$TDUPDATE
 40
2460173.335011574
  9
$TDUUPDATE
 40
2460173.460011574
  9
$TDINDWG
 40
0.0000000000
  9
$TDUSRTIMER
 40
0.0000000000
  9
$USRTIMER
 70
     1
  9
$ANGBASE
 50
0.0
  9
$ANGDIR
 70
     0
  9
$PDMODE
 70
     0
  9
$PDSIZE
 40
0.0
  9
$PLINEWID
 40
0.0
  9
$SPLFRAME
 70
     0
  9
$SPLINETYPE
 70
     6
  9
$SPLINESEGS
 70
     8
  9
$HANDSEED
  5
1D2
  9
$SURFTAB1
 70
     6
  9
$SURFTAB2
 70
     6
  9
$SURFTYPE
 70
     6
  9
$SURFU
 70
     6
  9
$SURFV
 70
     6
  9
$UCSBASE
  2

  9
$UCSNAME
  2

  9
$UCSORG
 10
0.0
 20
0.0
 30
0.0
  9
$UCSXDIR
 10
1.0
 20
0.0
 30
0.0
  9
$UCSYDIR
 10
0.0
 20
1.0
 30
0.0
  9
$UCSORTHOREF
  2

  9
$UCSORTHOVIEW
 70
     0
  9
$UCSORGTOP
 10
0.0
 20
0.0
 30
0.0
  9
$UCSORGBOTTOM
 10
0.0
 20
0.0
 30
0.0
  9
$UCSORGLEFT
 10
0.0
 20
0.0
 30
0.0
  9
$UCSORGRIGHT
 10
0.0
 20
0.0
 30
0.0
  9
$UCSORGFRONT
 10
0.0
 20
0.0
 30
0.0
  9
$UCSORGBACK
 10
0.0
 20
0.0
 30
0.0
  9
$PUCSBASE
  2

  9
$PUCSNAME
  2

  9
$PUCSORG
 10
0.0
 20
0.0
 30
0.0
  9
$PUCSXDIR
 10
1.0
 20
0.0
 30
0.0
  9
$PUCSYDIR
 10
0.0
 20
1.0
 30
0.0
  9
$PUCSORTHOREF
  2

  9
$PUCSORTHOVIEW
 70
     0
  9
$PUCSORGTOP
 10
0.0
 20
0.0
 30
0.0
  9
$PUCSORGBOTTOM
 10
0.0
 20
0.0
 30
0.0
  9
$PUCSORGLEFT
 10
0.0
 20
0.0
 30
0.0
  9
$PUCSORGRIGHT
 10
0.0
 20
0.0
 30
0.0
  9
$PUCSORGFRONT
 10
0.0
 20
0.0
 30
0.0
  9
$PUCSORGBACK
 10
0.0
 20
0.0
 30
0.0
  9
$USERI1
 70
     0
  9
$USERI2
 70
     0
  9
$USERI3
 70
     0
  9
$USERI4
 70
     0
  9
$USERI5
 70
     0
  9
$USERR1
 40
0.0
  9
$USERR2
 40
0.0
  9
$USERR3
 40
0.0
  9
$USERR4
 40
0.0
  9
$USERR5
 40
0.0
  9
$WORLDVIEW
 70
     1
  9
$SHADEDGE
 70
     3
  9
$SHADEDIF
 70
    70
  9
$TILEMODE
 70
     1
  9
$MAXACTVP
 70
    64
  9
$PINSBASE
 10
0.0
 20
0.0
 30
0.0
  9
$PLIMCHECK
 70
     0
  9
$PEXTMIN
 10
1.000000000000000E+20
 20
1.000000000000000E+20
 30
1.000000000000000E+20
  9
$PEXTMAX
 10
-1.000000000000000E+20
 20
-1.000000000000000E+20
 30
-1.000000000000000E+20
  9
$PLIMMIN
 10
0.0
 20
0.0
  9
$PLIMMAX
 10
12.0
 20
9.0
  9
$UNITMODE
 70
     0
  9
$VISRETAIN
 70
     1
  9
$PLINEGEN
 70
     0
  9
$PSLTSCALE
 70
     1
  9
$TREEDEPTH
 70
  3020
  9
$CMLSTYLE
  2
Standard
  9
$CMLJUST
 70
     0
  9
$CMLSCALE
 40
1.0
  9
$PROXYGRAPHICS
 70
     1
  9
$MEASUREMENT
 70
     0
  9
$CELWEIGHT
370
    -1
  9
$ENDCAPS
280
     0
  9
$JOINSTYLE
280
     0
  9
$LWDISPLAY
290
     1
  9
$INSUNITS
 70
     0
  9
$HYPERLINKBASE
  1

  9
$STYLESHEET
  1

  9
$XEDIT
290
     1
  9
$CEPSNTYPE
380
     0
  9
$PSTYLEMODE
290
     1
  9
$FINGERPRINTGUID
  2
{4EBB7510-1BCD-9542-90EC-FF668553F07E}
  9
$VERSIONGUID
  2
{144E4904-A4A5-5043-9378-A89088AE8C55}
  9
$EXTNAMES
290
     1
  9
$PSVPSCALE
 40
0.0
  9
$OLESTARTUP
290
     0
  9
$SORTENTS
280
   127
  9
$INDEXCTL
280
     0
  9
$HIDETEXT
280
     1
  9
$XCLIPFRAME
280
     2
  9
$HALOGAP
280
     0
  9
$OBSCOLOR
 70
   257
  9
$OBSLTYPE
280
     0
  9
$INTERSECTIONDISPLAY
280
     0
  9
$INTERSECTIONCOLOR
 70
   257
  9
$DIMASSOC
280
     2
  9
$PROJECTNAME
  1

  9
$CAMERADISPLAY
290
     0
  9
$LENSLENGTH
 40
50.0
  9
$CAMERAHEIGHT
 40
0.0
  9
$STEPSPERSEC
 40
2.0
  9
$STEPSIZE
 40
6.0
  9
$3DDWFPREC
 40
2.0
  9
$PSOLWIDTH
 40
0.25
  9
$PSOLHEIGHT
 40
4.0
  9
$LOFTANG1
 40
1.570796326794896
  9
$LOFTANG2
 40
1.570796326794896
  9
$LOFTMAG1
 40
0.0
  9
$LOFTMAG2
 40
0.0
  9
$LOFTPARAM
 70
     7
  9
$LOFTNORMALS
280
     1
  9
$LATITUDE
 40
37.795
  9
$LONGITUDE
 40
-122.394
  9
$NORTHDIRECTION
 40
0.0
  9
$TIMEZONE
 70
 -8000
  9
$LIGHTGLYPHDISPLAY
280
     1
  9
$TILEMODELIGHTSYNCH
280
     1
  9
$CMATERIAL
347
11
  9
$SOLIDHIST
280
     0
  9
$SHOWHIST
280
     1
  9
$DWFFRAME
280
     2
  9
$DGNFRAME
280
     0
  9
$REALWORLDSCALE
290
     1
  9
$INTERFERECOLOR
 62
     1
  9
$INTERFEREOBJVS
345
33
  9
$INTERFEREVPVS
346
30
  9
$CSHADOW
280
     0
  9
$SHADOWPLANELOCATION
 40
0.0
  0
ENDSEC
  0
SECTION
  2
CLASSES
  0
CLASS
  1
ACDBDICTIONARYWDFLT
  2
AcDbDictionaryWithDefault
  3
ObjectDBX Classes
 90
        0
 91
        1
280
     0
281
     0
  0
CLASS
  1
MATERIAL
  2
AcDbMaterial
  3
ObjectDBX Classes
 90
     1153
 91
        3
280
     0
281
     0
  0
CLASS
  1
VISUALSTYLE
  2
AcDbVisualStyle
  3
ObjectDBX Classes
 90
     4095
 91
       24
280
     0
281
     0
  0
CLASS
  1
SCALE
  2
AcDbScale
  3
ObjectDBX Classes
 90
     1153
 91
       17
280
     0
281
     0
  0
CLASS
  1
TABLESTYLE
  2
AcDbTableStyle
  3
ObjectDBX Classes
 90
     4095
 91
        1
280
     0
281
     0
  0
CLASS
  1
MLEADERSTYLE
  2
AcDbMLeaderStyle
  3
ACDB_MLEADERSTYLE_CLASS
 90
     4095
 91
        1
280
     0
281
     0
  0
CLASS
  1
ACDBSECTIONVIEWSTYLE
  2
AcDbSectionViewStyle
  3
ObjectDBX Classes
 90
     1025
 91
        1
280
     0
281
     0
  0
CLASS
  1
ACDBDETAILVIEWSTYLE
  2
AcDbDetailViewStyle
  3
ObjectDBX Classes
 90
     1025
 91
        1
280
     0
281
     0
  0
CLASS
  1
DICTIONARYVAR
  2
AcDbDictionaryVar
  3
ObjectDBX Classes
 90
        0
 91
        5
280
     0
281
     0
  0
CLASS
  1
CELLSTYLEMAP
  2
AcDbCellStyleMap
  3
ObjectDBX Classes
 90
     1152
 91
        1
280
     0
281
     0
  0
ENDSEC
  0
SECTION
  2
TABLES
  0
TABLE
  2
VPORT
  5
8
330
0
100
AcDbSymbolTable
 70
     1
  0
VPORT
  5
57
330
8
100
AcDbSymbolTableRecord
100
AcDbViewportTableRecord
  2
*Active
 70
     0
 10
0.0
 20
0.0
 11
1.0
 21
1.0
 12
0.0
 22
0.0
 13
0.0
 23
0.0
 14
1.0
 24
1.0
 15
0.0
 25
0.0
 16
0.0
 26
0.0
 36
1.0
 17
415.4099893868201
 27
436.3492988945745
 37
0.0
 40
881.4842840500254
 41
0.7284193220317939
 42
50.0
 43
0.0
 44
0.0
 50
0.0
 51
0.0
 71
     0
 72
   100
 73
     1
 74
     1
 75
     0
 76
     0
 77
     0
 78
     0
281
     0
 65
     1
110
0.0
120
0.0
130
0.0
111
1.0
121
0.0
131
0.0
112
0.0
122
1.0
132
0.0
 79
     0
146
0.0
 60
     3
 61
     5
292
     1
282
     1
141
0.0
142
0.0
 63
   250
421
  3355443
  0
ENDTAB
  0
TABLE
  2
LTYPE
  5
5
330
0
100
AcDbSymbolTable
 70
     1
  0
LTYPE
  5
5B
330
5
100
AcDbSymbolTableRecord
100
AcDbLinetypeTableRecord
  2
ByBlock
 70
     0
  3

 72
    65
 73
     0
 40
0.0
  0
LTYPE
  5
5C
330
5
100
AcDbSymbolTableRecord
100
AcDbLinetypeTableRecord
  2
ByLayer
 70
     0
  3

 72
    65
 73
     0
 40
0.0
  0
LTYPE
  5
5D
330
5
100
AcDbSymbolTableRecord
100
AcDbLinetypeTableRecord
  2
Continuous
 70
     0
  3
Solid line
 72
    65
 73
     0
 40
0.0
  0
ENDTAB
  0
TABLE
  2
LAYER
  5
2
330
0
100
AcDbSymbolTable
 70
     2
  0
LAYER
  5
54
330
2
100
AcDbSymbolTableRecord
100
AcDbLayerTableRecord
  2
0
 70
     0
 62
     7
  6
Continuous
370
    -3
390
F
347
21
348
0
  0
LAYER
  5
78
330
2
100
AcDbSymbolTableRecord
100
AcDbLayerTableRecord
  2
Camada 1
 70
     0
 62
     7
  6
Continuous
370
     0
390
F
347
21
348
0
  0
ENDTAB
  0
TABLE
  2
STYLE
  5
3
330
0
100
AcDbSymbolTable
 70
     2
  0
STYLE
  5
55
330
3
100
AcDbSymbolTableRecord
100
AcDbTextStyleTableRecord
  2
Standard
 70
     0
 40
0.0
 41
1.0
 50
0.0
 71
     0
 42
0.2
  3
txt
  4

  0
STYLE
  5
5A
330
3
100
AcDbSymbolTableRecord
100
AcDbTextStyleTableRecord
  2
Annotative
 70
     0
 40
0.0
 41
1.0
 50
0.0
 71
     0
 42
0.2
  3
txt
  4

1001
AcadAnnotative
1000
AnnotativeData
1002
{
1070
     1
1070
     1
1002
}
  0
ENDTAB
  0
TABLE
  2
VIEW
  5
6
330
0
100
AcDbSymbolTable
 70
     0
  0
ENDTAB
  0
TABLE
  2
UCS
  5
7
330
0
100
AcDbSymbolTable
 70
     0
  0
ENDTAB
  0
TABLE
  2
APPID
  5
9
330
0
100
AcDbSymbolTable
 70
     2
  0
APPID
  5
56
330
9
100
AcDbSymbolTableRecord
100
AcDbRegAppTableRecord
  2
ACAD
 70
     0
  0
APPID
  5
5E
330
9
100
AcDbSymbolTableRecord
100
AcDbRegAppTableRecord
  2
AcadAnnotative
 70
     0
  0
ENDTAB
  0
TABLE
  2
DIMSTYLE
  5
A
330
0
100
AcDbSymbolTable
 70
     2
100
AcDbDimStyleTable
 71
     0
  0
DIMSTYLE
105
58
330
A
100
AcDbSymbolTableRecord
100
AcDbDimStyleTableRecord
  2
Standard
 70
     0
340
55
  0
DIMSTYLE
105
59
330
A
100
AcDbSymbolTableRecord
100
AcDbDimStyleTableRecord
  2
Annotative
 70
     0
340
55
1001
AcadAnnotative
1000
AnnotativeData
1002
{
1070
     1
1070
     1
1002
}
  0
ENDTAB
  0
TABLE
  2
BLOCK_RECORD
  5
1
330
0
100
AcDbSymbolTable
 70
     4
  0
BLOCK_RECORD
  5
70
330
1
100
AcDbSymbolTableRecord
100
AcDbBlockTableRecord
  2
*Model_Space
340
73
 70
     0
280
     1
281
     0
  0
BLOCK_RECORD
  5
6C
330
1
100
AcDbSymbolTableRecord
100
AcDbBlockTableRecord
  2
*Paper_Space
340
6F
 70
     0
280
     1
281
     0
  0
BLOCK_RECORD
  5
74
330
1
100
AcDbSymbolTableRecord
100
AcDbBlockTableRecord
  2
*Paper_Space0
340
77
 70
     0
280
     1
281
     0
  0
BLOCK_RECORD
  5
1B7
330
1
100
AcDbSymbolTableRecord
100
AcDbBlockTableRecord
  2
Block_0
340
0
102
{BLKREFS
331
1B8
102
}
 70
     0
280
     1
281
     0
  0
BLOCK_RECORD
  5
1BC
330
1
100
AcDbSymbolTableRecord
100
AcDbBlockTableRecord
  2
Block_1
340
0
102
{BLKREFS
331
1BD
102
}
 70
     0
280
     1
281
     0
  0
BLOCK_RECORD
  5
1C2
330
1
100
AcDbSymbolTableRecord
100
AcDbBlockTableRecord
  2
Block_2
340
0
102
{BLKREFS
331
1C3
102
}
 70
     0
280
     1
281
     0
  0
ENDTAB
  0
ENDSEC
  0
SECTION
  2
BLOCKS
  0
BLOCK
  5
71
330
70
100
AcDbEntity
  8
0
100
AcDbBlockBegin
  2
*Model_Space
 70
     0
 10
0.0
 20
0.0
 30
0.0
  3
*Model_Space
  1

  0
ENDBLK
  5
72
330
70
100
AcDbEntity
  8
0
100
AcDbBlockEnd
  0
BLOCK
  5
6D
330
6C
100
AcDbEntity
 67
     1
  8
0
100
AcDbBlockBegin
  2
*Paper_Space
 70
     0
 10
0.0
 20
0.0
 30
0.0
  3
*Paper_Space
  1

  0
ENDBLK
  5
6E
330
6C
100
AcDbEntity
 67
     1
  8
0
100
AcDbBlockEnd
  0
BLOCK
  5
75
330
74
100
AcDbEntity
 67
     1
  8
0
100
AcDbBlockBegin
  2
*Paper_Space0
 70
     0
 10
0.0
 20
0.0
 30
0.0
  3
*Paper_Space0
  1

  0
ENDBLK
  5
76
330
74
100
AcDbEntity
 67
     1
  8
0
100
AcDbBlockEnd
  0
BLOCK
  5
1B9
330
1B7
100
AcDbEntity
  8
0
100
AcDbBlockBegin
  2
Block_0
 70
     0
 10
0.0
 20
0.0
 30
0.0
  3
Block_0
  1

  0
MTEXT
  5
1BB
330
1B7
100
AcDbEntity
  8
Camada 1
100
AcDbMText
 10
669.3758850097656
 20
52.079833984375
 30
0.0
 40
0.2
 41
0.0
 46
0.0
 71
     7
 72
     1
  1
\C8;\c8419698;\FFrutigerLTPro Bold|b1|i0|c1;\H10.432571;\W1.000000;mm
 73
     1
 44
1.0
  0
INSERT
  5
1BD
330
1B7
100
AcDbEntity
  8
Camada 1
100
AcDbBlockReference
  2
Block_1
 10
0.0
 20
0.0
 30
0.0
  0
INSERT
  5
1C3
330
1B7
100
AcDbEntity
  8
Camada 1
100
AcDbBlockReference
  2
Block_2
 10
0.0
 20
0.0
 30
0.0
  0
ENDBLK
  5
1BA
330
1B7
100
AcDbEntity
  8
0
100
AcDbBlockEnd
  0
BLOCK
  5
1BE
330
1BC
100
AcDbEntity
  8
0
100
AcDbBlockBegin
  2
Block_1
 70
     0
 10
0.0
 20
0.0
 30
0.0
  3
Block_1
  1

  0
SPLINE
  5
1C0
330
1BC
100
AcDbEntity
  8
Camada 1
 62
   149
420
  3752783
370
    35
100
AcDbSpline
210
0.0
220
0.0
230
1.0
 70
     9
 71
     3
 72
    29
 73
    25
 74
     0
 42
0.0000000001
 43
0.0000000001
 40
0.0
 40
0.0
 40
0.0
 40
0.0
 40
1.0
 40
1.0
 40
1.0
 40
2.0
 40
2.0
 40
2.0
 40
3.0
 40
3.0
 40
3.0
 40
4.0
 40
4.0
 40
4.0
 40
5.0
 40
5.0
 40
5.0
 40
6.0
 40
6.0
 40
6.0
 40
7.0
 40
7.0
 40
7.0
 40
8.0
 40
8.0
 40
8.0
 40
8.0
 10
700.4540807157573
 20
36.46826701391546
 30
0.0
 10
700.4540807157573
 20
33.76469214500321
 30
0.0
 10
698.243451563474
 20
31.5540657259262
 30
0.0
 10
695.5379689125875
 20
31.5540657259262
 30
0.0
 10
695.5379689125875
 20
31.5540657259262
 30
0.0
 10
666.645064623859
 20
31.5540657259262
 30
0.0
 10
666.645064623859
 20
31.5540657259262
 30
0.0
 10
663.945310785315
 20
31.5540657259262
 30
0.0
 10
661.7327720289194
 20
33.76469214500321
 30
0.0
 10
661.7327720289194
 20
36.46826701391546
 30
0.0
 10
661.7327720289194
 20
36.46826701391546
 30
0.0
 10
661.7327720289194
 20
65.3649891442692
 30
0.0
 10
661.7327720289194
 20
65.3649891442692
 30
0.0
 10
661.7327720289194
 20
68.06474662709297
 30
0.0
 10
663.945310785315
 20
70.27728173920877
 30
0.0
 10
666.645064623859
 20
70.27728173920877
 30
0.0
 10
666.645064623859
 20
70.27728173920877
 30
0.0
 10
695.5379689125875
 20
70.27728173920877
 30
0.0
 10
695.5379689125875
 20
70.27728173920877
 30
0.0
 10
698.243451563474
 20
70.27728173920877
 30
0.0
 10
700.4540807157573
 20
68.06474662709297
 30
0.0
 10
700.4540807157573
 20
65.3649891442692
 30
0.0
 10
700.4540807157573
 20
65.3649891442692
 30
0.0
 10
700.4540807157573
 20
36.46826701391546
 30
0.0
 10
700.4540807157573
 20
36.46826701391546
 30
0.0
  0
LWPOLYLINE
  5
1C1
330
1BC
100
AcDbEntity
  8
Camada 1
100
AcDbPolyline
 90
        4
 70
     1
 43
0.0
 10
660.943865006473
 20
30.76553907548805
 10
701.4019549922668
 20
30.76553907548805
 10
701.4019549922668
 20
71.06504445690006
 10
660.943865006473
 20
71.06504445690006
  0
ENDBLK
  5
1BF
330
1BC
100
AcDbEntity
  8
0
100
AcDbBlockEnd
  0
BLOCK
  5
1C4
330
1C2
100
AcDbEntity
  8
0
100
AcDbBlockBegin
  2
Block_2
 70
     0
 10
0.0
 20
0.0
 30
0.0
  3
Block_2
  1

  0
LINE
  5
1C6
330
1C2
100
AcDbEntity
  8
Camada 1
 62
     8
420
  7502208
370
    35
100
AcDbLine
 10
669.1179129755274
 20
44.21231801161775
 30
0.0
 11
693.0465869388862
 21
44.21231801161775
 31
0.0
  0
LINE
  5
1C7
330
1C2
100
AcDbEntity
  8
Camada 1
 62
     8
420
  7502208
370
    35
100
AcDbLine
 10
668.8329014313713
 20
47.42688704216561
 30
0.0
 11
668.8329014313713
 21
41.00169946969254
 31
0.0
  0
LINE
  5
1C8
330
1C2
100
AcDbEntity
  8
Camada 1
 62
     8
420
  7502208
370
    35
100
AcDbLine
 10
693.3383707492539
 20
47.42688704216561
 30
0.0
 11
693.3383707492539
 21
41.00169946969254
 31
0.0
  0
ENDBLK
  5
1C5
330
1C2
100
AcDbEntity
  8
0
100
AcDbBlockEnd
  0
ENDSEC
  0
SECTION
  2
ENTITIES
  0
SPLINE
  5
79
330
70
100
AcDbEntity
  8
Camada 1
 62
    18
420
        0
370
    35
100
AcDbSpline
210
0.0
220
0.0
230
1.0
 70
     8
 71
     3
 72
     8
 73
     4
 74
     0
 42
0.0000000001
 43
0.0000000001
 40
0.0
 40
0.0
 40
0.0
 40
0.0
 40
1.0
 40
1.0
 40
1.0
 40
1.0
 10
210.4279937744141
 20
693.0390014648438
 30
0.0
 10
209.4100036621094
 20
693.0390014648438
 30
0.0
 10
208.5850067138672
 20
692.2150268554688
 30
0.0
 10
208.5850067138672
 20
691.197021484375
 30
0.0
  0
SPLINE
  5
7A
330
70
100
AcDbEntity
  8
Camada 1
 62
    18
420
        0
370
    35
100
AcDbSpline
210
0.0
220
0.0
230
1.0
 70
     8
 71
     3
 72
     8
 73
     4
 74
     0
 42
0.0000000001
 43
0.0000000001
 40
0.0
 40
0.0
 40
0.0
 40
0.0
 40
1.0
 40
1.0
 40
1.0
 40
1.0
 10
210.4279937744141
 20
694.4569702148437
 30
0.0
 10
208.6269989013672
 20
694.4569702148437
 30
0.0
 10
207.1679992675781
 20
692.9970092773437
 30
0.0
 10
207.1679992675781
 20
691.197021484375
 30
0.0
  0
SPLINE
  5
7B
330
70
100
AcDbEntity
  8
Camada 1
 62
    18
420
        0
370
    35
100
AcDbSpline
210
0.0
220
0.0
230
1.0
 70
     8
 71
     3
 72
     8
 73
     4
 74
     0
 42
0.0000000001
 43
0.0000000001
 40
0.0
 40
0.0
 40
0.0
 40
0.0
 40
1.0
 40
1.0
 40
1.0
 40
1.0
 10
321.5459899902344
 20
691.197021484375
 30
0.0
 10
321.5459899902344
 20
691.8629760742187
 30
0.0
 10
321.3420104980469
 20
692.5130004882812
 30
0.0
 10
320.9609985351562
 20
693.0599975585937
 30
0.0
  0
SPLINE
  5
7C
330
70
100
AcDbEntity
  8
Camada 1
 62
    18
420
        0
370
    35
100
AcDbSpline
210
0.0
220
0.0
230
1.0
 70
     8
 71
     3
 72
    11
 73
     7
 74
     0
 42
0.0000000001
 43
0.0000000001
 40
0.0
 40
0.0
 40
0.0
 40
0.0
 40
1.0
 40
1.0
 40
1.0
 40
2.0
 40
2.0
 40
2.0
 40
2.0
 10
321.5429992675781
 20
694.1729736328125
 30
0.0
 10
321.1510009765625
 20
694.1729736328125
 30
0.0
 10
320.8340148925781
 20
693.8560180664062
 30
0.0
 10
320.8340148925781
 20
693.4650268554687
 30
0.0
 10
320.8340148925781
 20
693.3200073242187
 30
0.0
 10
320.8779907226563
 20
693.1779785156249
 30
0.0
 10
320.9609985351562
 20
693.0599975585937
 30
0.0
  0
SPLINE
  5
7D
330
70
100
AcDbEntity
  8
Camada 1
 62
    18
420
        0
370
    35
100
AcDbSpline
210
0.0
220
0.0
230
1.0
 70
     8
 71
     3
 72
    11
 73
     7
 74
     0
 42
0.0000000001
 43
0.0000000001
 40
0.0
 40
0.0
 40
0.0
 40
0.0
 40
1.0
 40
1.0
 40
1.0
 40
2.0
 40
2.0
 40
2.0
 40
2.0
 10
422.760009765625
 20
693.0599975585937
 30
0.0
 10
422.9840087890624
 20
693.3809814453125
 30
0.0
 10
422.9049987792969
 20
693.822998046875
 30
0.0
 10
422.5840148925781
 20
694.0460205078125
 30
0.0
 10
422.4649963378906
 20
694.1290283203125
 30
0.0
 10
422.3229980468749
 20
694.1729736328125
 30
0.0
 10
422.1789855957031
 20
694.1729736328125
 30
0.0
  0
SPLINE
  5
7E
330
70
100
AcDbEntity
  8
Camada 1
 62
    18
420
        0
370
    35
100
AcDbSpline
210
0.0
220
0.0
230
1.0
 70
     8
 71
     3
 72
     8
 73
     4
 74
     0
 42
0.0000000001
 43
0.0000000001
 40
0.0
 40
0.0
 40
0.0
 40
0.0
 40
1.0
 40
1.0
 40
1.0
 40
1.0
 10
422.760009765625
 20
693.0599975585937
 30
0.0
 10
422.3800048828125
 20
692.5130004882812
 30
0.0
 10
422.1759948730468
 20
691.8629760742187
 30
0.0
 10
422.1759948730468
 20
691.197021484375
 30
0.0
  0
SPLINE
  5
7F
330
70
100
AcDbEntity
  8
Camada 1
 62
    18
420
        0
370
    35
100
AcDbSpline
210
0.0
220
0.0
230
1.0
 70
     8
 71
     3
 72
     8
 73
     4
 74
     0
 42
0.0000000001
 43
0.0000000001
 40
0.0
 40
0.0
 40
0.0
 40
0.0
 40
1.0
 40
1.0
 40
1.0
 40
1.0
 10
442.0180053710937
 20
691.197021484375
 30
0.0
 10
442.0180053710937
 20
692.9970092773437
 30
0.0
 10
440.5589904785156
 20
694.4569702148437
 30
0.0
 10
438.7579956054687
 20
694.4569702148437
 30
0.0
  0
SPLINE
  5
80
330
70
100
AcDbEntity
  8
Camada 1
 62
    18
420
        0
370
    35
100
AcDbSpline
210
0.0
220
0.0
230
1.0
 70
     8
 71
     3
 72
     8
 73
     4
 74
     0
 42
0.0000000001
 43
0.0000000001
 40
0.0
 40
0.0
 40
0.0
 40
0.0
 40
1.0
 40
1.0
 40
1.0
 40
1.0
 10
440.6010131835937
 20
691.197021484375
 30
0.0
 10
440.6010131835937
 20
692.2150268554688
 30
0.0
 10
439.7760009765625
 20
693.0390014648438
 30
0.0
 10
438.7579956054687
 20
693.0390014648438
 30
0.0
  0
SPLINE
  5
81
330
70
100
AcDbEntity
  8
Camada 1
 62
    18
420
        0
370
    35
100
AcDbSpline
210
0.0
220
0.0
230
1.0
 70
     8
 71
     3
 72
     8
 73
     4
 74
     0
 42
0.0000000001
 43
0.0000000001
 40
0.0
 40
0.0
 40
0.0
 40
0.0
 40
1.0
 40
1.0
 40
1.0
 40
1.0
 10
425.4349975585937
 20
694.4569702148437
 30
0.0
 10
424.3689880371094
 20
694.4569702148437
 30
0.0
 10
423.3699951171875
 20
693.9349975585937
 30
0.0
 10
422.760009765625
 20
693.0599975585937
 30
0.0
  0
SPLINE
  5
82
330
70
100
AcDbEntity
  8
Camada 1
 62
    18
420
        0
370
    35
100
AcDbSpline
210
0.0
220
0.0
230
1.0
 70
     8
 71
     3
 72
     8
 73
     4
 74
     0
 42
0.0000000001
 43
0.0000000001
 40
0.0
 40
0.0
 40
0.0
 40
0.0
 40
1.0
 40
1.0
 40
1.0
 40
1.0
 10
425.4349975585937
 20
693.0390014648438
 30
0.0
 10
424.4179992675781
 20
693.0390014648438
 30
0.0
 10
423.5929870605469
 20
692.2150268554688
 30
0.0
 10
423.5929870605469
 20
691.197021484375
 30
0.0
  0
SPLINE
  5
83
330
70
100
AcDbEntity
  8
Camada 1
 62
    18
420
        0
370
    35
100
AcDbSpline
210
0.0
220
0.0
230
1.0
 70
     8
 71
     3
 72
     8
 73
     4
 74
     0
 42
0.0000000001
 43
0.0000000001
 40
0.0
 40
0.0
 40
0.0
 40
0.0
 40
1.0
 40
1.0
 40
1.0
 40
1.0
 10
320.1279907226563
 20
691.197021484375
 30
0.0
 10
320.1279907226563
 20
692.2150268554688
 30
0.0
 10
319.3030090332031
 20
693.0390014648438
 30
0.0
 10
318.2860107421875
 20
693.0390014648438
 30
0.0
  0
SPLINE
  5
84
330
70
100
AcDbEntity
  8
Camada 1
 62
    18
420
        0
370
    35
100
AcDbSpline
210
0.0
220
0.0
230
1.0
 70
     8
 71
     3
 72
     8
 73
     4
 74
     0
 42
0.0000000001
 43
0.0000000001
 40
0.0
 40
0.0
 40
0.0
 40
0.0
 40
1.0
 40
1.0
 40
1.0
 40
1.0
 10
320.9609985351562
 20
693.0599975585937
 30
0.0
 10
320.3519897460938
 20
693.9349975585937
 30
0.0
 10
319.3519897460938
 20
694.4569702148437
 30
0.0
 10
318.2860107421875
 20
694.4569702148437
 30
0.0
  0
SPLINE
  5
85
330
70
100
AcDbEntity
  8
Camada 1
 62
    18
420
        0
370
    35
100
AcDbSpline
210
0.0
220
0.0
230
1.0
 70
     8
 71
     3
 72
     8
 73
     4
 74
     0
 42
0.0000000001
 43
0.0000000001
 40
0.0
 40
0.0
 40
0.0
 40
0.0
 40
1.0
 40
1.0
 40
1.0
 40
1.0
 10
422.0299987792968
 20
694.1729736328125
 30
0.0
 10
421.89599609375
 20
694.3519897460937
 30
0.0
 10
421.6860046386718
 20
694.4569702148437
 30
0.0
 10
421.4630126953125
 20
694.4569702148437
 30
0.0
  0
SPLINE
  5
86
330
70
100
AcDbEntity
  8
Camada 1
 62
    18
420
        0
370
    35
100
AcDbSpline
210
0.0
220
0.0
230
1.0
 70
     8
 71
     3
 72
     8
 73
     4
 74
     0
 42
0.0000000001
 43
0.0000000001
 40
0.0
 40
0.0
 40
0.0
 40
0.0
 40
1.0
 40
1.0
 40
1.0
 40
1.0
 10
322.2579956054687
 20
694.4569702148437
 30
0.0
 10
322.0350036621094
 20
694.4569702148437
 30
0.0
 10
321.8250122070312
 20
694.3519897460937
 30
0.0
 10
321.6910095214844
 20
694.1729736328125
 30
0.0
  0
SPLINE
  5
87
330
70
100
AcDbEntity
  8
Camada 1
 62
    18
420
        0
370
    35
100
AcDbSpline
210
0.0
220
0.0
230
1.0
 70
     8
 71
     3
 72
     8
 73
     4
 74
     0
 42
0.0000000001
 43
0.0000000001
 40
0.0
 40
0.0
 40
0.0
 40
0.0
 40
1.0
 40
1.0
 40
1.0
 40
1.0
 10
240.1199951171875
 20
788.1420288085937
 30
0.0
 10
239.72900390625
 20
788.1420288085937
 30
0.0
 10
239.4120025634766
 20
787.823974609375
 30
0.0
 10
239.4120025634766
 20
787.4329833984375
 30
0.0
  0
SPLINE
  5
88
330
70
100
AcDbEntity
  8
Camada 1
 62
    18
420
        0
370
    35
100
AcDbSpline
210
0.0
220
0.0
230
1.0
 70
     8
 71
     3
 72
     8
 73
     4
 74
     0
 42
0.0000000001
 43
0.0000000001
 40
0.0
 40
0.0
 40
0.0
 40
0.0
 40
1.0
 40
1.0
 40
1.0
 40
1.0
 10
282.6400146484375
 20
787.4329833984375
 30
0.0
 10
282.6400146484375
 20
787.823974609375
 30
0.0
 10
282.322998046875
 20
788.1420288085937
 30
0.0
 10
281.9320068359375
 20
788.1420288085937
 30
0.0
  0
SPLINE
  5
89
330
70
100
AcDbEntity
  8
Camada 1
 62
    18
420
        0
370
    35
100
AcDbSpline
210
0.0
220
0.0
230
1.0
 70
     8
 71
     3
 72
     8
 73
     4
 74
     0
 42
0.0000000001
 43
0.0000000001
 40
0.0
 40
0.0
 40
0.0
 40
0.0
 40
1.0
 40
1.0
 40
1.0
 40
1.0
 10
225.6640014648437
 20
684.8189697265625
 30
0.0
 10
225.6640014648437
 20
684.0360107421875
 30
0.0
 10
226.2980041503906
 20
683.4019775390625
 30
0.0
 10
227.0809936523438
 20
683.4019775390625
 30
0.0
  0
SPLINE
  5
8A
330
70
100
AcDbEntity
  8
Camada 1
 62
    18
420
        0
370
    35
100
AcDbSpline
210
0.0
220
0.0
230
1.0
 70
     8
 71
     3
 72
     8
 73
     4
 74
     0
 42
0.0000000001
 43
0.0000000001
 40
0.0
 40
0.0
 40
0.0
 40
0.0
 40
1.0
 40
1.0
 40
1.0
 40
1.0
 10
294.9710083007813
 20
683.4019775390625
 30
0.0
 10
295.7539978027344
 20
683.4019775390625
 30
0.0
 10
296.3880004882812
 20
684.0360107421875
 30
0.0
 10
296.3880004882812
 20
684.8189697265625
 30
0.0
  0
SPLINE
  5
8B
330
70
100
AcDbEntity
  8
Camada 1
 62
    18
420
        0
370
    35
100
AcDbSpline
210
0.0
220
0.0
230
1.0
 70
     8
 71
     3
 72
     8
 73
     4
 74
     0
 42
0.0000000001
 43
0.0000000001
 40
0.0
 40
0.0
 40
0.0
 40
0.0
 40
1.0
 40
1.0
 40
1.0
 40
1.0
 10
226.3719940185547
 20
688.3619995117187
 30
0.0
 10
225.9810028076172
 20
688.3619995117187
 30
0.0
 10
225.6640014648437
 20
688.0449829101562
 30
0.0
 10
225.6640014648437
 20
687.6539916992187
 30
0.0
  0
SPLINE
  5
8C
330
70
100
AcDbEntity
  8
Camada 1
 62
    18
420
        0
370
    35
100
AcDbSpline
210
0.0
220
0.0
230
1.0
 70
     8
 71
     3
 72
     8
 73
     4
 74
     0
 42
0.0000000001
 43
0.0000000001
 40
0.0
 40
0.0
 40
0.0
 40
0.0
 40
1.0
 40
1.0
 40
1.0
 40
1.0
 10
296.3880004882812
 20
687.6539916992187
 30
0.0
 10
296.3880004882812
 20
688.0449829101562
 30
0.0
 10
296.0710144042969
 20
688.3619995117187
 30
0.0
 10
295.6799926757812
 20
688.3619995117187
 30
0.0
  0
SPLINE
  5
8D
330
70
100
AcDbEntity
  8
Camada 1
 62
    18
420
        0
370
    35
100
AcDbSpline
210
0.0
220
0.0
230
1.0
 70
     8
 71
     3
 72
     8
 73
     4
 74
     0
 42
0.0000000001
 43
0.0000000001
 40
0.0
 40
0.0
 40
0.0
 40
0.0
 40
1.0
 40
1.0
 40
1.0
 40
1.0
 10
292.6319885253906
 20
665.6849975585937
 30
0.0
 10
293.4150085449219
 20
665.6849975585937
 30
0.0
 10
294.0499877929688
 20
666.3200073242187
 30
0.0
 10
294.0499877929688
 20
667.1019897460937
 30
0.0
  0
SPLINE
  5
8E
330
70
100
AcDbEntity
  8
Camada 1
 62
    18
420
        0
370
    35
100
AcDbSpline
210
0.0
220
0.0
230
1.0
 70
     8
 71
     3
 72
     8
 73
     4
 74
     0
 42
0.0000000001
 43
0.0000000001
 40
0.0
 40
0.0
 40
0.0
 40
0.0
 40
1.0
 40
1.0
 40
1.0
 40
1.0
 10
228.0019989013672
 20
667.1019897460937
 30
0.0
 10
228.0019989013672
 20
666.3200073242187
 30
0.0
 10
228.6369934082031
 20
665.6849975585937
 30
0.0
 10
229.4199981689453
 20
665.6849975585937
 30
0.0
  0
SPLINE
  5
8F
330
70
100
AcDbEntity
  8
Camada 1
 62
    18
420
        0
370
    35
100
AcDbSpline
210
0.0
220
0.0
230
1.0
 70
     8
 71
     3
 72
     8
 73
     4
 74
     0
 42
0.0000000001
 43
0.0000000001
 40
0.0
 40
0.0
 40
0.0
 40
0.0
 40
1.0
 40
1.0
 40
1.0
 40
1.0
 10
299.2940063476563
 20
340.6929931640625
 30
0.0
 10
303.2080078125
 20
340.6929931640625
 30
0.0
 10
306.3800048828125
 20
343.8659973144531
 30
0.0
 10
306.3800048828125
 20
347.7799987792969
 30
0.0
  0
SPLINE
  5
90
330
70
100
AcDbEntity
  8
Camada 1
 62
    18
420
        0
370
    35
100
AcDbSpline
210
0.0
220
0.0
230
1.0
 70
     8
 71
     3
 72
     8
 73
     4
 74
     0
 42
0.0000000001
 43
0.0000000001
 40
0.0
 40
0.0
 40
0.0
 40
0.0
 40
1.0
 40
1.0
 40
1.0
 40
1.0
 10
215.6719970703125
 20
347.7799987792969
 30
0.0
 10
215.6719970703125
 20
343.8659973144531
 30
0.0
 10
218.843994140625
 20
340.6929931640625
 30
0.0
 10
222.7579956054687
 20
340.6929931640625
 30
0.0
  0
SPLINE
  5
91
330
70
100
AcDbEntity
  8
Camada 1
 62
    18
420
        0
370
    35
100
AcDbSpline
210
0.0
220
0.0
230
1.0
 70
     8
 71
     3
 72
     8
 73
     4
 74
     0
 42
0.0000000001
 43
0.0000000001
 40
0.0
 40
0.0
 40
0.0
 40
0.0
 40
1.0
 40
1.0
 40
1.0
 40
1.0
 10
306.3800048828125
 20
571.7169799804687
 30
0.0
 10
306.3800048828125
 20
575.6300048828125
 30
0.0
 10
303.2080078125
 20
578.802978515625
 30
0.0
 10
299.2940063476563
 20
578.802978515625
 30
0.0
  0
SPLINE
  5
92
330
70
100
AcDbEntity
  8
Camada 1
 62
    18
420
        0
370
    35
100
AcDbSpline
210
0.0
220
0.0
230
1.0
 70
     8
 71
     3
 72
     8
 73
     4
 74
     0
 42
0.0000000001
 43
0.0000000001
 40
0.0
 40
0.0
 40
0.0
 40
0.0
 40
1.0
 40
1.0
 40
1.0
 40
1.0
 10
222.7579956054687
 20
578.802978515625
 30
0.0
 10
218.843994140625
 20
578.802978515625
 30
0.0
 10
215.6719970703125
 20
575.6300048828125
 30
0.0
 10
215.6719970703125
 20
571.7169799804687
 30
0.0
  0
SPLINE
  5
93
330
70
100
AcDbEntity
  8
Camada 1
 62
    18
420
        0
370
    35
100
AcDbSpline
210
0.0
220
0.0
230
1.0
 70
     8
 71
     3
 72
     8
 73
     4
 74
     0
 42
0.0000000001
 43
0.0000000001
 40
0.0
 40
0.0
 40
0.0
 40
0.0
 40
1.0
 40
1.0
 40
1.0
 40
1.0
 10
274.4880065917969
 20
581.7800292968749
 30
0.0
 10
275.3479919433594
 20
580.3870239257812
 30
0.0
 10
276.6640014648437
 20
579.3359985351562
 30
0.0
 10
278.2109985351563
 20
578.802978515625
 30
0.0
  0
SPLINE
  5
94
330
70
100
AcDbEntity
  8
Camada 1
 62
    18
420
        0
370
    35
100
AcDbSpline
210
0.0
220
0.0
230
1.0
 70
     8
 71
     3
 72
     8
 73
     4
 74
     0
 42
0.0000000001
 43
0.0000000001
 40
0.0
 40
0.0
 40
0.0
 40
0.0
 40
1.0
 40
1.0
 40
1.0
 40
1.0
 10
243.8410034179688
 20
578.802978515625
 30
0.0
 10
245.4029998779297
 20
579.3410034179687
 30
0.0
 10
246.7279968261719
 20
580.406982421875
 30
0.0
 10
247.5870056152344
 20
581.8170166015625
 30
0.0
  0
SPLINE
  5
95
330
70
100
AcDbEntity
  8
Camada 1
 62
    18
420
        0
370
    35
100
AcDbSpline
210
0.0
220
0.0
230
1.0
 70
     8
 71
     3
 72
     8
 73
     4
 74
     0
 42
0.0000000001
 43
0.0000000001
 40
0.0
 40
0.0
 40
0.0
 40
0.0
 40
1.0
 40
1.0
 40
1.0
 40
1.0
 10
325.5140075683594
 20
697.2899780273437
 30
0.0
 10
324.4389953613281
 20
697.2899780273437
 30
0.0
 10
323.4339904785156
 20
696.760986328125
 30
0.0
 10
322.8259887695312
 20
695.8740234375
 30
0.0
  0
SPLINE
  5
96
330
70
100
AcDbEntity
  8
Camada 1
 62
    18
420
        0
370
    35
100
AcDbSpline
210
0.0
220
0.0
230
1.0
 70
     8
 71
     3
 72
     8
 73
     4
 74
     0
 42
0.0000000001
 43
0.0000000001
 40
0.0
 40
0.0
 40
0.0
 40
0.0
 40
1.0
 40
1.0
 40
1.0
 40
1.0
 10
322.2820129394531
 20
694.4569702148437
 30
0.0
 10
322.2699890136719
 20
694.3629760742187
 30
0.0
 10
322.2619934082031
 20
694.2680053710937
 30
0.0
 10
322.2569885253906
 20
694.1729736328125
 30
0.0
  0
SPLINE
  5
97
330
70
100
AcDbEntity
  8
Camada 1
 62
    18
420
        0
370
    35
100
AcDbSpline
210
0.0
220
0.0
230
1.0
 70
     8
 71
     3
 72
     8
 73
     4
 74
     0
 42
0.0000000001
 43
0.0000000001
 40
0.0
 40
0.0
 40
0.0
 40
0.0
 40
1.0
 40
1.0
 40
1.0
 40
1.0
 10
323.7219848632812
 20
694.4569702148437
 30
0.0
 10
323.7000122070313
 20
694.364013671875
 30
0.0
 10
323.6849975585938
 20
694.2689819335937
 30
0.0
 10
323.677001953125
 20
694.1729736328125
 30
0.0
  0
SPLINE
  5
98
330
70
100
AcDbEntity
  8
Camada 1
 62
    18
420
        0
370
    35
100
AcDbSpline
210
0.0
220
0.0
230
1.0
 70
     8
 71
     3
 72
     8
 73
     4
 74
     0
 42
0.0000000001
 43
0.0000000001
 40
0.0
 40
0.0
 40
0.0
 40
0.0
 40
1.0
 40
1.0
 40
1.0
 40
1.0
 10
421.4639892578125
 20
694.1729736328125
 30
0.0
 10
421.4599914550781
 20
694.2680053710937
 30
0.0
 10
421.4509887695312
 20
694.3629760742187
 30
0.0
 10
421.4389953613281
 20
694.4569702148437
 30
0.0
  0
SPLINE
  5
99
330
70
100
AcDbEntity
  8
Camada 1
 62
    18
420
        0
370
    35
100
AcDbSpline
210
0.0
220
0.0
230
1.0
 70
     8
 71
     3
 72
     8
 73
     4
 74
     0
 42
0.0000000001
 43
0.0000000001
 40
0.0
 40
0.0
 40
0.0
 40
0.0
 40
1.0
 40
1.0
 40
1.0
 40
1.0
 10
420.8949890136718
 20
695.8740234375
 30
0.0
 10
420.2879943847656
 20
696.760986328125
 30
0.0
 10
419.2820129394531
 20
697.2899780273437
 30
0.0
 10
418.2070007324218
 20
697.2899780273437
 30
0.0
  0
SPLINE
  5
9A
330
70
100
AcDbEntity
  8
Camada 1
 62
    18
420
        0
370
    35
100
AcDbSpline
210
0.0
220
0.0
230
1.0
 70
     8
 71
     3
 72
     8
 73
     4
 74
     0
 42
0.0000000001
 43
0.0000000001
 40
0.0
 40
0.0
 40
0.0
 40
0.0
 40
1.0
 40
1.0
 40
1.0
 40
1.0
 10
420.0440063476562
 20
694.1729736328125
 30
0.0
 10
420.0369873046875
 20
694.2689819335937
 30
0.0
 10
420.0220031738281
 20
694.364013671875
 30
0.0
 10
420.0
 20
694.4569702148437
 30
0.0
  0
SPLINE
  5
9B
330
70
100
AcDbEntity
  8
Camada 1
 62
    18
420
        0
370
    35
100
AcDbSpline
210
0.0
220
0.0
230
1.0
 70
     8
 71
     3
 72
     8
 73
     4
 74
     0
 42
0.0000000001
 43
0.0000000001
 40
0.0
 40
0.0
 40
0.0
 40
0.0
 40
1.0
 40
1.0
 40
1.0
 40
1.0
 10
293.4830017089844
 20
702.0579833984375
 30
0.0
 10
293.4830017089844
 20
702.6090087890625
 30
0.0
 10
293.1640014648437
 20
703.1099853515625
 30
0.0
 10
292.6640014648437
 20
703.3419799804687
 30
0.0
  0
SPLINE
  5
9C
330
70
100
AcDbEntity
  8
Camada 1
 62
    18
420
        0
370
    35
100
AcDbSpline
210
0.0
220
0.0
230
1.0
 70
     8
 71
     3
 72
     8
 73
     4
 74
     0
 42
0.0000000001
 43
0.0000000001
 40
0.0
 40
0.0
 40
0.0
 40
0.0
 40
1.0
 40
1.0
 40
1.0
 40
1.0
 10
229.3880004882812
 20
703.3419799804687
 30
0.0
 10
228.8880004882813
 20
703.1099853515625
 30
0.0
 10
228.5690002441406
 20
702.6090087890625
 30
0.0
 10
228.5690002441406
 20
702.0579833984375
 30
0.0
  0
SPLINE
  5
9D
330
70
100
AcDbEntity
  8
Camada 1
 62
    18
420
        0
370
    35
100
AcDbSpline
210
0.0
220
0.0
230
1.0
 70
     8
 71
     3
 72
     8
 73
     4
 74
     0
 42
0.0000000001
 43
0.0000000001
 40
0.0
 40
0.0
 40
0.0
 40
0.0
 40
1.0
 40
1.0
 40
1.0
 40
1.0
 10
279.8059997558594
 20
712.0469970703124
 30
0.0
 10
279.8059997558594
 20
710.3950195312499
 30
0.0
 10
280.7630004882812
 20
708.8920288085937
 30
0.0
 10
282.260009765625
 20
708.1939697265625
 30
0.0
  0
SPLINE
  5
9E
330
70
100
AcDbEntity
  8
Camada 1
 62
    18
420
        0
370
    35
100
AcDbSpline
210
0.0
220
0.0
230
1.0
 70
     8
 71
     3
 72
     8
 73
     4
 74
     0
 42
0.0000000001
 43
0.0000000001
 40
0.0
 40
0.0
 40
0.0
 40
0.0
 40
1.0
 40
1.0
 40
1.0
 40
1.0
 10
239.7910003662109
 20
708.1939697265625
 30
0.0
 10
241.2890014648437
 20
708.8920288085937
 30
0.0
 10
242.2460021972656
 20
710.3950195312499
 30
0.0
 10
242.2460021972656
 20
712.0469970703124
 30
0.0
  0
SPLINE
  5
9F
330
70
100
AcDbEntity
  8
Camada 1
 62
    18
420
        0
370
    35
100
AcDbSpline
210
0.0
220
0.0
230
1.0
 70
     8
 71
     3
 72
     8
 73
     4
 74
     0
 42
0.0000000001
 43
0.0000000001
 40
0.0
 40
0.0
 40
0.0
 40
0.0
 40
1.0
 40
1.0
 40
1.0
 40
1.0
 10
324.3800048828125
 20
286.9649963378906
 30
0.0
 10
322.0320129394531
 20
286.9649963378906
 30
0.0
 10
320.1279907226563
 20
285.0610046386719
 30
0.0
 10
320.1279907226563
 20
282.7130126953125
 30
0.0
  0
SPLINE
  5
A0
330
70
100
AcDbEntity
  8
Camada 1
 62
    18
420
        0
370
    35
100
AcDbSpline
210
0.0
220
0.0
230
1.0
 70
     8
 71
     3
 72
     8
 73
     4
 74
     0
 42
0.0000000001
 43
0.0000000001
 40
0.0
 40
0.0
 40
0.0
 40
0.0
 40
1.0
 40
1.0
 40
1.0
 40
1.0
 10
320.1279907226563
 20
97.75240325927734
 30
0.0
 10
320.1279907226563
 20
95.40409851074219
 30
0.0
 10
322.0320129394531
 20
93.50050354003906
 30
0.0
 10
324.3800048828125
 20
93.50050354003906
 30
0.0
  0
SPLINE
  5
A1
330
70
100
AcDbEntity
  8
Camada 1
 62
    18
420
        0
370
    35
100
AcDbSpline
210
0.0
220
0.0
230
1.0
 70
     8
 71
     3
 72
     8
 73
     4
 74
     0
 42
0.0000000001
 43
0.0000000001
 40
0.0
 40
0.0
 40
0.0
 40
0.0
 40
1.0
 40
1.0
 40
1.0
 40
1.0
 10
422.1759948730468
 20
282.7130126953125
 30
0.0
 10
422.1759948730468
 20
285.0610046386719
 30
0.0
 10
420.2720031738281
 20
286.9649963378906
 30
0.0
 10
417.9240112304687
 20
286.9649963378906
 30
0.0
  0
SPLINE
  5
A2
330
70
100
AcDbEntity
  8
Camada 1
 62
    18
420
        0
370
    35
100
AcDbSpline
210
0.0
220
0.0
230
1.0
 70
     8
 71
     3
 72
     8
 73
     4
 74
     0
 42
0.0000000001
 43
0.0000000001
 40
0.0
 40
0.0
 40
0.0
 40
0.0
 40
1.0
 40
1.0
 40
1.0
 40
1.0
 10
458.0339965820312
 20
299.3670043945312
 30
0.0
 10
458.0339965820312
 20
301.7149963378906
 30
0.0
 10
456.1300048828124
 20
303.6189880371094
 30
0.0
 10
453.7820129394531
 20
303.6189880371094
 30
0.0
  0
SPLINE
  5
A3
330
70
100
AcDbEntity
  8
Camada 1
 62
    18
420
        0
370
    35
100
AcDbSpline
210
0.0
220
0.0
230
1.0
 70
     8
 71
     3
 72
     8
 73
     4
 74
     0
 42
0.0000000001
 43
0.0000000001
 40
0.0
 40
0.0
 40
0.0
 40
0.0
 40
1.0
 40
1.0
 40
1.0
 40
1.0
 10
453.7820129394531
 20
76.84690093994141
 30
0.0
 10
456.1300048828124
 20
76.84690093994141
 30
0.0
 10
458.0339965820312
 20
78.75060272216797
 30
0.0
 10
458.0339965820312
 20
81.09889984130859
 30
0.0
  0
SPLINE
  5
A4
330
70
100
AcDbEntity
  8
Camada 1
 62
    18
420
        0
370
    35
100
AcDbSpline
210
0.0
220
0.0
230
1.0
 70
     8
 71
     3
 72
     8
 73
     4
 74
     0
 42
0.0000000001
 43
0.0000000001
 40
0.0
 40
0.0
 40
0.0
 40
0.0
 40
1.0
 40
1.0
 40
1.0
 40
1.0
 10
417.9240112304687
 20
93.50050354003906
 30
0.0
 10
420.2720031738281
 20
93.50050354003906
 30
0.0
 10
422.1759948730468
 20
95.40409851074219
 30
0.0
 10
422.1759948730468
 20
97.75240325927734
 30
0.0
  0
SPLINE
  5
A5
330
70
100
AcDbEntity
  8
Camada 1
 62
    18
420
        0
370
    35
100
AcDbSpline
210
0.0
220
0.0
230
1.0
 70
     8
 71
     3
 72
     8
 73
     4
 74
     0
 42
0.0000000001
 43
0.0000000001
 40
0.0
 40
0.0
 40
0.0
 40
0.0
 40
1.0
 40
1.0
 40
1.0
 40
1.0
 10
194.4120025634765
 20
303.6189880371094
 30
0.0
 10
192.0639953613281
 20
303.6189880371094
 30
0.0
 10
190.1600036621094
 20
301.7149963378906
 30
0.0
 10
190.1600036621094
 20
299.3670043945312
 30
0.0
  0
SPLINE
  5
A6
330
70
100
AcDbEntity
  8
Camada 1
 62
    18
420
        0
370
    35
100
AcDbSpline
210
0.0
220
0.0
230
1.0
 70
     8
 71
     3
 72
     8
 73
     4
 74
     0
 42
0.0000000001
 43
0.0000000001
 40
0.0
 40
0.0
 40
0.0
 40
0.0
 40
1.0
 40
1.0
 40
1.0
 40
1.0
 10
190.1600036621094
 20
81.09889984130859
 30
0.0
 10
190.1600036621094
 20
78.75060272216797
 30
0.0
 10
192.0639953613281
 20
76.84690093994141
 30
0.0
 10
194.4120025634765
 20
76.84690093994141
 30
0.0
  0
SPLINE
  5
A7
330
70
100
AcDbEntity
  8
Camada 1
 62
    18
420
        0
370
    35
100
AcDbSpline
210
0.0
220
0.0
230
1.0
 70
     9
 71
     3
 72
    17
 73
    13
 74
     0
 42
0.0000000001
 43
0.0000000001
 40
0.0
 40
0.0
 40
0.0
 40
0.0
 40
1.0
 40
1.0
 40
1.0
 40
2.0
 40
2.0
 40
2.0
 40
3.0
 40
3.0
 40
3.0
 40
4.0
 40
4.0
 40
4.0
 40
4.0
 10
261.0260009765625
 20
216.0989990234375
 30
0.0
 10
272.5719909667969
 20
216.0989990234375
 30
0.0
 10
281.9320068359375
 20
225.4589996337891
 30
0.0
 10
281.9320068359375
 20
237.0039978027344
 30
0.0
 10
281.9320068359375
 20
248.5500030517578
 30
0.0
 10
272.5719909667969
 20
257.9100036621094
 30
0.0
 10
261.0260009765625
 20
257.9100036621094
 30
0.0
 10
249.479995727539
 20
257.9100036621094
 30
0.0
 10
240.1199951171875
 20
248.5500030517578
 30
0.0
 10
240.1199951171875
 20
237.0039978027344
 30
0.0
 10
240.1199951171875
 20
225.4589996337891
 30
0.0
 10
249.479995727539
 20
216.0989990234375
 30
0.0
 10
261.0260009765625
 20
216.0989990234375
 30
0.0
  0
SPLINE
  5
A8
330
70
100
AcDbEntity
  8
Camada 1
 62
    18
420
        0
370
    35
100
AcDbSpline
210
0.0
220
0.0
230
1.0
 70
     9
 71
     3
 72
    17
 73
    13
 74
     0
 42
0.0000000001
 43
0.0000000001
 40
0.0
 40
0.0
 40
0.0
 40
0.0
 40
1.0
 40
1.0
 40
1.0
 40
2.0
 40
2.0
 40
2.0
 40
3.0
 40
3.0
 40
3.0
 40
4.0
 40
4.0
 40
4.0
 40
4.0
 10
261.0260009765625
 20
215.3899993896484
 30
0.0
 10
272.9630126953125
 20
215.3899993896484
 30
0.0
 10
282.6400146484375
 20
225.0670013427734
 30
0.0
 10
282.6400146484375
 20
237.0039978027344
 30
0.0
 10
282.6400146484375
 20
248.9420013427734
 30
0.0
 10
272.9630126953125
 20
258.6189880371094
 30
0.0
 10
261.0260009765625
 20
258.6189880371094
 30
0.0
 10
249.0890045166016
 20
258.6189880371094
 30
0.0
 10
239.4120025634766
 20
248.9420013427734
 30
0.0
 10
239.4120025634766
 20
237.0039978027344
 30
0.0
 10
239.4120025634766
 20
225.0670013427734
 30
0.0
 10
249.0890045166016
 20
215.3899993896484
 30
0.0
 10
261.0260009765625
 20
215.3899993896484
 30
0.0
  0
SPLINE
  5
A9
330
70
100
AcDbEntity
  8
Camada 1
 62
    18
420
        0
370
    35
100
AcDbSpline
210
0.0
220
0.0
230
1.0
 70
     8
 71
     3
 72
     8
 73
     4
 74
     0
 42
0.0000000001
 43
0.0000000001
 40
0.0
 40
0.0
 40
0.0
 40
0.0
 40
1.0
 40
1.0
 40
1.0
 40
1.0
 10
325.5140075683594
 20
94.71720123291015
 30
0.0
 10
325.5140075683594
 20
93.93440246582031
 30
0.0
 10
326.1489868164062
 20
93.29979705810547
 30
0.0
 10
326.9320068359375
 20
93.29979705810547
 30
0.0
  0
SPLINE
  5
AA
330
70
100
AcDbEntity
  8
Camada 1
 62
    18
420
        0
370
    35
100
AcDbSpline
210
0.0
220
0.0
230
1.0
 70
     8
 71
     3
 72
     8
 73
     4
 74
     0
 42
0.0000000001
 43
0.0000000001
 40
0.0
 40
0.0
 40
0.0
 40
0.0
 40
1.0
 40
1.0
 40
1.0
 40
1.0
 10
416.7900085449218
 20
93.29979705810547
 30
0.0
 10
417.572998046875
 20
93.29979705810547
 30
0.0
 10
418.2070007324218
 20
93.93440246582031
 30
0.0
 10
418.2070007324218
 20
94.71720123291015
 30
0.0
  0
SPLINE
  5
AB
330
70
100
AcDbEntity
  8
Camada 1
 62
    18
420
        0
370
    35
100
AcDbSpline
210
0.0
220
0.0
230
1.0
 70
     8
 71
     3
 72
    11
 73
     7
 74
     0
 42
0.0000000001
 43
0.0000000001
 40
0.0
 40
0.0
 40
0.0
 40
0.0
 40
1.0
 40
1.0
 40
1.0
 40
2.0
 40
2.0
 40
2.0
 40
2.0
 10
361.2309875488281
 20
135.8200073242187
 30
0.0
 10
355.3599853515625
 20
135.8200073242187
 30
0.0
 10
350.6010131835938
 20
131.0599975585937
 30
0.0
 10
350.6010131835938
 20
125.1900024414062
 30
0.0
 10
350.6010131835938
 20
119.3190002441406
 30
0.0
 10
355.3599853515625
 20
114.5599975585937
 30
0.0
 10
361.2309875488281
 20
114.5599975585937
 30
0.0
  0
SPLINE
  5
AC
330
70
100
AcDbEntity
  8
Camada 1
 62
    18
420
        0
370
    35
100
AcDbSpline
210
0.0
220
0.0
230
1.0
 70
     8
 71
     3
 72
    11
 73
     7
 74
     0
 42
0.0000000001
 43
0.0000000001
 40
0.0
 40
0.0
 40
0.0
 40
0.0
 40
1.0
 40
1.0
 40
1.0
 40
2.0
 40
2.0
 40
2.0
 40
2.0
 10
382.4909973144531
 20
114.5599975585937
 30
0.0
 10
388.3609924316406
 20
114.5599975585937
 30
0.0
 10
393.1199951171875
 20
119.3190002441406
 30
0.0
 10
393.1199951171875
 20
125.1900024414062
 30
0.0
 10
393.1199951171875
 20
131.0599975585937
 30
0.0
 10
388.3609924316406
 20
135.8200073242187
 30
0.0
 10
382.4909973144531
 20
135.8200073242187
 30
0.0
  0
SPLINE
  5
AD
330
70
100
AcDbEntity
  8
Camada 1
 62
    18
420
        0
370
    35
100
AcDbSpline
210
0.0
220
0.0
230
1.0
 70
     8
 71
     3
 72
    11
 73
     7
 74
     0
 42
0.0000000001
 43
0.0000000001
 40
0.0
 40
0.0
 40
0.0
 40
0.0
 40
1.0
 40
1.0
 40
1.0
 40
2.0
 40
2.0
 40
2.0
 40
2.0
 10
265.2780151367188
 20
205.6529998779297
 30
0.0
 10
282.5929870605469
 20
208.0010070800781
 30
0.0
 10
294.7260131835938
 20
223.9409942626953
 30
0.0
 10
292.3770141601563
 20
241.2559967041016
 30
0.0
 10
290.25
 20
256.9429931640625
 30
0.0
 10
276.8559875488281
 20
268.6430053710938
 30
0.0
 10
261.0260009765625
 20
268.6430053710938
 30
0.0
  0
SPLINE
  5
AE
330
70
100
AcDbEntity
  8
Camada 1
 62
    18
420
        0
370
    35
100
AcDbSpline
210
0.0
220
0.0
230
1.0
 70
     8
 71
     3
 72
    11
 73
     7
 74
     0
 42
0.0000000001
 43
0.0000000001
 40
0.0
 40
0.0
 40
0.0
 40
0.0
 40
1.0
 40
1.0
 40
1.0
 40
2.0
 40
2.0
 40
2.0
 40
2.0
 10
261.0260009765625
 20
268.6430053710938
 30
0.0
 10
243.5529937744141
 20
268.6430053710938
 30
0.0
 10
229.3880004882812
 20
254.4779968261719
 30
0.0
 10
229.3880004882812
 20
237.0039978027344
 30
0.0
 10
229.3880004882812
 20
221.1739959716797
 30
0.0
 10
241.0879974365234
 20
207.7799987792969
 30
0.0
 10
256.7739868164062
 20
205.6529998779297
 30
0.0
  0
SPLINE
  5
AF
330
70
100
AcDbEntity
  8
Camada 1
 62
    18
420
        0
370
    35
100
AcDbSpline
210
0.0
220
0.0
230
1.0
 70
     8
 71
     3
 72
    17
 73
    13
 74
     0
 42
0.0000000001
 43
0.0000000001
 40
0.0
 40
0.0
 40
0.0
 40
0.0
 40
1.0
 40
1.0
 40
1.0
 40
2.0
 40
2.0
 40
2.0
 40
3.0
 40
3.0
 40
3.0
 40
4.0
 40
4.0
 40
4.0
 40
4.0
 10
265.2799987792969
 20
204.8280029296875
 30
0.0
 10
283.0509948730469
 20
207.177001953125
 30
0.0
 10
295.552001953125
 20
223.4880065917969
 30
0.0
 10
293.2030029296875
 20
241.2590026855469
 30
0.0
 10
290.8529968261719
 20
259.0289916992187
 30
0.0
 10
274.5419921875
 20
271.531005859375
 30
0.0
 10
256.7720031738281
 20
269.1809997558594
 30
0.0
 10
239.0010070800781
 20
266.8309936523438
 30
0.0
 10
226.5
 20
250.52099609375
 30
0.0
 10
228.8489990234375
 20
232.75
 30
0.0
 10
230.7729949951172
 20
218.1999969482422
 30
0.0
 10
242.2220001220703
 20
206.7519989013672
 30
0.0
 10
256.7720031738281
 20
204.8280029296875
 30
0.0
  0
LWPOLYLINE
  5
B0
330
70
100
AcDbEntity
  8
Camada 1
 62
    18
420
        0
370
    35
100
AcDbPolyline
 90
        3
 70
     0
 43
0.0
 10
421.4670104980468
 20
272.72900390625
 10
421.6539916992187
 20
272.72900390625
 10
422.1759948730468
 20
272.72900390625
  0
LWPOLYLINE
  5
B1
330
70
100
AcDbEntity
  8
Camada 1
 62
    18
420
        0
370
    35
100
AcDbPolyline
 90
        3
 70
     0
 43
0.0
 10
421.4670104980468
 20
276.6969909667969
 10
421.6539916992187
 20
276.6969909667969
 10
422.1759948730468
 20
276.6969909667969
  0
LWPOLYLINE
  5
B2
330
70
100
AcDbEntity
  8
Camada 1
 62
    18
420
        0
370
    35
100
AcDbPolyline
 90
        3
 70
     0
 43
0.0
 10
421.4970092773437
 20
273.6499938964844
 10
421.4739990234375
 20
273.6499938964844
 10
421.4670104980468
 20
273.6499938964844
  0
LWPOLYLINE
  5
B3
330
70
100
AcDbEntity
  8
Camada 1
 62
    18
420
        0
370
    35
100
AcDbPolyline
 90
        3
 70
     0
 43
0.0
 10
421.4670104980468
 20
275.7760009765625
 10
421.4739990234375
 20
275.7760009765625
 10
421.4970092773437
 20
275.7760009765625
  0
LINE
  5
B4
330
70
100
AcDbEntity
  8
Camada 1
 62
    18
420
        0
370
    35
100
AcDbLine
 10
421.4970092773437
 20
275.7760009765625
 30
0.0
 11
421.4970092773437
 21
273.6499938964844
 31
0.0
  0
LWPOLYLINE
  5
B5
330
70
100
AcDbEntity
  8
Camada 1
 62
    18
420
        0
370
    35
100
AcDbPolyline
 90
        3
 70
     0
 43
0.0
 10
322.2539978027344
 20
275.7760009765625
 10
322.2470092773438
 20
275.7760009765625
 10
322.2250061035156
 20
275.7760009765625
  0
LWPOLYLINE
  5
B6
330
70
100
AcDbEntity
  8
Camada 1
 62
    18
420
        0
370
    35
100
AcDbPolyline
 90
        3
 70
     0
 43
0.0
 10
322.2250061035156
 20
273.6499938964844
 10
322.2470092773438
 20
273.6499938964844
 10
322.2539978027344
 20
273.6499938964844
  0
LWPOLYLINE
  5
B7
330
70
100
AcDbEntity
  8
Camada 1
 62
    18
420
        0
370
    35
100
AcDbPolyline
 90
        3
 70
     0
 43
0.0
 10
322.2539978027344
 20
272.72900390625
 10
322.0679931640625
 20
272.72900390625
 10
321.5459899902344
 20
272.72900390625
  0
LWPOLYLINE
  5
B8
330
70
100
AcDbEntity
  8
Camada 1
 62
    18
420
        0
370
    35
100
AcDbPolyline
 90
        3
 70
     0
 43
0.0
 10
322.2539978027344
 20
276.6969909667969
 10
322.0679931640625
 20
276.6969909667969
 10
321.5459899902344
 20
276.6969909667969
  0
LINE
  5
B9
330
70
100
AcDbEntity
  8
Camada 1
 62
    18
420
        0
370
    35
100
AcDbLine
 10
322.2250061035156
 20
275.7760009765625
 30
0.0
 11
322.2250061035156
 21
273.6499938964844
 31
0.0
  0
LINE
  5
BA
330
70
100
AcDbEntity
  8
Camada 1
 62
    18
420
        0
370
    35
100
AcDbLine
 10
323.6759948730469
 20
283.2210083007812
 30
0.0
 11
420.0459899902344
 21
283.2210083007812
 31
0.0
  0
LWPOLYLINE
  5
BB
330
70
100
AcDbEntity
  8
Camada 1
 62
    18
420
        0
370
    35
100
AcDbPolyline
 90
       13
 70
     0
 43
0.0
 10
325.5140075683594
 20
279.9570007324219
 10
325.1910095214844
 20
280.281005859375
 10
324.8729858398438
 20
280.5979919433594
 10
324.5700073242188
 20
280.9020080566406
 10
324.2890014648438
 20
281.1820068359375
 10
324.0429992675781
 20
281.4289855957031
 10
323.8460083007812
 20
281.625
 10
323.7720031738281
 20
281.6990051269531
 10
323.7170104980469
 20
281.7539978027344
 10
323.6969909667969
 20
281.7739868164062
 10
323.6830139160156
 20
281.7879943847657
 10
323.6749877929688
 20
281.7959899902344
 10
323.6719970703125
 20
281.7999877929688
  0
LINE
  5
BC
330
70
100
AcDbEntity
  8
Camada 1
 62
    18
420
        0
370
    35
100
AcDbLine
 10
322.2539978027344
 20
281.7999877929688
 30
0.0
 11
323.6719970703125
 21
281.7999877929688
 31
0.0
  0
LWPOLYLINE
  5
BD
330
70
100
AcDbEntity
  8
Camada 1
 62
    18
420
        0
370
    35
100
AcDbPolyline
 90
       13
 70
     0
 43
0.0
 10
323.6759948730469
 20
281.8039855957031
 10
323.6789855957031
 20
281.8009948730469
 10
323.68701171875
 20
281.7919921875
 10
323.7009887695312
 20
281.7780151367188
 10
323.7210083007813
 20
281.7579956054688
 10
323.7760009765625
 20
281.7030029296875
 10
323.8500061035156
 20
281.6289978027344
 10
324.0469970703125
 20
281.4330139160156
 10
324.2929992675781
 20
281.1860046386719
 10
324.5740051269531
 20
280.906005859375
 10
324.8770141601562
 20
280.6019897460938
 10
325.1950073242188
 20
280.2850036621094
 10
325.5180053710938
 20
279.9609985351562
  0
LWPOLYLINE
  5
BE
330
70
100
AcDbEntity
  8
Camada 1
 62
    18
420
        0
370
    35
100
AcDbPolyline
 90
       39
 70
     0
 43
0.0
 10
323.6759948730469
 20
283.2210083007812
 10
323.677001953125
 20
283.2200012207031
 10
323.6780090332031
 20
283.2179870605468
 10
323.6799926757813
 20
283.2139892578125
 10
323.6830139160156
 20
283.2080078125
 10
323.68701171875
 20
283.2009887695313
 10
323.6919860839844
 20
283.1919860839844
 10
323.697998046875
 20
283.1820068359375
 10
323.7049865722656
 20
283.1700134277344
 10
323.7130126953125
 20
283.156005859375
 10
323.7210083007813
 20
283.1409912109375
 10
323.7330017089844
 20
283.1199951171875
 10
323.7460021972656
 20
283.0969848632813
 10
323.760009765625
 20
283.0710144042969
 10
323.7760009765625
 20
283.0440063476562
 10
323.8110046386719
 20
282.9819946289063
 10
323.8500061035156
 20
282.9119873046875
 10
323.8940124511719
 20
282.8359985351562
 10
323.9410095214844
 20
282.7510070800781
 10
323.9920043945312
 20
282.6610107421875
 10
324.0469970703125
 20
282.5639953613281
 10
324.1640014648437
 20
282.3569946289063
 10
324.2929992675781
 20
282.1289978027344
 10
324.3599853515625
 20
282.010009765625
 10
324.4299926757812
 20
281.885986328125
 10
324.572998046875
 20
281.6329956054687
 10
324.7229919433594
 20
281.3670043945312
 10
324.7999877929688
 20
281.2319946289063
 10
324.8770141601562
 20
281.0950012207031
 10
325.0339965820312
 20
280.8169860839844
 10
325.1950073242188
 20
280.5339965820312
 10
325.2349853515625
 20
280.4630126953125
 10
325.2749938964844
 20
280.3909912109375
 10
325.3150024414062
 20
280.3200073242187
 10
325.3559875488281
 20
280.2479858398438
 10
325.39599609375
 20
280.177001953125
 10
325.43701171875
 20
280.1050109863281
 10
325.4779968261719
 20
280.0329895019531
 10
325.5180053710938
 20
279.9609985351562
  0
LINE
  5
BF
330
70
100
AcDbEntity
  8
Camada 1
 62
    18
420
        0
370
    35
100
AcDbLine
 10
323.6759948730469
 20
283.2210083007812
 30
0.0
 11
323.6759948730469
 21
281.8039855957031
 31
0.0
  0
LWPOLYLINE
  5
C0
330
70
100
AcDbEntity
  8
Camada 1
 62
    18
420
        0
370
    35
100
AcDbPolyline
 90
        4
 70
     0
 43
0.0
 10
421.4670104980468
 20
96.13449859619141
 10
421.0299987792969
 20
96.13449859619141
 10
419.8370056152343
 20
96.13449859619141
 10
418.2070007324218
 20
96.13449859619141
  0
LINE
  5
C1
330
70
100
AcDbEntity
  8
Camada 1
 62
    18
420
        0
370
    35
100
AcDbLine
 10
421.4670104980468
 20
281.7999877929688
 30
0.0
 11
421.4670104980468
 21
96.13449859619141
 31
0.0
  0
LINE
  5
C2
330
70
100
AcDbEntity
  8
Camada 1
 62
    18
420
        0
370
    35
100
AcDbLine
 10
418.2070007324218
 20
279.9570007324219
 30
0.0
 11
418.2070007324218
 21
279.9609985351562
 31
0.0
  0
LINE
  5
C3
330
70
100
AcDbEntity
  8
Camada 1
 62
    18
420
        0
370
    35
100
AcDbLine
 10
418.2070007324218
 20
279.9609985351562
 30
0.0
 11
418.2030029296875
 21
279.9609985351562
 31
0.0
  0
LINE
  5
C4
330
70
100
AcDbEntity
  8
Camada 1
 62
    18
420
        0
370
    35
100
AcDbLine
 10
382.4909973144531
 20
135.8200073242187
 30
0.0
 11
361.2309875488281
 21
135.8200073242187
 31
0.0
  0
LINE
  5
C5
330
70
100
AcDbEntity
  8
Camada 1
 62
    18
420
        0
370
    35
100
AcDbLine
 10
361.2309875488281
 20
114.5599975585937
 30
0.0
 11
382.4909973144531
 21
114.5599975585937
 31
0.0
  0
LINE
  5
C6
330
70
100
AcDbEntity
  8
Camada 1
 62
    18
420
        0
370
    35
100
AcDbLine
 10
326.9320068359375
 20
93.29979705810547
 30
0.0
 11
416.7900085449218
 21
93.29979705810547
 31
0.0
  0
LINE
  5
C7
330
70
100
AcDbEntity
  8
Camada 1
 62
    18
420
        0
370
    35
100
AcDbLine
 10
418.2070007324218
 20
94.71720123291015
 30
0.0
 11
418.2070007324218
 21
96.13449859619141
 31
0.0
  0
LINE
  5
C8
330
70
100
AcDbEntity
  8
Camada 1
 62
    18
420
        0
370
    35
100
AcDbLine
 10
418.2070007324218
 20
96.13449859619141
 30
0.0
 11
418.2070007324218
 21
279.9570007324219
 31
0.0
  0
LINE
  5
C9
330
70
100
AcDbEntity
  8
Camada 1
 62
    18
420
        0
370
    35
100
AcDbLine
 10
418.2030029296875
 20
279.9609985351562
 30
0.0
 11
325.5180053710938
 21
279.9609985351562
 31
0.0
  0
LINE
  5
CA
330
70
100
AcDbEntity
  8
Camada 1
 62
    18
420
        0
370
    35
100
AcDbLine
 10
325.5180053710938
 20
279.9609985351562
 30
0.0
 11
325.5140075683594
 21
279.9609985351562
 31
0.0
  0
LINE
  5
CB
330
70
100
AcDbEntity
  8
Camada 1
 62
    18
420
        0
370
    35
100
AcDbLine
 10
325.5140075683594
 20
279.9609985351562
 30
0.0
 11
325.5140075683594
 21
279.9570007324219
 31
0.0
  0
LINE
  5
CC
330
70
100
AcDbEntity
  8
Camada 1
 62
    18
420
        0
370
    35
100
AcDbLine
 10
325.5140075683594
 20
96.13449859619141
 30
0.0
 11
325.5140075683594
 21
94.71720123291015
 31
0.0
  0
LWPOLYLINE
  5
CD
330
70
100
AcDbEntity
  8
Camada 1
 62
    18
420
        0
370
    35
100
AcDbPolyline
 90
       37
 70
     0
 43
0.0
 10
325.5140075683594
 20
279.9570007324219
 10
325.4419860839844
 20
279.9979858398438
 10
325.3710021972656
 20
280.0379943847656
 10
325.2990112304687
 20
280.0790100097657
 10
325.2269897460938
 20
280.1189880371094
 10
325.156005859375
 20
280.1600036621094
 10
325.0840148925781
 20
280.2000122070312
 10
325.0130004882813
 20
280.2409973144531
 10
324.9419860839844
 20
280.281005859375
 10
324.8710021972656
 20
280.3210144042969
 10
324.7999877929688
 20
280.3609924316406
 10
324.72900390625
 20
280.4010009765625
 10
324.6589965820313
 20
280.4410095214844
 10
324.3800048828125
 20
280.5979919433594
 10
324.1080017089844
 20
280.7520141601563
 10
323.9739990234375
 20
280.8280029296875
 10
323.8429870605469
 20
280.9020080566406
 10
323.5880126953125
 20
281.0459899902344
 10
323.3469848632812
 20
281.1820068359375
 10
323.2309875488281
 20
281.2479858398437
 10
323.1199951171875
 20
281.3110046386719
 10
322.9100036621094
 20
281.4289855957031
 10
322.7239990234375
 20
281.5339965820312
 10
322.6400146484375
 20
281.5820007324219
 10
322.56298828125
 20
281.625
 10
322.4930114746094
 20
281.6650085449219
 10
322.4320068359375
 20
281.6990051269531
 10
322.3789978027344
 20
281.72900390625
 10
322.3349914550781
 20
281.7539978027344
 10
322.3160095214844
 20
281.7650146484375
 10
322.2999877929688
 20
281.7739868164062
 10
322.2860107421875
 20
281.7820129394531
 10
322.2749938964844
 20
281.7879943847657
 10
322.2659912109375
 20
281.7929992675781
 10
322.2590026855469
 20
281.7959899902344
 10
322.2560119628906
 20
281.7980041503906
 10
322.2539978027344
 20
281.7999877929688
  0
LINE
  5
CE
330
70
100
AcDbEntity
  8
Camada 1
 62
    18
420
        0
370
    35
100
AcDbLine
 10
322.2539978027344
 20
96.13449859619141
 30
0.0
 11
322.2539978027344
 21
281.7999877929688
 31
0.0
  0
LWPOLYLINE
  5
CF
330
70
100
AcDbEntity
  8
Camada 1
 62
    18
420
        0
370
    35
100
AcDbPolyline
 90
        4
 70
     0
 43
0.0
 10
325.5140075683594
 20
96.13449859619141
 10
323.8840026855469
 20
96.13449859619141
 10
322.6910095214844
 20
96.13449859619141
 10
322.2539978027344
 20
96.13449859619141
  0
LINE
  5
D0
330
70
100
AcDbEntity
  8
Camada 1
 62
    18
420
        0
370
    35
100
AcDbLine
 10
325.5140075683594
 20
96.13449859619141
 30
0.0
 11
325.5140075683594
 21
279.9570007324219
 31
0.0
  0
LWPOLYLINE
  5
D1
330
70
100
AcDbEntity
  8
Camada 1
 62
    18
420
        0
370
    35
100
AcDbPolyline
 90
       13
 70
     0
 43
0.0
 10
418.2030029296875
 20
279.9609985351562
 10
418.5270080566406
 20
280.2850036621094
 10
418.8439941406249
 20
280.6019897460938
 10
419.1480102539062
 20
280.906005859375
 10
419.4280090332031
 20
281.1860046386719
 10
419.6749877929687
 20
281.4330139160156
 10
419.8710021972656
 20
281.6289978027344
 10
419.9450073242187
 20
281.7030029296875
 10
420.0
 20
281.7579956054688
 10
420.0199890136718
 20
281.7780151367188
 10
420.0339965820312
 20
281.7919921875
 10
420.0419921875
 20
281.8009948730469
 10
420.0459899902344
 20
281.8039855957031
  0
LINE
  5
D2
330
70
100
AcDbEntity
  8
Camada 1
 62
    18
420
        0
370
    35
100
AcDbLine
 10
420.0459899902344
 20
283.2210083007812
 30
0.0
 11
420.0459899902344
 21
281.8039855957031
 31
0.0
  0
LWPOLYLINE
  5
D3
330
70
100
AcDbEntity
  8
Camada 1
 62
    18
420
        0
370
    35
100
AcDbPolyline
 90
       37
 70
     0
 43
0.0
 10
418.2030029296875
 20
279.9609985351562
 10
418.2439880371093
 20
280.0329895019531
 10
418.2839965820312
 20
280.1050109863281
 10
418.3250122070312
 20
280.177001953125
 10
418.3649902343749
 20
280.2479858398438
 10
418.4060058593749
 20
280.3200073242187
 10
418.4460144042969
 20
280.3909912109375
 10
418.4869995117187
 20
280.4630126953125
 10
418.5270080566406
 20
280.5339965820312
 10
418.5669860839843
 20
280.6050109863281
 10
418.6069946289062
 20
280.6759948730469
 10
418.6470031738281
 20
280.7460021972656
 10
418.68701171875
 20
280.8169860839844
 10
418.8439941406249
 20
281.0960083007813
 10
418.9979858398437
 20
281.3670043945312
 10
419.0729980468749
 20
281.5010070800781
 10
419.1470031738281
 20
281.6319885253906
 10
419.2919921875
 20
281.8869934082031
 10
419.4280090332031
 20
282.1289978027344
 10
419.4939880371093
 20
282.2439880371094
 10
419.5559997558594
 20
282.3559875488281
 10
419.6749877929687
 20
282.5650024414063
 10
419.7799987792969
 20
282.7510070800781
 10
419.8280029296874
 20
282.8359985351562
 10
419.8710021972656
 20
282.9119873046875
 10
419.9110107421875
 20
282.9819946289063
 10
419.9450073242187
 20
283.0440063476562
 10
419.9750061035156
 20
283.0969848632813
 10
420.0
 20
283.1409912109375
 10
420.010986328125
 20
283.1589965820313
 10
420.0199890136718
 20
283.1759948730469
 10
420.0280151367187
 20
283.1889953613281
 10
420.0339965820312
 20
283.2009887695313
 10
420.0390014648437
 20
283.2099914550781
 10
420.0419921875
 20
283.2160034179688
 10
420.0440063476562
 20
283.218994140625
 10
420.0459899902344
 20
283.2210083007812
  0
LINE
  5
D4
330
70
100
AcDbEntity
  8
Camada 1
 62
    18
420
        0
370
    35
100
AcDbLine
 10
421.4670104980468
 20
281.7999877929688
 30
0.0
 11
420.0499877929687
 21
281.7999877929688
 31
0.0
  0
LWPOLYLINE
  5
D5
330
70
100
AcDbEntity
  8
Camada 1
 62
    18
420
        0
370
    35
100
AcDbPolyline
 90
       13
 70
     0
 43
0.0
 10
420.0499877929687
 20
281.7999877929688
 10
420.0469970703125
 20
281.7969970703125
 10
420.0379943847655
 20
281.7879943847657
 10
420.0239868164062
 20
281.7739868164062
 10
420.0039978027343
 20
281.7539978027344
 10
419.9490051269531
 20
281.6990051269531
 10
419.875
 20
281.625
 10
419.6789855957031
 20
281.4289855957031
 10
419.4320068359375
 20
281.1820068359375
 10
419.1520080566406
 20
280.9020080566406
 10
418.8479919433594
 20
280.5979919433594
 10
418.5310058593749
 20
280.281005859375
 10
418.2070007324218
 20
279.9570007324219
  0
LWPOLYLINE
  5
D6
330
70
100
AcDbEntity
  8
Camada 1
 62
    18
420
        0
370
    35
100
AcDbPolyline
 90
       39
 70
     0
 43
0.0
 10
421.4670104980468
 20
281.7999877929688
 10
421.4660034179687
 20
281.7990112304688
 10
421.4639892578125
 20
281.7980041503906
 10
421.4599914550781
 20
281.7950134277344
 10
421.4540100097655
 20
281.7919921875
 10
421.4469909667968
 20
281.7879943847657
 10
421.4379882812499
 20
281.7829895019531
 10
421.427001953125
 20
281.7770080566406
 10
421.4150085449218
 20
281.77099609375
 10
421.4020080566406
 20
281.7630004882813
 10
421.3869934082031
 20
281.7539978027344
 10
421.3659973144531
 20
281.7430114746094
 10
421.3429870605469
 20
281.72900390625
 10
421.3169860839843
 20
281.7149963378906
 10
421.2890014648437
 20
281.6990051269531
 10
421.2279968261718
 20
281.6650085449219
 10
421.157989501953
 20
281.625
 10
421.0809936523437
 20
281.5820007324219
 10
420.9970092773437
 20
281.5339965820312
 10
420.9070129394531
 20
281.4830017089844
 10
420.8099975585937
 20
281.4289855957031
 10
420.6029968261718
 20
281.3110046386719
 10
420.3739929199218
 20
281.1820068359375
 10
420.2550048828125
 20
281.114990234375
 10
420.1319885253906
 20
281.0450134277344
 10
419.8789978027344
 20
280.9020080566406
 10
419.6130065917968
 20
280.7520141601563
 10
419.4779968261718
 20
280.6759948730469
 10
419.3410034179687
 20
280.5979919433594
 10
419.0629882812499
 20
280.4410095214844
 10
418.7799987792969
 20
280.281005859375
 10
418.7090148925781
 20
280.2409973144531
 10
418.6369934082031
 20
280.2000122070312
 10
418.5660095214843
 20
280.1600036621094
 10
418.4939880371094
 20
280.1189880371094
 10
418.4219970703124
 20
280.0790100097657
 10
418.3510131835937
 20
280.0379943847656
 10
418.2789916992187
 20
279.9979858398438
 10
418.2070007324218
 20
279.9570007324219
  0
LINE
  5
D7
330
70
100
AcDbEntity
  8
Camada 1
 62
    18
420
        0
370
    35
100
AcDbLine
 10
453.7820129394531
 20
303.6189880371094
 30
0.0
 11
194.4120025634765
 21
303.6189880371094
 31
0.0
  0
LINE
  5
D8
330
70
100
AcDbEntity
  8
Camada 1
 62
    18
420
        0
370
    35
100
AcDbLine
 10
190.1600036621094
 20
299.3670043945312
 30
0.0
 11
190.1600036621094
 21
81.09889984130859
 31
0.0
  0
LINE
  5
D9
330
70
100
AcDbEntity
  8
Camada 1
 62
    18
420
        0
370
    35
100
AcDbLine
 10
320.1279907226563
 20
97.75240325927734
 30
0.0
 11
320.1279907226563
 21
282.7130126953125
 31
0.0
  0
LINE
  5
DA
330
70
100
AcDbEntity
  8
Camada 1
 62
    18
420
        0
370
    35
100
AcDbLine
 10
194.4120025634765
 20
76.84690093994141
 30
0.0
 11
453.7820129394531
 21
76.84690093994141
 31
0.0
  0
LINE
  5
DB
330
70
100
AcDbEntity
  8
Camada 1
 62
    18
420
        0
370
    35
100
AcDbLine
 10
458.0339965820312
 20
81.09889984130859
 30
0.0
 11
458.0339965820312
 21
299.3670043945312
 31
0.0
  0
LINE
  5
DC
330
70
100
AcDbEntity
  8
Camada 1
 62
    18
420
        0
370
    35
100
AcDbLine
 10
326.2059936523438
 20
93.50050354003906
 30
0.0
 11
324.3800048828125
 21
93.50050354003906
 31
0.0
  0
LINE
  5
DD
330
70
100
AcDbEntity
  8
Camada 1
 62
    18
420
        0
370
    35
100
AcDbLine
 10
417.9240112304687
 20
93.50050354003906
 30
0.0
 11
417.5159912109375
 21
93.50050354003906
 31
0.0
  0
LINE
  5
DE
330
70
100
AcDbEntity
  8
Camada 1
 62
    18
420
        0
370
    35
100
AcDbLine
 10
324.3800048828125
 20
286.9649963378906
 30
0.0
 11
417.9240112304687
 21
286.9649963378906
 31
0.0
  0
LINE
  5
DF
330
70
100
AcDbEntity
  8
Camada 1
 62
    18
420
        0
370
    35
100
AcDbLine
 10
422.1759948730468
 20
282.7130126953125
 30
0.0
 11
422.1759948730468
 21
97.75240325927734
 31
0.0
  0
LINE
  5
E0
330
70
100
AcDbEntity
  8
Camada 1
 62
    18
420
        0
370
    35
100
AcDbLine
 10
420.3330078125
 20
283.3510131835938
 30
0.0
 11
420.3290100097656
 21
283.3510131835938
 31
0.0
  0
LINE
  5
E1
330
70
100
AcDbEntity
  8
Camada 1
 62
    18
420
        0
370
    35
100
AcDbLine
 10
323.3919982910156
 20
283.3510131835938
 30
0.0
 11
323.3880004882812
 21
283.3510131835938
 31
0.0
  0
LINE
  5
E2
330
70
100
AcDbEntity
  8
Camada 1
 62
    18
420
        0
370
    35
100
AcDbLine
 10
323.3880004882812
 20
283.3510131835938
 30
0.0
 11
323.3880004882812
 21
283.3469848632812
 31
0.0
  0
LINE
  5
E3
330
70
100
AcDbEntity
  8
Camada 1
 62
    18
420
        0
370
    35
100
AcDbLine
 10
420.3330078125
 20
283.3469848632812
 30
0.0
 11
420.3330078125
 21
283.3510131835938
 31
0.0
  0
LINE
  5
E4
330
70
100
AcDbEntity
  8
Camada 1
 62
    18
420
        0
370
    35
100
AcDbLine
 10
420.3330078125
 20
95.69730377197265
 30
0.0
 11
421.1019897460937
 21
94.92819976806641
 31
0.0
  0
LINE
  5
E5
330
70
100
AcDbEntity
  8
Camada 1
 62
    18
420
        0
370
    35
100
AcDbLine
 10
419.3410034179687
 20
95.69730377197265
 30
0.0
 11
420.3330078125
 21
95.69730377197265
 31
0.0
  0
LINE
  5
E6
330
70
100
AcDbEntity
  8
Camada 1
 62
    18
420
        0
370
    35
100
AcDbLine
 10
323.3880004882812
 20
95.69730377197265
 30
0.0
 11
324.3800048828125
 21
95.69730377197265
 31
0.0
  0
LWPOLYLINE
  5
E7
330
70
100
AcDbEntity
  8
Camada 1
 62
    18
420
        0
370
    35
100
AcDbPolyline
 90
        3
 70
     0
 43
0.0
 10
321.9530029296875
 20
94.26170349121093
 10
322.5920104980469
 20
94.90139770507813
 10
323.3880004882812
 20
95.69730377197265
  0
LINE
  5
E8
330
70
100
AcDbEntity
  8
Camada 1
 62
    18
420
        0
370
    35
100
AcDbLine
 10
420.3330078125
 20
281.7990112304688
 30
0.0
 11
420.3330078125
 21
283.3469848632812
 31
0.0
  0
LINE
  5
E9
330
70
100
AcDbEntity
  8
Camada 1
 62
    18
420
        0
370
    35
100
AcDbLine
 10
420.3330078125
 20
95.69730377197265
 30
0.0
 11
420.3330078125
 21
96.13710021972657
 31
0.0
  0
LWPOLYLINE
  5
EA
330
70
100
AcDbEntity
  8
Camada 1
 62
    18
420
        0
370
    35
100
AcDbPolyline
 90
        3
 70
     0
 43
0.0
 10
323.3880004882812
 20
95.69730377197265
 10
322.5920104980469
 20
94.90139770507813
 10
321.9530029296875
 20
94.26170349121093
  0
LINE
  5
EB
330
70
100
AcDbEntity
  8
Camada 1
 62
    18
420
        0
370
    35
100
AcDbLine
 10
323.3880004882812
 20
96.13710021972657
 30
0.0
 11
323.3880004882812
 21
95.69730377197265
 31
0.0
  0
LINE
  5
EC
330
70
100
AcDbEntity
  8
Camada 1
 62
    18
420
        0
370
    35
100
AcDbLine
 10
323.3880004882812
 20
283.3469848632812
 30
0.0
 11
323.3880004882812
 21
281.7990112304688
 31
0.0
  0
LINE
  5
ED
330
70
100
AcDbEntity
  8
Camada 1
 62
    18
420
        0
370
    35
100
AcDbLine
 10
420.3290100097656
 20
283.3510131835938
 30
0.0
 11
323.3919982910156
 21
283.3510131835938
 31
0.0
  0
LWPOLYLINE
  5
EE
330
70
100
AcDbEntity
  8
Camada 1
 62
    18
420
        0
370
    35
100
AcDbPolyline
 90
        3
 70
     0
 43
0.0
 10
421.6809997558593
 20
284.7030029296875
 10
421.0669860839844
 20
284.0889892578125
 10
420.3290100097656
 20
283.3510131835938
  0
LWPOLYLINE
  5
EF
330
70
100
AcDbEntity
  8
Camada 1
 62
    18
420
        0
370
    35
100
AcDbPolyline
 90
        4
 70
     0
 43
0.0
 10
323.3919982910156
 20
283.3510131835938
 10
322.4710083007813
 20
284.2720031738281
 10
321.7969970703125
 20
284.9469909667969
 10
321.5499877929687
 20
285.1929931640625
  0
LWPOLYLINE
  5
F0
330
70
100
AcDbEntity
  8
Camada 1
 62
    18
420
        0
370
    35
100
AcDbPolyline
 90
        3
 70
     0
 43
0.0
 10
420.3330078125
 20
283.3469848632812
 10
421.0700073242187
 20
284.0840148925781
 10
421.6839904785156
 20
284.697998046875
  0
LWPOLYLINE
  5
F1
330
70
100
AcDbEntity
  8
Camada 1
 62
    18
420
        0
370
    35
100
AcDbPolyline
 90
        4
 70
     0
 43
0.0
 10
321.5459899902344
 20
285.1889953613281
 10
321.7929992675781
 20
284.9419860839844
 10
322.4670104980469
 20
284.2680053710937
 10
323.3880004882812
 20
283.3469848632812
  0
LINE
  5
F2
330
70
100
AcDbEntity
  8
Camada 1
 62
    18
420
        0
370
    35
100
AcDbLine
 10
421.1019897460937
 20
94.92819976806641
 30
0.0
 11
420.3330078125
 21
95.69730377197265
 31
0.0
  0
LINE
  5
F3
330
70
100
AcDbEntity
  8
Camada 1
 62
    18
420
        0
370
    35
100
AcDbLine
 10
417.9140014648437
 20
93.85479736328125
 30
0.0
 11
419.6220092773437
 21
93.85479736328125
 31
0.0
  0
LINE
  5
F4
330
70
100
AcDbEntity
  8
Camada 1
 62
    18
420
        0
370
    35
100
AcDbLine
 10
322.6809997558594
 20
93.85479736328125
 30
0.0
 11
325.8070068359375
 21
93.85479736328125
 31
0.0
  0
LINE
  5
F5
330
70
100
AcDbEntity
  8
Camada 1
 62
    18
420
        0
370
    35
100
AcDbLine
 10
321.5499877929687
 20
285.1929931640625
 30
0.0
 11
321.5499877929687
 21
285.885986328125
 31
0.0
  0
LWPOLYLINE
  5
F6
330
70
100
AcDbEntity
  8
Camada 1
 62
    18
420
        0
370
    35
100
AcDbPolyline
 90
        3
 70
     0
 43
0.0
 10
322.2579956054687
 20
285.1929931640625
 10
321.7569885253906
 20
285.1929931640625
 10
321.5499877929687
 20
285.1929931640625
  0
LINE
  5
F7
330
70
100
AcDbEntity
  8
Camada 1
 62
    18
420
        0
370
    35
100
AcDbLine
 10
419.6210021972656
 20
286.6109924316406
 30
0.0
 11
322.6820068359375
 21
286.6109924316406
 31
0.0
  0
LINE
  5
F8
330
70
100
AcDbEntity
  8
Camada 1
 62
    18
420
        0
370
    35
100
AcDbLine
 10
322.2579956054687
 20
286.3980102539063
 30
0.0
 11
322.2579956054687
 21
285.1929931640625
 31
0.0
  0
LINE
  5
F9
330
70
100
AcDbEntity
  8
Camada 1
 62
    18
420
        0
370
    35
100
AcDbLine
 10
421.376007080078
 20
285.1929931640625
 30
0.0
 11
322.2579956054687
 21
285.1929931640625
 31
0.0
  0
LINE
  5
FA
330
70
100
AcDbEntity
  8
Camada 1
 62
    18
420
        0
370
    35
100
AcDbLine
 10
321.5459899902344
 20
285.1889953613281
 30
0.0
 11
321.5459899902344
 21
94.58419799804687
 31
0.0
  0
LWPOLYLINE
  5
FB
330
70
100
AcDbEntity
  8
Camada 1
 62
    18
420
        0
370
    35
100
AcDbPolyline
 90
        3
 70
     0
 43
0.0
 10
321.5459899902344
 20
285.1889953613281
 10
321.385986328125
 20
285.1889953613281
 10
320.9240112304688
 20
285.1889953613281
  0
LINE
  5
FC
330
70
100
AcDbEntity
  8
Camada 1
 62
    18
420
        0
370
    35
100
AcDbLine
 10
265.2780151367188
 20
116.886001586914
 30
0.0
 11
265.2780151367188
 21
215.811996459961
 31
0.0
  0
LINE
  5
FD
330
70
100
AcDbEntity
  8
Camada 1
 62
    18
420
        0
370
    35
100
AcDbLine
 10
256.7739868164062
 20
215.8110046386719
 30
0.0
 11
256.7739868164062
 21
116.886001586914
 31
0.0
  0
LWPOLYLINE
  5
FE
330
70
100
AcDbEntity
  8
Camada 1
 62
    18
420
        0
370
    35
100
AcDbPolyline
 90
       18
 70
     0
 43
0.0
 10
256.7739868164062
 20
116.886001586914
 10
257.0610046386719
 20
116.7789993286133
 10
257.8840026855469
 20
116.6859970092773
 10
259.1310119628906
 20
116.6210021972656
 10
260.6340026855469
 20
116.5910034179687
 10
262.1900024414062
 20
116.6009979248047
 10
263.5880126953125
 20
116.6500015258789
 10
264.6409912109375
 20
116.7300033569336
 10
265.2059936523437
 20
116.8320007324219
 10
265.2059936523437
 20
116.9410018920898
 10
264.6409912109375
 20
117.0419998168945
 10
263.5880126953125
 20
117.1230010986328
 10
262.1900024414062
 20
117.1719970703125
 10
260.6340026855469
 20
117.1819992065429
 10
259.1310119628906
 20
117.1520004272461
 10
257.8840026855469
 20
117.0859985351562
 10
257.0610046386719
 20
116.9929962158203
 10
256.7739868164062
 20
116.886001586914
  0
LWPOLYLINE
  5
FF
330
70
100
AcDbEntity
  8
Camada 1
 62
    18
420
        0
370
    35
100
AcDbPolyline
 90
        3
 70
     0
 43
0.0
 10
324.3800048828125
 20
95.27610015869141
 10
324.3800048828125
 20
95.49490356445312
 10
324.3800048828125
 20
96.13449859619141
  0
LINE
  5
100
330
70
100
AcDbEntity
  8
Camada 1
 62
    18
420
        0
370
    35
100
AcDbLine
 10
325.5140075683594
 20
95.27610015869141
 30
0.0
 11
324.3800048828125
 21
95.27610015869141
 31
0.0
  0
LINE
  5
101
330
70
100
AcDbEntity
  8
Camada 1
 62
    18
420
        0
370
    35
100
AcDbLine
 10
417.9200134277343
 20
93.86139678955078
 30
0.0
 11
417.9200134277343
 21
93.85479736328125
 31
0.0
  0
LINE
  5
102
330
70
100
AcDbEntity
  8
Camada 1
 62
    18
420
        0
370
    35
100
AcDbLine
 10
325.802001953125
 20
93.85479736328125
 30
0.0
 11
325.802001953125
 21
93.86139678955078
 31
0.0
  0
LWPOLYLINE
  5
103
330
70
100
AcDbEntity
  8
Camada 1
 62
    18
420
        0
370
    35
100
AcDbPolyline
 90
        3
 70
     0
 43
0.0
 10
419.3410034179687
 20
96.13449859619141
 10
419.3410034179687
 20
95.49490356445312
 10
419.3410034179687
 20
95.27610015869141
  0
LINE
  5
104
330
70
100
AcDbEntity
  8
Camada 1
 62
    18
420
        0
370
    35
100
AcDbLine
 10
419.3410034179687
 20
95.27610015869141
 30
0.0
 11
418.2070007324218
 21
95.27610015869141
 31
0.0
  0
LWPOLYLINE
  5
105
330
70
100
AcDbEntity
  8
Camada 1
 62
    18
420
        0
370
    35
100
AcDbPolyline
 90
        3
 70
     0
 43
0.0
 10
277.3290100097656
 20
581.7800292968749
 10
276.2149963378906
 20
581.7800292968749
 10
274.0570068359375
 20
581.7800292968749
  0
LINE
  5
106
330
70
100
AcDbEntity
  8
Camada 1
 62
    18
420
        0
370
    35
100
AcDbLine
 10
277.3290100097656
 20
581.7800292968749
 30
0.0
 11
277.3290100097656
 21
600.2050170898437
 31
0.0
  0
LINE
  5
107
330
70
100
AcDbEntity
  8
Camada 1
 62
    18
420
        0
370
    35
100
AcDbLine
 10
274.0570068359375
 20
581.7800292968749
 30
0.0
 11
273.7030029296875
 21
581.7800292968749
 31
0.0
  0
LINE
  5
108
330
70
100
AcDbEntity
  8
Camada 1
 62
    18
420
        0
370
    35
100
AcDbLine
 10
274.0570068359375
 20
600.2050170898437
 30
0.0
 11
274.0570068359375
 21
581.7800292968749
 31
0.0
  0
LINE
  5
109
330
70
100
AcDbEntity
  8
Camada 1
 62
    18
420
        0
370
    35
100
AcDbLine
 10
248.3489990234375
 20
581.7800292968749
 30
0.0
 11
247.9949951171875
 21
581.7800292968749
 31
0.0
  0
LWPOLYLINE
  5
10A
330
70
100
AcDbEntity
  8
Camada 1
 62
    18
420
        0
370
    35
100
AcDbPolyline
 90
        3
 70
     0
 43
0.0
 10
247.9949951171875
 20
581.7800292968749
 10
245.8370056152344
 20
581.7800292968749
 10
244.7230072021485
 20
581.7800292968749
  0
LINE
  5
10B
330
70
100
AcDbEntity
  8
Camada 1
 62
    18
420
        0
370
    35
100
AcDbLine
 10
247.9949951171875
 20
581.7800292968749
 30
0.0
 11
247.9949951171875
 21
600.2050170898437
 31
0.0
  0
LINE
  5
10C
330
70
100
AcDbEntity
  8
Camada 1
 62
    18
420
        0
370
    35
100
AcDbLine
 10
244.7230072021485
 20
600.2050170898437
 30
0.0
 11
244.7230072021485
 21
581.7800292968749
 31
0.0
  0
LWPOLYLINE
  5
10D
330
70
100
AcDbEntity
  8
Camada 1
 62
    18
420
        0
370
    35
100
AcDbPolyline
 90
        3
 70
     0
 43
0.0
 10
273.7030029296875
 20
581.7800292968749
 10
272.4590148925781
 20
581.7800292968749
 10
271.0509948730469
 20
581.7800292968749
  0
LINE
  5
10E
330
70
100
AcDbEntity
  8
Camada 1
 62
    18
420
        0
370
    35
100
AcDbLine
 10
273.7030029296875
 20
581.7800292968749
 30
0.0
 11
273.7030029296875
 21
600.2050170898437
 31
0.0
  0
LWPOLYLINE
  5
10F
330
70
100
AcDbEntity
  8
Camada 1
 62
    18
420
        0
370
    35
100
AcDbPolyline
 90
        3
 70
     0
 43
0.0
 10
251.0010070800781
 20
581.7800292968749
 10
249.5930023193359
 20
581.7800292968749
 10
248.3489990234375
 20
581.7800292968749
  0
LINE
  5
110
330
70
100
AcDbEntity
  8
Camada 1
 62
    18
420
        0
370
    35
100
AcDbLine
 10
248.3489990234375
 20
600.2050170898437
 30
0.0
 11
248.3489990234375
 21
581.7800292968749
 31
0.0
  0
LWPOLYLINE
  5
111
330
70
100
AcDbEntity
  8
Camada 1
 62
    18
420
        0
370
    35
100
AcDbPolyline
 90
        3
 70
     0
 43
0.0
 10
263.1520080566406
 20
581.7800292968749
 10
261.0260009765625
 20
581.7800292968749
 10
258.8999938964844
 20
581.7800292968749
  0
LWPOLYLINE
  5
112
330
70
100
AcDbEntity
  8
Camada 1
 62
    18
420
        0
370
    35
100
AcDbPolyline
 90
        3
 70
     0
 43
0.0
 10
271.0509948730469
 20
581.7800292968749
 10
267.3179931640625
 20
581.7800292968749
 10
263.1520080566406
 20
581.7800292968749
  0
LINE
  5
113
330
70
100
AcDbEntity
  8
Camada 1
 62
    18
420
        0
370
    35
100
AcDbLine
 10
271.0509948730469
 20
581.7800292968749
 30
0.0
 11
271.0509948730469
 21
600.2050170898437
 31
0.0
  0
LINE
  5
114
330
70
100
AcDbEntity
  8
Camada 1
 62
    18
420
        0
370
    35
100
AcDbLine
 10
263.1520080566406
 20
600.2050170898437
 30
0.0
 11
263.1520080566406
 21
581.7800292968749
 31
0.0
  0
LINE
  5
115
330
70
100
AcDbEntity
  8
Camada 1
 62
    18
420
        0
370
    35
100
AcDbLine
 10
258.8999938964844
 20
581.7800292968749
 30
0.0
 11
258.8999938964844
 21
600.2050170898437
 31
0.0
  0
LINE
  5
116
330
70
100
AcDbEntity
  8
Camada 1
 62
    18
420
        0
370
    35
100
AcDbLine
 10
251.0010070800781
 20
600.2050170898437
 30
0.0
 11
251.0010070800781
 21
581.7800292968749
 31
0.0
  0
LWPOLYLINE
  5
117
330
70
100
AcDbEntity
  8
Camada 1
 62
    18
420
        0
370
    35
100
AcDbPolyline
 90
        3
 70
     0
 43
0.0
 10
258.8999938964844
 20
581.7800292968749
 10
254.7339935302734
 20
581.7800292968749
 10
251.0010070800781
 20
581.7800292968749
  0
LINE
  5
118
330
70
100
AcDbEntity
  8
Camada 1
 62
    18
420
        0
370
    35
100
AcDbLine
 10
242.2460021972656
 20
736.2670288085937
 30
0.0
 11
242.2460021972656
 21
712.0469970703124
 31
0.0
  0
LINE
  5
119
330
70
100
AcDbEntity
  8
Camada 1
 62
    18
420
        0
370
    35
100
AcDbLine
 10
279.8059997558594
 20
712.0469970703124
 30
0.0
 11
279.8059997558594
 21
736.2670288085937
 31
0.0
  0
LWPOLYLINE
  5
11A
330
70
100
AcDbEntity
  8
Camada 1
 62
    18
420
        0
370
    35
100
AcDbPolyline
 90
       18
 70
     0
 43
0.0
 10
279.8059997558594
 20
712.0469970703124
 10
279.4859924316406
 20
712.0469970703124
 10
278.5369873046875
 20
712.0469970703124
 10
276.9930114746094
 20
712.0469970703124
 10
274.9039916992188
 20
712.0469970703124
 10
272.3429870605469
 20
712.0469970703124
 10
269.3970031738281
 20
712.0469970703124
 10
266.1650085449219
 20
712.0469970703124
 10
262.7590026855469
 20
712.0469970703124
 10
259.2929992675781
 20
712.0469970703124
 10
255.8869934082031
 20
712.0469970703124
 10
252.6549987792969
 20
712.0469970703124
 10
249.7089996337891
 20
712.0469970703124
 10
247.1479949951172
 20
712.0469970703124
 10
245.0590057373047
 20
712.0469970703124
 10
243.5149993896484
 20
712.0469970703124
 10
242.5659942626953
 20
712.0469970703124
 10
242.2460021972656
 20
712.0469970703124
  0
LWPOLYLINE
  5
11B
330
70
100
AcDbEntity
  8
Camada 1
 62
    18
420
        0
370
    35
100
AcDbPolyline
 90
       10
 70
     0
 43
0.0
 10
239.7920074462891
 20
708.1939697265625
 10
240.113998413086
 20
708.1939697265625
 10
241.0720062255859
 20
708.1939697265625
 10
242.636001586914
 20
708.1939697265625
 10
244.7590026855469
 20
708.1939697265625
 10
247.3769989013672
 20
708.1939697265625
 10
250.4089965820313
 20
708.1939697265625
 10
253.7630004882812
 20
708.1939697265625
 10
257.3389892578125
 20
708.1939697265625
 10
261.0260009765625
 20
708.1939697265625
  0
LWPOLYLINE
  5
11C
330
70
100
AcDbEntity
  8
Camada 1
 62
    18
420
        0
370
    35
100
AcDbPolyline
 90
       10
 70
     0
 43
0.0
 10
261.0260009765625
 20
708.1939697265625
 10
264.7130126953125
 20
708.1939697265625
 10
268.2890014648438
 20
708.1939697265625
 10
271.6430053710937
 20
708.1939697265625
 10
274.6749877929687
 20
708.1939697265625
 10
277.2929992675781
 20
708.1939697265625
 10
279.4159851074219
 20
708.1939697265625
 10
280.9800109863281
 20
708.1939697265625
 10
281.93798828125
 20
708.1939697265625
 10
282.260009765625
 20
708.1939697265625
  0
LINE
  5
11D
330
70
100
AcDbEntity
  8
Camada 1
 62
    18
420
        0
370
    35
100
AcDbLine
 10
239.7920074462891
 20
708.1939697265625
 30
0.0
 11
229.3880004882812
 21
703.3419799804687
 31
0.0
  0
LINE
  5
11E
330
70
100
AcDbEntity
  8
Camada 1
 62
    18
420
        0
370
    35
100
AcDbLine
 10
292.6640014648437
 20
703.3419799804687
 30
0.0
 11
282.260009765625
 21
708.1939697265625
 31
0.0
  0
LWPOLYLINE
  5
11F
330
70
100
AcDbEntity
  8
Camada 1
 62
    18
420
        0
370
    35
100
AcDbPolyline
 90
       24
 70
     0
 43
0.0
 10
292.6640014648437
 20
703.3419799804687
 10
292.3699951171875
 20
703.3419799804687
 10
291.4909973144531
 20
703.3419799804687
 10
290.0450134277344
 20
703.3419799804687
 10
288.0580139160156
 20
703.3419799804687
 10
285.5679931640625
 20
703.3419799804687
 10
282.6210021972656
 20
703.3419799804687
 10
279.27099609375
 20
703.3419799804687
 10
275.5820007324219
 20
703.3419799804687
 10
271.6210021972656
 20
703.3419799804687
 10
267.4630126953125
 20
703.3419799804687
 10
263.1849975585938
 20
703.3419799804687
 10
258.8670043945313
 20
703.3419799804687
 10
254.5890045166016
 20
703.3419799804687
 10
250.4309997558594
 20
703.3419799804687
 10
246.4700012207031
 20
703.3419799804687
 10
242.781005859375
 20
703.3419799804687
 10
239.4309997558594
 20
703.3419799804687
 10
236.4839935302734
 20
703.3419799804687
 10
233.9940032958984
 20
703.3419799804687
 10
232.0070037841797
 20
703.3419799804687
 10
230.5610046386719
 20
703.3419799804687
 10
229.6820068359375
 20
703.3419799804687
 10
229.3880004882812
 20
703.3419799804687
  0
LWPOLYLINE
  5
120
330
70
100
AcDbEntity
  8
Camada 1
 62
    18
420
        0
370
    35
100
AcDbPolyline
 90
       12
 70
     0
 43
0.0
 10
228.5690002441406
 20
702.0579833984375
 10
228.8999938964844
 20
702.0579833984375
 10
229.8840026855469
 20
702.0579833984375
 10
231.5019989013672
 20
702.0579833984375
 10
233.7220001220703
 20
702.0579833984375
 10
236.4969940185547
 20
702.0579833984375
 10
239.77099609375
 20
702.0579833984375
 10
243.47900390625
 20
702.0579833984375
 10
247.5429992675781
 20
702.0579833984375
 10
251.8820037841797
 20
702.0579833984375
 10
256.4070129394531
 20
702.0579833984375
 10
261.0260009765625
 20
702.0579833984375
  0
LINE
  5
121
330
70
100
AcDbEntity
  8
Camada 1
 62
    18
420
        0
370
    18
100
AcDbLine
 10
485.8420104980468
 20
303.4790782928467
 30
0.0
 11
485.8420104980468
 21
76.70699119567871
 31
0.0
  0
LINE
  5
122
330
70
100
AcDbEntity
  8
Camada 1
 62
    18
420
        0
370
    18
100
AcDbLine
 10
468.6719786361009
 20
76.84690093994141
 30
0.0
 11
489.9956284350127
 21
76.84690093994141
 31
0.0
  0
LINE
  5
123
330
70
100
AcDbEntity
  8
Camada 1
 62
    18
420
        0
370
    18
100
AcDbLine
 10
468.6719786361009
 20
303.6189880371094
 30
0.0
 11
489.9956284350127
 21
303.6189880371094
 31
0.0
  0
LINE
  5
124
330
70
100
AcDbEntity
  8
Camada 1
 62
    18
420
        0
370
    18
100
AcDbLine
 10
170.3170013427734
 20
788.1420288085937
 30
0.0
 11
170.3170013427734
 21
340.6929931640625
 31
0.0
  0
LINE
  5
125
330
70
100
AcDbEntity
  8
Camada 1
 62
    18
420
        0
370
    18
100
AcDbLine
 10
205.0777841828458
 20
340.6929931640625
 30
0.0
 11
164.6479949951172
 21
340.6929931640625
 31
0.0
  0
LINE
  5
126
330
70
100
AcDbEntity
  8
Camada 1
 62
    18
420
        0
370
    18
100
AcDbLine
 10
227.0809936523438
 20
788.1420288085937
 30
0.0
 11
164.6479949951172
 21
788.1420288085937
 31
0.0
  0
LINE
  5
127
330
70
100
AcDbEntity
  8
Camada 1
 62
    18
420
        0
370
    18
100
AcDbLine
 10
190.1600036621094
 20
807.9840087890625
 30
0.0
 11
458.0339965820312
 21
807.9840087890625
 31
0.0
  0
LINE
  5
128
330
70
100
AcDbEntity
  8
Camada 1
 62
    18
420
        0
370
    18
100
AcDbLine
 10
458.0339965820312
 20
717.4758078381737
 30
0.0
 11
458.0339965820312
 21
813.6539916992187
 31
0.0
  0
LINE
  5
129
330
70
100
AcDbEntity
  8
Camada 1
 62
    18
420
        0
370
    18
100
AcDbLine
 10
190.1600036621094
 20
717.4758078381737
 30
0.0
 11
190.1600036621094
 21
813.6539916992187
 31
0.0
  0
LWPOLYLINE
  5
12A
330
70
100
AcDbEntity
  8
Camada 1
 62
    18
420
        0
370
    35
100
AcDbPolyline
 90
       12
 70
     0
 43
0.0
 10
261.0260009765625
 20
702.0579833984375
 10
265.6449890136719
 20
702.0579833984375
 10
270.1700134277344
 20
702.0579833984375
 10
274.5090026855469
 20
702.0579833984375
 10
278.572998046875
 20
702.0579833984375
 10
282.281005859375
 20
702.0579833984375
 10
285.5549926757813
 20
702.0579833984375
 10
288.3299865722656
 20
702.0579833984375
 10
290.5499877929687
 20
702.0579833984375
 10
292.1679992675781
 20
702.0579833984375
 10
293.1520080566406
 20
702.0579833984375
 10
293.4830017089844
 20
702.0579833984375
  0
LINE
  5
12B
330
70
100
AcDbEntity
  8
Camada 1
 62
    18
420
        0
370
    35
100
AcDbLine
 10
228.5690002441406
 20
702.0579833984375
 30
0.0
 11
228.5690002441406
 21
695.8740234375
 31
0.0
  0
LINE
  5
12C
330
70
100
AcDbEntity
  8
Camada 1
 62
    18
420
        0
370
    35
100
AcDbLine
 10
293.4830017089844
 20
695.8740234375
 30
0.0
 11
293.4830017089844
 21
702.0579833984375
 31
0.0
  0
LWPOLYLINE
  5
12D
330
70
100
AcDbEntity
  8
Camada 1
 62
    18
420
        0
370
    35
100
AcDbPolyline
 90
       18
 70
     0
 43
0.0
 10
279.4509887695312
 20
600.2050170898437
 10
279.1369934082031
 20
600.2050170898437
 10
278.2070007324219
 20
600.2050170898437
 10
276.6910095214844
 20
600.2050170898437
 10
274.6419982910156
 20
600.2050170898437
 10
272.1300048828125
 20
600.2050170898437
 10
269.239013671875
 20
600.2050170898437
 10
266.0679931640625
 20
600.2050170898437
 10
262.7260131835937
 20
600.2050170898437
 10
259.3259887695313
 20
600.2050170898437
 10
255.9839935302735
 20
600.2050170898437
 10
252.8130035400391
 20
600.2050170898437
 10
249.9219970703125
 20
600.2050170898437
 10
247.4100036621094
 20
600.2050170898437
 10
245.3609924316406
 20
600.2050170898437
 10
243.8450012207031
 20
600.2050170898437
 10
242.9149932861328
 20
600.2050170898437
 10
242.6009979248047
 20
600.2050170898437
  0
LINE
  5
12E
330
70
100
AcDbEntity
  8
Camada 1
 62
    18
420
        0
370
    35
100
AcDbLine
 10
242.6009979248047
 20
667.3839721679687
 30
0.0
 11
242.6009979248047
 21
600.2050170898437
 31
0.0
  0
LINE
  5
12F
330
70
100
AcDbEntity
  8
Camada 1
 62
    18
420
        0
370
    35
100
AcDbLine
 10
279.4509887695312
 20
600.2050170898437
 30
0.0
 11
279.4509887695312
 21
667.3839721679687
 31
0.0
  0
LWPOLYLINE
  5
130
330
70
100
AcDbEntity
  8
Camada 1
 62
    18
420
        0
370
    35
100
AcDbPolyline
 90
       97
 70
     0
 43
0.0
 10
265.2780151367188
 20
773.2930297851562
 10
265.2770080566406
 20
773.2130126953125
 10
265.2760009765625
 20
773.1599731445312
 10
265.2739868164062
 20
773.1069946289062
 10
265.2590026855469
 20
772.89697265625
 10
265.2349853515625
 20
772.6900024414062
 10
265.2000122070313
 20
772.4840087890624
 10
265.1549987792969
 20
772.281005859375
 10
265.1000061035156
 20
772.0800170898437
 10
265.0350036621094
 20
771.8809814453124
 10
265.0180053710938
 20
771.8319702148437
 10
264.9989929199219
 20
771.7830200195312
 10
264.9800109863281
 20
771.7340087890625
 10
264.9599914550781
 20
771.6849975585938
 10
264.9190063476563
 20
771.5880126953124
 10
264.8760070800781
 20
771.4929809570312
 10
264.7829895019531
 20
771.3070068359375
 10
264.6809997558594
 20
771.1270141601562
 10
264.5700073242188
 20
770.9509887695312
 10
264.4500122070312
 20
770.781005859375
 10
264.3869934082031
 20
770.697998046875
 10
264.3219909667969
 20
770.6170043945312
 10
264.2879943847656
 20
770.5759887695312
 10
264.2539978027344
 20
770.5360107421875
 10
264.218994140625
 20
770.4970092773437
 10
264.1839904785156
 20
770.4580078124999
 10
264.0409851074219
 20
770.3070068359375
 10
263.8900146484375
 20
770.1649780273437
 10
263.7330017089844
 20
770.0289916992187
 10
263.5690002441406
 20
769.9019775390625
 10
263.3989868164062
 20
769.7830200195312
 10
263.2219848632812
 20
769.6710205078125
 10
263.1759948730469
 20
769.6439819335937
 10
263.1310119628906
 20
769.6179809570312
 10
263.0849914550781
 20
769.593017578125
 10
263.0390014648437
 20
769.5679931640625
 10
262.9460144042969
 20
769.52001953125
 10
262.8519897460937
 20
769.4749755859374
 10
262.6619873046875
 20
769.3909912109375
 10
262.4679870605469
 20
769.3159790039062
 10
262.2699890136719
 20
769.2509765625
 10
262.0690002441406
 20
769.1959838867187
 10
261.9670104980469
 20
769.1710205078124
 10
261.864013671875
 20
769.1500244140625
 10
261.760009765625
 20
769.1300048828125
 10
261.656005859375
 20
769.1140136718749
 10
261.4469909667969
 20
769.0880126953125
 10
261.2369995117187
 20
769.0729980468749
 10
261.1319885253906
 20
769.0689697265625
 10
261.0270080566406
 20
769.0670166015625
 10
260.9209899902344
 20
769.0689697265625
 10
260.8160095214844
 20
769.072021484375
 10
260.6069946289062
 20
769.0880126953125
 10
260.3999938964844
 20
769.1129760742187
 10
260.1950073242187
 20
769.1480102539062
 10
259.9920043945313
 20
769.1929931640625
 10
259.8900146484375
 20
769.219970703125
 10
259.7900085449219
 20
769.2490234375
 10
259.739990234375
 20
769.2639770507812
 10
259.6900024414062
 20
769.2800292968749
 10
259.6400146484375
 20
769.2969970703125
 10
259.5899963378906
 20
769.3140258789062
 10
259.3940124511719
 20
769.3889770507812
 10
259.2030029296875
 20
769.4730224609375
 10
259.0169982910156
 20
769.5659790039062
 10
258.8359985351563
 20
769.6669921875
 10
258.6600036621094
 20
769.7780151367187
 10
258.489013671875
 20
769.8969726562499
 10
258.4469909667969
 20
769.9290161132812
 10
258.406005859375
 20
769.9609985351562
 10
258.364013671875
 20
769.9929809570313
 10
258.3240051269531
 20
770.0260009765624
 10
258.2430114746094
 20
770.093017578125
 10
258.1650085449219
 20
770.1619873046874
 10
258.0140075683594
 20
770.3049926757812
 10
257.8710021972656
 20
770.4539794921875
 10
257.7349853515625
 20
770.6110229492187
 10
257.6069946289063
 20
770.7739868164062
 10
257.5459899902344
 20
770.8590087890625
 10
257.4869995117187
 20
770.9450073242187
 10
257.4289855957031
 20
771.031982421875
 10
257.3739929199219
 20
771.1220092773437
 10
257.27099609375
 20
771.3029785156249
 10
257.1780090332031
 20
771.489013671875
 10
257.093994140625
 20
771.6790161132812
 10
257.0190124511719
 20
771.8729858398437
 10
256.9540100097656
 20
772.0709838867187
 10
256.8989868164063
 20
772.2730102539062
 10
256.885986328125
 20
772.3239746093749
 10
256.875
 20
772.3759765625
 10
256.864013671875
 20
772.427001953125
 10
256.8529968261719
 20
772.47900390625
 10
256.8340148925781
 20
772.5819702148437
 10
256.8179931640625
 20
772.6849975585937
 10
256.7929992675781
 20
772.8920288085937
 10
256.7789916992187
 20
773.0999755859374
 10
256.7739868164062
 20
773.2990112304687
  0
LWPOLYLINE
  5
131
330
70
100
AcDbEntity
  8
Camada 1
 62
    18
420
        0
370
    35
100
AcDbPolyline
 90
        3
 70
     0
 43
0.0
 10
319.9869995117187
 20
685.2429809570312
 10
319.5859985351563
 20
685.2429809570312
 10
319.4200134277344
 20
685.2429809570312
  0
LWPOLYLINE
  5
132
330
70
100
AcDbEntity
  8
Camada 1
 62
    18
420
        0
370
    35
100
AcDbPolyline
 90
        3
 70
     0
 43
0.0
 10
319.4200134277344
 20
686.6599731445312
 10
319.5859985351563
 20
686.6599731445312
 10
319.9869995117187
 20
686.6599731445312
  0
LINE
  5
133
330
70
100
AcDbEntity
  8
Camada 1
 62
    18
420
        0
370
    35
100
AcDbLine
 10
319.4200134277344
 20
685.2429809570312
 30
0.0
 11
319.4200134277344
 21
686.6599731445312
 31
0.0
  0
LINE
  5
134
330
70
100
AcDbEntity
  8
Camada 1
 62
    18
420
        0
370
    35
100
AcDbLine
 10
320.1279907226563
 20
686.6599731445312
 30
0.0
 11
319.9869995117187
 21
686.6599731445312
 31
0.0
  0
LINE
  5
135
330
70
100
AcDbEntity
  8
Camada 1
 62
    18
420
        0
370
    35
100
AcDbLine
 10
319.9869995117187
 20
686.6599731445312
 30
0.0
 11
319.9869995117187
 21
685.2429809570312
 31
0.0
  0
LINE
  5
136
330
70
100
AcDbEntity
  8
Camada 1
 62
    18
420
        0
370
    35
100
AcDbLine
 10
320.1279907226563
 20
685.2429809570312
 30
0.0
 11
319.9869995117187
 21
685.2429809570312
 31
0.0
  0
LWPOLYLINE
  5
137
330
70
100
AcDbEntity
  8
Camada 1
 62
    18
420
        0
370
    35
100
AcDbPolyline
 90
        3
 70
     0
 43
0.0
 10
424.3020019531249
 20
685.2429809570312
 10
424.135986328125
 20
685.2429809570312
 10
423.7349853515625
 20
685.2429809570312
  0
LWPOLYLINE
  5
138
330
70
100
AcDbEntity
  8
Camada 1
 62
    18
420
        0
370
    35
100
AcDbPolyline
 90
        3
 70
     0
 43
0.0
 10
423.7349853515625
 20
686.6599731445312
 10
424.135986328125
 20
686.6599731445312
 10
424.3020019531249
 20
686.6599731445312
  0
LINE
  5
139
330
70
100
AcDbEntity
  8
Camada 1
 62
    18
420
        0
370
    35
100
AcDbLine
 10
424.3020019531249
 20
686.6599731445312
 30
0.0
 11
424.3020019531249
 21
685.2429809570312
 31
0.0
  0
LINE
  5
13A
330
70
100
AcDbEntity
  8
Camada 1
 62
    18
420
        0
370
    35
100
AcDbLine
 10
423.5929870605469
 20
685.2429809570312
 30
0.0
 11
423.7349853515625
 21
685.2429809570312
 31
0.0
  0
LINE
  5
13B
330
70
100
AcDbEntity
  8
Camada 1
 62
    18
420
        0
370
    35
100
AcDbLine
 10
423.7349853515625
 20
685.2429809570312
 30
0.0
 11
423.7349853515625
 21
686.6599731445312
 31
0.0
  0
LINE
  5
13C
330
70
100
AcDbEntity
  8
Camada 1
 62
    18
420
        0
370
    35
100
AcDbLine
 10
423.5929870605469
 20
686.6599731445312
 30
0.0
 11
423.7349853515625
 21
686.6599731445312
 31
0.0
  0
LINE
  5
13D
330
70
100
AcDbEntity
  8
Camada 1
 62
    18
420
        0
370
    35
100
AcDbLine
 10
326.9320068359375
 20
697.2899780273437
 30
0.0
 11
416.7900085449218
 21
697.2899780273437
 31
0.0
  0
LWPOLYLINE
  5
13E
330
70
100
AcDbEntity
  8
Camada 1
 62
    18
420
        0
370
    35
100
AcDbPolyline
 90
        3
 70
     0
 43
0.0
 10
416.7900085449218
 20
697.2899780273437
 10
417.7919921875
 20
697.2899780273437
 10
418.2070007324218
 20
697.2899780273437
  0
LINE
  5
13F
330
70
100
AcDbEntity
  8
Camada 1
 62
    18
420
        0
370
    35
100
AcDbLine
 10
416.7900085449218
 20
695.8740234375
 30
0.0
 11
416.7900085449218
 21
697.2899780273437
 31
0.0
  0
LINE
  5
140
330
70
100
AcDbEntity
  8
Camada 1
 62
    18
420
        0
370
    35
100
AcDbLine
 10
418.2070007324218
 20
697.2899780273437
 30
0.0
 11
418.2070007324218
 21
695.8740234375
 31
0.0
  0
LWPOLYLINE
  5
141
330
70
100
AcDbEntity
  8
Camada 1
 62
    18
420
        0
370
    35
100
AcDbPolyline
 90
        3
 70
     0
 43
0.0
 10
325.5140075683594
 20
697.2899780273437
 10
325.9289855957031
 20
697.2899780273437
 10
326.9320068359375
 20
697.2899780273437
  0
LINE
  5
142
330
70
100
AcDbEntity
  8
Camada 1
 62
    18
420
        0
370
    35
100
AcDbLine
 10
325.5140075683594
 20
695.8740234375
 30
0.0
 11
325.5140075683594
 21
697.2899780273437
 31
0.0
  0
LINE
  5
143
330
70
100
AcDbEntity
  8
Camada 1
 62
    18
420
        0
370
    35
100
AcDbLine
 10
326.9320068359375
 20
697.2899780273437
 30
0.0
 11
326.9320068359375
 21
695.8740234375
 31
0.0
  0
LWPOLYLINE
  5
144
330
70
100
AcDbEntity
  8
Camada 1
 62
    18
420
        0
370
    35
100
AcDbPolyline
 90
        5
 70
     0
 43
0.0
 10
222.7579956054687
 20
578.802978515625
 10
223.0850067138672
 20
578.802978515625
 10
224.0619964599609
 20
578.802978515625
 10
225.6710052490234
 20
578.802978515625
 10
227.8849945068359
 20
578.802978515625
  0
LWPOLYLINE
  5
145
330
70
100
AcDbEntity
  8
Camada 1
 62
    18
420
        0
370
    35
100
AcDbPolyline
 90
       22
 70
     0
 43
0.0
 10
227.8849945068359
 20
578.802978515625
 10
230.5220031738281
 20
578.802978515625
 10
233.6309967041016
 20
578.802978515625
 10
237.167007446289
 20
578.802978515625
 10
241.0720062255859
 20
578.802978515625
 10
245.2870025634766
 20
578.802978515625
 10
249.7469940185547
 20
578.802978515625
 10
254.3809967041016
 20
578.802978515625
 10
259.1189880371094
 20
578.802978515625
 10
263.885986328125
 20
578.802978515625
 10
268.6090087890625
 20
578.802978515625
 10
273.2139892578125
 20
578.802978515625
 10
277.6300048828125
 20
578.802978515625
 10
281.7890014648437
 20
578.802978515625
 10
285.625
 20
578.802978515625
 10
289.0790100097656
 20
578.802978515625
 10
292.0979919433594
 20
578.802978515625
 10
294.6340026855469
 20
578.802978515625
 10
296.6489868164062
 20
578.802978515625
 10
298.1109924316406
 20
578.802978515625
 10
298.9970092773437
 20
578.802978515625
 10
299.2940063476563
 20
578.802978515625
  0
LWPOLYLINE
  5
146
330
70
100
AcDbEntity
  8
Camada 1
 62
    18
420
        0
370
    35
100
AcDbPolyline
 90
       28
 70
     0
 43
0.0
 10
215.6719970703125
 20
571.7169799804687
 10
215.9779968261719
 20
571.7169799804687
 10
216.8939971923828
 20
571.7169799804687
 10
218.406997680664
 20
571.7169799804687
 10
220.4960021972656
 20
571.7169799804687
 10
223.1329956054687
 20
571.7169799804687
 10
226.2830047607422
 20
571.7169799804687
 10
229.9019927978516
 20
571.7169799804687
 10
233.9420013427734
 20
571.7169799804687
 10
238.3489990234375
 20
571.7169799804687
 10
243.061996459961
 20
571.7169799804687
 10
248.0180053710938
 20
571.7169799804687
 10
253.1499938964844
 20
571.7169799804687
 10
258.3880004882812
 20
571.7169799804687
 10
263.6619873046875
 20
571.7169799804687
 10
268.9010009765625
 20
571.7169799804687
 10
274.0329895019531
 20
571.7169799804687
 10
278.989013671875
 20
571.7169799804687
 10
283.7019958496094
 20
571.7169799804687
 10
288.1080017089844
 20
571.7169799804687
 10
292.1489868164062
 20
571.7169799804687
 10
295.7680053710937
 20
571.7169799804687
 10
298.9179992675781
 20
571.7169799804687
 10
301.5549926757813
 20
571.7169799804687
 10
303.6440124511719
 20
571.7169799804687
 10
305.1570129394531
 20
571.7169799804687
 10
306.072998046875
 20
571.7169799804687
 10
306.3800048828125
 20
571.7169799804687
  0
LINE
  5
147
330
70
100
AcDbEntity
  8
Camada 1
 62
    18
420
        0
370
    35
100
AcDbLine
 10
215.6719970703125
 20
571.7169799804687
 30
0.0
 11
215.6719970703125
 21
347.7799987792969
 31
0.0
  0
LINE
  5
148
330
70
100
AcDbEntity
  8
Camada 1
 62
    18
420
        0
370
    35
100
AcDbLine
 10
306.3800048828125
 20
347.7799987792969
 30
0.0
 11
306.3800048828125
 21
571.7169799804687
 31
0.0
  0
LWPOLYLINE
  5
149
330
70
100
AcDbEntity
  8
Camada 1
 62
    18
420
        0
370
    35
100
AcDbPolyline
 90
       22
 70
     0
 43
0.0
 10
299.2940063476563
 20
340.6929931640625
 10
298.9970092773437
 20
340.6929931640625
 10
298.1109924316406
 20
340.6929931640625
 10
296.6489868164062
 20
340.6929931640625
 10
294.6340026855469
 20
340.6929931640625
 10
292.0979919433594
 20
340.6929931640625
 10
289.0790100097656
 20
340.6929931640625
 10
285.625
 20
340.6929931640625
 10
281.7890014648437
 20
340.6929931640625
 10
277.6300048828125
 20
340.6929931640625
 10
273.2139892578125
 20
340.6929931640625
 10
268.6090087890625
 20
340.6929931640625
 10
263.885986328125
 20
340.6929931640625
 10
259.1189880371094
 20
340.6929931640625
 10
254.3809967041016
 20
340.6929931640625
 10
249.7469940185547
 20
340.6929931640625
 10
245.2870025634766
 20
340.6929931640625
 10
241.0720062255859
 20
340.6929931640625
 10
237.167007446289
 20
340.6929931640625
 10
233.6309967041016
 20
340.6929931640625
 10
230.5220031738281
 20
340.6929931640625
 10
227.8849945068359
 20
340.6929931640625
  0
LWPOLYLINE
  5
14A
330
70
100
AcDbEntity
  8
Camada 1
 62
    18
420
        0
370
    35
100
AcDbPolyline
 90
        5
 70
     0
 43
0.0
 10
227.8849945068359
 20
340.6929931640625
 10
225.6710052490234
 20
340.6929931640625
 10
224.0619964599609
 20
340.6929931640625
 10
223.0850067138672
 20
340.6929931640625
 10
222.7579956054687
 20
340.6929931640625
  0
LWPOLYLINE
  5
14B
330
70
100
AcDbEntity
  8
Camada 1
 62
    18
420
        0
370
    35
100
AcDbPolyline
 90
       24
 70
     0
 43
0.0
 10
306.3800048828125
 20
347.7799987792969
 10
306.0870056152344
 20
347.7799987792969
 10
305.2099914550781
 20
347.7799987792969
 10
303.7619934082031
 20
347.7799987792969
 10
301.760986328125
 20
347.7799987792969
 10
299.2319946289062
 20
347.7799987792969
 10
296.2090148925781
 20
347.7799987792969
 10
292.7300109863281
 20
347.7799987792969
 10
288.8410034179687
 20
347.7799987792969
 10
284.5920104980469
 20
347.7799987792969
 10
280.0379943847656
 20
347.7799987792969
 10
275.2380065917969
 20
347.7799987792969
 10
270.2539978027344
 20
347.7799987792969
 10
265.1510009765625
 20
347.7799987792969
 10
259.9939880371094
 20
347.7799987792969
 10
254.8509979248047
 20
347.7799987792969
 10
249.7870025634766
 20
347.7799987792969
 10
244.8690032958984
 20
347.7799987792969
 10
240.1600036621094
 20
347.7799987792969
 10
235.7209930419922
 20
347.7799987792969
 10
231.6100006103515
 20
347.7799987792969
 10
227.8789978027344
 20
347.7799987792969
 10
224.5780029296875
 20
347.7799987792969
 10
221.7480010986328
 20
347.7799987792969
  0
LWPOLYLINE
  5
14C
330
70
100
AcDbEntity
  8
Camada 1
 62
    18
420
        0
370
    35
100
AcDbPolyline
 90
        5
 70
     0
 43
0.0
 10
221.7480010986328
 20
347.7799987792969
 10
219.1239929199219
 20
347.7799987792969
 10
217.2169952392578
 20
347.7799987792969
 10
216.0590057373047
 20
347.7799987792969
 10
215.6719970703125
 20
347.7799987792969
  0
LINE
  5
14D
330
70
100
AcDbEntity
  8
Camada 1
 62
    18
420
        0
370
    35
100
AcDbLine
 10
228.0019989013672
 20
683.4019775390625
 30
0.0
 11
228.0019989013672
 21
667.1019897460937
 31
0.0
  0
LINE
  5
14E
330
70
100
AcDbEntity
  8
Camada 1
 62
    18
420
        0
370
    35
100
AcDbLine
 10
238.3979949951172
 20
665.6849975585937
 30
0.0
 11
229.4499969482422
 21
665.6849975585937
 31
0.0
  0
LWPOLYLINE
  5
14F
330
70
100
AcDbEntity
  8
Camada 1
 62
    18
420
        0
370
    35
100
AcDbPolyline
 90
        3
 70
     0
 43
0.0
 10
238.3979949951172
 20
665.6849975585937
 10
239.4750061035156
 20
666.1820068359375
 10
239.7960052490234
 20
667.3250122070312
  0
LINE
  5
150
330
70
100
AcDbEntity
  8
Camada 1
 62
    18
420
        0
370
    35
100
AcDbLine
 10
239.7859954833984
 20
667.385986328125
 30
0.0
 11
239.7960052490234
 21
667.3250122070312
 31
0.0
  0
LINE
  5
151
330
70
100
AcDbEntity
  8
Camada 1
 62
    18
420
        0
370
    35
100
AcDbLine
 10
228.0339965820313
 20
667.1019897460937
 30
0.0
 11
228.0339965820313
 21
683.4019775390625
 31
0.0
  0
LWPOLYLINE
  5
152
330
70
100
AcDbEntity
  8
Camada 1
 62
    18
420
        0
370
    35
100
AcDbPolyline
 90
        3
 70
     0
 43
0.0
 10
228.0019989013672
 20
667.1019897460937
 10
228.0099945068359
 20
667.1019897460937
 10
228.0339965820313
 20
667.1019897460937
  0
LWPOLYLINE
  5
153
330
70
100
AcDbEntity
  8
Camada 1
 62
    18
420
        0
370
    35
100
AcDbPolyline
 90
        3
 70
     0
 43
0.0
 10
229.4199981689453
 20
665.6849975585937
 10
229.427001953125
 20
665.6849975585937
 10
229.4499969482422
 20
665.6849975585937
  0
LWPOLYLINE
  5
154
330
70
100
AcDbEntity
  8
Camada 1
 62
    18
420
        0
370
    35
100
AcDbPolyline
 90
        3
 70
     0
 43
0.0
 10
228.0339965820313
 20
667.1019897460937
 10
228.4490051269531
 20
666.0999755859375
 10
229.4499969482422
 20
665.6849975585937
  0
LINE
  5
155
330
70
100
AcDbEntity
  8
Camada 1
 62
    18
420
        0
370
    35
100
AcDbLine
 10
294.0499877929688
 20
667.1019897460937
 30
0.0
 11
294.0499877929688
 21
683.4019775390625
 31
0.0
  0
LWPOLYLINE
  5
156
330
70
100
AcDbEntity
  8
Camada 1
 62
    18
420
        0
370
    35
100
AcDbPolyline
 90
        3
 70
     0
 43
0.0
 10
294.0180053710938
 20
667.1019897460937
 10
294.0419921875
 20
667.1019897460937
 10
294.0499877929688
 20
667.1019897460937
  0
LWPOLYLINE
  5
157
330
70
100
AcDbEntity
  8
Camada 1
 62
    18
420
        0
370
    35
100
AcDbPolyline
 90
        3
 70
     0
 43
0.0
 10
292.6019897460938
 20
665.6849975585937
 10
292.625
 20
665.6849975585937
 10
292.6319885253906
 20
665.6849975585937
  0
LINE
  5
158
330
70
100
AcDbEntity
  8
Camada 1
 62
    18
420
        0
370
    35
100
AcDbLine
 10
283.6539916992188
 20
665.6849975585937
 30
0.0
 11
292.6019897460938
 21
665.6849975585937
 31
0.0
  0
LWPOLYLINE
  5
159
330
70
100
AcDbEntity
  8
Camada 1
 62
    18
420
        0
370
    35
100
AcDbPolyline
 90
        3
 70
     0
 43
0.0
 10
292.6019897460938
 20
665.6849975585937
 10
293.6029968261719
 20
666.0999755859375
 10
294.0180053710938
 20
667.1019897460937
  0
LINE
  5
15A
330
70
100
AcDbEntity
  8
Camada 1
 62
    18
420
        0
370
    35
100
AcDbLine
 10
294.0180053710938
 20
667.1019897460937
 30
0.0
 11
294.0180053710938
 21
683.4019775390625
 31
0.0
  0
LINE
  5
15B
330
70
100
AcDbEntity
  8
Camada 1
 62
    18
420
        0
370
    35
100
AcDbLine
 10
282.2659912109375
 20
667.385986328125
 30
0.0
 11
282.2560119628906
 21
667.3250122070312
 31
0.0
  0
LWPOLYLINE
  5
15C
330
70
100
AcDbEntity
  8
Camada 1
 62
    18
420
        0
370
    35
100
AcDbPolyline
 90
        3
 70
     0
 43
0.0
 10
282.2560119628906
 20
667.3250122070312
 10
282.5769958496094
 20
666.1820068359375
 10
283.6539916992188
 20
665.6849975585937
  0
LWPOLYLINE
  5
15D
330
70
100
AcDbEntity
  8
Camada 1
 62
    18
420
        0
370
    35
100
AcDbPolyline
 90
        9
 70
     0
 43
0.0
 10
259.5849914550781
 20
667.385986328125
 10
255.7610015869141
 20
667.385986328125
 10
252.1119995117187
 20
667.385986328125
 10
248.7590026855469
 20
667.385986328125
 10
245.8119964599609
 20
667.385986328125
 10
243.3710021972656
 20
667.385986328125
 10
241.5149993896484
 20
667.385986328125
 10
240.3070068359375
 20
667.385986328125
 10
239.7859954833984
 20
667.385986328125
  0
LINE
  5
15E
330
70
100
AcDbEntity
  8
Camada 1
 62
    18
420
        0
370
    35
100
AcDbLine
 10
239.7859954833984
 20
667.385986328125
 30
0.0
 11
237.2380065917969
 21
683.4019775390625
 31
0.0
  0
LWPOLYLINE
  5
15F
330
70
100
AcDbEntity
  8
Camada 1
 62
    18
420
        0
370
    35
100
AcDbPolyline
 90
        9
 70
     0
 43
0.0
 10
282.2659912109375
 20
667.385986328125
 10
281.7449951171875
 20
667.385986328125
 10
280.5369873046875
 20
667.385986328125
 10
278.6809997558594
 20
667.385986328125
 10
276.239990234375
 20
667.385986328125
 10
273.2929992675781
 20
667.385986328125
 10
269.9400024414063
 20
667.385986328125
 10
266.2900085449219
 20
667.385986328125
 10
262.4670104980469
 20
667.385986328125
  0
LINE
  5
160
330
70
100
AcDbEntity
  8
Camada 1
 62
    18
420
        0
370
    35
100
AcDbLine
 10
282.2659912109375
 20
667.385986328125
 30
0.0
 11
284.8139953613281
 21
683.4019775390625
 31
0.0
  0
LWPOLYLINE
  5
161
330
70
100
AcDbEntity
  8
Camada 1
 62
    18
420
        0
370
    35
100
AcDbPolyline
 90
        3
 70
     0
 43
0.0
 10
259.6470031738281
 20
665.6849975585937
 10
259.60400390625
 20
666.0999755859375
 10
259.5859985351562
 20
667.1019897460937
  0
LWPOLYLINE
  5
162
330
70
100
AcDbEntity
  8
Camada 1
 62
    18
420
        0
370
    35
100
AcDbPolyline
 90
        3
 70
     0
 43
0.0
 10
259.6470031738281
 20
665.6849975585937
 10
261.0260009765625
 20
665.6849975585937
 10
262.4049987792969
 20
665.6849975585937
  0
LWPOLYLINE
  5
163
330
70
100
AcDbEntity
  8
Camada 1
 62
    18
420
        0
370
    35
100
AcDbPolyline
 90
        3
 70
     0
 43
0.0
 10
262.4660034179687
 20
667.1019897460937
 10
262.447998046875
 20
666.0999755859375
 10
262.4049987792969
 20
665.6849975585937
  0
LINE
  5
164
330
70
100
AcDbEntity
  8
Camada 1
 62
    18
420
        0
370
    35
100
AcDbLine
 10
262.4660034179687
 20
667.1019897460937
 30
0.0
 11
262.4660034179687
 21
683.4019775390625
 31
0.0
  0
LINE
  5
165
330
70
100
AcDbEntity
  8
Camada 1
 62
    18
420
        0
370
    35
100
AcDbLine
 10
259.5859985351562
 20
667.1019897460937
 30
0.0
 11
259.5859985351562
 21
683.4019775390625
 31
0.0
  0
LWPOLYLINE
  5
166
330
70
100
AcDbEntity
  8
Camada 1
 62
    18
420
        0
370
    35
100
AcDbPolyline
 90
        3
 70
     0
 43
0.0
 10
259.5859985351562
 20
667.1019897460937
 10
261.0260009765625
 20
667.1019897460937
 10
262.4660034179687
 20
667.1019897460937
  0
LWPOLYLINE
  5
167
330
70
100
AcDbEntity
  8
Camada 1
 62
    18
420
        0
370
    35
100
AcDbPolyline
 90
       13
 70
     0
 43
0.0
 10
226.3719940185547
 20
688.3619995117187
 10
226.6690063476563
 20
688.3619995117187
 10
227.5529937744141
 20
688.3619995117187
 10
229.0099945068359
 20
688.3619995117187
 10
231.0149993896484
 20
688.3619995117187
 10
233.5330047607422
 20
688.3619995117187
 10
236.5220031738281
 20
688.3619995117187
 10
239.9299926757812
 20
688.3619995117187
 10
243.6990051269531
 20
688.3619995117187
 10
247.7649993896484
 20
688.3619995117187
 10
252.0570068359375
 20
688.3619995117187
 10
256.5029907226563
 20
688.3619995117187
 10
261.0260009765625
 20
688.3619995117187
  0
LWPOLYLINE
  5
168
330
70
100
AcDbEntity
  8
Camada 1
 62
    18
420
        0
370
    35
100
AcDbPolyline
 90
       13
 70
     0
 43
0.0
 10
261.0260009765625
 20
688.3619995117187
 10
265.5490112304688
 20
688.3619995117187
 10
269.9949951171875
 20
688.3619995117187
 10
274.2869873046875
 20
688.3619995117187
 10
278.3529968261719
 20
688.3619995117187
 10
282.1220092773438
 20
688.3619995117187
 10
285.5299987792969
 20
688.3619995117187
 10
288.5190124511719
 20
688.3619995117187
 10
291.0369873046875
 20
688.3619995117187
 10
293.0419921875
 20
688.3619995117187
 10
294.4989929199219
 20
688.3619995117187
 10
295.3829956054688
 20
688.3619995117187
 10
295.6799926757812
 20
688.3619995117187
  0
LWPOLYLINE
  5
169
330
70
100
AcDbEntity
  8
Camada 1
 62
    18
420
        0
370
    35
100
AcDbPolyline
 90
       13
 70
     0
 43
0.0
 10
225.6640014648437
 20
687.6539916992187
 10
225.9660034179688
 20
687.6539916992187
 10
226.8690032958984
 20
687.6539916992187
 10
228.3560028076172
 20
687.6539916992187
 10
230.4010009765625
 20
687.6539916992187
 10
232.9709930419922
 20
687.6539916992187
 10
236.02099609375
 20
687.6539916992187
 10
239.4989929199219
 20
687.6539916992187
 10
243.3450012207031
 20
687.6539916992187
 10
247.4929962158203
 20
687.6539916992187
 10
251.8739929199219
 20
687.6539916992187
 10
256.4100036621094
 20
687.6539916992187
 10
261.0260009765625
 20
687.6539916992187
  0
LWPOLYLINE
  5
16A
330
70
100
AcDbEntity
  8
Camada 1
 62
    18
420
        0
370
    35
100
AcDbPolyline
 90
       13
 70
     0
 43
0.0
 10
261.0260009765625
 20
687.6539916992187
 10
265.6419982910156
 20
687.6539916992187
 10
270.1780090332031
 20
687.6539916992187
 10
274.5589904785156
 20
687.6539916992187
 10
278.7070007324219
 20
687.6539916992187
 10
282.5530090332031
 20
687.6539916992187
 10
286.031005859375
 20
687.6539916992187
 10
289.0809936523437
 20
687.6539916992187
 10
291.6510009765625
 20
687.6539916992187
 10
293.6960144042969
 20
687.6539916992187
 10
295.1830139160156
 20
687.6539916992187
 10
296.0859985351563
 20
687.6539916992187
 10
296.3880004882812
 20
687.6539916992187
  0
LINE
  5
16B
330
70
100
AcDbEntity
  8
Camada 1
 62
    18
420
        0
370
    35
100
AcDbLine
 10
296.3880004882812
 20
684.8189697265625
 30
0.0
 11
296.3880004882812
 21
687.6539916992187
 31
0.0
  0
LINE
  5
16C
330
70
100
AcDbEntity
  8
Camada 1
 62
    18
420
        0
370
    35
100
AcDbLine
 10
225.6640014648437
 20
687.6539916992187
 30
0.0
 11
225.6640014648437
 21
684.8189697265625
 31
0.0
  0
LWPOLYLINE
  5
16D
330
70
100
AcDbEntity
  8
Camada 1
 62
    18
420
        0
370
    35
100
AcDbPolyline
 90
       13
 70
     0
 43
0.0
 10
227.0809936523438
 20
683.4019775390625
 10
227.3719940185547
 20
683.4019775390625
 10
228.2380065917969
 20
683.4019775390625
 10
229.6649932861328
 20
683.4019775390625
 10
231.6289978027344
 20
683.4019775390625
 10
234.0959930419922
 20
683.4019775390625
 10
237.0229949951172
 20
683.4019775390625
 10
240.3619995117188
 20
683.4019775390625
 10
244.0540008544922
 20
683.4019775390625
 10
248.0359954833984
 20
683.4019775390625
 10
252.2400054931641
 20
683.4019775390625
 10
256.5950012207031
 20
683.4019775390625
 10
261.0260009765625
 20
683.4019775390625
  0
LWPOLYLINE
  5
16E
330
70
100
AcDbEntity
  8
Camada 1
 62
    18
420
        0
370
    35
100
AcDbPolyline
 90
       13
 70
     0
 43
0.0
 10
261.0260009765625
 20
683.4019775390625
 10
265.4570007324219
 20
683.4019775390625
 10
269.81201171875
 20
683.4019775390625
 10
274.0159912109375
 20
683.4019775390625
 10
277.9979858398438
 20
683.4019775390625
 10
281.6900024414063
 20
683.4019775390625
 10
285.0289916992188
 20
683.4019775390625
 10
287.9559936523437
 20
683.4019775390625
 10
290.4230041503906
 20
683.4019775390625
 10
292.3869934082031
 20
683.4019775390625
 10
293.8139953613281
 20
683.4019775390625
 10
294.6799926757813
 20
683.4019775390625
 10
294.9710083007813
 20
683.4019775390625
  0
LWPOLYLINE
  5
16F
330
70
100
AcDbEntity
  8
Camada 1
 62
    18
420
        0
370
    35
100
AcDbPolyline
 90
       25
 70
     0
 43
0.0
 10
225.6640014648437
 20
684.8189697265625
 10
225.9660034179688
 20
684.8189697265625
 10
226.8690032958984
 20
684.8189697265625
 10
228.3560028076172
 20
684.8189697265625
 10
230.4010009765625
 20
684.8189697265625
 10
232.9709930419922
 20
684.8189697265625
 10
236.02099609375
 20
684.8189697265625
 10
239.4989929199219
 20
684.8189697265625
 10
243.3450012207031
 20
684.8189697265625
 10
247.4929962158203
 20
684.8189697265625
 10
251.8739929199219
 20
684.8189697265625
 10
256.4100036621094
 20
684.8189697265625
 10
261.0260009765625
 20
684.8189697265625
 10
265.6419982910156
 20
684.8189697265625
 10
270.1780090332031
 20
684.8189697265625
 10
274.5589904785156
 20
684.8189697265625
 10
278.7070007324219
 20
684.8189697265625
 10
282.5530090332031
 20
684.8189697265625
 10
286.031005859375
 20
684.8189697265625
 10
289.0809936523437
 20
684.8189697265625
 10
291.6510009765625
 20
684.8189697265625
 10
293.6960144042969
 20
684.8189697265625
 10
295.1830139160156
 20
684.8189697265625
 10
296.0859985351563
 20
684.8189697265625
 10
296.3880004882812
 20
684.8189697265625
  0
LWPOLYLINE
  5
170
330
70
100
AcDbEntity
  8
Camada 1
 62
    18
420
        0
370
    35
100
AcDbPolyline
 90
        9
 70
     0
 43
0.0
 10
265.2839965820312
 20
774.1339721679687
 10
265.3080139160156
 20
774.0349731445312
 10
265.3200073242187
 20
773.9819946289062
 10
265.3309936523438
 20
773.9290161132812
 10
265.3689880371094
 20
773.7160034179687
 10
265.39599609375
 20
773.5020141601562
 10
265.4129943847656
 20
773.2880249023438
 10
265.4200134277344
 20
773.072021484375
 10
265.4200134277344
 20
773.0440063476562
  0
LWPOLYLINE
  5
171
330
70
100
AcDbEntity
  8
Camada 1
 62
    18
420
        0
370
    35
100
AcDbPolyline
 90
       11
 70
     0
 43
0.0
 10
256.6319885253906
 20
773.051025390625
 10
256.6319885253906
 20
773.0640258789062
 10
256.6380004882812
 20
773.281005859375
 10
256.6549987792969
 20
773.4970092773437
 10
256.6610107421875
 20
773.552001953125
 10
256.6679992675781
 20
773.6060180664062
 10
256.6749877929687
 20
773.6599731445312
 10
256.6830139160156
 20
773.7139892578125
 10
256.7000122070313
 20
773.8200073242187
 10
256.7210083007812
 20
773.9270019531249
 10
256.7250061035156
 20
773.9500122070312
  0
LWPOLYLINE
  5
172
330
70
100
AcDbEntity
  8
Camada 1
 62
    18
420
        0
370
    35
100
AcDbPolyline
 90
       54
 70
     0
 43
0.0
 10
256.7669982910156
 20
774.1829833984374
 10
256.7439880371094
 20
774.0850219726562
 10
256.7319946289063
 20
774.031982421875
 10
256.7210083007812
 20
773.97900390625
 10
256.6830139160156
 20
773.7659912109375
 10
256.656005859375
 20
773.552001953125
 10
256.6390075683594
 20
773.3369750976562
 10
256.6319885253906
 20
773.1220092773437
 10
256.635986328125
 20
772.9060058593749
 10
256.6510009765625
 20
772.6890258789063
 10
256.6570129394531
 20
772.635009765625
 10
256.6629943847656
 20
772.5809936523437
 10
256.6690063476563
 20
772.5269775390625
 10
256.677001953125
 20
772.4730224609374
 10
256.6929931640625
 20
772.3660278320312
 10
256.7130126953125
 20
772.2589721679687
 10
256.7590026855469
 20
772.0490112304688
 10
256.8150024414062
 20
771.8410034179687
 10
256.8819885253906
 20
771.6370239257813
 10
256.9590148925781
 20
771.4349975585937
 10
257.0010070800781
 20
771.3350219726562
 10
257.0459899902344
 20
771.2360229492187
 10
257.093994140625
 20
771.1380004882812
 10
257.1430053710937
 20
771.0419921875
 10
257.2489929199219
 20
770.85498046875
 10
257.364013671875
 20
770.6729736328124
 10
257.4869995117187
 20
770.4970092773437
 10
257.6189880371094
 20
770.3280029296875
 10
257.6889953613281
 20
770.2459716796875
 10
257.760009765625
 20
770.1649780273437
 10
257.7969970703125
 20
770.1249999999999
 10
257.8340148925781
 20
770.0850219726562
 10
257.8720092773437
 20
770.0460205078124
 10
257.9100036621094
 20
770.0079956054687
 10
258.0660095214844
 20
769.8590087890624
 10
258.22900390625
 20
769.718994140625
 10
258.3989868164063
 20
769.5869750976562
 10
258.5740051269531
 20
769.4639892578124
 10
258.7560119628906
 20
769.3489990234374
 10
258.9440002441406
 20
769.2429809570312
 10
259.0409851074219
 20
769.1929931640625
 10
259.1390075683594
 20
769.14501953125
 10
259.2369995117187
 20
769.0999755859374
 10
259.3370056152344
 20
769.0579833984375
 10
259.5379943847656
 20
768.9810180664062
 10
259.7420043945312
 20
768.9140014648438
 10
259.9490051269531
 20
768.8569946289062
 10
260.1600036621094
 20
768.8090209960937
 10
260.2669982910156
 20
768.7899780273437
 10
260.3739929199219
 20
768.77197265625
 10
260.4819946289063
 20
768.7579956054687
 10
260.5899963378906
 20
768.7459716796874
 10
260.8080139160156
 20
768.7290039062499
 10
261.0260009765625
 20
768.7239990234375
  0
LWPOLYLINE
  5
173
330
70
100
AcDbEntity
  8
Camada 1
 62
    18
420
        0
370
    35
100
AcDbPolyline
 90
       56
 70
     0
 43
0.0
 10
261.0260009765625
 20
768.7239990234375
 10
261.2439880371094
 20
768.7290039062499
 10
261.4590148925781
 20
768.7449951171875
 10
261.6730041503906
 20
768.77197265625
 10
261.885009765625
 20
768.8079833984375
 10
262.0960083007812
 20
768.8549804687499
 10
262.3039855957031
 20
768.9119873046875
 10
262.3559875488281
 20
768.927978515625
 10
262.4079895019531
 20
768.9450073242187
 10
262.4599914550781
 20
768.9619750976562
 10
262.510986328125
 20
768.97998046875
 10
262.6130065917969
 20
769.0170288085937
 10
262.7139892578125
 20
769.0570068359375
 10
262.9110107421875
 20
769.1439819335937
 10
263.1029968261719
 20
769.2399902343749
 10
263.2900085449219
 20
769.3460083007813
 10
263.4719848632812
 20
769.4600219726562
 10
263.5610046386719
 20
769.52099609375
 10
263.6489868164062
 20
769.5839843749999
 10
263.6919860839844
 20
769.6160278320312
 10
263.7349853515625
 20
769.6489868164062
 10
263.7780151367187
 20
769.6829833984375
 10
263.8200073242188
 20
769.7169799804687
 10
263.9840087890625
 20
769.8579711914062
 10
264.1400146484375
 20
770.0050048828125
 10
264.2879943847656
 20
770.1599731445313
 10
264.4280090332031
 20
770.322998046875
 10
264.5599975585938
 20
770.4920043945312
 10
264.6849975585937
 20
770.6680297851562
 10
264.7439880371094
 20
770.7589721679688
 10
264.8009948730469
 20
770.8519897460937
 10
264.8550109863281
 20
770.9450073242187
 10
264.9070129394531
 20
771.0399780273437
 10
265.0039978027344
 20
771.2319946289063
 10
265.0899963378906
 20
771.4290161132812
 10
265.1669921875
 20
771.6290283203124
 10
265.2340087890625
 20
771.8339843749999
 10
265.2640075683594
 20
771.93798828125
 10
265.2919921875
 20
772.0430297851562
 10
265.3039855957031
 20
772.0960083007812
 10
265.3169860839844
 20
772.1500244140624
 10
265.3280029296875
 20
772.2030029296875
 10
265.3389892578125
 20
772.2559814453124
 10
265.375
 20
772.4699707031249
 10
265.3999938964844
 20
772.6840209960937
 10
265.4150085449219
 20
772.8989868164062
 10
265.4200134277344
 20
773.114013671875
 10
265.4140014648437
 20
773.3309936523437
 10
265.3970031738281
 20
773.5469970703125
 10
265.3909912109375
 20
773.6019897460937
 10
265.3840026855469
 20
773.656005859375
 10
265.3770141601563
 20
773.7100219726563
 10
265.3689880371094
 20
773.7630004882812
 10
265.3519897460938
 20
773.8699951171875
 10
265.3309936523438
 20
773.9760131835937
 10
265.3269958496094
 20
774.0009765625
  0
LWPOLYLINE
  5
174
330
70
100
AcDbEntity
  8
Camada 1
 62
    18
420
        0
370
    35
100
AcDbPolyline
 90
       20
 70
     0
 43
0.0
 10
282.6400146484375
 20
736.2680053710938
 10
282.3450012207031
 20
736.2680053710938
 10
281.468994140625
 20
736.2680053710938
 10
280.0350036621093
 20
736.2680053710938
 10
278.0830078125
 20
736.2680053710938
 10
275.6650085449219
 20
736.2680053710938
 10
272.8479919433594
 20
736.2680053710938
 10
269.7080078125
 20
736.2680053710938
 10
266.3320007324219
 20
736.2680053710938
 10
262.8110046386719
 20
736.2680053710938
 10
259.2409973144531
 20
736.2680053710938
 10
255.7200012207031
 20
736.2680053710938
 10
252.343994140625
 20
736.2680053710938
 10
249.2039947509766
 20
736.2680053710938
 10
246.3869934082031
 20
736.2680053710938
 10
243.968994140625
 20
736.2680053710938
 10
242.0169982910156
 20
736.2680053710938
 10
240.5829925537109
 20
736.2680053710938
 10
239.7070007324219
 20
736.2680053710938
 10
239.4120025634766
 20
736.2680053710938
  0
LINE
  5
175
330
70
100
AcDbEntity
  8
Camada 1
 62
    18
420
        0
370
    35
100
AcDbLine
 10
282.6400146484375
 20
736.2680053710938
 30
0.0
 11
282.6400146484375
 21
787.4329833984375
 31
0.0
  0
LINE
  5
176
330
70
100
AcDbEntity
  8
Camada 1
 62
    18
420
        0
370
    35
100
AcDbLine
 10
239.4120025634766
 20
787.4329833984375
 30
0.0
 11
239.4120025634766
 21
736.2680053710938
 31
0.0
  0
LWPOLYLINE
  5
177
330
70
100
AcDbEntity
  8
Camada 1
 62
    18
420
        0
370
    35
100
AcDbPolyline
 90
       10
 70
     0
 43
0.0
 10
239.4120025634766
 20
787.4329833984375
 10
239.7400054931641
 20
787.4329833984375
 10
240.7149963378906
 20
787.4329833984375
 10
242.3079986572266
 20
787.4329833984375
 10
244.468994140625
 20
787.4329833984375
 10
247.1329956054688
 20
787.4329833984375
 10
250.218994140625
 20
787.4329833984375
 10
253.6340026855469
 20
787.4329833984375
 10
257.2730102539062
 20
787.4329833984375
 10
261.0260009765625
 20
787.4329833984375
  0
LWPOLYLINE
  5
178
330
70
100
AcDbEntity
  8
Camada 1
 62
    18
420
        0
370
    35
100
AcDbPolyline
 90
       10
 70
     0
 43
0.0
 10
261.0260009765625
 20
787.4329833984375
 10
264.7789916992187
 20
787.4329833984375
 10
268.4179992675781
 20
787.4329833984375
 10
271.8330078125
 20
787.4329833984375
 10
274.9190063476563
 20
787.4329833984375
 10
277.5830078125
 20
787.4329833984375
 10
279.7439880371094
 20
787.4329833984375
 10
281.3370056152344
 20
787.4329833984375
 10
282.31201171875
 20
787.4329833984375
 10
282.6400146484375
 20
787.4329833984375
  0
LWPOLYLINE
  5
179
330
70
100
AcDbEntity
  8
Camada 1
 62
    18
420
        0
370
    35
100
AcDbPolyline
 90
       10
 70
     0
 43
0.0
 10
240.1199951171875
 20
788.1420288085937
 10
240.4380035400391
 20
788.1420288085937
 10
241.3809967041016
 20
788.1420288085937
 10
242.9210052490234
 20
788.1420288085937
 10
245.0110015869141
 20
788.1420288085937
 10
247.5879974365234
 20
788.1420288085937
 10
250.572998046875
 20
788.1420288085937
 10
253.8760070800781
 20
788.1420288085937
 10
257.39599609375
 20
788.1420288085937
 10
261.0260009765625
 20
788.1420288085937
  0
LWPOLYLINE
  5
17A
330
70
100
AcDbEntity
  8
Camada 1
 62
    18
420
        0
370
    35
100
AcDbPolyline
 90
       10
 70
     0
 43
0.0
 10
261.0260009765625
 20
788.1420288085937
 10
264.656005859375
 20
788.1420288085937
 10
268.1759948730469
 20
788.1420288085937
 10
271.47900390625
 20
788.1420288085937
 10
274.4639892578125
 20
788.1420288085937
 10
277.0409851074219
 20
788.1420288085937
 10
279.1310119628906
 20
788.1420288085937
 10
280.6709899902344
 20
788.1420288085937
 10
281.614013671875
 20
788.1420288085937
 10
281.9320068359375
 20
788.1420288085937
  0
LWPOLYLINE
  5
17B
330
70
100
AcDbEntity
  8
Camada 1
 62
    18
420
        0
370
    35
100
AcDbPolyline
 90
       24
 70
     0
 43
0.0
 10
228.9239959716797
 20
693.6060180664062
 10
229.2230072021484
 20
693.6060180664062
 10
230.1139984130859
 20
693.6060180664062
 10
231.5809936523438
 20
693.6060180664062
 10
233.5970001220703
 20
693.6060180664062
 10
236.1239929199219
 20
693.6060180664062
 10
239.1139984130859
 20
693.6060180664062
 10
242.5130004882813
 20
693.6060180664062
 10
246.2570037841797
 20
693.6060180664062
 10
250.2760009765625
 20
693.6060180664062
 10
254.4949951171875
 20
693.6060180664062
 10
258.8349914550781
 20
693.6060180664062
 10
263.2170104980469
 20
693.6060180664062
 10
267.5570068359375
 20
693.6060180664062
 10
271.7760009765625
 20
693.6060180664062
 10
275.7950134277344
 20
693.6060180664062
 10
279.5390014648437
 20
693.6060180664062
 10
282.93798828125
 20
693.6060180664062
 10
285.9280090332031
 20
693.6060180664062
 10
288.4549865722656
 20
693.6060180664062
 10
290.4710083007813
 20
693.6060180664062
 10
291.93798828125
 20
693.6060180664062
 10
292.8290100097656
 20
693.6060180664062
 10
293.1279907226563
 20
693.6060180664062
  0
LINE
  5
17C
330
70
100
AcDbEntity
  8
Camada 1
 62
    18
420
        0
370
    35
100
AcDbLine
 10
293.1279907226563
 20
688.3619995117187
 30
0.0
 11
293.1279907226563
 21
693.6060180664062
 31
0.0
  0
LINE
  5
17D
330
70
100
AcDbEntity
  8
Camada 1
 62
    18
420
        0
370
    35
100
AcDbLine
 10
228.9239959716797
 20
693.6060180664062
 30
0.0
 11
228.9239959716797
 21
688.3619995117187
 31
0.0
  0
LWPOLYLINE
  5
17E
330
70
100
AcDbEntity
  8
Camada 1
 62
    18
420
        0
370
    35
100
AcDbPolyline
 90
        5
 70
     0
 43
0.0
 10
453.7820129394531
 20
695.8740234375
 10
455.4089965820312
 20
695.8740234375
 10
456.7890014648437
 20
695.8740234375
 10
457.7099914550781
 20
695.8740234375
 10
458.0339965820312
 20
695.8740234375
  0
LWPOLYLINE
  5
17F
330
70
100
AcDbEntity
  8
Camada 1
 62
    18
420
        0
370
    35
100
AcDbPolyline
 90
        5
 70
     0
 43
0.0
 10
458.0339965820312
 20
694.4569702148437
 10
457.7099914550781
 20
694.4569702148437
 10
456.7890014648437
 20
694.4569702148437
 10
455.4089965820312
 20
694.4569702148437
 10
453.7820129394531
 20
694.4569702148437
  0
LINE
  5
180
330
70
100
AcDbEntity
  8
Camada 1
 62
    18
420
        0
370
    35
100
AcDbLine
 10
458.0339965820312
 20
695.8740234375
 30
0.0
 11
458.0339965820312
 21
694.4569702148437
 31
0.0
  0
LWPOLYLINE
  5
181
330
70
100
AcDbEntity
  8
Camada 1
 62
    18
420
        0
370
    35
100
AcDbPolyline
 90
        5
 70
     0
 43
0.0
 10
190.1600036621094
 20
695.8740234375
 10
190.4839935302734
 20
695.8740234375
 10
191.4049987792969
 20
695.8740234375
 10
192.7850036621093
 20
695.8740234375
 10
194.4120025634765
 20
695.8740234375
  0
LWPOLYLINE
  5
182
330
70
100
AcDbEntity
  8
Camada 1
 62
    18
420
        0
370
    35
100
AcDbPolyline
 90
        5
 70
     0
 43
0.0
 10
194.4120025634765
 20
694.4569702148437
 10
192.7850036621093
 20
694.4569702148437
 10
191.4049987792969
 20
694.4569702148437
 10
190.4839935302734
 20
694.4569702148437
 10
190.1600036621094
 20
694.4569702148437
  0
LINE
  5
183
330
70
100
AcDbEntity
  8
Camada 1
 62
    18
420
        0
370
    35
100
AcDbLine
 10
190.1600036621094
 20
694.4569702148437
 30
0.0
 11
190.1600036621094
 21
695.8740234375
 31
0.0
  0
LINE
  5
184
330
70
100
AcDbEntity
  8
Camada 1
 62
    18
420
        0
370
    35
100
AcDbLine
 10
194.4120025634765
 20
695.8740234375
 30
0.0
 11
453.7820129394531
 21
695.8740234375
 31
0.0
  0
LINE
  5
185
330
70
100
AcDbEntity
  8
Camada 1
 62
    18
420
        0
370
    35
100
AcDbLine
 10
194.4120025634765
 20
695.8740234375
 30
0.0
 11
194.4120025634765
 21
694.4569702148437
 31
0.0
  0
LINE
  5
186
330
70
100
AcDbEntity
  8
Camada 1
 62
    18
420
        0
370
    35
100
AcDbLine
 10
194.4120025634765
 20
694.4569702148437
 30
0.0
 11
453.7820129394531
 21
694.4569702148437
 31
0.0
  0
LINE
  5
187
330
70
100
AcDbEntity
  8
Camada 1
 62
    18
420
        0
370
    35
100
AcDbLine
 10
453.7820129394531
 20
694.4569702148437
 30
0.0
 11
453.7820129394531
 21
695.8740234375
 31
0.0
  0
LWPOLYLINE
  5
188
330
70
100
AcDbEntity
  8
Camada 1
 62
    18
420
        0
370
    35
100
AcDbPolyline
 90
        5
 70
     0
 43
0.0
 10
323.3880004882812
 20
579.6539916992187
 10
322.1409912109375
 20
579.9019775390624
 10
321.0830078125
 20
580.6079711914062
 10
320.3760070800781
 20
581.666015625
 10
320.1279907226563
 20
582.9130249023437
  0
LWPOLYLINE
  5
189
330
70
100
AcDbEntity
  8
Camada 1
 62
    18
420
        0
370
    35
100
AcDbPolyline
 90
        5
 70
     0
 43
0.0
 10
423.5929870605469
 20
582.9130249023437
 10
423.3450012207031
 20
581.666015625
 10
422.6380004882812
 20
580.6079711914062
 10
421.5809936523437
 20
579.9019775390624
 10
420.3330078125
 20
579.6539916992187
  0
LINE
  5
18A
330
70
100
AcDbEntity
  8
Camada 1
 62
    18
420
        0
370
    35
100
AcDbLine
 10
423.5929870605469
 20
691.197021484375
 30
0.0
 11
423.5929870605469
 21
582.9130249023437
 31
0.0
  0
LINE
  5
18B
330
70
100
AcDbEntity
  8
Camada 1
 62
    18
420
        0
370
    35
100
AcDbLine
 10
423.5929870605469
 20
582.9130249023437
 30
0.0
 11
422.1759948730468
 21
582.9130249023437
 31
0.0
  0
LINE
  5
18C
330
70
100
AcDbEntity
  8
Camada 1
 62
    18
420
        0
370
    35
100
AcDbLine
 10
318.2860107421875
 20
693.0390014648438
 30
0.0
 11
303.1199951171875
 21
693.0390014648438
 31
0.0
  0
LWPOLYLINE
  5
18D
330
70
100
AcDbEntity
  8
Camada 1
 62
    18
420
        0
370
    35
100
AcDbPolyline
 90
        3
 70
     0
 43
0.0
 10
303.1199951171875
 20
693.0390014648438
 10
302.1180114746094
 20
693.0390014648438
 10
301.7030029296875
 20
693.0390014648438
  0
LINE
  5
18E
330
70
100
AcDbEntity
  8
Camada 1
 62
    18
420
        0
370
    35
100
AcDbLine
 10
303.1199951171875
 20
694.4569702148437
 30
0.0
 11
303.1199951171875
 21
693.0390014648438
 31
0.0
  0
LINE
  5
18F
330
70
100
AcDbEntity
  8
Camada 1
 62
    18
420
        0
370
    35
100
AcDbLine
 10
301.7030029296875
 20
693.0390014648438
 30
0.0
 11
301.7030029296875
 21
694.4569702148437
 31
0.0
  0
LINE
  5
190
330
70
100
AcDbEntity
  8
Camada 1
 62
    18
420
        0
370
    35
100
AcDbLine
 10
320.1279907226563
 20
582.9130249023437
 30
0.0
 11
320.1279907226563
 21
691.197021484375
 31
0.0
  0
LINE
  5
191
330
70
100
AcDbEntity
  8
Camada 1
 62
    18
420
        0
370
    35
100
AcDbLine
 10
320.1279907226563
 20
582.9130249023437
 30
0.0
 11
321.5459899902344
 21
582.9130249023437
 31
0.0
  0
LINE
  5
192
330
70
100
AcDbEntity
  8
Camada 1
 62
    18
420
        0
370
    35
100
AcDbLine
 10
320.1279907226563
 20
691.197021484375
 30
0.0
 11
321.5459899902344
 21
691.197021484375
 31
0.0
  0
LINE
  5
193
330
70
100
AcDbEntity
  8
Camada 1
 62
    18
420
        0
370
    35
100
AcDbLine
 10
318.2860107421875
 20
693.0390014648438
 30
0.0
 11
318.2860107421875
 21
694.4569702148437
 31
0.0
  0
LINE
  5
194
330
70
100
AcDbEntity
  8
Camada 1
 62
    18
420
        0
370
    35
100
AcDbLine
 10
423.5929870605469
 20
691.197021484375
 30
0.0
 11
422.1759948730468
 21
691.197021484375
 31
0.0
  0
LWPOLYLINE
  5
195
330
70
100
AcDbEntity
  8
Camada 1
 62
    18
420
        0
370
    35
100
AcDbPolyline
 90
        4
 70
     0
 43
0.0
 10
440.6010131835937
 20
683.1179809570312
 10
440.6010131835937
 20
683.4979858398437
 10
440.6010131835937
 20
684.5360107421875
 10
440.6010131835937
 20
685.9530029296875
  0
LWPOLYLINE
  5
196
330
70
100
AcDbEntity
  8
Camada 1
 62
    18
420
        0
370
    35
100
AcDbPolyline
 90
        4
 70
     0
 43
0.0
 10
442.0180053710937
 20
685.9530029296875
 10
442.0180053710937
 20
684.5360107421875
 10
442.0180053710937
 20
683.4979858398437
 10
442.0180053710937
 20
683.1179809570312
  0
LINE
  5
197
330
70
100
AcDbEntity
  8
Camada 1
 62
    18
420
        0
370
    35
100
AcDbLine
 10
442.0180053710937
 20
683.1179809570312
 30
0.0
 11
440.6010131835937
 21
683.1179809570312
 31
0.0
  0
LINE
  5
198
330
70
100
AcDbEntity
  8
Camada 1
 62
    18
420
        0
370
    35
100
AcDbLine
 10
440.6010131835937
 20
691.197021484375
 30
0.0
 11
440.6010131835937
 21
685.9530029296875
 31
0.0
  0
LINE
  5
199
330
70
100
AcDbEntity
  8
Camada 1
 62
    18
420
        0
370
    35
100
AcDbLine
 10
440.6010131835937
 20
685.9530029296875
 30
0.0
 11
442.0180053710937
 21
685.9530029296875
 31
0.0
  0
LINE
  5
19A
330
70
100
AcDbEntity
  8
Camada 1
 62
    18
420
        0
370
    35
100
AcDbLine
 10
442.0180053710937
 20
691.197021484375
 30
0.0
 11
442.0180053710937
 21
685.9530029296875
 31
0.0
  0
LINE
  5
19B
330
70
100
AcDbEntity
  8
Camada 1
 62
    18
420
        0
370
    35
100
AcDbLine
 10
425.4349975585937
 20
693.0390014648438
 30
0.0
 11
425.4349975585937
 21
694.4569702148437
 31
0.0
  0
LINE
  5
19C
330
70
100
AcDbEntity
  8
Camada 1
 62
    18
420
        0
370
    35
100
AcDbLine
 10
425.4349975585937
 20
693.0390014648438
 30
0.0
 11
438.7579956054687
 21
693.0390014648438
 31
0.0
  0
LINE
  5
19D
330
70
100
AcDbEntity
  8
Camada 1
 62
    18
420
        0
370
    35
100
AcDbLine
 10
323.3880004882812
 20
579.6539916992187
 30
0.0
 11
420.3330078125
 21
579.6539916992187
 31
0.0
  0
LWPOLYLINE
  5
19E
330
70
100
AcDbEntity
  8
Camada 1
 62
    18
420
        0
370
    35
100
AcDbPolyline
 90
        5
 70
     0
 43
0.0
 10
420.3330078125
 20
579.6539916992187
 10
421.0379943847656
 20
579.9019775390624
 10
421.6359863281249
 20
580.6079711914062
 10
422.0350036621093
 20
581.666015625
 10
422.1759948730468
 20
582.9130249023437
  0
LWPOLYLINE
  5
19F
330
70
100
AcDbEntity
  8
Camada 1
 62
    18
420
        0
370
    35
100
AcDbPolyline
 90
        5
 70
     0
 43
0.0
 10
321.5459899902344
 20
582.9130249023437
 10
321.6860046386719
 20
581.666015625
 10
322.0849914550781
 20
580.6079711914062
 10
322.6830139160156
 20
579.9019775390624
 10
323.3880004882812
 20
579.6539916992187
  0
LINE
  5
1A0
330
70
100
AcDbEntity
  8
Camada 1
 62
    18
420
        0
370
    35
100
AcDbLine
 10
321.5429992675781
 20
694.1729736328125
 30
0.0
 11
422.1789855957031
 21
694.1729736328125
 31
0.0
  0
LINE
  5
1A1
330
70
100
AcDbEntity
  8
Camada 1
 62
    18
420
        0
370
    35
100
AcDbLine
 10
321.5459899902344
 20
691.197021484375
 30
0.0
 11
321.5459899902344
 21
582.9130249023437
 31
0.0
  0
LINE
  5
1A2
330
70
100
AcDbEntity
  8
Camada 1
 62
    18
420
        0
370
    35
100
AcDbLine
 10
321.5459899902344
 20
582.9130249023437
 30
0.0
 11
422.1759948730468
 21
582.9130249023437
 31
0.0
  0
LINE
  5
1A3
330
70
100
AcDbEntity
  8
Camada 1
 62
    18
420
        0
370
    35
100
AcDbLine
 10
422.1759948730468
 20
582.9130249023437
 30
0.0
 11
422.1759948730468
 21
691.197021484375
 31
0.0
  0
LWPOLYLINE
  5
1A4
330
70
100
AcDbEntity
  8
Camada 1
 62
    18
420
        0
370
    35
100
AcDbPolyline
 90
      129
 70
     0
 43
0.0
 10
261.1499938964844
 20
775.1950073242187
 10
260.9729919433594
 20
775.1939697265624
 10
260.7990112304687
 20
775.2000122070312
 10
260.7120056152344
 20
775.2069702148437
 10
260.6260070800781
 20
775.2150268554687
 10
260.5840148925781
 20
775.219970703125
 10
260.5409851074219
 20
775.2260131835937
 10
260.4989929199219
 20
775.2319946289063
 10
260.4570007324219
 20
775.2379760742187
 10
260.2959899902344
 20
775.2670288085937
 10
260.1419982910156
 20
775.3029785156249
 10
260.1050109863281
 20
775.31201171875
 10
260.0679931640625
 20
775.322021484375
 10
260.0320129394531
 20
775.3319702148437
 10
259.9960021972656
 20
775.3430175781249
 10
259.927001953125
 20
775.3640136718749
 10
259.8609924316406
 20
775.385986328125
 10
259.7980041503906
 20
775.4089965820313
 10
259.7380065917969
 20
775.4320068359374
 10
259.7090148925781
 20
775.4429931640625
 10
259.6799926757813
 20
775.4550170898437
 10
259.6520080566406
 20
775.4660034179687
 10
259.625
 20
775.47802734375
 10
259.5270080566406
 20
775.5239868164062
 10
259.4419860839844
 20
775.5670166015625
 10
259.406005859375
 20
775.5869750976562
 10
259.3720092773438
 20
775.6060180664062
 10
259.3569946289063
 20
775.6160278320312
 10
259.3429870605469
 20
775.625
 10
259.3299865722656
 20
775.6329956054687
 10
259.3179931640625
 20
775.6420288085937
 10
259.2799987792969
 20
775.6699829101562
 10
259.2590026855469
 20
775.6920166015625
 10
259.2560119628906
 20
775.6959838867187
 10
259.2550048828125
 20
775.7000122070312
 10
259.2539978027344
 20
775.7030029296875
 10
259.2550048828125
 20
775.7059936523437
 10
259.260009765625
 20
775.7100219726562
 10
259.2690124511719
 20
775.7119750976563
 10
259.2820129394531
 20
775.7119750976563
 10
259.2990112304688
 20
775.7100219726562
 10
259.3099975585937
 20
775.708984375
 10
259.3210144042969
 20
775.7059936523437
 10
259.3340148925781
 20
775.7039794921874
 10
259.3469848632813
 20
775.7009887695312
 10
259.4110107421875
 20
775.6859741210937
 10
259.489013671875
 20
775.6649780273437
 10
259.5339965820313
 20
775.6530151367187
 10
259.5830078125
 20
775.6400146484375
 10
259.635009765625
 20
775.6270141601562
 10
259.6889953613281
 20
775.6129760742187
 10
259.8080139160156
 20
775.5850219726562
 10
259.93798828125
 20
775.5560302734375
 10
259.9729919433594
 20
775.5490112304687
 10
260.0079956054687
 20
775.5419921875
 10
260.0440063476562
 20
775.5349731445313
 10
260.0799865722656
 20
775.5280151367188
 10
260.1539916992187
 20
775.5150146484375
 10
260.2300109863281
 20
775.5020141601562
 10
260.3080139160156
 20
775.4910278320312
 10
260.3880004882813
 20
775.4799804687499
 10
260.4700012207031
 20
775.4710083007812
 10
260.5539855957031
 20
775.4619750976562
 10
260.7260131835937
 20
775.4489746093749
 10
260.9020080566406
 20
775.4420166015624
 10
261.0780029296875
 20
775.4409790039062
 10
261.2520141601562
 20
775.4459838867187
 10
261.3389892578125
 20
775.4500122070312
 10
261.4249877929688
 20
775.4559936523437
 10
261.4679870605469
 20
775.4600219726563
 10
261.510009765625
 20
775.4630126953125
 10
261.552001953125
 20
775.468017578125
 10
261.593994140625
 20
775.4719848632812
 10
261.7550048828125
 20
775.4920043945312
 10
261.9100036621094
 20
775.5170288085937
 10
261.9469909667969
 20
775.5230102539062
 10
261.9840087890625
 20
775.5300292968749
 10
262.0199890136719
 20
775.5369873046874
 10
262.0559997558594
 20
775.5440063476562
 10
262.1239929199219
 20
775.5579833984374
 10
262.1900024414062
 20
775.572021484375
 10
262.2539978027344
 20
775.5869750976562
 10
262.3139953613281
 20
775.6010131835937
 10
262.3429870605469
 20
775.6079711914062
 10
262.3720092773437
 20
775.614990234375
 10
262.3989868164063
 20
775.6220092773437
 10
262.4259948730469
 20
775.6290283203124
 10
262.5249938964844
 20
775.655029296875
 10
262.6090087890625
 20
775.677978515625
 10
262.64599609375
 20
775.6870117187499
 10
262.6799926757812
 20
775.6950073242188
 10
262.6950073242188
 20
775.698974609375
 10
262.7090148925781
 20
775.7020263671875
 10
262.7219848632813
 20
775.7050170898438
 10
262.7340087890625
 20
775.7069702148437
 10
262.7720031738281
 20
775.7119750976563
 10
262.7929992675781
 20
775.708984375
 10
262.7959899902344
 20
775.7080078125
 10
262.7969970703125
 20
775.7050170898438
 10
262.7980041503906
 20
775.7020263671875
 10
262.7969970703125
 20
775.698974609375
 10
262.7919921875
 20
775.6909790039062
 10
262.7829895019531
 20
775.6799926757812
 10
262.7699890136719
 20
775.6680297851562
 10
262.7520141601562
 20
775.655029296875
 10
262.7420043945313
 20
775.64697265625
 10
262.7309875488281
 20
775.6389770507812
 10
262.7179870605469
 20
775.6309814453125
 10
262.7049865722656
 20
775.6220092773437
 10
262.6409912109375
 20
775.583984375
 10
262.56201171875
 20
775.5419921875
 10
262.5180053710938
 20
775.5200195312499
 10
262.468994140625
 20
775.4970092773437
 10
262.4169921875
 20
775.4739990234375
 10
262.3619995117187
 20
775.4509887695312
 10
262.2439880371094
 20
775.405029296875
 10
262.1130065917969
 20
775.3599853515624
 10
262.0790100097656
 20
775.3499755859374
 10
262.0440063476562
 20
775.3389892578125
 10
262.0079956054687
 20
775.3289794921875
 10
261.9710083007813
 20
775.3189697265625
 10
261.8970031738281
 20
775.2990112304687
 10
261.8210144042969
 20
775.281005859375
 10
261.7430114746094
 20
775.2650146484374
 10
261.6629943847656
 20
775.25
 10
261.5809936523437
 20
775.2360229492187
 10
261.4970092773437
 20
775.2239990234374
 10
261.3250122070312
 20
775.2059936523437
 10
261.1499938964844
 20
775.1950073242187
  0
LINE
  5
1A5
330
70
100
AcDbEntity
  8
Camada 1
 62
    18
420
        0
370
    35
100
AcDbLine
 10
256.7739868164062
 20
780.2999877929687
 30
0.0
 11
256.7739868164062
 21
773.3820190429687
 31
0.0
  0
LINE
  5
1A6
330
70
100
AcDbEntity
  8
Camada 1
 62
    18
420
        0
370
    35
100
AcDbLine
 10
265.2780151367188
 20
773.3309936523437
 30
0.0
 11
265.2780151367188
 21
780.2999877929687
 31
0.0
  0
LWPOLYLINE
  5
1A7
330
70
100
AcDbEntity
  8
Camada 1
 62
    18
420
        0
370
    35
100
AcDbPolyline
 90
       18
 70
     0
 43
0.0
 10
256.7739868164062
 20
780.2999877929687
 10
257.0610046386719
 20
778.7680053710937
 10
257.8840026855469
 20
777.4429931640625
 10
259.1310119628906
 20
776.5029907226562
 10
260.6340026855469
 20
776.0770263671875
 10
262.1900024414062
 20
776.219970703125
 10
263.5880126953125
 20
776.9149780273437
 10
264.6409912109375
 20
778.0670166015625
 10
265.2059936523437
 20
779.52099609375
 10
265.2059936523437
 20
781.0789794921874
 10
264.6409912109375
 20
782.5330200195312
 10
263.5880126953125
 20
783.6849975585937
 10
262.1900024414062
 20
784.3800048828125
 10
260.6340026855469
 20
784.5239868164062
 10
259.1310119628906
 20
784.0969848632812
 10
257.8840026855469
 20
783.1580200195312
 10
257.0610046386719
 20
781.8319702148437
 10
256.7739868164062
 20
780.2999877929687
  0
LINE
  5
1A8
330
70
100
AcDbEntity
  8
Camada 1
 62
    18
420
        0
370
    35
100
AcDbLine
 10
282.2860107421875
 20
693.6060180664062
 30
0.0
 11
282.2860107421875
 21
694.4569702148437
 31
0.0
  0
LINE
  5
1A9
330
70
100
AcDbEntity
  8
Camada 1
 62
    18
420
        0
370
    35
100
AcDbLine
 10
239.7660064697266
 20
693.6060180664062
 30
0.0
 11
239.7660064697266
 21
694.4569702148437
 31
0.0
  0
LWPOLYLINE
  5
1AA
330
70
100
AcDbEntity
  8
Camada 1
 62
    18
420
        0
370
    35
100
AcDbPolyline
 90
        4
 70
     0
 43
0.0
 10
207.1679992675781
 20
680.2839965820312
 10
207.1679992675781
 20
680.6630249023437
 10
207.1679992675781
 20
681.7009887695312
 10
207.1679992675781
 20
683.1179809570312
  0
LWPOLYLINE
  5
1AB
330
70
100
AcDbEntity
  8
Camada 1
 62
    18
420
        0
370
    35
100
AcDbPolyline
 90
        4
 70
     0
 43
0.0
 10
208.5850067138672
 20
683.1179809570312
 10
208.5850067138672
 20
681.7009887695312
 10
208.5850067138672
 20
680.6630249023437
 10
208.5850067138672
 20
680.2839965820312
  0
LINE
  5
1AC
330
70
100
AcDbEntity
  8
Camada 1
 62
    18
420
        0
370
    35
100
AcDbLine
 10
208.5850067138672
 20
680.2839965820312
 30
0.0
 11
207.1679992675781
 21
680.2839965820312
 31
0.0
  0
LWPOLYLINE
  5
1AD
330
70
100
AcDbEntity
  8
Camada 1
 62
    18
420
        0
370
    35
100
AcDbPolyline
 90
        4
 70
     0
 43
0.0
 10
221.3410034179688
 20
693.0390014648438
 10
220.9609985351562
 20
693.0390014648438
 10
219.9239959716797
 20
693.0390014648438
 10
218.5059967041016
 20
693.0390014648438
  0
LINE
  5
1AE
330
70
100
AcDbEntity
  8
Camada 1
 62
    18
420
        0
370
    35
100
AcDbLine
 10
221.3410034179688
 20
694.4569702148437
 30
0.0
 11
221.3410034179688
 21
693.0390014648438
 31
0.0
  0
LINE
  5
1AF
330
70
100
AcDbEntity
  8
Camada 1
 62
    18
420
        0
370
    35
100
AcDbLine
 10
210.4279937744141
 20
693.0390014648438
 30
0.0
 11
218.5059967041016
 21
693.0390014648438
 31
0.0
  0
LINE
  5
1B0
330
70
100
AcDbEntity
  8
Camada 1
 62
    18
420
        0
370
    35
100
AcDbLine
 10
218.5059967041016
 20
693.0390014648438
 30
0.0
 11
218.5059967041016
 21
694.4569702148437
 31
0.0
  0
LINE
  5
1B1
330
70
100
AcDbEntity
  8
Camada 1
 62
    18
420
        0
370
    35
100
AcDbLine
 10
207.1679992675781
 20
691.197021484375
 30
0.0
 11
207.1679992675781
 21
683.1179809570312
 31
0.0
  0
LINE
  5
1B2
330
70
100
AcDbEntity
  8
Camada 1
 62
    18
420
        0
370
    35
100
AcDbLine
 10
207.1679992675781
 20
683.1179809570312
 30
0.0
 11
208.5850067138672
 21
683.1179809570312
 31
0.0
  0
LINE
  5
1B3
330
70
100
AcDbEntity
  8
Camada 1
 62
    18
420
        0
370
    35
100
AcDbLine
 10
208.5850067138672
 20
691.197021484375
 30
0.0
 11
208.5850067138672
 21
683.1179809570312
 31
0.0
  0
MTEXT
  5
1B4
330
70
100
AcDbEntity
  8
Camada 1
100
AcDbMText
 10
308.1664352416992
 20
811.7958641052245
 30
0.0
 40
0.2
 41
0.0
 46
0.0
 71
     7
 72
     1
  1
\C18;\c0;\FTramontina SmCd Titulos|b0|i0|c1;\H14.160000;\W1.000000;189
 73
     1
 44
1.0
  0
MTEXT
  5
1B5
330
70
100
AcDbEntity
  8
Camada 1
100
AcDbMText
 10
165.8577938079843
 20
549.3447265624991
 30
0.0
 40
0.2
 41
0.0
 46
0.0
 71
     7
 72
     1
  1
\C18;\c0;\FTramontina SmCd Titulos|b0|i0|c1;\H14.160000;\W1.000000;316
 11
0.0000000000000001
 21
1.0
 31
0.0
 73
     1
 44
1.0
  0
MTEXT
  5
1B6
330
70
100
AcDbEntity
  8
Camada 1
100
AcDbMText
 10
490.5131835937509
 20
205.7930297851562
 30
0.0
 40
0.2
 41
0.0
 46
0.0
 71
     7
 72
     1
  1
\C18;\c0;\FTramontina SmCd Titulos|b0|i0|c1;\H14.160000;\W1.000000;160
 11
-0.0000000000000002
 21
-1.0
 31
0.0
 73
     1
 44
1.0
  0
INSERT
  5
1B8
330
70
100
AcDbEntity
  8
Camada 1
100
AcDbBlockReference
  2
Block_0
 10
0.0
 20
0.0
 30
0.0
  0
ENDSEC
  0
SECTION
  2
OBJECTS
  0
DICTIONARY
  5
C
330
0
100
AcDbDictionary
281
     1
  3
ACAD_COLOR
350
63
  3
ACAD_DETAILVIEWSTYLE
350
6A
  3
ACAD_GROUP
350
D
  3
ACAD_LAYOUT
350
62
  3
ACAD_MATERIAL
350
10
  3
ACAD_MLEADERSTYLE
350
66
  3
ACAD_MLINESTYLE
350
5F
  3
ACAD_PLOTSETTINGS
350
61
  3
ACAD_PLOTSTYLENAME
350
E
  3
ACAD_SCALELIST
350
42
  3
ACAD_SECTIONVIEWSTYLE
350
68
  3
ACAD_TABLESTYLE
350
64
  3
ACAD_VISUALSTYLE
350
29
  3
ACDB_RECOMPOSE_DATA
350
1D1
  3
AcDbVariableDictionary
350
1C9
  0
DICTIONARY
  5
63
102
{ACAD_REACTORS
330
C
102
}
330
C
100
AcDbDictionary
281
     1
  0
DICTIONARY
  5
6A
102
{ACAD_REACTORS
330
C
102
}
330
C
100
AcDbDictionary
281
     1
  3
Imperial24
350
6B
  0
DICTIONARY
  5
D
102
{ACAD_REACTORS
330
C
102
}
330
C
100
AcDbDictionary
281
     1
  0
DICTIONARY
  5
62
102
{ACAD_REACTORS
330
C
102
}
330
C
100
AcDbDictionary
281
     1
  3
Layout1
350
6F
  3
Layout2
350
77
  3
Model
350
73
  0
DICTIONARY
  5
10
102
{ACAD_REACTORS
330
C
102
}
330
C
100
AcDbDictionary
281
     1
  3
ByBlock
350
19
  3
ByLayer
350
11
  3
Global
350
21
  0
DICTIONARY
  5
66
102
{ACAD_REACTORS
330
C
102
}
330
C
100
AcDbDictionary
281
     1
  3
Standard
350
67
  0
DICTIONARY
  5
5F
102
{ACAD_REACTORS
330
C
102
}
330
C
100
AcDbDictionary
281
     1
  3
Standard
350
60
  0
DICTIONARY
  5
61
102
{ACAD_REACTORS
330
C
102
}
330
C
100
AcDbDictionary
281
     1
  0
ACDBDICTIONARYWDFLT
  5
E
102
{ACAD_REACTORS
330
C
102
}
330
C
100
AcDbDictionary
281
     1
  3
Normal
350
F
100
AcDbDictionaryWithDefault
340
F
  0
DICTIONARY
  5
42
102
{ACAD_REACTORS
330
C
102
}
330
C
100
AcDbDictionary
281
     1
  3
A0
350
43
  3
A1
350
44
  3
A2
350
45
  3
A3
350
46
  3
A4
350
47
  3
A5
350
48
  3
A6
350
49
  3
A7
350
4A
  3
A8
350
4B
  3
A9
350
4C
  3
B0
350
4D
  3
B1
350
4E
  3
B2
350
4F
  3
B3
350
50
  3
B4
350
51
  3
B5
350
52
  3
B6
350
53
  0
DICTIONARY
  5
68
102
{ACAD_REACTORS
330
C
102
}
330
C
100
AcDbDictionary
281
     1
  3
Imperial24
350
69
  0
DICTIONARY
  5
64
102
{ACAD_REACTORS
330
C
102
}
330
C
100
AcDbDictionary
281
     1
  3
Standard
350
65
  0
DICTIONARY
  5
29
102
{ACAD_REACTORS
330
C
102
}
330
C
100
AcDbDictionary
281
     1
  3
2dWireframe
350
2F
  3
Basic
350
2E
  3
Brighten
350
35
  3
ColorChange
350
39
  3
Conceptual
350
32
  3
Dim
350
34
  3
EdgeColorOff
350
41
  3
Facepattern
350
38
  3
Flat
350
2A
  3
FlatWithEdges
350
2B
  3
Gouraud
350
2C
  3
GouraudWithEdges
350
2D
  3
Hidden
350
31
  3
JitterOff
350
3F
  3
Linepattern
350
37
  3
OverhangOff
350
40
  3
Realistic
350
33
  3
Shaded
350
3E
  3
Shaded with edges
350
3D
  3
Shades of Gray
350
3A
  3
Sketchy
350
3B
  3
Thicken
350
36
  3
Wireframe
350
30
  3
X-Ray
350
3C
  0
XRECORD
  5
1D1
102
{ACAD_REACTORS
330
C
102
}
330
C
100
AcDbXrecord
280
     1
 90
        1
330
65
  0
DICTIONARY
  5
1C9
102
{ACAD_REACTORS
330
C
102
}
330
C
100
AcDbDictionary
281
     1
  3
CANNOSCALE
350
1CE
  3
CMLEADERSTYLE
350
1CB
  3
CTABLESTYLE
350
1CA
  3
CVIEWDETAILSTYLE
350
1CC
  3
CVIEWSECTIONSTYLE
350
1CD
  0
ACDBDETAILVIEWSTYLE
  5
6B
102
{ACAD_REACTORS
330
6A
102
}
330
6A
100
AcDbModelDocViewStyle
 70
     0
  3
Imperial24
290
     1
300
Imperial24
 90
        0
100
AcDbDetailViewStyle
 70
     0
 71
     0
 90
        3
 71
     1
340
55
 62
   256
 40
0.24
340
0
 62
   256
 40
0.24
300

 40
0.36
280
     3
 71
     2
340
5D
 90
       25
 62
   256
 71
     3
340
55
 62
   256
 40
0.24
 90
        1
 40
0.75
 90
        1
300
%<\AcVar ViewType \f "%tc1">% %<\AcVar ViewDetailId>%\PSCALE %<\AcVar ViewScale \f "%sn">%
 71
     4
340
5D
 90
       25
 62
   256
340
5D
 90
       25
 62
   256
280
     0
  0
LAYOUT
  5
6F
102
{ACAD_REACTORS
330
62
102
}
330
62
100
AcDbPlotSettings
  1

  2

  4

  6

 40
0.0
 41
0.0
 42
0.0
 43
0.0
 44
0.0
 45
0.0
 46
0.0
 47
0.0
 48
0.0
 49
0.0
140
0.0
141
0.0
142
1.0
143
1.0
 70
   688
 72
     0
 73
     0
 74
     5
  7

 75
    16
147
1.0
 76
     0
 77
     2
 78
   300
148
0.0
149
0.0
100
AcDbLayout
  1
Layout1
 70
     1
 71
     1
 10
0.0
 20
0.0
 11
12.0
 21
9.0
 12
0.0
 22
0.0
 32
0.0
 14
0.0
 24
0.0
 34
0.0
 15
0.0
 25
0.0
 35
0.0
146
0.0
 13
0.0
 23
0.0
 33
0.0
 16
1.0
 26
0.0
 36
0.0
 17
0.0
 27
1.0
 37
0.0
 76
     0
330
6C
  0
LAYOUT
  5
77
102
{ACAD_REACTORS
330
62
102
}
330
62
100
AcDbPlotSettings
  1

  2

  4

  6

 40
0.0
 41
0.0
 42
0.0
 43
0.0
 44
0.0
 45
0.0
 46
0.0
 47
0.0
 48
0.0
 49
0.0
140
0.0
141
0.0
142
1.0
143
1.0
 70
   688
 72
     0
 73
     0
 74
     5
  7

 75
    16
147
1.0
 76
     0
 77
     2
 78
   300
148
0.0
149
0.0
100
AcDbLayout
  1
Layout2
 70
     1
 71
     2
 10
0.0
 20
0.0
 11
12.0
 21
9.0
 12
0.0
 22
0.0
 32
0.0
 14
0.0
 24
0.0
 34
0.0
 15
0.0
 25
0.0
 35
0.0
146
0.0
 13
0.0
 23
0.0
 33
0.0
 16
1.0
 26
0.0
 36
0.0
 17
0.0
 27
1.0
 37
0.0
 76
     0
330
74
  0
LAYOUT
  5
73
102
{ACAD_REACTORS
330
62
102
}
330
62
100
AcDbPlotSettings
  1

  2

  4

  6

 40
0.0
 41
0.0
 42
0.0
 43
0.0
 44
0.0
 45
0.0
 46
0.0
 47
0.0
 48
0.0
 49
0.0
140
0.0
141
0.0
142
1.0
143
1.0
 70
  1712
 72
     0
 73
     0
 74
     0
  7

 75
     0
147
1.0
 76
     0
 77
     2
 78
   300
148
0.0
149
0.0
100
AcDbLayout
  1
Model
 70
     1
 71
     0
 10
0.0
 20
0.0
 11
12.0
 21
9.0
 12
0.0
 22
0.0
 32
0.0
 14
0.0
 24
0.0
 34
0.0
 15
0.0
 25
0.0
 35
0.0
146
0.0
 13
0.0
 23
0.0
 33
0.0
 16
1.0
 26
0.0
 36
0.0
 17
0.0
 27
1.0
 37
0.0
 76
     0
330
70
  0
MATERIAL
  5
19
102
{ACAD_XDICTIONARY
360
1A
102
}
102
{ACAD_REACTORS
330
10
102
}
330
10
100
AcDbMaterial
  1
ByBlock
 72
     0
 43
0.0208333333333333
 43
0.0
 43
0.0
 43
0.0
 43
0.0
 43
0.0208333333333333
 43
0.0
 43
0.0
 43
0.0
 43
0.0
 43
1.0
 43
0.0
 43
0.0
 43
0.0
 43
0.0
 43
1.0
 77
     0
 47
0.0208333333333333
 47
0.0
 47
0.0
 47
0.0
 47
0.0
 47
0.0208333333333333
 47
0.0
 47
0.0
 47
0.0
 47
0.0
 47
1.0
 47
0.0
 47
0.0
 47
0.0
 47
0.0
 47
1.0
171
     0
 49
0.0208333333333333
 49
0.0
 49
0.0
 49
0.0
 49
0.0
 49
0.0208333333333333
 49
0.0
 49
0.0
 49
0.0
 49
0.0
 49
1.0
 49
0.0
 49
0.0
 49
0.0
 49
0.0
 49
1.0
175
     0
142
0.0208333333333333
142
0.0
142
0.0
142
0.0
142
0.0
142
0.0208333333333333
142
0.0
142
0.0
142
0.0
142
0.0
142
1.0
142
0.0
142
0.0
142
0.0
142
0.0
142
1.0
179
     0
144
0.0208333333333333
144
0.0
144
0.0
144
0.0
144
0.0
144
0.0208333333333333
144
0.0
144
0.0
144
0.0
144
0.0
144
1.0
144
0.0
144
0.0
144
0.0
144
0.0
144
1.0
147
0.0208333333333333
147
0.0
147
0.0
147
0.0
147
0.0
147
0.0208333333333333
147
0.0
147
0.0
147
0.0
147
0.0
147
1.0
147
0.0
147
0.0
147
0.0
147
0.0
147
1.0
  0
MATERIAL
  5
11
102
{ACAD_XDICTIONARY
360
12
102
}
102
{ACAD_REACTORS
330
10
102
}
330
10
100
AcDbMaterial
  1
ByLayer
 72
     0
 43
0.0208333333333333
 43
0.0
 43
0.0
 43
0.0
 43
0.0
 43
0.0208333333333333
 43
0.0
 43
0.0
 43
0.0
 43
0.0
 43
1.0
 43
0.0
 43
0.0
 43
0.0
 43
0.0
 43
1.0
 77
     0
 47
0.0208333333333333
 47
0.0
 47
0.0
 47
0.0
 47
0.0
 47
0.0208333333333333
 47
0.0
 47
0.0
 47
0.0
 47
0.0
 47
1.0
 47
0.0
 47
0.0
 47
0.0
 47
0.0
 47
1.0
171
     0
 49
0.0208333333333333
 49
0.0
 49
0.0
 49
0.0
 49
0.0
 49
0.0208333333333333
 49
0.0
 49
0.0
 49
0.0
 49
0.0
 49
1.0
 49
0.0
 49
0.0
 49
0.0
 49
0.0
 49
1.0
175
     0
142
0.0208333333333333
142
0.0
142
0.0
142
0.0
142
0.0
142
0.0208333333333333
142
0.0
142
0.0
142
0.0
142
0.0
142
1.0
142
0.0
142
0.0
142
0.0
142
0.0
142
1.0
179
     0
144
0.0208333333333333
144
0.0
144
0.0
144
0.0
144
0.0
144
0.0208333333333333
144
0.0
144
0.0
144
0.0
144
0.0
144
1.0
144
0.0
144
0.0
144
0.0
144
0.0
144
1.0
147
0.0208333333333333
147
0.0
147
0.0
147
0.0
147
0.0
147
0.0208333333333333
147
0.0
147
0.0
147
0.0
147
0.0
147
1.0
147
0.0
147
0.0
147
0.0
147
0.0
147
1.0
  0
MATERIAL
  5
21
102
{ACAD_XDICTIONARY
360
22
102
}
102
{ACAD_REACTORS
330
10
102
}
330
10
100
AcDbMaterial
  1
Global
 72
     0
 43
0.0208333333333333
 43
0.0
 43
0.0
 43
0.0
 43
0.0
 43
0.0208333333333333
 43
0.0
 43
0.0
 43
0.0
 43
0.0
 43
1.0
 43
0.0
 43
0.0
 43
0.0
 43
0.0
 43
1.0
 77
     0
 47
0.0208333333333333
 47
0.0
 47
0.0
 47
0.0
 47
0.0
 47
0.0208333333333333
 47
0.0
 47
0.0
 47
0.0
 47
0.0
 47
1.0
 47
0.0
 47
0.0
 47
0.0
 47
0.0
 47
1.0
171
     0
 49
0.0208333333333333
 49
0.0
 49
0.0
 49
0.0
 49
0.0
 49
0.0208333333333333
 49
0.0
 49
0.0
 49
0.0
 49
0.0
 49
1.0
 49
0.0
 49
0.0
 49
0.0
 49
0.0
 49
1.0
175
     0
142
0.0208333333333333
142
0.0
142
0.0
142
0.0
142
0.0
142
0.0208333333333333
142
0.0
142
0.0
142
0.0
142
0.0
142
1.0
142
0.0
142
0.0
142
0.0
142
0.0
142
1.0
179
     0
144
0.0208333333333333
144
0.0
144
0.0
144
0.0
144
0.0
144
0.0208333333333333
144
0.0
144
0.0
144
0.0
144
0.0
144
1.0
144
0.0
144
0.0
144
0.0
144
0.0
144
1.0
147
0.0208333333333333
147
0.0
147
0.0
147
0.0
147
0.0
147
0.0208333333333333
147
0.0
147
0.0
147
0.0
147
0.0
147
1.0
147
0.0
147
0.0
147
0.0
147
0.0
147
1.0
  0
MLEADERSTYLE
  5
67
102
{ACAD_REACTORS
330
66
102
}
330
66
100
AcDbMLeaderStyle
179
     2
170
     2
171
     1
172
     0
 90
        2
 40
0.0
 41
0.0
173
     1
 91
-1056964608
340
5B
 92
       -2
290
     1
 42
0.09
291
     1
 43
0.36
  3
Standard
 44
0.18
300

342
55
174
     1
178
     6
175
     1
176
     0
 93
-1056964608
 45
0.18
292
     0
297
     0
 46
0.18
 94
-1056964608
 47
1.0
 49
1.0
140
1.0
293
     1
141
0.0
294
     1
177
     0
142
1.0
295
     1
296
     0
143
0.125
271
     0
272
     9
273
     9
298
     1
  0
MLINESTYLE
  5
60
102
{ACAD_REACTORS
330
5F
102
}
330
5F
100
AcDbMlineStyle
  2
STANDARD
 70
     0
  3

 62
   256
 51
90.0
 52
90.0
 71
     2
 49
0.5
 62
   256
  6
BYLAYER
 49
-0.5
 62
   256
  6
BYLAYER
  0
ACDBPLACEHOLDER
  5
F
102
{ACAD_REACTORS
330
E
102
}
330
E
  0
SCALE
  5
43
102
{ACAD_REACTORS
330
42
102
}
330
42
100
AcDbScale
 70
     0
300
1:1
140
1.0
141
1.0
290
     1
  0
SCALE
  5
44
102
{ACAD_REACTORS
330
42
102
}
330
42
100
AcDbScale
 70
     0
300
1/128" = 1'-0"
140
0.0078125
141
12.0
290
     0
  0
SCALE
  5
45
102
{ACAD_REACTORS
330
42
102
}
330
42
100
AcDbScale
 70
     0
300
1/64" = 1'-0"
140
0.015625
141
12.0
290
     0
  0
SCALE
  5
46
102
{ACAD_REACTORS
330
42
102
}
330
42
100
AcDbScale
 70
     0
300
1/32" = 1'-0"
140
0.03125
141
12.0
290
     0
  0
SCALE
  5
47
102
{ACAD_REACTORS
330
42
102
}
330
42
100
AcDbScale
 70
     0
300
1/16" = 1'-0"
140
0.0625
141
12.0
290
     0
  0
SCALE
  5
48
102
{ACAD_REACTORS
330
42
102
}
330
42
100
AcDbScale
 70
     0
300
3/32" = 1'-0"
140
0.09375
141
12.0
290
     0
  0
SCALE
  5
49
102
{ACAD_REACTORS
330
42
102
}
330
42
100
AcDbScale
 70
     0
300
1/8" = 1'-0"
140
0.125
141
12.0
290
     0
  0
SCALE
  5
4A
102
{ACAD_REACTORS
330
42
102
}
330
42
100
AcDbScale
 70
     0
300
3/16" = 1'-0"
140
0.1875
141
12.0
290
     0
  0
SCALE
  5
4B
102
{ACAD_REACTORS
330
42
102
}
330
42
100
AcDbScale
 70
     0
300
1/4" = 1'-0"
140
0.25
141
12.0
290
     0
  0
SCALE
  5
4C
102
{ACAD_REACTORS
330
42
102
}
330
42
100
AcDbScale
 70
     0
300
3/8" = 1'-0"
140
0.375
141
12.0
290
     0
  0
SCALE
  5
4D
102
{ACAD_REACTORS
330
42
102
}
330
42
100
AcDbScale
 70
     0
300
1/2" = 1'-0"
140
0.5
141
12.0
290
     0
  0
SCALE
  5
4E
102
{ACAD_REACTORS
330
42
102
}
330
42
100
AcDbScale
 70
     0
300
3/4" = 1'-0"
140
0.75
141
12.0
290
     0
  0
SCALE
  5
4F
102
{ACAD_REACTORS
330
42
102
}
330
42
100
AcDbScale
 70
     0
300
1" = 1'-0"
140
1.0
141
12.0
290
     0
  0
SCALE
  5
50
102
{ACAD_REACTORS
330
42
102
}
330
42
100
AcDbScale
 70
     0
300
1-1/2" = 1'-0"
140
1.5
141
12.0
290
     0
  0
SCALE
  5
51
102
{ACAD_REACTORS
330
42
102
}
330
42
100
AcDbScale
 70
     0
300
3" = 1'-0"
140
3.0
141
12.0
290
     0
  0
SCALE
  5
52
102
{ACAD_REACTORS
330
42
102
}
330
42
100
AcDbScale
 70
     0
300
6" = 1'-0"
140
6.0
141
12.0
290
     0
  0
SCALE
  5
53
102
{ACAD_REACTORS
330
42
102
}
330
42
100
AcDbScale
 70
     0
300
1'-0" = 1'-0"
140
12.0
141
12.0
290
     0
  0
ACDBSECTIONVIEWSTYLE
  5
69
102
{ACAD_REACTORS
330
68
102
}
330
68
100
AcDbModelDocViewStyle
 70
     0
  3
Imperial24
290
     1
300
Imperial24
 90
        0
100
AcDbSectionViewStyle
 70
     0
 71
     0
 90
       78
 71
     1
340
55
 62
   256
 40
0.24
340
0
340
0
 62
   256
 40
0.24
300
I, O, Q, S, X, Z
 40
0.48
 90
        3
 40
0.18
 90
        1
 71
     2
340
5D
 90
       25
 62
   256
340
5D
 90
       50
 62
   256
 40
0.24
 40
0.0
 40
0.24
 71
     3
340
55
 62
   256
 40
0.24
 90
        1
 40
0.75
 90
        1
300
%<\AcVar ViewType \f "%tc1">% %<\AcVar ViewSectionStartId>%-%<\AcVar ViewSectionEndId>%\PSCALE %<\AcVar ViewScale \f "%sn">%
 71
     4
 62
   256
 62
   257
300
ANSI31
 40
1.0
 90
        0
290
     0
290
     0
 90
        6
 40
0.0
 40
1.570796326794896
 40
0.2617993877991494
 40
1.308996938995747
 40
-0.2617993877991494
 40
1.832595714594046
  0
TABLESTYLE
  5
65
102
{ACAD_XDICTIONARY
360
1CF
102
}
102
{ACAD_REACTORS
330
64
102
}
330
64
100
AcDbTableStyle
280
     0
  3
Standard
 70
     0
 71
     0
 40
0.06
 41
0.06
280
     0
281
     0
  7
Standard
140
0.18
170
     2
 62
     0
 63
     7
283
     0
 90
      512
 91
        0
  1

274
    -2
284
     1
 64
     0
275
    -2
285
     1
 65
     0
276
    -2
286
     1
 66
     0
277
    -2
287
     1
 67
     0
278
    -2
288
     1
 68
     0
279
    -2
289
     1
 69
     0
  7
Standard
140
0.25
170
     5
 62
     0
 63
     7
283
     0
 90
      512
 91
        0
  1

274
    -2
284
     1
 64
     0
275
    -2
285
     1
 65
     0
276
    -2
286
     1
 66
     0
277
    -2
287
     1
 67
     0
278
    -2
288
     1
 68
     0
279
    -2
289
     1
 69
     0
  7
Standard
140
0.18
170
     5
 62
     0
 63
     7
283
     0
 90
      512
 91
        0
  1

274
    -2
284
     1
 64
     0
275
    -2
285
     1
 65
     0
276
    -2
286
     1
 66
     0
277
    -2
287
     1
 67
     0
278
    -2
288
     1
 68
     0
279
    -2
289
     1
 69
     0
  0
VISUALSTYLE
  5
2F
102
{ACAD_REACTORS
330
29
102
}
330
29
100
AcDbVisualStyle
  2
2dWireframe
 70
     4
177
     3
291
     0
 70
    58
 90
        0
176
     1
 90
        2
176
     1
 90
        0
176
     1
 90
        0
176
     1
 40
0.6
176
     1
 40
30.0
176
     1
 62
     7
420
 16777215
176
     1
 90
        1
176
     1
 90
        4
176
     1
 62
     7
176
     1
 62
   257
176
     1
 90
        1
176
     1
 90
        1
176
     1
 40
1.0
176
     1
 90
        0
176
     1
 62
   257
176
     1
 40
1.0
176
     1
 90
        1
176
     1
 90
        6
176
     1
 90
        2
176
     1
 62
     7
176
     1
 90
        5
176
     1
 90
        0
176
     1
 90
        0
176
     1
290
     0
176
     1
 90
        1
176
     1
 40
0.0
176
     1
 90
        0
176
     1
290
     1
176
     1
290
     1
176
     1
290
     0
176
     1
290
     0
176
     1
290
     0
176
     1
290
     0
176
     1
290
     0
176
     1
290
     0
176
     1
290
     0
176
     1
 90
       50
176
     1
 40
0.0
176
     1
 40
1.0
176
     1
 90
        0
176
     1
 62
    18
420
        0
176
     1
 90
       50
176
     1
 90
        3
176
     1
 62
     5
420
      255
176
     1
290
     0
176
     1
 90
       50
176
     1
 90
       50
176
     1
 90
       50
176
     1
290
     0
176
     1
 90
       50
176
     1
 62
   256
176
     0
 40
1.0
176
     0
 90
        2
176
     1
  1
strokes_ogs.tif
176
     1
290
     0
176
     1
 40
1.0
176
     1
 40
1.0
176
     1
  0
VISUALSTYLE
  5
2E
102
{ACAD_REACTORS
330
29
102
}
330
29
100
AcDbVisualStyle
  2
Basic
 70
     7
177
     3
291
     1
 70
    58
 90
        1
176
     1
 90
        0
176
     1
 90
        1
176
     1
 90
        0
176
     1
 40
0.6
176
     1
 40
30.0
176
     1
 62
     7
420
 16777215
176
     1
 90
        0
176
     1
 90
        4
176
     1
 62
     7
176
     1
 62
   257
176
     1
 90
        1
176
     1
 90
        1
176
     1
 40
1.0
176
     1
 90
        8
176
     1
 62
     7
176
     1
 40
1.0
176
     1
 90
        1
176
     1
 90
        6
176
     1
 90
        2
176
     1
 62
     7
176
     1
 90
        5
176
     1
 90
        0
176
     1
 90
        0
176
     1
290
     0
176
     1
 90
        1
176
     1
 40
0.0
176
     1
 90
        0
176
     1
290
     0
176
     1
290
     1
176
     1
290
     1
176
     1
290
     0
176
     1
290
     0
176
     1
290
     0
176
     1
290
     0
176
     1
290
     0
176
     1
290
     0
176
     1
 90
       50
176
     1
 40
0.0
176
     1
 40
1.0
176
     1
 90
        0
176
     1
 62
    18
420
        0
176
     1
 90
       50
176
     1
 90
        3
176
     1
 62
     5
420
      255
176
     1
290
     0
176
     1
 90
       50
176
     1
 90
       50
176
     1
 90
       50
176
     1
290
     0
176
     1
 90
       50
176
     1
 62
   256
176
     0
 40
1.0
176
     0
 90
        2
176
     1
  1
strokes_ogs.tif
176
     1
290
     0
176
     1
 40
1.0
176
     1
 40
1.0
176
     1
  0
VISUALSTYLE
  5
35
102
{ACAD_REACTORS
330
29
102
}
330
29
100
AcDbVisualStyle
  2
Brighten
 70
    12
177
     3
291
     1
 70
    58
 90
        2
176
     1
 90
        2
176
     1
 90
        0
176
     1
 90
        0
176
     1
 40
0.6
176
     1
 40
30.0
176
     1
 62
     7
420
 16777215
176
     1
 90
        1
176
     1
 90
        4
176
     1
 62
     7
176
     1
 62
   257
176
     1
 90
        1
176
     1
 90
        1
176
     1
 40
1.0
176
     1
 90
        8
176
     1
 62
     7
176
     1
 40
1.0
176
     1
 90
        1
176
     1
 90
        6
176
     1
 90
        2
176
     1
 62
     7
176
     1
 90
        5
176
     1
 90
        0
176
     1
 90
        0
176
     1
290
     0
176
     1
 90
        1
176
     1
 40
50.0
176
     1
 90
        0
176
     1
290
     0
176
     1
290
     1
176
     1
290
     1
176
     1
290
     0
176
     1
290
     0
176
     1
290
     0
176
     1
290
     0
176
     1
290
     0
176
     1
290
     0
176
     1
 90
       50
176
     1
 40
0.0
176
     1
 40
1.0
176
     1
 90
        0
176
     1
 62
    18
420
        0
176
     1
 90
       50
176
     1
 90
        3
176
     1
 62
     5
420
      255
176
     1
290
     0
176
     1
 90
       50
176
     1
 90
       50
176
     1
 90
       50
176
     1
290
     0
176
     1
 90
       50
176
     1
 62
   256
176
     0
 40
1.0
176
     0
 90
        2
176
     1
  1
strokes_ogs.tif
176
     1
290
     0
176
     1
 40
1.0
176
     1
 40
1.0
176
     1
  0
VISUALSTYLE
  5
39
102
{ACAD_REACTORS
330
29
102
}
330
29
100
AcDbVisualStyle
  2
ColorChange
 70
    16
177
     3
291
     1
 70
    58
 90
        2
176
     1
 90
        2
176
     1
 90
        3
176
     1
 90
        0
176
     1
 40
0.6
176
     1
 40
30.0
176
     1
 62
     8
420
  8421504
176
     1
 90
        1
176
     1
 90
        4
176
     1
 62
     7
176
     1
 62
   257
176
     1
 90
        1
176
     1
 90
        1
176
     1
 40
1.0
176
     1
 90
        8
176
     1
 62
     8
420
  8421504
176
     1
 40
1.0
176
     1
 90
        1
176
     1
 90
        6
176
     1
 90
        2
176
     1
 62
     7
176
     1
 90
        5
176
     1
 90
        0
176
     1
 90
        0
176
     1
290
     0
176
     1
 90
        1
176
     1
 40
0.0
176
     1
 90
        0
176
     1
290
     0
176
     1
290
     1
176
     1
290
     1
176
     1
290
     0
176
     1
290
     0
176
     1
290
     0
176
     1
290
     0
176
     1
290
     0
176
     1
290
     0
176
     1
 90
       50
176
     1
 40
0.0
176
     1
 40
1.0
176
     1
 90
        0
176
     1
 62
    18
420
        0
176
     1
 90
       50
176
     1
 90
        3
176
     1
 62
     5
420
      255
176
     1
290
     0
176
     1
 90
       50
176
     1
 90
       50
176
     1
 90
       50
176
     1
290
     0
176
     1
 90
       50
176
     1
 62
   256
176
     0
 40
1.0
176
     0
 90
        2
176
     1
  1
strokes_ogs.tif
176
     1
290
     0
176
     1
 40
1.0
176
     1
 40
1.0
176
     1
  0
VISUALSTYLE
  5
32
102
{ACAD_REACTORS
330
29
102
}
330
29
100
AcDbVisualStyle
  2
Conceptual
 70
     9
177
     3
291
     0
 70
    58
 90
        3
176
     1
 90
        2
176
     1
 90
        0
176
     1
 90
        0
176
     1
 40
0.6
176
     1
 40
30.0
176
     1
 62
     7
420
 16777215
176
     1
 90
        2
176
     1
 90
        2
176
     1
 62
     7
176
     1
 62
   257
176
     1
 90
        1
176
     1
 90
        1
176
     1
 40
179.0
176
     1
 90
        8
176
     1
 62
     7
176
     1
 40
1.0
176
     1
 90
        1
176
     1
 90
        6
176
     1
 90
        2
176
     1
 62
     7
176
     1
 90
        3
176
     1
 90
        0
176
     1
 90
        0
176
     1
290
     0
176
     1
 90
        1
176
     1
 40
0.0
176
     1
 90
        0
176
     1
290
     0
176
     1
290
     1
176
     1
290
     1
176
     1
290
     0
176
     1
290
     0
176
     1
290
     0
176
     1
290
     0
176
     1
290
     0
176
     1
290
     0
176
     1
 90
       50
176
     1
 40
0.0
176
     1
 40
1.0
176
     1
 90
        0
176
     1
 62
    18
420
        0
176
     1
 90
       50
176
     1
 90
        3
176
     1
 62
     5
420
      255
176
     1
290
     0
176
     1
 90
       50
176
     1
 90
       50
176
     1
 90
       50
176
     1
290
     0
176
     1
 90
       50
176
     1
 62
   256
176
     0
 40
1.0
176
     0
 90
        2
176
     1
  1
strokes_ogs.tif
176
     1
290
     0
176
     1
 40
1.0
176
     1
 40
1.0
176
     1
  0
VISUALSTYLE
  5
34
102
{ACAD_REACTORS
330
29
102
}
330
29
100
AcDbVisualStyle
  2
Dim
 70
    11
177
     3
291
     1
 70
    58
 90
        2
176
     1
 90
        2
176
     1
 90
        0
176
     1
 90
        0
176
     1
 40
0.6
176
     1
 40
30.0
176
     1
 62
     7
420
 16777215
176
     1
 90
        1
176
     1
 90
        4
176
     1
 62
     7
176
     1
 62
   257
176
     1
 90
        1
176
     1
 90
        1
176
     1
 40
1.0
176
     1
 90
        8
176
     1
 62
     7
176
     1
 40
1.0
176
     1
 90
        1
176
     1
 90
        6
176
     1
 90
        2
176
     1
 62
     7
176
     1
 90
        5
176
     1
 90
        0
176
     1
 90
        0
176
     1
290
     0
176
     1
 90
        1
176
     1
 40
-50.0
176
     1
 90
        0
176
     1
290
     0
176
     1
290
     1
176
     1
290
     1
176
     1
290
     0
176
     1
290
     0
176
     1
290
     0
176
     1
290
     0
176
     1
290
     0
176
     1
290
     0
176
     1
 90
       50
176
     1
 40
0.0
176
     1
 40
1.0
176
     1
 90
        0
176
     1
 62
    18
420
        0
176
     1
 90
       50
176
     1
 90
        3
176
     1
 62
     5
420
      255
176
     1
290
     0
176
     1
 90
       50
176
     1
 90
       50
176
     1
 90
       50
176
     1
290
     0
176
     1
 90
       50
176
     1
 62
   256
176
     0
 40
1.0
176
     0
 90
        2
176
     1
  1
strokes_ogs.tif
176
     1
290
     0
176
     1
 40
1.0
176
     1
 40
1.0
176
     1
  0
VISUALSTYLE
  5
41
102
{ACAD_REACTORS
330
29
102
}
330
29
100
AcDbVisualStyle
  2
EdgeColorOff
 70
    22
177
     3
291
     1
 70
    58
 90
        2
176
     0
 90
        2
176
     0
 90
        0
176
     0
 90
        0
176
     0
 40
0.6
176
     0
 40
30.0
176
     0
 62
     7
420
 16777215
176
     0
 90
        1
176
     0
 90
        4
176
     0
 62
     7
176
     0
 62
   257
176
     0
 90
        1
176
     0
 90
        1
176
     0
 40
1.0
176
     0
 90
        8
176
     2
 62
     7
176
     0
 40
1.0
176
     0
 90
        1
176
     0
 90
        6
176
     0
 90
        2
176
     0
 62
     7
176
     0
 90
        5
176
     0
 90
        0
176
     0
 90
        0
176
     0
290
     0
176
     0
 90
        1
176
     0
 40
0.0
176
     0
 90
        0
176
     0
290
     0
176
     0
290
     1
176
     0
290
     1
176
     0
290
     0
176
     0
290
     0
176
     0
290
     0
176
     0
290
     0
176
     0
290
     0
176
     0
290
     0
176
     0
 90
       50
176
     0
 40
0.0
176
     0
 40
1.0
176
     0
 90
        0
176
     0
 62
    18
420
        0
176
     0
 90
       50
176
     0
 90
        3
176
     0
 62
     5
420
      255
176
     0
290
     0
176
     0
 90
       50
176
     0
 90
       50
176
     0
 90
       50
176
     0
290
     0
176
     0
 90
       50
176
     0
 62
   256
176
     0
 40
1.0
176
     0
 90
        2
176
     0
  1
strokes_ogs.tif
176
     0
290
     0
176
     0
 40
1.0
176
     0
 40
1.0
176
     0
  0
VISUALSTYLE
  5
38
102
{ACAD_REACTORS
330
29
102
}
330
29
100
AcDbVisualStyle
  2
Facepattern
 70
    15
177
     3
291
     1
 70
    58
 90
        2
176
     1
 90
        2
176
     1
 90
        0
176
     1
 90
        0
176
     1
 40
0.6
176
     1
 40
30.0
176
     1
 62
     7
420
 16777215
176
     1
 90
        1
176
     1
 90
        4
176
     1
 62
     7
176
     1
 62
   257
176
     1
 90
        1
176
     1
 90
        1
176
     1
 40
1.0
176
     1
 90
        8
176
     1
 62
     7
176
     1
 40
1.0
176
     1
 90
        1
176
     1
 90
        6
176
     1
 90
        2
176
     1
 62
     7
176
     1
 90
        5
176
     1
 90
        0
176
     1
 90
        0
176
     1
290
     0
176
     1
 90
        1
176
     1
 40
0.0
176
     1
 90
        0
176
     1
290
     0
176
     1
290
     1
176
     1
290
     1
176
     1
290
     0
176
     1
290
     0
176
     1
290
     0
176
     1
290
     0
176
     1
290
     0
176
     1
290
     0
176
     1
 90
       50
176
     1
 40
0.0
176
     1
 40
1.0
176
     1
 90
        0
176
     1
 62
    18
420
        0
176
     1
 90
       50
176
     1
 90
        3
176
     1
 62
     5
420
      255
176
     1
290
     0
176
     1
 90
       50
176
     1
 90
       50
176
     1
 90
       50
176
     1
290
     0
176
     1
 90
       50
176
     1
 62
   256
176
     0
 40
1.0
176
     0
 90
        2
176
     1
  1
strokes_ogs.tif
176
     1
290
     0
176
     1
 40
1.0
176
     1
 40
1.0
176
     1
  0
VISUALSTYLE
  5
2A
102
{ACAD_REACTORS
330
29
102
}
330
29
100
AcDbVisualStyle
  2
Flat
 70
     0
177
     3
291
     1
 70
    58
 90
        2
176
     1
 90
        1
176
     1
 90
        1
176
     1
 90
        2
176
     1
 40
0.6
176
     1
 40
30.0
176
     1
 62
     7
420
 16777215
176
     1
 90
        0
176
     1
 90
        0
176
     1
 62
     7
176
     1
 62
   257
176
     1
 90
        1
176
     1
 90
        1
176
     1
 40
1.0
176
     1
 90
        8
176
     1
 62
     7
176
     1
 40
1.0
176
     1
 90
        1
176
     1
 90
        6
176
     1
 90
        2
176
     1
 62
     7
176
     1
 90
        5
176
     1
 90
        0
176
     1
 90
        0
176
     1
290
     0
176
     1
 90
       13
176
     1
 40
0.0
176
     1
 90
        0
176
     1
290
     0
176
     1
290
     1
176
     1
290
     1
176
     1
290
     0
176
     1
290
     0
176
     1
290
     0
176
     1
290
     0
176
     1
290
     0
176
     1
290
     0
176
     1
 90
       50
176
     1
 40
0.0
176
     1
 40
1.0
176
     1
 90
        0
176
     1
 62
    18
420
        0
176
     1
 90
       50
176
     1
 90
        3
176
     1
 62
     5
420
      255
176
     1
290
     0
176
     1
 90
       50
176
     1
 90
       50
176
     1
 90
       50
176
     1
290
     0
176
     1
 90
       50
176
     1
 62
   256
176
     0
 40
1.0
176
     0
 90
        2
176
     1
  1
strokes_ogs.tif
176
     1
290
     0
176
     1
 40
1.0
176
     1
 40
1.0
176
     1
  0
VISUALSTYLE
  5
2B
102
{ACAD_REACTORS
330
29
102
}
330
29
100
AcDbVisualStyle
  2
FlatWithEdges
 70
     1
177
     3
291
     1
 70
    58
 90
        2
176
     1
 90
        1
176
     1
 90
        1
176
     1
 90
        2
176
     1
 40
0.6
176
     1
 40
30.0
176
     1
 62
     7
420
 16777215
176
     1
 90
        1
176
     1
 90
        0
176
     1
 62
     7
176
     1
 62
   257
176
     1
 90
        1
176
     1
 90
        1
176
     1
 40
1.0
176
     1
 90
        0
176
     1
 62
   257
176
     1
 40
1.0
176
     1
 90
        1
176
     1
 90
        6
176
     1
 90
        2
176
     1
 62
     7
176
     1
 90
        5
176
     1
 90
        0
176
     1
 90
        0
176
     1
290
     0
176
     1
 90
       13
176
     1
 40
0.0
176
     1
 90
        0
176
     1
290
     0
176
     1
290
     1
176
     1
290
     1
176
     1
290
     0
176
     1
290
     0
176
     1
290
     0
176
     1
290
     0
176
     1
290
     0
176
     1
290
     0
176
     1
 90
       50
176
     1
 40
0.0
176
     1
 40
1.0
176
     1
 90
        0
176
     1
 62
    18
420
        0
176
     1
 90
       50
176
     1
 90
        3
176
     1
 62
     5
420
      255
176
     1
290
     0
176
     1
 90
       50
176
     1
 90
       50
176
     1
 90
       50
176
     1
290
     0
176
     1
 90
       50
176
     1
 62
   256
176
     0
 40
1.0
176
     0
 90
        2
176
     1
  1
strokes_ogs.tif
176
     1
290
     0
176
     1
 40
1.0
176
     1
 40
1.0
176
     1
  0
VISUALSTYLE
  5
2C
102
{ACAD_REACTORS
330
29
102
}
330
29
100
AcDbVisualStyle
  2
Gouraud
 70
     2
177
     3
291
     1
 70
    58
 90
        2
176
     1
 90
        2
176
     1
 90
        1
176
     1
 90
        2
176
     1
 40
0.6
176
     1
 40
30.0
176
     1
 62
     7
420
 16777215
176
     1
 90
        0
176
     1
 90
        0
176
     1
 62
     7
176
     1
 62
   257
176
     1
 90
        1
176
     1
 90
        1
176
     1
 40
1.0
176
     1
 90
        0
176
     1
 62
     7
176
     1
 40
1.0
176
     1
 90
        1
176
     1
 90
        6
176
     1
 90
        2
176
     1
 62
     7
176
     1
 90
        5
176
     1
 90
        0
176
     1
 90
        0
176
     1
290
     0
176
     1
 90
       13
176
     1
 40
0.0
176
     1
 90
        0
176
     1
290
     0
176
     1
290
     1
176
     1
290
     1
176
     1
290
     0
176
     1
290
     0
176
     1
290
     0
176
     1
290
     0
176
     1
290
     0
176
     1
290
     0
176
     1
 90
       50
176
     1
 40
0.0
176
     1
 40
1.0
176
     1
 90
        0
176
     1
 62
    18
420
        0
176
     1
 90
       50
176
     1
 90
        3
176
     1
 62
     5
420
      255
176
     1
290
     0
176
     1
 90
       50
176
     1
 90
       50
176
     1
 90
       50
176
     1
290
     0
176
     1
 90
       50
176
     1
 62
   256
176
     0
 40
1.0
176
     0
 90
        2
176
     1
  1
strokes_ogs.tif
176
     1
290
     0
176
     1
 40
1.0
176
     1
 40
1.0
176
     1
  0
VISUALSTYLE
  5
2D
102
{ACAD_REACTORS
330
29
102
}
330
29
100
AcDbVisualStyle
  2
GouraudWithEdges
 70
     3
177
     3
291
     1
 70
    58
 90
        2
176
     1
 90
        2
176
     1
 90
        1
176
     1
 90
        2
176
     1
 40
0.6
176
     1
 40
30.0
176
     1
 62
     7
420
 16777215
176
     1
 90
        1
176
     1
 90
        0
176
     1
 62
     7
176
     1
 62
   257
176
     1
 90
        1
176
     1
 90
        1
176
     1
 40
1.0
176
     1
 90
        0
176
     1
 62
   257
176
     1
 40
1.0
176
     1
 90
        1
176
     1
 90
        6
176
     1
 90
        2
176
     1
 62
     7
176
     1
 90
        5
176
     1
 90
        0
176
     1
 90
        0
176
     1
290
     0
176
     1
 90
       13
176
     1
 40
0.0
176
     1
 90
        0
176
     1
290
     0
176
     1
290
     1
176
     1
290
     1
176
     1
290
     0
176
     1
290
     0
176
     1
290
     0
176
     1
290
     0
176
     1
290
     0
176
     1
290
     0
176
     1
 90
       50
176
     1
 40
0.0
176
     1
 40
1.0
176
     1
 90
        0
176
     1
 62
    18
420
        0
176
     1
 90
       50
176
     1
 90
        3
176
     1
 62
     5
420
      255
176
     1
290
     0
176
     1
 90
       50
176
     1
 90
       50
176
     1
 90
       50
176
     1
290
     0
176
     1
 90
       50
176
     1
 62
   256
176
     0
 40
1.0
176
     0
 90
        2
176
     1
  1
strokes_ogs.tif
176
     1
290
     0
176
     1
 40
1.0
176
     1
 40
1.0
176
     1
  0
VISUALSTYLE
  5
31
102
{ACAD_REACTORS
330
29
102
}
330
29
100
AcDbVisualStyle
  2
Hidden
 70
     6
177
     3
291
     0
 70
    58
 90
        1
176
     1
 90
        2
176
     1
 90
        2
176
     1
 90
        0
176
     1
 40
0.6
176
     1
 40
30.0
176
     1
 62
     7
420
 16777215
176
     1
 90
        2
176
     1
 90
        2
176
     1
 62
     7
176
     1
 62
   257
176
     1
 90
        2
176
     1
 90
        1
176
     1
 40
40.0
176
     1
 90
        0
176
     1
 62
   257
176
     1
 40
1.0
176
     1
 90
        1
176
     1
 90
        6
176
     1
 90
        2
176
     1
 62
     7
176
     1
 90
        3
176
     1
 90
        0
176
     1
 90
        0
176
     1
290
     0
176
     1
 90
        1
176
     1
 40
0.0
176
     1
 90
        0
176
     1
290
     0
176
     1
290
     1
176
     1
290
     1
176
     1
290
     0
176
     1
290
     0
176
     1
290
     0
176
     1
290
     0
176
     1
290
     0
176
     1
290
     0
176
     1
 90
       50
176
     1
 40
0.0
176
     1
 40
1.0
176
     1
 90
        0
176
     1
 62
    18
420
        0
176
     1
 90
       50
176
     1
 90
        3
176
     1
 62
     5
420
      255
176
     1
290
     0
176
     1
 90
       50
176
     1
 90
       50
176
     1
 90
       50
176
     1
290
     0
176
     1
 90
       50
176
     1
 62
   256
176
     0
 40
1.0
176
     0
 90
        2
176
     1
  1
strokes_ogs.tif
176
     1
290
     0
176
     1
 40
1.0
176
     1
 40
1.0
176
     1
  0
VISUALSTYLE
  5
3F
102
{ACAD_REACTORS
330
29
102
}
330
29
100
AcDbVisualStyle
  2
JitterOff
 70
    20
177
     3
291
     1
 70
    58
 90
        2
176
     0
 90
        2
176
     0
 90
        0
176
     0
 90
        0
176
     0
 40
0.6
176
     0
 40
30.0
176
     0
 62
     7
420
 16777215
176
     0
 90
        1
176
     0
 90
        4
176
     0
 62
     7
176
     0
 62
   257
176
     0
 90
        1
176
     0
 90
        1
176
     0
 40
1.0
176
     0
 90
       10
176
     2
 62
     7
176
     0
 40
1.0
176
     0
 90
        1
176
     0
 90
        6
176
     0
 90
        2
176
     0
 62
     7
176
     0
 90
        5
176
     0
 90
        0
176
     0
 90
        0
176
     0
290
     0
176
     0
 90
        1
176
     0
 40
0.0
176
     0
 90
        0
176
     0
290
     0
176
     0
290
     1
176
     0
290
     1
176
     0
290
     0
176
     0
290
     0
176
     0
290
     0
176
     0
290
     0
176
     0
290
     0
176
     0
290
     0
176
     0
 90
       50
176
     0
 40
0.0
176
     0
 40
1.0
176
     0
 90
        0
176
     0
 62
    18
420
        0
176
     0
 90
       50
176
     0
 90
        3
176
     0
 62
     5
420
      255
176
     0
290
     0
176
     0
 90
       50
176
     0
 90
       50
176
     0
 90
       50
176
     0
290
     0
176
     0
 90
       50
176
     0
 62
   256
176
     0
 40
1.0
176
     0
 90
        2
176
     0
  1
strokes_ogs.tif
176
     0
290
     0
176
     0
 40
1.0
176
     0
 40
1.0
176
     0
  0
VISUALSTYLE
  5
37
102
{ACAD_REACTORS
330
29
102
}
330
29
100
AcDbVisualStyle
  2
Linepattern
 70
    14
177
     3
291
     1
 70
    58
 90
        2
176
     1
 90
        2
176
     1
 90
        0
176
     1
 90
        0
176
     1
 40
0.6
176
     1
 40
30.0
176
     1
 62
     7
420
 16777215
176
     1
 90
        1
176
     1
 90
        4
176
     1
 62
     7
176
     1
 62
   257
176
     1
 90
        7
176
     1
 90
        7
176
     1
 40
1.0
176
     1
 90
        8
176
     1
 62
     7
176
     1
 40
1.0
176
     1
 90
        1
176
     1
 90
        6
176
     1
 90
        2
176
     1
 62
     7
176
     1
 90
        5
176
     1
 90
        0
176
     1
 90
        0
176
     1
290
     0
176
     1
 90
        1
176
     1
 40
0.0
176
     1
 90
        0
176
     1
290
     0
176
     1
290
     1
176
     1
290
     1
176
     1
290
     0
176
     1
290
     0
176
     1
290
     0
176
     1
290
     0
176
     1
290
     0
176
     1
290
     0
176
     1
 90
       50
176
     1
 40
0.0
176
     1
 40
1.0
176
     1
 90
        0
176
     1
 62
    18
420
        0
176
     1
 90
       50
176
     1
 90
        3
176
     1
 62
     5
420
      255
176
     1
290
     0
176
     1
 90
       50
176
     1
 90
       50
176
     1
 90
       50
176
     1
290
     0
176
     1
 90
       50
176
     1
 62
   256
176
     0
 40
1.0
176
     0
 90
        2
176
     1
  1
strokes_ogs.tif
176
     1
290
     0
176
     1
 40
1.0
176
     1
 40
1.0
176
     1
  0
VISUALSTYLE
  5
40
102
{ACAD_REACTORS
330
29
102
}
330
29
100
AcDbVisualStyle
  2
OverhangOff
 70
    21
177
     3
291
     1
 70
    58
 90
        2
176
     0
 90
        2
176
     0
 90
        0
176
     0
 90
        0
176
     0
 40
0.6
176
     0
 40
30.0
176
     0
 62
     7
420
 16777215
176
     0
 90
        1
176
     0
 90
        4
176
     0
 62
     7
176
     0
 62
   257
176
     0
 90
        1
176
     0
 90
        1
176
     0
 40
1.0
176
     0
 90
        9
176
     2
 62
     7
176
     0
 40
1.0
176
     0
 90
        1
176
     0
 90
        6
176
     0
 90
        2
176
     0
 62
     7
176
     0
 90
        5
176
     0
 90
        0
176
     0
 90
        0
176
     0
290
     0
176
     0
 90
        1
176
     0
 40
0.0
176
     0
 90
        0
176
     0
290
     0
176
     0
290
     1
176
     0
290
     1
176
     0
290
     0
176
     0
290
     0
176
     0
290
     0
176
     0
290
     0
176
     0
290
     0
176
     0
290
     0
176
     0
 90
       50
176
     0
 40
0.0
176
     0
 40
1.0
176
     0
 90
        0
176
     0
 62
    18
420
        0
176
     0
 90
       50
176
     0
 90
        3
176
     0
 62
     5
420
      255
176
     0
290
     0
176
     0
 90
       50
176
     0
 90
       50
176
     0
 90
       50
176
     0
290
     0
176
     0
 90
       50
176
     0
 62
   256
176
     0
 40
1.0
176
     0
 90
        2
176
     0
  1
strokes_ogs.tif
176
     0
290
     0
176
     0
 40
1.0
176
     0
 40
1.0
176
     0
  0
VISUALSTYLE
  5
33
102
{ACAD_REACTORS
330
29
102
}
330
29
100
AcDbVisualStyle
  2
Realistic
 70
     8
177
     3
291
     0
 70
    58
 90
        2
176
     1
 90
        3
176
     1
 90
        0
176
     1
 90
        2
176
     1
 40
0.6
176
     1
 40
30.0
176
     1
 62
     7
420
 16777215
176
     1
 90
        0
176
     1
 90
        0
176
     1
 62
     7
176
     1
 62
   257
176
     1
 90
        1
176
     1
 90
        1
176
     1
 40
1.0
176
     1
 90
        8
176
     1
 62
   257
176
     1
 40
1.0
176
     1
 90
        1
176
     1
 90
        6
176
     1
 90
        2
176
     1
 62
     7
176
     1
 90
        3
176
     1
 90
        0
176
     1
 90
        0
176
     1
290
     0
176
     1
 90
       13
176
     1
 40
0.0
176
     1
 90
        0
176
     1
290
     0
176
     1
290
     1
176
     1
290
     1
176
     1
290
     0
176
     1
290
     0
176
     1
290
     0
176
     1
290
     0
176
     1
290
     0
176
     1
290
     0
176
     1
 90
       50
176
     1
 40
0.0
176
     1
 40
1.0
176
     1
 90
        0
176
     1
 62
    18
420
        0
176
     1
 90
       50
176
     1
 90
        3
176
     1
 62
     5
420
      255
176
     1
290
     0
176
     1
 90
       50
176
     1
 90
       50
176
     1
 90
       50
176
     1
290
     0
176
     1
 90
       50
176
     1
 62
   256
176
     0
 40
1.0
176
     0
 90
        2
176
     1
  1
strokes_ogs.tif
176
     1
290
     0
176
     1
 40
1.0
176
     1
 40
1.0
176
     1
  0
VISUALSTYLE
  5
3E
102
{ACAD_REACTORS
330
29
102
}
330
29
100
AcDbVisualStyle
  2
Shaded
 70
    27
177
     3
291
     0
 70
    58
 90
        2
176
     1
 90
        2
176
     1
 90
        1
176
     1
 90
        2
176
     1
 40
0.6
176
     1
 40
30.0
176
     1
 62
     7
420
 16777215
176
     1
 90
        0
176
     1
 90
        4
176
     1
 62
     7
176
     1
 62
   257
176
     1
 90
        1
176
     1
 90
        1
176
     1
 40
1.0
176
     1
 90
        8
176
     1
 62
   257
176
     1
 40
1.0
176
     1
 90
        1
176
     1
 90
        6
176
     1
 90
        2
176
     1
 62
     8
420
  7895160
176
     1
 90
        3
176
     1
 90
        0
176
     1
 90
        0
176
     1
290
     0
176
     1
 90
        5
176
     1
 40
0.0
176
     1
 90
        0
176
     1
290
     0
176
     1
290
     1
176
     1
290
     1
176
     1
290
     0
176
     1
290
     0
176
     1
290
     0
176
     1
290
     0
176
     1
290
     0
176
     1
290
     0
176
     1
 90
       50
176
     1
 40
0.0
176
     1
 40
1.0
176
     1
 90
        0
176
     1
 62
    18
420
        0
176
     1
 90
       50
176
     1
 90
        3
176
     1
 62
     5
420
      255
176
     1
290
     0
176
     1
 90
       50
176
     1
 90
       50
176
     1
 90
       50
176
     1
290
     0
176
     1
 90
       50
176
     1
 62
   256
176
     0
 40
1.0
176
     0
 90
        2
176
     1
  1
strokes_ogs.tif
176
     1
290
     0
176
     1
 40
1.0
176
     1
 40
1.0
176
     1
  0
VISUALSTYLE
  5
3D
102
{ACAD_REACTORS
330
29
102
}
330
29
100
AcDbVisualStyle
  2
Shaded with edges
 70
    26
177
     3
291
     0
 70
    58
 90
        2
176
     1
 90
        2
176
     1
 90
        1
176
     1
 90
        2
176
     1
 40
0.6
176
     1
 40
30.0
176
     1
 62
     7
420
 16777215
176
     1
 90
        1
176
     1
 90
        2
176
     1
 62
     7
176
     1
 62
   257
176
     1
 90
        2
176
     1
 90
        1
176
     1
 40
1.0
176
     1
 90
        8
176
     1
 62
   257
176
     1
 40
1.0
176
     1
 90
        1
176
     1
 90
        6
176
     1
 90
        2
176
     1
 62
     7
176
     1
 90
        3
176
     1
 90
        0
176
     1
 90
        0
176
     1
290
     0
176
     1
 90
        5
176
     1
 40
0.0
176
     1
 90
        0
176
     1
290
     0
176
     1
290
     1
176
     1
290
     1
176
     1
290
     0
176
     1
290
     0
176
     1
290
     0
176
     1
290
     0
176
     1
290
     0
176
     1
290
     0
176
     1
 90
       50
176
     1
 40
0.0
176
     1
 40
1.0
176
     1
 90
        0
176
     1
 62
    18
420
        0
176
     1
 90
       50
176
     1
 90
        3
176
     1
 62
     5
420
      255
176
     1
290
     0
176
     1
 90
       50
176
     1
 90
       50
176
     1
 90
       50
176
     1
290
     0
176
     1
 90
       50
176
     1
 62
   256
176
     0
 40
1.0
176
     0
 90
        2
176
     1
  1
strokes_ogs.tif
176
     1
290
     0
176
     1
 40
1.0
176
     1
 40
1.0
176
     1
  0
VISUALSTYLE
  5
3A
102
{ACAD_REACTORS
330
29
102
}
330
29
100
AcDbVisualStyle
  2
Shades of Gray
 70
    23
177
     3
291
     0
 70
    58
 90
        2
176
     1
 90
        2
176
     1
 90
        3
176
     1
 90
        0
176
     1
 40
0.6
176
     1
 40
30.0
176
     1
 62
     7
420
 16777215
176
     1
 90
        2
176
     1
 90
        2
176
     1
 62
     7
176
     1
 62
     7
176
     1
 90
        1
176
     1
 90
        1
176
     1
 40
40.0
176
     1
 90
        8
176
     1
 62
     7
176
     1
 40
1.0
176
     1
 90
        1
176
     1
 90
        6
176
     1
 90
        2
176
     1
 62
     7
176
     1
 90
        3
176
     1
 90
        0
176
     1
 90
        0
176
     1
290
     0
176
     1
 90
        1
176
     1
 40
0.0
176
     1
 90
        0
176
     1
290
     0
176
     1
290
     1
176
     1
290
     1
176
     1
290
     0
176
     1
290
     0
176
     1
290
     0
176
     1
290
     0
176
     1
290
     0
176
     1
290
     0
176
     1
 90
       50
176
     1
 40
0.0
176
     1
 40
1.0
176
     1
 90
        0
176
     1
 62
    18
420
        0
176
     1
 90
       50
176
     1
 90
        3
176
     1
 62
     5
420
      255
176
     1
290
     0
176
     1
 90
       50
176
     1
 90
       50
176
     1
 90
       50
176
     1
290
     0
176
     1
 90
       50
176
     1
 62
   256
176
     0
 40
1.0
176
     0
 90
        2
176
     1
  1
strokes_ogs.tif
176
     1
290
     0
176
     1
 40
1.0
176
     1
 40
1.0
176
     1
  0
VISUALSTYLE
  5
3B
102
{ACAD_REACTORS
330
29
102
}
330
29
100
AcDbVisualStyle
  2
Sketchy
 70
    24
177
     3
291
     0
 70
    58
 90
        1
176
     1
 90
        2
176
     1
 90
        2
176
     1
 90
        0
176
     1
 40
0.6
176
     1
 40
30.0
176
     1
 62
     7
420
 16777215
176
     1
 90
        2
176
     1
 90
        2
176
     1
 62
     7
176
     1
 62
     7
176
     1
 90
        1
176
     1
 90
        1
176
     1
 40
40.0
176
     1
 90
       11
176
     1
 62
     7
176
     1
 40
1.0
176
     1
 90
        1
176
     1
 90
        6
176
     1
 90
        2
176
     1
 62
     7
176
     1
 90
        6
176
     1
 90
        0
176
     1
 90
        0
176
     1
290
     0
176
     1
 90
        1
176
     1
 40
0.0
176
     1
 90
        0
176
     1
290
     0
176
     1
290
     1
176
     1
290
     1
176
     1
290
     0
176
     1
290
     0
176
     1
290
     0
176
     1
290
     0
176
     1
290
     0
176
     1
290
     0
176
     1
 90
       50
176
     1
 40
0.0
176
     1
 40
1.0
176
     1
 90
        0
176
     1
 62
    18
420
        0
176
     1
 90
       50
176
     1
 90
        3
176
     1
 62
     5
420
      255
176
     1
290
     0
176
     1
 90
       50
176
     1
 90
       50
176
     1
 90
       50
176
     1
290
     0
176
     1
 90
       50
176
     1
 62
   256
176
     0
 40
1.0
176
     0
 90
        2
176
     1
  1
strokes_ogs.tif
176
     1
290
     0
176
     1
 40
1.0
176
     1
 40
1.0
176
     1
  0
VISUALSTYLE
  5
36
102
{ACAD_REACTORS
330
29
102
}
330
29
100
AcDbVisualStyle
  2
Thicken
 70
    13
177
     3
291
     1
 70
    58
 90
        2
176
     1
 90
        2
176
     1
 90
        0
176
     1
 90
        0
176
     1
 40
0.6
176
     1
 40
30.0
176
     1
 62
     7
420
 16777215
176
     1
 90
        1
176
     1
 90
        4
176
     1
 62
     7
176
     1
 62
   257
176
     1
 90
        1
176
     1
 90
        1
176
     1
 40
1.0
176
     1
 90
       12
176
     1
 62
     7
176
     1
 40
1.0
176
     1
 90
        1
176
     1
 90
        6
176
     1
 90
        2
176
     1
 62
     7
176
     1
 90
        5
176
     1
 90
        0
176
     1
 90
        0
176
     1
290
     0
176
     1
 90
        1
176
     1
 40
0.0
176
     1
 90
        0
176
     1
290
     0
176
     1
290
     1
176
     1
290
     1
176
     1
290
     0
176
     1
290
     0
176
     1
290
     0
176
     1
290
     0
176
     1
290
     0
176
     1
290
     0
176
     1
 90
       50
176
     1
 40
0.0
176
     1
 40
1.0
176
     1
 90
        0
176
     1
 62
    18
420
        0
176
     1
 90
       50
176
     1
 90
        3
176
     1
 62
     5
420
      255
176
     1
290
     0
176
     1
 90
       50
176
     1
 90
       50
176
     1
 90
       50
176
     1
290
     0
176
     1
 90
       50
176
     1
 62
   256
176
     0
 40
1.0
176
     0
 90
        2
176
     1
  1
strokes_ogs.tif
176
     1
290
     0
176
     1
 40
1.0
176
     1
 40
1.0
176
     1
  0
VISUALSTYLE
  5
30
102
{ACAD_REACTORS
330
29
102
}
330
29
100
AcDbVisualStyle
  2
Wireframe
 70
     5
177
     3
291
     0
 70
    58
 90
        0
176
     1
 90
        2
176
     1
 90
        0
176
     1
 90
        0
176
     1
 40
0.6
176
     1
 40
30.0
176
     1
 62
     7
420
 16777215
176
     1
 90
        1
176
     1
 90
        4
176
     1
 62
     7
176
     1
 62
   257
176
     1
 90
        1
176
     1
 90
        1
176
     1
 40
1.0
176
     1
 90
        0
176
     1
 62
   257
176
     1
 40
1.0
176
     1
 90
        1
176
     1
 90
        6
176
     1
 90
        2
176
     1
 62
     7
176
     1
 90
        3
176
     1
 90
        0
176
     1
 90
        0
176
     1
290
     0
176
     1
 90
        1
176
     1
 40
0.0
176
     1
 90
        0
176
     1
290
     0
176
     1
290
     1
176
     1
290
     1
176
     1
290
     0
176
     1
290
     0
176
     1
290
     0
176
     1
290
     0
176
     1
290
     0
176
     1
290
     0
176
     1
 90
       50
176
     1
 40
0.0
176
     1
 40
1.0
176
     1
 90
        0
176
     1
 62
    18
420
        0
176
     1
 90
       50
176
     1
 90
        3
176
     1
 62
     5
420
      255
176
     1
290
     0
176
     1
 90
       50
176
     1
 90
       50
176
     1
 90
       50
176
     1
290
     0
176
     1
 90
       50
176
     1
 62
   256
176
     0
 40
1.0
176
     0
 90
        2
176
     1
  1
strokes_ogs.tif
176
     1
290
     0
176
     1
 40
1.0
176
     1
 40
1.0
176
     1
  0
VISUALSTYLE
  5
3C
102
{ACAD_REACTORS
330
29
102
}
330
29
100
AcDbVisualStyle
  2
X-Ray
 70
    25
177
     3
291
     0
 70
    58
 90
        2
176
     1
 90
        2
176
     1
 90
        1
176
     1
 90
        1
176
     1
 40
0.5
176
     1
 40
30.0
176
     1
 62
     7
420
 16777215
176
     1
 90
        1
176
     1
 90
        0
176
     1
 62
     7
176
     1
 62
   257
176
     1
 90
        1
176
     1
 90
        1
176
     1
 40
1.0
176
     1
 90
        8
176
     1
 62
     7
176
     1
 40
1.0
176
     1
 90
        1
176
     1
 90
        6
176
     1
 90
        2
176
     1
 62
     7
176
     1
 90
        3
176
     1
 90
        0
176
     1
 90
        0
176
     1
290
     0
176
     1
 90
       13
176
     1
 40
0.0
176
     1
 90
        0
176
     1
290
     0
176
     1
290
     1
176
     1
290
     1
176
     1
290
     0
176
     1
290
     0
176
     1
290
     0
176
     1
290
     0
176
     1
290
     0
176
     1
290
     0
176
     1
 90
       50
176
     1
 40
0.0
176
     1
 40
1.0
176
     1
 90
        0
176
     1
 62
    18
420
        0
176
     1
 90
       50
176
     1
 90
        3
176
     1
 62
     5
420
      255
176
     1
290
     0
176
     1
 90
       50
176
     1
 90
       50
176
     1
 90
       50
176
     1
290
     0
176
     1
 90
       50
176
     1
 62
   256
176
     0
 40
1.0
176
     0
 90
        2
176
     1
  1
strokes_ogs.tif
176
     1
290
     0
176
     1
 40
1.0
176
     1
 40
1.0
176
     1
  0
DICTIONARYVAR
  5
1CE
102
{ACAD_REACTORS
330
1C9
102
}
330
1C9
100
DictionaryVariables
280
     0
  1
1:1
  0
DICTIONARYVAR
  5
1CB
102
{ACAD_REACTORS
330
1C9
102
}
330
1C9
100
DictionaryVariables
280
     0
  1
STANDARD
  0
DICTIONARYVAR
  5
1CA
102
{ACAD_REACTORS
330
1C9
102
}
330
1C9
100
DictionaryVariables
280
     0
  1
STANDARD
  0
DICTIONARYVAR
  5
1CC
102
{ACAD_REACTORS
330
1C9
102
}
330
1C9
100
DictionaryVariables
280
     0
  1
Imperial24
  0
DICTIONARYVAR
  5
1CD
102
{ACAD_REACTORS
330
1C9
102
}
330
1C9
100
DictionaryVariables
280
     0
  1
Imperial24
  0
DICTIONARY
  5
1A
330
19
100
AcDbDictionary
280
     1
281
     1
  3
BUMPTILE
360
1C
  3
DIFFUSETILE
360
1B
  3
OPACITYTILE
360
1F
  3
REFLECTIONTILE
360
1E
  3
REFRACTIONTILE
360
20
  3
SPECULARTILE
360
1D
  0
DICTIONARY
  5
12
330
11
100
AcDbDictionary
280
     1
281
     1
  3
BUMPTILE
360
14
  3
DIFFUSETILE
360
13
  3
OPACITYTILE
360
17
  3
REFLECTIONTILE
360
16
  3
REFRACTIONTILE
360
18
  3
SPECULARTILE
360
15
  0
DICTIONARY
  5
22
330
21
100
AcDbDictionary
280
     1
281
     1
  3
BUMPTILE
360
24
  3
DIFFUSETILE
360
23
  3
OPACITYTILE
360
27
  3
REFLECTIONTILE
360
26
  3
REFRACTIONTILE
360
28
  3
SPECULARTILE
360
25
  0
DICTIONARY
  5
1CF
330
65
100
AcDbDictionary
280
     1
281
     1
  3
ACAD_ROUNDTRIP_2008_TABLESTYLE_CELLSTYLEMAP
360
1D0
  0
XRECORD
  5
1C
102
{ACAD_REACTORS
330
1A
102
}
330
1A
100
AcDbXrecord
280
     1
270
     1
271
     1
  0
XRECORD
  5
1B
102
{ACAD_REACTORS
330
1A
102
}
330
1A
100
AcDbXrecord
280
     1
270
     1
271
     1
  0
XRECORD
  5
1F
102
{ACAD_REACTORS
330
1A
102
}
330
1A
100
AcDbXrecord
280
     1
270
     1
271
     1
  0
XRECORD
  5
1E
102
{ACAD_REACTORS
330
1A
102
}
330
1A
100
AcDbXrecord
280
     1
270
     1
271
     1
  0
XRECORD
  5
20
102
{ACAD_REACTORS
330
1A
102
}
330
1A
100
AcDbXrecord
280
     1
270
     1
271
     1
  0
XRECORD
  5
1D
102
{ACAD_REACTORS
330
1A
102
}
330
1A
100
AcDbXrecord
280
     1
270
     1
271
     1
  0
XRECORD
  5
14
102
{ACAD_REACTORS
330
12
102
}
330
12
100
AcDbXrecord
280
     1
270
     1
271
     1
  0
XRECORD
  5
13
102
{ACAD_REACTORS
330
12
102
}
330
12
100
AcDbXrecord
280
     1
270
     1
271
     1
  0
XRECORD
  5
17
102
{ACAD_REACTORS
330
12
102
}
330
12
100
AcDbXrecord
280
     1
270
     1
271
     1
  0
XRECORD
  5
16
102
{ACAD_REACTORS
330
12
102
}
330
12
100
AcDbXrecord
280
     1
270
     1
271
     1
  0
XRECORD
  5
18
102
{ACAD_REACTORS
330
12
102
}
330
12
100
AcDbXrecord
280
     1
270
     1
271
     1
  0
XRECORD
  5
15
102
{ACAD_REACTORS
330
12
102
}
330
12
100
AcDbXrecord
280
     1
270
     1
271
     1
  0
XRECORD
  5
24
102
{ACAD_REACTORS
330
22
102
}
330
22
100
AcDbXrecord
280
     1
270
     1
271
     1
  0
XRECORD
  5
23
102
{ACAD_REACTORS
330
22
102
}
330
22
100
AcDbXrecord
280
     1
270
     1
271
     1
  0
XRECORD
  5
27
102
{ACAD_REACTORS
330
22
102
}
330
22
100
AcDbXrecord
280
     1
270
     1
271
     1
  0
XRECORD
  5
26
102
{ACAD_REACTORS
330
22
102
}
330
22
100
AcDbXrecord
280
     1
270
     1
271
     1
  0
XRECORD
  5
28
102
{ACAD_REACTORS
330
22
102
}
330
22
100
AcDbXrecord
280
     1
270
     1
271
     1
  0
XRECORD
  5
25
102
{ACAD_REACTORS
330
22
102
}
330
22
100
AcDbXrecord
280
     1
270
     1
271
     1
  0
CELLSTYLEMAP
  5
1D0
102
{ACAD_REACTORS
330
1CF
102
}
330
1CF
100
AcDbCellStyleMap
 90
        3
300
CELLSTYLE
  1
TABLEFORMAT_BEGIN
 90
        5
170
     1
 91
        0
 92
    32768
 62
   257
 93
        1
300
CONTENTFORMAT
  1
CONTENTFORMAT_BEGIN
 90
        0
 91
        0
 92
      512
 93
        0
300

 40
0.0
140
1.0
 94
        5
 62
     0
340
55
144
0.25
309
CONTENTFORMAT_END
171
     0
 94
        0
309
TABLEFORMAT_END
  1
CELLSTYLE_BEGIN
 90
        1
 91
        1
300
_TITLE
309
CELLSTYLE_END
300
CELLSTYLE
  1
TABLEFORMAT_BEGIN
 90
        5
170
     1
 91
        0
 92
        0
 62
   257
 93
        1
300
CONTENTFORMAT
  1
CONTENTFORMAT_BEGIN
 90
        0
 91
        0
 92
      512
 93
        0
300

 40
0.0
140
1.0
 94
        5
 62
     0
340
55
144
0.18
309
CONTENTFORMAT_END
171
     0
 94
        0
309
TABLEFORMAT_END
  1
CELLSTYLE_BEGIN
 90
        2
 91
        1
300
_HEADER
309
CELLSTYLE_END
300
CELLSTYLE
  1
TABLEFORMAT_BEGIN
 90
        5
170
     1
 91
        0
 92
        0
 62
   257
 93
        1
300
CONTENTFORMAT
  1
CONTENTFORMAT_BEGIN
 90
        0
 91
        0
 92
      512
 93
        0
300

 40
0.0
140
1.0
 94
        2
 62
     0
340
55
144
0.18
309
CONTENTFORMAT_END
171
     0
 94
        0
309
TABLEFORMAT_END
  1
CELLSTYLE_BEGIN
 90
        3
 91
        2
300
_DATA
309
CELLSTYLE_END
  0
ENDSEC
  0
EOF
