  0
SECTION
  2
HEADER
  9
$ACADVER
  1
AC1032
  9
$ACADMAINTVER
 90
      197
  9
$DWGCODEPAGE
  3
ANSI_1252
  9
$REQUIREDVERSIONS
160
                 0
  9
$INSBASE
 10
0.0
 20
0.0
 30
0.0
  9
$EXTMIN
 10
1.000000000000000E+20
 20
1.000000000000000E+20
 30
1.000000000000000E+20
  9
$EXTMAX
 10
-1.000000000000000E+20
 20
-1.000000000000000E+20
 30
-1.000000000000000E+20
  9
$LIMMIN
 10
0.0
 20
0.0
  9
$LIMMAX
 10
12.0
 20
9.0
  9
$ORTHOMODE
 70
     0
  9
$REGENMODE
 70
     1
  9
$FILLMODE
 70
     1
  9
$QTEXTMODE
 70
     0
  9
$MIRRTEXT
 70
     0
  9
$LTSCALE
 40
1.0
  9
$ATTMODE
 70
     1
  9
$TEXTSIZE
 40
0.2
  9
$TRACEWID
 40
0.05
  9
$TEXTSTYLE
  7
Standard
  9
$CLAYER
  8
0
  9
$CELTYPE
  6
ByLayer
  9
$CECOLOR
 62
   256
  9
$CELTSCALE
 40
1.0
  9
$DISPSILH
 70
     0
  9
$DIMSCALE
 40
1.0
  9
$DIMASZ
 40
0.18
  9
$DIMEXO
 40
0.0625
  9
$DIMDLI
 40
0.38
  9
$DIMRND
 40
0.0
  9
$DIMDLE
 40
0.0
  9
$DIMEXE
 40
0.18
  9
$DIMTP
 40
0.0
  9
$DIMTM
 40
0.0
  9
$DIMTXT
 40
0.18
  9
$DIMCEN
 40
0.09
  9
$DIMTSZ
 40
0.0
  9
$DIMTOL
 70
     0
  9
$DIMLIM
 70
     0
  9
$DIMTIH
 70
     1
  9
$DIMTOH
 70
     1
  9
$DIMSE1
 70
     0
  9
$DIMSE2
 70
     0
  9
$DIMTAD
 70
     0
  9
$DIMZIN
 70
     0
  9
$DIMBLK
  1

  9
$DIMASO
 70
     1
  9
$DIMSHO
 70
     1
  9
$DIMPOST
  1

  9
$DIMAPOST
  1

  9
$DIMALT
 70
     0
  9
$DIMALTD
 70
     2
  9
$DIMALTF
 40
25.4
  9
$DIMLFAC
 40
1.0
  9
$DIMTOFL
 70
     0
  9
$DIMTVP
 40
0.0
  9
$DIMTIX
 70
     0
  9
$DIMSOXD
 70
     0
  9
$DIMSAH
 70
     0
  9
$DIMBLK1
  1

  9
$DIMBLK2
  1

  9
$DIMSTYLE
  2
Standard
  9
$DIMCLRD
 70
     0
  9
$DIMCLRE
 70
     0
  9
$DIMCLRT
 70
     0
  9
$DIMTFAC
 40
1.0
  9
$DIMGAP
 40
0.09
  9
$DIMJUST
 70
     0
  9
$DIMSD1
 70
     0
  9
$DIMSD2
 70
     0
  9
$DIMTOLJ
 70
     1
  9
$DIMTZIN
 70
     0
  9
$DIMALTZ
 70
     0
  9
$DIMALTTZ
 70
     0
  9
$DIMUPT
 70
     0
  9
$DIMDEC
 70
     4
  9
$DIMTDEC
 70
     4
  9
$DIMALTU
 70
     2
  9
$DIMALTTD
 70
     2
  9
$DIMTXSTY
  7
Standard
  9
$DIMAUNIT
 70
     0
  9
$DIMADEC
 70
     0
  9
$DIMALTRND
 40
0.0
  9
$DIMAZIN
 70
     0
  9
$DIMDSEP
 70
    46
  9
$DIMATFIT
 70
     3
  9
$DIMFRAC
 70
     0
  9
$DIMLDRBLK
  1

  9
$DIMLUNIT
 70
     2
  9
$DIMLWD
 70
    -2
  9
$DIMLWE
 70
    -2
  9
$DIMTMOVE
 70
     0
  9
$DIMFXL
 40
1.0
  9
$DIMFXLON
 70
     0
  9
$DIMJOGANG
 40
0.7853981633974483
  9
$DIMTFILL
 70
     0
  9
$DIMTFILLCLR
 70
     0
  9
$DIMARCSYM
 70
     0
  9
$DIMLTYPE
  6

  9
$DIMLTEX1
  6

  9
$DIMLTEX2
  6

  9
$DIMTXTDIRECTION
 70
     0
  9
$LUNITS
 70
     2
  9
$LUPREC
 70
     4
  9
$SKETCHINC
 40
0.1
  9
$FILLETRAD
 40
0.0
  9
$AUNITS
 70
     0
  9
$AUPREC
 70
     0
  9
$MENU
  1
.
  9
$ELEVATION
 40
0.0
  9
$PELEVATION
 40
0.0
  9
$THICKNESS
 40
0.0
  9
$LIMCHECK
 70
     0
  9
$CHAMFERA
 40
0.0
  9
$CHAMFERB
 40
0.0
  9
$CHAMFERC
 40
0.0
  9
$CHAMFERD
 40
0.0
  9
$SKPOLY
 70
     0
  9
$TDCREATE
 40
2459697.590138889
  9
$TDUCREATE
 40
2459697.715138889
  9
$TDUPDATE
 40
2459697.590138889
  9
$TDUUPDATE
 40
2459697.715138889
  9
$TDINDWG
 40
0.0000000000
  9
$TDUSRTIMER
 40
0.0000000000
  9
$USRTIMER
 70
     1
  9
$ANGBASE
 50
0.0
  9
$ANGDIR
 70
     0
  9
$PDMODE
 70
     0
  9
$PDSIZE
 40
0.0
  9
$PLINEWID
 40
0.0
  9
$SPLFRAME
 70
     0
  9
$SPLINETYPE
 70
     6
  9
$SPLINESEGS
 70
     8
  9
$HANDSEED
  5
134
  9
$SURFTAB1
 70
     6
  9
$SURFTAB2
 70
     6
  9
$SURFTYPE
 70
     6
  9
$SURFU
 70
     6
  9
$SURFV
 70
     6
  9
$UCSBASE
  2

  9
$UCSNAME
  2

  9
$UCSORG
 10
0.0
 20
0.0
 30
0.0
  9
$UCSXDIR
 10
1.0
 20
0.0
 30
0.0
  9
$UCSYDIR
 10
0.0
 20
1.0
 30
0.0
  9
$UCSORTHOREF
  2

  9
$UCSORTHOVIEW
 70
     0
  9
$UCSORGTOP
 10
0.0
 20
0.0
 30
0.0
  9
$UCSORGBOTTOM
 10
0.0
 20
0.0
 30
0.0
  9
$UCSORGLEFT
 10
0.0
 20
0.0
 30
0.0
  9
$UCSORGRIGHT
 10
0.0
 20
0.0
 30
0.0
  9
$UCSORGFRONT
 10
0.0
 20
0.0
 30
0.0
  9
$UCSORGBACK
 10
0.0
 20
0.0
 30
0.0
  9
$PUCSBASE
  2

  9
$PUCSNAME
  2

  9
$PUCSORG
 10
0.0
 20
0.0
 30
0.0
  9
$PUCSXDIR
 10
1.0
 20
0.0
 30
0.0
  9
$PUCSYDIR
 10
0.0
 20
1.0
 30
0.0
  9
$PUCSORTHOREF
  2

  9
$PUCSORTHOVIEW
 70
     0
  9
$PUCSORGTOP
 10
0.0
 20
0.0
 30
0.0
  9
$PUCSORGBOTTOM
 10
0.0
 20
0.0
 30
0.0
  9
$PUCSORGLEFT
 10
0.0
 20
0.0
 30
0.0
  9
$PUCSORGRIGHT
 10
0.0
 20
0.0
 30
0.0
  9
$PUCSORGFRONT
 10
0.0
 20
0.0
 30
0.0
  9
$PUCSORGBACK
 10
0.0
 20
0.0
 30
0.0
  9
$USERI1
 70
     0
  9
$USERI2
 70
     0
  9
$USERI3
 70
     0
  9
$USERI4
 70
     0
  9
$USERI5
 70
     0
  9
$USERR1
 40
0.0
  9
$USERR2
 40
0.0
  9
$USERR3
 40
0.0
  9
$USERR4
 40
0.0
  9
$USERR5
 40
0.0
  9
$WORLDVIEW
 70
     1
  9
$SHADEDGE
 70
     3
  9
$SHADEDIF
 70
    70
  9
$TILEMODE
 70
     1
  9
$MAXACTVP
 70
    64
  9
$PINSBASE
 10
0.0
 20
0.0
 30
0.0
  9
$PLIMCHECK
 70
     0
  9
$PEXTMIN
 10
1.000000000000000E+20
 20
1.000000000000000E+20
 30
1.000000000000000E+20
  9
$PEXTMAX
 10
-1.000000000000000E+20
 20
-1.000000000000000E+20
 30
-1.000000000000000E+20
  9
$PLIMMIN
 10
0.0
 20
0.0
  9
$PLIMMAX
 10
12.0
 20
9.0
  9
$UNITMODE
 70
     0
  9
$VISRETAIN
 70
     1
  9
$PLINEGEN
 70
     0
  9
$PSLTSCALE
 70
     1
  9
$TREEDEPTH
 70
  3020
  9
$CMLSTYLE
  2
Standard
  9
$CMLJUST
 70
     0
  9
$CMLSCALE
 40
1.0
  9
$PROXYGRAPHICS
 70
     1
  9
$MEASUREMENT
 70
     0
  9
$CELWEIGHT
370
    -1
  9
$ENDCAPS
280
     0
  9
$JOINSTYLE
280
     0
  9
$LWDISPLAY
290
     1
  9
$INSUNITS
 70
     0
  9
$HYPERLINKBASE
  1

  9
$STYLESHEET
  1

  9
$XEDIT
290
     1
  9
$CEPSNTYPE
380
     0
  9
$PSTYLEMODE
290
     1
  9
$FINGERPRINTGUID
  2
{BFBF2996-8D04-8346-8EF8-AD190E36AA14}
  9
$VERSIONGUID
  2
{D95B93BE-6F94-B94A-982F-A62E87E80651}
  9
$EXTNAMES
290
     1
  9
$PSVPSCALE
 40
0.0
  9
$OLESTARTUP
290
     0
  9
$SORTENTS
280
   127
  9
$INDEXCTL
280
     0
  9
$HIDETEXT
280
     1
  9
$XCLIPFRAME
280
     2
  9
$HALOGAP
280
     0
  9
$OBSCOLOR
 70
   257
  9
$OBSLTYPE
280
     0
  9
$INTERSECTIONDISPLAY
280
     0
  9
$INTERSECTIONCOLOR
 70
   257
  9
$DIMASSOC
280
     2
  9
$PROJECTNAME
  1

  9
$CAMERADISPLAY
290
     0
  9
$LENSLENGTH
 40
50.0
  9
$CAMERAHEIGHT
 40
0.0
  9
$STEPSPERSEC
 40
2.0
  9
$STEPSIZE
 40
6.0
  9
$3DDWFPREC
 40
2.0
  9
$PSOLWIDTH
 40
0.25
  9
$PSOLHEIGHT
 40
4.0
  9
$LOFTANG1
 40
1.570796326794896
  9
$LOFTANG2
 40
1.570796326794896
  9
$LOFTMAG1
 40
0.0
  9
$LOFTMAG2
 40
0.0
  9
$LOFTPARAM
 70
     7
  9
$LOFTNORMALS
280
     1
  9
$LATITUDE
 40
37.795
  9
$LONGITUDE
 40
-122.394
  9
$NORTHDIRECTION
 40
0.0
  9
$TIMEZONE
 70
 -8000
  9
$LIGHTGLYPHDISPLAY
280
     1
  9
$TILEMODELIGHTSYNCH
280
     1
  9
$CMATERIAL
347
11
  9
$SOLIDHIST
280
     0
  9
$SHOWHIST
280
     1
  9
$DWFFRAME
280
     2
  9
$DGNFRAME
280
     0
  9
$REALWORLDSCALE
290
     1
  9
$INTERFERECOLOR
 62
     1
  9
$INTERFEREOBJVS
345
33
  9
$INTERFEREVPVS
346
30
  9
$CSHADOW
280
     0
  9
$SHADOWPLANELOCATION
 40
0.0
  0
ENDSEC
  0
SECTION
  2
CLASSES
  0
CLASS
  1
ACDBDICTIONARYWDFLT
  2
AcDbDictionaryWithDefault
  3
ObjectDBX Classes
 90
        0
 91
        1
280
     0
281
     0
  0
CLASS
  1
MATERIAL
  2
AcDbMaterial
  3
ObjectDBX Classes
 90
     1153
 91
        3
280
     0
281
     0
  0
CLASS
  1
VISUALSTYLE
  2
AcDbVisualStyle
  3
ObjectDBX Classes
 90
     4095
 91
       24
280
     0
281
     0
  0
CLASS
  1
SCALE
  2
AcDbScale
  3
ObjectDBX Classes
 90
     1153
 91
       17
280
     0
281
     0
  0
CLASS
  1
TABLESTYLE
  2
AcDbTableStyle
  3
ObjectDBX Classes
 90
     4095
 91
        1
280
     0
281
     0
  0
CLASS
  1
MLEADERSTYLE
  2
AcDbMLeaderStyle
  3
ACDB_MLEADERSTYLE_CLASS
 90
     4095
 91
        1
280
     0
281
     0
  0
CLASS
  1
ACDBSECTIONVIEWSTYLE
  2
AcDbSectionViewStyle
  3
ObjectDBX Classes
 90
     1025
 91
        1
280
     0
281
     0
  0
CLASS
  1
ACDBDETAILVIEWSTYLE
  2
AcDbDetailViewStyle
  3
ObjectDBX Classes
 90
     1025
 91
        1
280
     0
281
     0
  0
CLASS
  1
DICTIONARYVAR
  2
AcDbDictionaryVar
  3
ObjectDBX Classes
 90
        0
 91
        5
280
     0
281
     0
  0
CLASS
  1
CELLSTYLEMAP
  2
AcDbCellStyleMap
  3
ObjectDBX Classes
 90
     1152
 91
        1
280
     0
281
     0
  0
ENDSEC
  0
SECTION
  2
TABLES
  0
TABLE
  2
VPORT
  5
8
330
0
100
AcDbSymbolTable
 70
     1
  0
VPORT
  5
57
330
8
100
AcDbSymbolTableRecord
100
AcDbViewportTableRecord
  2
*Active
 70
     0
 10
0.0
 20
0.0
 11
1.0
 21
1.0
 12
0.0
 22
0.0
 13
0.0
 23
0.0
 14
1.0
 24
1.0
 15
0.0
 25
0.0
 16
0.0
 26
0.0
 36
1.0
 17
994.0943293059126
 27
570.5437989910815
 37
0.0
 40
503.7470310832703
 41
1.462361254856174
 42
50.0
 43
0.0
 44
0.0
 50
0.0
 51
0.0
 71
     0
 72
   100
 73
     1
 74
     1
 75
     0
 76
     0
 77
     0
 78
     0
281
     0
 65
     1
110
0.0
120
0.0
130
0.0
111
1.0
121
0.0
131
0.0
112
0.0
122
1.0
132
0.0
 79
     0
146
0.0
 60
     3
 61
     5
292
     1
282
     1
141
0.0
142
0.0
 63
   250
421
  3355443
  0
ENDTAB
  0
TABLE
  2
LTYPE
  5
5
330
0
100
AcDbSymbolTable
 70
     1
  0
LTYPE
  5
5B
330
5
100
AcDbSymbolTableRecord
100
AcDbLinetypeTableRecord
  2
ByBlock
 70
     0
  3

 72
    65
 73
     0
 40
0.0
  0
LTYPE
  5
5C
330
5
100
AcDbSymbolTableRecord
100
AcDbLinetypeTableRecord
  2
ByLayer
 70
     0
  3

 72
    65
 73
     0
 40
0.0
  0
LTYPE
  5
5D
330
5
100
AcDbSymbolTableRecord
100
AcDbLinetypeTableRecord
  2
Continuous
 70
     0
  3
Solid line
 72
    65
 73
     0
 40
0.0
  0
ENDTAB
  0
TABLE
  2
LAYER
  5
2
330
0
100
AcDbSymbolTable
 70
     2
  0
LAYER
  5
54
330
2
100
AcDbSymbolTableRecord
100
AcDbLayerTableRecord
  2
0
 70
     0
 62
     7
  6
Continuous
370
    -3
390
F
347
21
348
0
  0
LAYER
  5
78
330
2
100
AcDbSymbolTableRecord
100
AcDbLayerTableRecord
  2
Camada 1
 70
     0
 62
     7
  6
Continuous
370
     0
390
F
347
21
348
0
  0
ENDTAB
  0
TABLE
  2
STYLE
  5
3
330
0
100
AcDbSymbolTable
 70
     2
  0
STYLE
  5
55
330
3
100
AcDbSymbolTableRecord
100
AcDbTextStyleTableRecord
  2
Standard
 70
     0
 40
0.0
 41
1.0
 50
0.0
 71
     0
 42
0.2
  3
txt
  4

  0
STYLE
  5
5A
330
3
100
AcDbSymbolTableRecord
100
AcDbTextStyleTableRecord
  2
Annotative
 70
     0
 40
0.0
 41
1.0
 50
0.0
 71
     0
 42
0.2
  3
txt
  4

1001
AcadAnnotative
1000
AnnotativeData
1002
{
1070
     1
1070
     1
1002
}
  0
ENDTAB
  0
TABLE
  2
VIEW
  5
6
330
0
100
AcDbSymbolTable
 70
     0
  0
ENDTAB
  0
TABLE
  2
UCS
  5
7
330
0
100
AcDbSymbolTable
 70
     0
  0
ENDTAB
  0
TABLE
  2
APPID
  5
9
330
0
100
AcDbSymbolTable
 70
     2
  0
APPID
  5
56
330
9
100
AcDbSymbolTableRecord
100
AcDbRegAppTableRecord
  2
ACAD
 70
     0
  0
APPID
  5
5E
330
9
100
AcDbSymbolTableRecord
100
AcDbRegAppTableRecord
  2
AcadAnnotative
 70
     0
  0
ENDTAB
  0
TABLE
  2
DIMSTYLE
  5
A
330
0
100
AcDbSymbolTable
 70
     2
100
AcDbDimStyleTable
 71
     0
  0
DIMSTYLE
105
58
330
A
100
AcDbSymbolTableRecord
100
AcDbDimStyleTableRecord
  2
Standard
 70
     0
340
55
  0
DIMSTYLE
105
59
330
A
100
AcDbSymbolTableRecord
100
AcDbDimStyleTableRecord
  2
Annotative
 70
     0
340
55
1001
AcadAnnotative
1000
AnnotativeData
1002
{
1070
     1
1070
     1
1002
}
  0
ENDTAB
  0
TABLE
  2
BLOCK_RECORD
  5
1
330
0
100
AcDbSymbolTable
 70
     1
  0
BLOCK_RECORD
  5
70
330
1
100
AcDbSymbolTableRecord
100
AcDbBlockTableRecord
  2
*Model_Space
340
73
 70
     0
280
     1
281
     0
  0
BLOCK_RECORD
  5
6C
330
1
100
AcDbSymbolTableRecord
100
AcDbBlockTableRecord
  2
*Paper_Space
340
6F
 70
     0
280
     1
281
     0
  0
BLOCK_RECORD
  5
74
330
1
100
AcDbSymbolTableRecord
100
AcDbBlockTableRecord
  2
*Paper_Space0
340
77
 70
     0
280
     1
281
     0
  0
ENDTAB
  0
ENDSEC
  0
SECTION
  2
BLOCKS
  0
BLOCK
  5
71
330
70
100
AcDbEntity
  8
0
100
AcDbBlockBegin
  2
*Model_Space
 70
     0
 10
0.0
 20
0.0
 30
0.0
  3
*Model_Space
  1

  0
ENDBLK
  5
72
330
70
100
AcDbEntity
  8
0
100
AcDbBlockEnd
  0
BLOCK
  5
6D
330
6C
100
AcDbEntity
 67
     1
  8
0
100
AcDbBlockBegin
  2
*Paper_Space
 70
     0
 10
0.0
 20
0.0
 30
0.0
  3
*Paper_Space
  1

  0
ENDBLK
  5
6E
330
6C
100
AcDbEntity
 67
     1
  8
0
100
AcDbBlockEnd
  0
BLOCK
  5
75
330
74
100
AcDbEntity
 67
     1
  8
0
100
AcDbBlockBegin
  2
*Paper_Space0
 70
     0
 10
0.0
 20
0.0
 30
0.0
  3
*Paper_Space0
  1

  0
ENDBLK
  5
76
330
74
100
AcDbEntity
 67
     1
  8
0
100
AcDbBlockEnd
  0
ENDSEC
  0
SECTION
  2
ENTITIES
  0
LINE
  5
79
330
70
100
AcDbEntity
  8
Camada 1
 62
     7
370
    13
100
AcDbLine
 10
1064.31955180172
 20
395.7885562031861
 30
0.0
 11
1117.04543459261
 21
395.7885562031861
 31
0.0
  0
LINE
  5
7A
330
70
100
AcDbEntity
  8
Camada 1
 62
     7
370
    13
100
AcDbLine
 10
672.2801954115912
 20
414.9934582179448
 30
0.0
 11
672.2801954115912
 21
360.7179148967098
 31
0.0
  0
LINE
  5
7B
330
70
100
AcDbEntity
  8
Camada 1
 62
     7
370
    13
100
AcDbLine
 10
1077.12919811006
 20
414.6359946058037
 30
0.0
 11
1077.12919811006
 21
360.5838660421559
 31
0.0
  0
LINE
  5
7C
330
70
100
AcDbEntity
  8
Camada 1
 62
     7
370
    13
100
AcDbLine
 10
1199.125812272679
 20
393.5395888536896
 30
0.0
 11
1199.125812272679
 21
360.5838660421559
 31
0.0
  0
LINE
  5
7D
330
70
100
AcDbEntity
  8
Camada 1
 62
     7
370
    13
100
AcDbLine
 10
1216.399195321359
 20
393.5395888536896
 30
0.0
 11
1216.399195321359
 21
360.5838660421559
 31
0.0
  0
LINE
  5
7E
330
70
100
AcDbEntity
  8
Camada 1
 62
     7
370
    13
100
AcDbLine
 10
1062.889697353159
 20
780.3468533768009
 30
0.0
 11
1117.04543459261
 21
780.3468533768009
 31
0.0
  0
LINE
  5
7F
330
70
100
AcDbEntity
  8
Camada 1
 62
   250
370
    13
100
AcDbLine
 10
1113.82900923421
 20
395.7885562031861
 30
0.0
 11
1113.889691349621
 21
779.9531907340797
 31
0.0
  0
LINE
  5
80
330
70
100
AcDbEntity
  8
Camada 1
 62
   250
370
    13
100
AcDbLine
 10
1076.161979089131
 20
362.5516377248259
 30
0.0
 11
672.2802029944632
 21
362.6172568444908
 31
0.0
  0
LINE
  5
81
330
70
100
AcDbEntity
  8
Camada 1
 62
   250
370
    13
100
AcDbLine
 10
1216.399195321359
 20
362.5516377248259
 30
0.0
 11
1199.125812272679
 21
362.6172568444908
 31
0.0
  0
LINE
  5
82
330
70
100
AcDbEntity
  8
Camada 1
 62
   250
370
    13
100
AcDbLine
 10
1251.497121419179
 20
362.5527319569755
 30
0.0
 11
1216.399412055511
 21
362.6183510766405
 31
0.0
  0
MTEXT
  5
83
330
70
100
AcDbEntity
  8
Camada 1
100
AcDbMText
 10
851.5474052429199
 20
368.1767778396606
 30
0.0
 40
0.2
 41
0.0
 46
0.0
 71
     7
 72
     1
  1
\C7;\FMyriad Pro|b0|i0|c1;\H19.116000;\W0.800000;475
 73
     1
 44
1.0
  0
MTEXT
  5
84
330
70
100
AcDbEntity
  8
Camada 1
100
AcDbMText
 10
1224.42739868164
 20
368.1767778396606
 30
0.0
 40
0.2
 41
0.0
 46
0.0
 71
     7
 72
     1
  1
\C7;\FMyriad Pro|b0|i0|c1;\H19.116000;\W0.800000;18
 73
     1
 44
1.0
  0
MTEXT
  5
85
330
70
100
AcDbEntity
  8
Camada 1
100
AcDbMText
 10
1109.476552963257
 20
579.0693454742431
 30
0.0
 40
0.2
 41
0.0
 46
0.0
 71
     7
 72
     1
  1
\C7;\FMyriad Pro|b0|i0|c1;\H19.116000;\W0.800000;451
 11
0.0000000000000001
 21
1.0
 31
0.0
 73
     1
 44
1.0
  0
LINE
  5
86
330
70
100
AcDbEntity
  8
Camada 1
 62
     7
370
    30
100
AcDbLine
 10
672.2801954115912
 20
423.7113690397345
 30
0.0
 11
672.2801954115912
 21
695.4233478535424
 31
0.0
  0
LINE
  5
87
330
70
100
AcDbEntity
  8
Camada 1
 62
     7
370
    30
100
AcDbLine
 10
699.5172729743244
 20
396.4742914769959
 30
0.0
 11
1049.343487920711
 21
396.4742914769959
 31
0.0
  0
LINE
  5
88
330
70
100
AcDbEntity
  8
Camada 1
 62
     7
370
    30
100
AcDbLine
 10
692.2824242467213
 20
692.4442924951163
 30
0.0
 11
692.2824242467213
 21
426.6904243981589
 31
0.0
  0
LINE
  5
89
330
70
100
AcDbEntity
  8
Camada 1
 62
     7
370
    30
100
AcDbLine
 10
700.7940109850714
 20
426.6904243981589
 30
0.0
 11
700.7940109850714
 21
692.4442924951163
 31
0.0
  0
LINE
  5
8A
330
70
100
AcDbEntity
  8
Camada 1
 62
     7
370
    30
100
AcDbLine
 10
702.4963283327451
 20
416.4765203121369
 30
0.0
 11
1046.364432562281
 21
416.4765203121369
 31
0.0
  0
LINE
  5
8B
330
70
100
AcDbEntity
  8
Camada 1
 62
     7
370
    30
100
AcDbLine
 10
1046.364432562281
 20
424.9881070504852
 30
0.0
 11
702.4963283327451
 21
424.9881070504852
 31
0.0
  0
LINE
  5
8C
330
70
100
AcDbEntity
  8
Camada 1
 62
     7
370
    30
100
AcDbLine
 10
905.0720927055953
 20
652.2474729645609
 30
0.0
 11
905.0720927055953
 21
524.5736718892403
 31
0.0
  0
LINE
  5
8D
330
70
100
AcDbEntity
  8
Camada 1
 62
     7
370
    30
100
AcDbLine
 10
918.6906314869574
 20
652.2474729645609
 30
0.0
 11
918.6906314869574
 21
524.5736718892403
 31
0.0
  0
LINE
  5
8E
330
70
100
AcDbEntity
  8
Camada 1
 62
     7
370
    30
100
AcDbLine
 10
702.4963283327451
 20
694.1466098427873
 30
0.0
 11
776.0713575484169
 21
694.1466098427873
 31
0.0
  0
LINE
  5
8F
330
70
100
AcDbEntity
  8
Camada 1
 62
     7
370
    30
100
AcDbLine
 10
776.0713575484169
 20
702.658196581141
 30
0.0
 11
702.4963283327451
 21
702.658196581141
 31
0.0
  0
LINE
  5
90
330
70
100
AcDbEntity
  8
Camada 1
 62
     7
370
    30
100
AcDbLine
 10
699.5172729743244
 20
722.6604254162748
 30
0.0
 11
776.0713575484169
 21
722.6604254162748
 31
0.0
  0
LINE
  5
91
330
70
100
AcDbEntity
  8
Camada 1
 62
     7
370
    30
100
AcDbLine
 10
1042.959797866941
 20
524.5736718892403
 30
0.0
 11
1042.959797866941
 21
652.2474729645609
 31
0.0
  0
LINE
  5
92
330
70
100
AcDbEntity
  8
Camada 1
 62
     7
370
    30
100
AcDbLine
 10
894.0070299457348
 20
751.8330378033133
 30
0.0
 11
1046.364432562281
 21
751.8330378033133
 31
0.0
  0
LINE
  5
93
330
70
100
AcDbEntity
  8
Camada 1
 62
     7
370
    30
100
AcDbLine
 10
1048.066749909951
 20
750.1307204556415
 30
0.0
 11
1048.066749909951
 21
699.0534615797323
 31
0.0
  0
LINE
  5
94
330
70
100
AcDbEntity
  8
Camada 1
 62
     7
370
    30
100
AcDbLine
 10
1048.066749909951
 20
477.7676832738952
 30
0.0
 11
1048.066749909951
 21
426.6904243981589
 31
0.0
  0
LINE
  5
95
330
70
100
AcDbEntity
  8
Camada 1
 62
     7
370
    30
100
AcDbLine
 10
1056.578336648299
 20
750.1307204556415
 30
0.0
 11
1056.578336648299
 21
426.6904243981589
 31
0.0
  0
LINE
  5
96
330
70
100
AcDbEntity
  8
Camada 1
 62
     7
370
    30
100
AcDbLine
 10
1046.364432562281
 20
760.3446245416671
 30
0.0
 11
894.0070299457348
 21
760.3446245416671
 31
0.0
  0
LINE
  5
97
330
70
100
AcDbEntity
  8
Camada 1
 62
     7
370
    30
100
AcDbLine
 10
1076.58056548344
 20
423.7113690397345
 30
0.0
 11
1076.58056548344
 21
753.109775814064
 31
0.0
  0
LINE
  5
98
330
70
100
AcDbEntity
  8
Camada 1
 62
     7
370
    30
100
AcDbLine
 10
1049.343487920711
 20
780.3468533768009
 30
0.0
 11
894.0070299457348
 21
780.3468533768009
 31
0.0
  0
SPLINE
  5
99
330
70
100
AcDbEntity
  8
Camada 1
 62
     7
370
    30
100
AcDbSpline
210
0.0
220
0.0
230
1.0
 70
     8
 71
     3
 72
     8
 73
     4
 74
     0
 42
0.0000000001
 43
0.0000000001
 40
0.0
 40
0.0
 40
0.0
 40
0.0
 40
1.0
 40
1.0
 40
1.0
 40
1.0
 10
894.0070299457348
 20
780.3468533768009
 30
0.0
 10
864.4945380224926
 20
780.3468533768009
 30
0.0
 10
836.693356812737
 20
766.4942136472527
 30
0.0
 10
818.9207291117963
 20
742.9332101855416
 30
0.0
  0
SPLINE
  5
9A
330
70
100
AcDbEntity
  8
Camada 1
 62
     7
370
    30
100
AcDbSpline
210
0.0
220
0.0
230
1.0
 70
     8
 71
     3
 72
     8
 73
     4
 74
     0
 42
0.0000000001
 43
0.0000000001
 40
0.0
 40
0.0
 40
0.0
 40
0.0
 40
1.0
 40
1.0
 40
1.0
 40
1.0
 10
894.0070299457348
 20
760.3446245416671
 30
0.0
 10
868.6580269087116
 20
760.3446245416671
 30
0.0
 10
844.7291540392161
 20
748.6401828498173
 30
0.0
 10
829.1680146675062
 20
728.6296132321104
 30
0.0
  0
SPLINE
  5
9B
330
70
100
AcDbEntity
  8
Camada 1
 62
     7
370
    30
100
AcDbSpline
210
0.0
220
0.0
230
1.0
 70
     8
 71
     3
 72
     8
 73
     4
 74
     0
 42
0.0000000001
 43
0.0000000001
 40
0.0
 40
0.0
 40
0.0
 40
0.0
 40
1.0
 40
1.0
 40
1.0
 40
1.0
 10
776.0713575484169
 20
694.1466098427873
 30
0.0
 10
799.4564909444561
 20
694.1466098427873
 30
0.0
 10
821.5315162720035
 20
704.9442704012899
 30
0.0
 10
835.8870836081459
 20
723.4045561631192
 30
0.0
  0
SPLINE
  5
9C
330
70
100
AcDbEntity
  8
Camada 1
 62
     7
370
    30
100
AcDbSpline
210
0.0
220
0.0
230
1.0
 70
     8
 71
     3
 72
    11
 73
     7
 74
     0
 42
0.0000000001
 43
0.0000000001
 40
0.0
 40
0.0
 40
0.0
 40
0.0
 40
1.0
 40
1.0
 40
1.0
 40
2.0
 40
2.0
 40
2.0
 40
2.0
 10
1041.91644207321
 20
697.0403007791392
 30
0.0
 10
1017.178046369419
 20
730.7800540185371
 30
0.0
 10
969.7721401017698
 20
738.077096064604
 30
0.0
 10
936.0323868623709
 20
713.3387003608167
 30
0.0
 10
916.5704739782176
 20
699.068990127178
 30
0.0
 10
905.0720927055953
 20
676.3802449409068
 30
0.0
 10
905.0720927055953
 20
652.2474729645609
 30
0.0
  0
SPLINE
  5
9D
330
70
100
AcDbEntity
  8
Camada 1
 62
     7
370
    30
100
AcDbSpline
210
0.0
220
0.0
230
1.0
 70
     8
 71
     3
 72
    11
 73
     7
 74
     0
 42
0.0000000001
 43
0.0000000001
 40
0.0
 40
0.0
 40
0.0
 40
0.0
 40
1.0
 40
1.0
 40
1.0
 40
2.0
 40
2.0
 40
2.0
 40
2.0
 10
905.0720927055953
 20
524.5736718892403
 30
0.0
 10
905.0720927055953
 20
482.7363778723829
 30
0.0
 10
938.9879206600944
 20
448.8205499178802
 30
0.0
 10
980.8252146769483
 20
448.8205499178802
 30
0.0
 10
1004.9579866533
 20
448.8205499178802
 30
0.0
 10
1027.64673183957
 20
460.3189311905116
 30
0.0
 10
1041.91644207321
 20
479.7808440746621
 30
0.0
  0
SPLINE
  5
9E
330
70
100
AcDbEntity
  8
Camada 1
 62
     7
370
    30
100
AcDbSpline
210
0.0
220
0.0
230
1.0
 70
     8
 71
     3
 72
     8
 73
     4
 74
     0
 42
0.0000000001
 43
0.0000000001
 40
0.0
 40
0.0
 40
0.0
 40
0.0
 40
1.0
 40
1.0
 40
1.0
 40
1.0
 10
894.0070299457348
 20
751.8330378033133
 30
0.0
 10
871.284866601667
 20
751.8330378033133
 30
0.0
 10
849.8356696771971
 20
741.3414916235733
 30
0.0
 10
835.8870836082532
 20
723.4045561631355
 30
0.0
  0
SPLINE
  5
9F
330
70
100
AcDbEntity
  8
Camada 1
 62
     7
370
    30
100
AcDbSpline
210
0.0
220
0.0
230
1.0
 70
     8
 71
     3
 72
     8
 73
     4
 74
     0
 42
0.0000000001
 43
0.0000000001
 40
0.0
 40
0.0
 40
0.0
 40
0.0
 40
1.0
 40
1.0
 40
1.0
 40
1.0
 10
776.0713575484169
 20
702.658196581141
 30
0.0
 10
796.8296512515061
 20
702.658196581141
 30
0.0
 10
816.4250006340207
 20
712.2429616275349
 30
0.0
 10
829.1680146673952
 20
728.6296132320931
 30
0.0
  0
SPLINE
  5
A0
330
70
100
AcDbEntity
  8
Camada 1
 62
     7
370
    30
100
AcDbSpline
210
0.0
220
0.0
230
1.0
 70
     8
 71
     3
 72
    11
 73
     7
 74
     0
 42
0.0000000001
 43
0.0000000001
 40
0.0
 40
0.0
 40
0.0
 40
0.0
 40
1.0
 40
1.0
 40
1.0
 40
2.0
 40
2.0
 40
2.0
 40
2.0
 10
1042.959797866941
 20
652.2474729645609
 30
0.0
 10
1042.959797866941
 20
686.5634556974837
 30
0.0
 10
1015.141197409879
 20
714.3820561545526
 30
0.0
 10
980.8252146769483
 20
714.3820561545526
 30
0.0
 10
946.5092319440282
 20
714.3820561545526
 30
0.0
 10
918.6906314869574
 20
686.5634556974837
 30
0.0
 10
918.6906314869574
 20
652.2474729645609
 30
0.0
  0
SPLINE
  5
A1
330
70
100
AcDbEntity
  8
Camada 1
 62
     7
370
    30
100
AcDbSpline
210
0.0
220
0.0
230
1.0
 70
     8
 71
     3
 72
    11
 73
     7
 74
     0
 42
0.0000000001
 43
0.0000000001
 40
0.0
 40
0.0
 40
0.0
 40
0.0
 40
1.0
 40
1.0
 40
1.0
 40
2.0
 40
2.0
 40
2.0
 40
2.0
 10
918.6906314869574
 20
524.5736718892403
 30
0.0
 10
918.6906314869574
 20
490.2576891563121
 30
0.0
 10
946.5092319440282
 20
462.4390886992514
 30
0.0
 10
980.8252146769483
 20
462.4390886992514
 30
0.0
 10
1015.141197409879
 20
462.4390886992514
 30
0.0
 10
1042.959797866941
 20
490.2576891563121
 30
0.0
 10
1042.959797866941
 20
524.5736718892403
 30
0.0
  0
SPLINE
  5
A2
330
70
100
AcDbEntity
  8
Camada 1
 62
     7
370
    30
100
AcDbSpline
210
0.0
220
0.0
230
1.0
 70
     8
 71
     3
 72
     8
 73
     4
 74
     0
 42
0.0000000001
 43
0.0000000001
 40
0.0
 40
0.0
 40
0.0
 40
0.0
 40
1.0
 40
1.0
 40
1.0
 40
1.0
 10
776.0713575483696
 20
722.6604254162403
 30
0.0
 10
792.8155539918316
 20
721.9783714790792
 30
0.0
 10
808.8288956930846
 20
729.554562632009
 30
0.0
 10
818.9207291116963
 20
742.9332101855252
 30
0.0
  0
SPLINE
  5
A3
330
70
100
AcDbEntity
  8
Camada 1
 62
     7
370
    30
100
AcDbSpline
210
0.0
220
0.0
230
1.0
 70
     8
 71
     3
 72
     8
 73
     4
 74
     0
 42
0.0000000001
 43
0.0000000001
 40
0.0
 40
0.0
 40
0.0
 40
0.0
 40
1.0
 40
1.0
 40
1.0
 40
1.0
 10
1076.58056548344
 20
753.109775814064
 30
0.0
 10
1076.58056548344
 20
768.1523983819233
 30
0.0
 10
1064.38611048856
 20
780.3468533768009
 30
0.0
 10
1049.343487920711
 20
780.3468533768009
 30
0.0
  0
SPLINE
  5
A4
330
70
100
AcDbEntity
  8
Camada 1
 62
     7
370
    30
100
AcDbSpline
210
0.0
220
0.0
230
1.0
 70
     8
 71
     3
 72
     8
 73
     4
 74
     0
 42
0.0000000001
 43
0.0000000001
 40
0.0
 40
0.0
 40
0.0
 40
0.0
 40
1.0
 40
1.0
 40
1.0
 40
1.0
 10
1049.343487920711
 20
396.4742914769959
 30
0.0
 10
1064.38611048856
 20
396.4742914769959
 30
0.0
 10
1076.58056548344
 20
408.6687464718761
 30
0.0
 10
1076.58056548344
 20
423.7113690397345
 30
0.0
  0
SPLINE
  5
A5
330
70
100
AcDbEntity
  8
Camada 1
 62
     7
370
    30
100
AcDbSpline
210
0.0
220
0.0
230
1.0
 70
     8
 71
     3
 72
     8
 73
     4
 74
     0
 42
0.0000000001
 43
0.0000000001
 40
0.0
 40
0.0
 40
0.0
 40
0.0
 40
1.0
 40
1.0
 40
1.0
 40
1.0
 10
672.2801954115912
 20
423.7113690397345
 30
0.0
 10
672.2801954115912
 20
408.6687464718761
 30
0.0
 10
684.4746504064642
 20
396.4742914769959
 30
0.0
 10
699.5172729743244
 20
396.4742914769959
 30
0.0
  0
SPLINE
  5
A6
330
70
100
AcDbEntity
  8
Camada 1
 62
     7
370
    30
100
AcDbSpline
210
0.0
220
0.0
230
1.0
 70
     8
 71
     3
 72
     8
 73
     4
 74
     0
 42
0.0000000001
 43
0.0000000001
 40
0.0
 40
0.0
 40
0.0
 40
0.0
 40
1.0
 40
1.0
 40
1.0
 40
1.0
 10
699.5172729743244
 20
722.6604254162748
 30
0.0
 10
684.4746504064642
 20
722.6604254162748
 30
0.0
 10
672.2801954115912
 20
710.4659704213973
 30
0.0
 10
672.2801954115912
 20
695.4233478535424
 30
0.0
  0
SPLINE
  5
A7
330
70
100
AcDbEntity
  8
Camada 1
 62
     7
370
    30
100
AcDbSpline
210
0.0
220
0.0
230
1.0
 70
     8
 71
     3
 72
     8
 73
     4
 74
     0
 42
0.0000000001
 43
0.0000000001
 40
0.0
 40
0.0
 40
0.0
 40
0.0
 40
1.0
 40
1.0
 40
1.0
 40
1.0
 10
1056.578336648299
 20
750.1307204556415
 30
0.0
 10
1056.578336648299
 20
755.7717039185881
 30
0.0
 10
1052.005416025229
 20
760.3446245416671
 30
0.0
 10
1046.364432562281
 20
760.3446245416671
 30
0.0
  0
SPLINE
  5
A8
330
70
100
AcDbEntity
  8
Camada 1
 62
     7
370
    30
100
AcDbSpline
210
0.0
220
0.0
230
1.0
 70
     8
 71
     3
 72
     8
 73
     4
 74
     0
 42
0.0000000001
 43
0.0000000001
 40
0.0
 40
0.0
 40
0.0
 40
0.0
 40
1.0
 40
1.0
 40
1.0
 40
1.0
 10
1046.364432562281
 20
416.4765203121369
 30
0.0
 10
1052.005416025229
 20
416.4765203121369
 30
0.0
 10
1056.578336648299
 20
421.0494409352104
 30
0.0
 10
1056.578336648299
 20
426.6904243981589
 30
0.0
  0
SPLINE
  5
A9
330
70
100
AcDbEntity
  8
Camada 1
 62
     7
370
    30
100
AcDbSpline
210
0.0
220
0.0
230
1.0
 70
     8
 71
     3
 72
     8
 73
     4
 74
     0
 42
0.0000000001
 43
0.0000000001
 40
0.0
 40
0.0
 40
0.0
 40
0.0
 40
1.0
 40
1.0
 40
1.0
 40
1.0
 10
692.2824242467213
 20
426.6904243981589
 30
0.0
 10
692.2824242467213
 20
421.0494409352104
 30
0.0
 10
696.8553448698021
 20
416.4765203121369
 30
0.0
 10
702.4963283327451
 20
416.4765203121369
 30
0.0
  0
SPLINE
  5
AA
330
70
100
AcDbEntity
  8
Camada 1
 62
     7
370
    30
100
AcDbSpline
210
0.0
220
0.0
230
1.0
 70
     8
 71
     3
 72
     8
 73
     4
 74
     0
 42
0.0000000001
 43
0.0000000001
 40
0.0
 40
0.0
 40
0.0
 40
0.0
 40
1.0
 40
1.0
 40
1.0
 40
1.0
 10
702.4963283327451
 20
702.658196581141
 30
0.0
 10
696.8553448698021
 20
702.658196581141
 30
0.0
 10
692.2824242467213
 20
698.0852759580638
 30
0.0
 10
692.2824242467213
 20
692.4442924951163
 30
0.0
  0
SPLINE
  5
AB
330
70
100
AcDbEntity
  8
Camada 1
 62
     7
370
    30
100
AcDbSpline
210
0.0
220
0.0
230
1.0
 70
     8
 71
     3
 72
    11
 73
     7
 74
     0
 42
0.0000000001
 43
0.0000000001
 40
0.0
 40
0.0
 40
0.0
 40
0.0
 40
1.0
 40
1.0
 40
1.0
 40
2.0
 40
2.0
 40
2.0
 40
2.0
 10
1041.91644207321
 20
697.0403007790773
 30
0.0
 10
1043.02828008236
 20
695.523907375059
 30
0.0
 10
1045.158882611249
 20
695.1959504291689
 30
0.0
 10
1046.675276015259
 20
696.3077884383274
 30
0.0
 10
1047.549968729159
 20
696.9491237297279
 30
0.0
 10
1048.066749909951
 20
697.968842614503
 30
0.0
 10
1048.066749909951
 20
699.0534615797323
 30
0.0
  0
SPLINE
  5
AC
330
70
100
AcDbEntity
  8
Camada 1
 62
     7
370
    30
100
AcDbSpline
210
0.0
220
0.0
230
1.0
 70
     8
 71
     3
 72
    11
 73
     7
 74
     0
 42
0.0000000001
 43
0.0000000001
 40
0.0
 40
0.0
 40
0.0
 40
0.0
 40
1.0
 40
1.0
 40
1.0
 40
2.0
 40
2.0
 40
2.0
 40
2.0
 10
1048.066749909951
 20
477.7676832738952
 30
0.0
 10
1048.066749909951
 20
479.6480110948778
 30
0.0
 10
1046.54244303559
 20
481.1723179692344
 30
0.0
 10
1044.66211521461
 20
481.1723179692344
 30
0.0
 10
1043.57749624938
 20
481.1723179692344
 30
0.0
 10
1042.557777364611
 20
480.6555367884466
 30
0.0
 10
1041.91644207321
 20
479.7808440745503
 30
0.0
  0
SPLINE
  5
AD
330
70
100
AcDbEntity
  8
Camada 1
 62
     7
370
    30
100
AcDbSpline
210
0.0
220
0.0
230
1.0
 70
     8
 71
     3
 72
     8
 73
     4
 74
     0
 42
0.0000000001
 43
0.0000000001
 40
0.0
 40
0.0
 40
0.0
 40
0.0
 40
1.0
 40
1.0
 40
1.0
 40
1.0
 10
1046.364432562281
 20
424.9881070504852
 30
0.0
 10
1047.30459647278
 20
424.9881070504852
 30
0.0
 10
1048.066749909951
 20
425.7502604876626
 30
0.0
 10
1048.066749909951
 20
426.6904243981589
 30
0.0
  0
SPLINE
  5
AE
330
70
100
AcDbEntity
  8
Camada 1
 62
     7
370
    30
100
AcDbSpline
210
0.0
220
0.0
230
1.0
 70
     8
 71
     3
 72
     8
 73
     4
 74
     0
 42
0.0000000001
 43
0.0000000001
 40
0.0
 40
0.0
 40
0.0
 40
0.0
 40
1.0
 40
1.0
 40
1.0
 40
1.0
 10
700.7940109850714
 20
426.6904243981589
 30
0.0
 10
700.7940109850714
 20
425.7502604876626
 30
0.0
 10
701.556164422258
 20
424.9881070504852
 30
0.0
 10
702.4963283327451
 20
424.9881070504852
 30
0.0
  0
SPLINE
  5
AF
330
70
100
AcDbEntity
  8
Camada 1
 62
     7
370
    30
100
AcDbSpline
210
0.0
220
0.0
230
1.0
 70
     8
 71
     3
 72
     8
 73
     4
 74
     0
 42
0.0000000001
 43
0.0000000001
 40
0.0
 40
0.0
 40
0.0
 40
0.0
 40
1.0
 40
1.0
 40
1.0
 40
1.0
 10
702.4963283327451
 20
694.1466098427873
 30
0.0
 10
701.556164422258
 20
694.1466098427873
 30
0.0
 10
700.7940109850714
 20
693.3844564056061
 30
0.0
 10
700.7940109850714
 20
692.4442924951163
 30
0.0
  0
SPLINE
  5
B0
330
70
100
AcDbEntity
  8
Camada 1
 62
     7
370
    30
100
AcDbSpline
210
0.0
220
0.0
230
1.0
 70
     8
 71
     3
 72
     8
 73
     4
 74
     0
 42
0.0000000001
 43
0.0000000001
 40
0.0
 40
0.0
 40
0.0
 40
0.0
 40
1.0
 40
1.0
 40
1.0
 40
1.0
 10
1048.066749909951
 20
750.1307204556415
 30
0.0
 10
1048.066749909951
 20
751.0708843661323
 30
0.0
 10
1047.30459647278
 20
751.8330378033133
 30
0.0
 10
1046.364432562281
 20
751.8330378033133
 30
0.0
  0
LINE
  5
B1
330
70
100
AcDbEntity
  8
Camada 1
 62
     7
370
    15
100
AcDbLine
 10
744.4975197755248
 20
672.9387401903614
 30
0.0
 11
744.8018037901128
 21
673.8032623231502
 31
0.0
  0
LINE
  5
B2
330
70
100
AcDbEntity
  8
Camada 1
 62
     7
370
    15
100
AcDbLine
 10
745.0471168923449
 20
674.4879698206768
 30
0.0
 11
745.5954984936324
 21
676.0162041848652
 31
0.0
  0
LINE
  5
B3
330
70
100
AcDbEntity
  8
Camada 1
 62
     7
370
    15
100
AcDbLine
 10
751.0333459257163
 20
676.8586259603871
 30
0.0
 11
750.0164383994433
 21
674.1951739457727
 31
0.0
  0
LINE
  5
B4
330
70
100
AcDbEntity
  8
Camada 1
 62
     7
370
    15
100
AcDbLine
 10
745.2316542259341
 20
676.8586259603871
 30
0.0
 11
743.7306032441429
 21
672.9387401903614
 31
0.0
  0
LINE
  5
B5
330
70
100
AcDbEntity
  8
Camada 1
 62
     7
370
    15
100
AcDbLine
 10
733.8732546481805
 20
672.6455760167182
 30
0.0
 11
733.8732546481805
 21
677.5981749790771
 31
0.0
  0
LINE
  5
B6
330
70
100
AcDbEntity
  8
Camada 1
 62
     7
370
    15
100
AcDbLine
 10
737.3584296634362
 20
676.8586259603871
 30
0.0
 11
737.3584296634362
 21
676.4562903724836
 31
0.0
  0
LINE
  5
B7
330
70
100
AcDbEntity
  8
Camada 1
 62
     7
370
    15
100
AcDbLine
 10
738.4406066817082
 20
676.1578997657371
 30
0.0
 11
738.4406066817082
 21
673.2381989847308
 31
0.0
  0
LINE
  5
B8
330
70
100
AcDbEntity
  8
Camada 1
 62
     7
370
    15
100
AcDbLine
 10
739.2130851169386
 20
672.9387401903614
 30
0.0
 11
739.2130851169386
 21
676.1578997657371
 31
0.0
  0
LINE
  5
B9
330
70
100
AcDbEntity
  8
Camada 1
 62
     7
370
    15
100
AcDbLine
 10
740.2952621352032
 20
676.1578997657371
 30
0.0
 11
740.2952621352032
 21
676.8586259603871
 31
0.0
  0
LINE
  5
BA
330
70
100
AcDbEntity
  8
Camada 1
 62
     7
370
    15
100
AcDbLine
 10
740.7626830459903
 20
676.8586259603871
 30
0.0
 11
740.7626830459903
 21
673.2381989847308
 31
0.0
  0
LINE
  5
BB
330
70
100
AcDbEntity
  8
Camada 1
 62
     7
370
    15
100
AcDbLine
 10
741.4966701611793
 20
672.9387401903614
 30
0.0
 11
741.4966701611793
 21
674.3854573519911
 31
0.0
  0
LINE
  5
BC
330
70
100
AcDbEntity
  8
Camada 1
 62
     7
370
    15
100
AcDbLine
 10
741.4966701611793
 20
675.0532541301035
 30
0.0
 11
741.4966701611793
 21
676.1849029889872
 31
0.0
  0
LINE
  5
BD
330
70
100
AcDbEntity
  8
Camada 1
 62
     7
370
    15
100
AcDbLine
 10
748.4398781294894
 20
672.9387401903614
 30
0.0
 11
748.7927459250568
 21
675.6298504215465
 31
0.0
  0
LINE
  5
BE
330
70
100
AcDbEntity
  8
Camada 1
 62
     7
370
    15
100
AcDbLine
 10
748.3094864805425
 20
676.8586259603871
 30
0.0
 11
747.7003291106229
 21
672.9387401903614
 31
0.0
  0
LINE
  5
BF
330
70
100
AcDbEntity
  8
Camada 1
 62
     7
370
    15
100
AcDbLine
 10
750.3261764558192
 20
673.2649731827978
 30
0.0
 11
751.2069067871943
 21
675.5870495470853
 31
0.0
  0
LINE
  5
C0
330
70
100
AcDbEntity
  8
Camada 1
 62
     7
370
    15
100
AcDbLine
 10
771.0415761102576
 20
676.8586259603871
 30
0.0
 11
769.5405282534047
 21
672.9387401903614
 31
0.0
  0
LINE
  5
C1
330
70
100
AcDbEntity
  8
Camada 1
 62
     7
370
    15
100
AcDbLine
 10
757.1004988156983
 20
676.8586259603871
 30
0.0
 11
757.1004988156983
 21
673.2381989847308
 31
0.0
  0
LINE
  5
C2
330
70
100
AcDbEntity
  8
Camada 1
 62
     7
370
    15
100
AcDbLine
 10
757.8134169976565
 20
672.9387401903614
 30
0.0
 11
757.8134169976565
 21
675.6625997043101
 31
0.0
  0
LINE
  5
C3
330
70
100
AcDbEntity
  8
Camada 1
 62
     7
370
    15
100
AcDbLine
 10
759.6885520433134
 20
676.8586259603871
 30
0.0
 11
759.6885520433134
 21
674.085998565115
 31
0.0
  0
LINE
  5
C4
330
70
100
AcDbEntity
  8
Camada 1
 62
     7
370
    15
100
AcDbLine
 10
760.4011387212704
 20
672.9387401903614
 30
0.0
 11
760.4011387212704
 21
676.8586259603871
 31
0.0
  0
LINE
  5
C5
330
70
100
AcDbEntity
  8
Camada 1
 62
     7
370
    15
100
AcDbLine
 10
760.8687467068557
 20
676.8586259603871
 30
0.0
 11
760.8687467068557
 21
676.4562903724836
 31
0.0
  0
LINE
  5
C6
330
70
100
AcDbEntity
  8
Camada 1
 62
     7
370
    15
100
AcDbLine
 10
761.9504051461517
 20
676.1578997657371
 30
0.0
 11
761.9504051461517
 21
673.2381989847308
 31
0.0
  0
LINE
  5
C7
330
70
100
AcDbEntity
  8
Camada 1
 62
     7
370
    15
100
AcDbLine
 10
762.7230309164351
 20
672.9387401903614
 30
0.0
 11
762.7230309164351
 21
676.1578997657371
 31
0.0
  0
LINE
  5
C8
330
70
100
AcDbEntity
  8
Camada 1
 62
     7
370
    15
100
AcDbLine
 10
763.8050237657625
 20
676.1578997657371
 30
0.0
 11
763.8050237657625
 21
676.8586259603871
 31
0.0
  0
LINE
  5
C9
330
70
100
AcDbEntity
  8
Camada 1
 62
     7
370
    15
100
AcDbLine
 10
764.3053740929135
 20
676.8586259603871
 30
0.0
 11
764.3053740929135
 21
673.2381989847308
 31
0.0
  0
LINE
  5
CA
330
70
100
AcDbEntity
  8
Camada 1
 62
     7
370
    15
100
AcDbLine
 10
765.0766001790598
 20
672.9387401903614
 30
0.0
 11
765.0766001790598
 21
676.8586259603871
 31
0.0
  0
LINE
  5
CB
330
70
100
AcDbEntity
  8
Camada 1
 62
     7
370
    15
100
AcDbLine
 10
770.3074079704674
 20
672.9387401903614
 30
0.0
 11
770.6124623505675
 21
673.8032623231502
 31
0.0
  0
LINE
  5
CC
330
70
100
AcDbEntity
  8
Camada 1
 62
     7
370
    15
100
AcDbLine
 10
770.8567072724909
 20
674.4879698206768
 30
0.0
 11
771.4059728849624
 21
676.0162041848652
 31
0.0
  0
LINE
  5
CD
330
70
100
AcDbEntity
  8
Camada 1
 62
     7
370
    15
100
AcDbLine
 10
751.2069067871943
 20
675.5870495470853
 30
0.0
 11
751.5221699434787
 21
673.2266660317064
 31
0.0
  0
LINE
  5
CE
330
70
100
AcDbEntity
  8
Camada 1
 62
     7
370
    15
100
AcDbLine
 10
765.8222636084446
 20
676.8586259603871
 30
0.0
 11
765.8222636084446
 21
673.2381989847308
 31
0.0
  0
LINE
  5
CF
330
70
100
AcDbEntity
  8
Camada 1
 62
     7
370
    15
100
AcDbLine
 10
766.5337452722069
 20
672.9387401903614
 30
0.0
 11
766.5337452722069
 21
675.6625997043101
 31
0.0
  0
LINE
  5
D0
330
70
100
AcDbEntity
  8
Camada 1
 62
     7
370
    15
100
AcDbLine
 10
768.4096169939802
 20
676.8586259603871
 30
0.0
 11
768.4096169939802
 21
674.085998565115
 31
0.0
  0
LINE
  5
D1
330
70
100
AcDbEntity
  8
Camada 1
 62
     7
370
    15
100
AcDbLine
 10
769.1225351759404
 20
672.9387401903614
 30
0.0
 11
769.1225351759404
 21
676.8586259603871
 31
0.0
  0
LINE
  5
D2
330
70
100
AcDbEntity
  8
Camada 1
 62
     7
370
    15
100
AcDbLine
 10
776.5929084774271
 20
677.5981749790771
 30
0.0
 11
776.5929084774271
 21
672.6455760167182
 31
0.0
  0
LINE
  5
D3
330
70
100
AcDbEntity
  8
Camada 1
 62
     7
370
    15
100
AcDbLine
 10
746.3893799061188
 20
673.8032623231502
 30
0.0
 11
746.6069914512882
 21
673.2054497634189
 31
0.0
  0
LINE
  5
D4
330
70
100
AcDbEntity
  8
Camada 1
 62
     7
370
    15
100
AcDbLine
 10
745.5954984936324
 20
676.0162041848652
 30
0.0
 11
746.1451324441732
 21
674.4879698206768
 31
0.0
  0
LINE
  5
D5
330
70
100
AcDbEntity
  8
Camada 1
 62
     7
370
    15
100
AcDbLine
 10
752.3273909563813
 20
672.9387401903614
 30
0.0
 11
751.7180494175191
 21
676.8586259603871
 31
0.0
  0
LINE
  5
D6
330
70
100
AcDbEntity
  8
Camada 1
 62
     7
370
    15
100
AcDbLine
 10
743.5899717990359
 20
672.9387401903614
 30
0.0
 11
742.6926636185326
 21
674.5262769726214
 31
0.0
  0
LINE
  5
D7
330
70
100
AcDbEntity
  8
Camada 1
 62
     7
370
    15
100
AcDbLine
 10
742.002398223054
 20
674.3854573519911
 30
0.0
 11
742.6272099575854
 21
673.161584680668
 31
0.0
  0
LINE
  5
D8
330
70
100
AcDbEntity
  8
Camada 1
 62
     7
370
    15
100
AcDbLine
 10
747.4884610980552
 20
672.9387401903614
 30
0.0
 11
745.976433644133
 21
676.8586259603871
 31
0.0
  0
LINE
  5
D9
330
70
100
AcDbEntity
  8
Camada 1
 62
     7
370
    15
100
AcDbLine
 10
748.7927459250568
 20
675.6298504215465
 30
0.0
 11
749.5920025322466
 21
673.5478935938808
 31
0.0
  0
LINE
  5
DA
330
70
100
AcDbEntity
  8
Camada 1
 62
     7
370
    15
100
AcDbLine
 10
750.0164383994433
 20
674.1951739457727
 30
0.0
 11
748.9997518761847
 21
676.8586259603871
 31
0.0
  0
LINE
  5
DB
330
70
100
AcDbEntity
  8
Camada 1
 62
     7
370
    15
100
AcDbLine
 10
773.298014644477
 20
672.9387401903614
 30
0.0
 11
771.7868712017425
 21
676.8586259603871
 31
0.0
  0
LINE
  5
DC
330
70
100
AcDbEntity
  8
Camada 1
 62
     7
370
    15
100
AcDbLine
 10
772.1991150814647
 20
673.8032623231502
 30
0.0
 11
772.4174658426163
 21
673.2054497634189
 31
0.0
  0
LINE
  5
DD
330
70
100
AcDbEntity
  8
Camada 1
 62
     7
370
    15
100
AcDbLine
 10
771.4059728849624
 20
676.0162041848652
 30
0.0
 11
771.9545018214794
 21
674.4879698206768
 31
0.0
  0
LINE
  5
DE
330
70
100
AcDbEntity
  8
Camada 1
 62
     7
370
    15
100
AcDbLine
 10
766.5337452722069
 20
675.6625997043101
 30
0.0
 11
768.236243393545
 21
673.2108274979773
 31
0.0
  0
LINE
  5
DF
330
70
100
AcDbEntity
  8
Camada 1
 62
     7
370
    15
100
AcDbLine
 10
757.8134169976565
 20
675.6625997043101
 30
0.0
 11
759.5151753509544
 21
673.2108274979773
 31
0.0
  0
LINE
  5
E0
330
70
100
AcDbEntity
  8
Camada 1
 62
     7
370
    15
100
AcDbLine
 10
759.6885520433134
 20
674.085998565115
 30
0.0
 11
757.7968786218625
 21
676.8586259603871
 31
0.0
  0
LINE
  5
E1
330
70
100
AcDbEntity
  8
Camada 1
 62
     7
370
    15
100
AcDbLine
 10
768.4096169939802
 20
674.085998565115
 30
0.0
 11
766.517946621041
 21
676.8586259603871
 31
0.0
  0
LINE
  5
E2
330
70
100
AcDbEntity
  8
Camada 1
 62
     7
370
    15
100
AcDbLine
 10
774.7227828282666
 20
670.7754503677278
 30
0.0
 11
735.7435254086595
 21
670.7754503677278
 31
0.0
  0
LINE
  5
E3
330
70
100
AcDbEntity
  8
Camada 1
 62
     7
370
    15
100
AcDbLine
 10
738.7400654685843
 20
672.9387401903614
 30
0.0
 11
739.2130851169386
 21
672.9387401903614
 31
0.0
  0
LINE
  5
E4
330
70
100
AcDbEntity
  8
Camada 1
 62
     7
370
    15
100
AcDbLine
 10
741.0619576639219
 20
672.9387401903614
 30
0.0
 11
741.4966701611793
 21
672.9387401903614
 31
0.0
  0
LINE
  5
E5
330
70
100
AcDbEntity
  8
Camada 1
 62
     7
370
    15
100
AcDbLine
 10
743.002030697402
 20
672.9387401903614
 30
0.0
 11
743.5899717990359
 21
672.9387401903614
 31
0.0
  0
LINE
  5
E6
330
70
100
AcDbEntity
  8
Camada 1
 62
     7
370
    15
100
AcDbLine
 10
743.7306032441429
 20
672.9387401903614
 30
0.0
 11
744.4975197755248
 21
672.9387401903614
 31
0.0
  0
LINE
  5
E7
330
70
100
AcDbEntity
  8
Camada 1
 62
     7
370
    15
100
AcDbLine
 10
746.9602275849174
 20
672.9387401903614
 30
0.0
 11
747.4884610980552
 21
672.9387401903614
 31
0.0
  0
LINE
  5
E8
330
70
100
AcDbEntity
  8
Camada 1
 62
     7
370
    15
100
AcDbLine
 10
747.7003291106229
 20
672.9387401903614
 30
0.0
 11
748.4398781294894
 21
672.9387401903614
 31
0.0
  0
LINE
  5
E9
330
70
100
AcDbEntity
  8
Camada 1
 62
     7
370
    15
100
AcDbLine
 10
751.8757744240319
 20
672.9387401903614
 30
0.0
 11
752.3273909563813
 21
672.9387401903614
 31
0.0
  0
LINE
  5
EA
330
70
100
AcDbEntity
  8
Camada 1
 62
     7
370
    15
100
AcDbLine
 10
757.4001077559914
 20
672.9387401903614
 30
0.0
 11
757.8134169976565
 21
672.9387401903614
 31
0.0
  0
LINE
  5
EB
330
70
100
AcDbEntity
  8
Camada 1
 62
     7
370
    15
100
AcDbLine
 10
759.9824489265211
 20
672.9387401903614
 30
0.0
 11
760.4011387212704
 21
672.9387401903614
 31
0.0
  0
LINE
  5
EC
330
70
100
AcDbEntity
  8
Camada 1
 62
     7
370
    15
100
AcDbLine
 10
762.2500142088374
 20
672.9387401903614
 30
0.0
 11
762.7230309164351
 21
672.9387401903614
 31
0.0
  0
LINE
  5
ED
330
70
100
AcDbEntity
  8
Camada 1
 62
     7
370
    15
100
AcDbLine
 10
764.6035805307092
 20
672.9387401903614
 30
0.0
 11
765.0766001790598
 21
672.9387401903614
 31
0.0
  0
LINE
  5
EE
330
70
100
AcDbEntity
  8
Camada 1
 62
     7
370
    15
100
AcDbLine
 10
766.1204700460658
 20
672.9387401903614
 30
0.0
 11
766.5337452722069
 21
672.9387401903614
 31
0.0
  0
LINE
  5
EF
330
70
100
AcDbEntity
  8
Camada 1
 62
     7
370
    15
100
AcDbLine
 10
769.5405282534047
 20
672.9387401903614
 30
0.0
 11
770.3074079704674
 21
672.9387401903614
 31
0.0
  0
LINE
  5
F0
330
70
100
AcDbEntity
  8
Camada 1
 62
     7
370
    15
100
AcDbLine
 10
768.7034770432947
 20
672.9387401903614
 30
0.0
 11
769.1225351759404
 21
672.9387401903614
 31
0.0
  0
LINE
  5
F1
330
70
100
AcDbEntity
  8
Camada 1
 62
     7
370
    15
100
AcDbLine
 10
772.7699653002855
 20
672.9387401903614
 30
0.0
 11
773.298014644477
 21
672.9387401903614
 31
0.0
  0
LINE
  5
F2
330
70
100
AcDbEntity
  8
Camada 1
 62
     7
370
    15
100
AcDbLine
 10
749.9725719752714
 20
673.2649731827978
 30
0.0
 11
750.3261764558192
 21
673.2649731827978
 31
0.0
  0
LINE
  5
F3
330
70
100
AcDbEntity
  8
Camada 1
 62
     7
370
    15
100
AcDbLine
 10
744.8018037901128
 20
673.8032623231502
 30
0.0
 11
746.3893799061188
 21
673.8032623231502
 31
0.0
  0
LINE
  5
F4
330
70
100
AcDbEntity
  8
Camada 1
 62
     7
370
    15
100
AcDbLine
 10
770.6124623505675
 20
673.8032623231502
 30
0.0
 11
772.1991150814647
 21
673.8032623231502
 31
0.0
  0
LINE
  5
F5
330
70
100
AcDbEntity
  8
Camada 1
 62
     7
370
    15
100
AcDbLine
 10
741.4966701611793
 20
674.3854573519911
 30
0.0
 11
742.002398223054
 21
674.3854573519911
 31
0.0
  0
LINE
  5
F6
330
70
100
AcDbEntity
  8
Camada 1
 62
     7
370
    15
100
AcDbLine
 10
771.9545018214794
 20
674.4879698206768
 30
0.0
 11
770.8567072724909
 21
674.4879698206768
 31
0.0
  0
LINE
  5
F7
330
70
100
AcDbEntity
  8
Camada 1
 62
     7
370
    15
100
AcDbLine
 10
746.1451324441732
 20
674.4879698206768
 30
0.0
 11
745.0471168923449
 21
674.4879698206768
 31
0.0
  0
LINE
  5
F8
330
70
100
AcDbEntity
  8
Camada 1
 62
     7
370
    15
100
AcDbLine
 10
742.0079993898325
 20
675.0532541301035
 30
0.0
 11
741.4966701611793
 21
675.0532541301035
 31
0.0
  0
LINE
  5
F9
330
70
100
AcDbEntity
  8
Camada 1
 62
     7
370
    15
100
AcDbLine
 10
737.6578884503124
 20
676.1578997657371
 30
0.0
 11
738.4406066817082
 21
676.1578997657371
 31
0.0
  0
LINE
  5
FA
330
70
100
AcDbEntity
  8
Camada 1
 62
     7
370
    15
100
AcDbLine
 10
739.2130851169386
 20
676.1578997657371
 30
0.0
 11
740.2952621352032
 21
676.1578997657371
 31
0.0
  0
LINE
  5
FB
330
70
100
AcDbEntity
  8
Camada 1
 62
     7
370
    15
100
AcDbLine
 10
761.1676869147559
 20
676.1578997657371
 30
0.0
 11
761.9504051461517
 21
676.1578997657371
 31
0.0
  0
LINE
  5
FC
330
70
100
AcDbEntity
  8
Camada 1
 62
     7
370
    15
100
AcDbLine
 10
762.7230309164351
 20
676.1578997657371
 30
0.0
 11
763.8050237657625
 21
676.1578997657371
 31
0.0
  0
LINE
  5
FD
330
70
100
AcDbEntity
  8
Camada 1
 62
     7
370
    15
100
AcDbLine
 10
741.4966701611793
 20
676.1849029889872
 30
0.0
 11
742.0079993898325
 21
676.1849029889872
 31
0.0
  0
LINE
  5
FE
330
70
100
AcDbEntity
  8
Camada 1
 62
     7
370
    15
100
AcDbLine
 10
771.7868712017425
 20
676.8586259603871
 30
0.0
 11
771.0415761102576
 21
676.8586259603871
 31
0.0
  0
LINE
  5
FF
330
70
100
AcDbEntity
  8
Camada 1
 62
     7
370
    15
100
AcDbLine
 10
769.1225351759404
 20
676.8586259603871
 30
0.0
 11
768.4096169939802
 21
676.8586259603871
 31
0.0
  0
LINE
  5
100
330
70
100
AcDbEntity
  8
Camada 1
 62
     7
370
    15
100
AcDbLine
 10
766.517946621041
 20
676.8586259603871
 30
0.0
 11
765.8222636084446
 21
676.8586259603871
 31
0.0
  0
LINE
  5
101
330
70
100
AcDbEntity
  8
Camada 1
 62
     7
370
    15
100
AcDbLine
 10
765.0766001790598
 20
676.8586259603871
 30
0.0
 11
764.3053740929135
 21
676.8586259603871
 31
0.0
  0
LINE
  5
102
330
70
100
AcDbEntity
  8
Camada 1
 62
     7
370
    15
100
AcDbLine
 10
763.8050237657625
 20
676.8586259603871
 30
0.0
 11
760.8687467068557
 21
676.8586259603871
 31
0.0
  0
LINE
  5
103
330
70
100
AcDbEntity
  8
Camada 1
 62
     7
370
    15
100
AcDbLine
 10
760.4011387212704
 20
676.8586259603871
 30
0.0
 11
759.6885520433134
 21
676.8586259603871
 31
0.0
  0
LINE
  5
104
330
70
100
AcDbEntity
  8
Camada 1
 62
     7
370
    15
100
AcDbLine
 10
757.7968786218625
 20
676.8586259603871
 30
0.0
 11
757.1004988156983
 21
676.8586259603871
 31
0.0
  0
LINE
  5
105
330
70
100
AcDbEntity
  8
Camada 1
 62
     7
370
    15
100
AcDbLine
 10
751.7180494175191
 20
676.8586259603871
 30
0.0
 11
751.0333459257163
 21
676.8586259603871
 31
0.0
  0
LINE
  5
106
330
70
100
AcDbEntity
  8
Camada 1
 62
     7
370
    15
100
AcDbLine
 10
748.9997518761847
 20
676.8586259603871
 30
0.0
 11
748.3094864805425
 21
676.8586259603871
 31
0.0
  0
LINE
  5
107
330
70
100
AcDbEntity
  8
Camada 1
 62
     7
370
    15
100
AcDbLine
 10
745.976433644133
 20
676.8586259603871
 30
0.0
 11
745.2316542259341
 21
676.8586259603871
 31
0.0
  0
LINE
  5
108
330
70
100
AcDbEntity
  8
Camada 1
 62
     7
370
    15
100
AcDbLine
 10
742.0730822835048
 20
676.8586259603871
 30
0.0
 11
740.7626830459903
 21
676.8586259603871
 31
0.0
  0
LINE
  5
109
330
70
100
AcDbEntity
  8
Camada 1
 62
     7
370
    15
100
AcDbLine
 10
740.2952621352032
 20
676.8586259603871
 30
0.0
 11
737.3584296634362
 21
676.8586259603871
 31
0.0
  0
LINE
  5
10A
330
70
100
AcDbEntity
  8
Camada 1
 62
     7
370
    15
100
AcDbLine
 10
735.7435254086595
 20
679.4686362637703
 30
0.0
 11
774.7227828282666
 21
679.4686362637703
 31
0.0
  0
SPLINE
  5
10B
330
70
100
AcDbEntity
  8
Camada 1
 62
     7
370
    15
100
AcDbSpline
210
0.0
220
0.0
230
1.0
 70
     8
 71
     3
 72
     8
 73
     4
 74
     0
 42
0.0000000001
 43
0.0000000001
 40
0.0
 40
0.0
 40
0.0
 40
0.0
 40
1.0
 40
1.0
 40
1.0
 40
1.0
 10
754.5838294906025
 20
676.9293140881818
 30
0.0
 10
755.697649517555
 20
676.9293140881818
 30
0.0
 10
756.6008483306177
 20
676.0162041848652
 30
0.0
 10
756.6008483306177
 20
674.9012778749784
 30
0.0
  0
SPLINE
  5
10C
330
70
100
AcDbEntity
  8
Camada 1
 62
     7
370
    15
100
AcDbSpline
210
0.0
220
0.0
230
1.0
 70
     8
 71
     3
 72
     8
 73
     4
 74
     0
 42
0.0000000001
 43
0.0000000001
 40
0.0
 40
0.0
 40
0.0
 40
0.0
 40
1.0
 40
1.0
 40
1.0
 40
1.0
 10
752.5502354410746
 20
674.8912222477638
 30
0.0
 10
752.5502385522304
 20
676.0217620441717
 30
0.0
 10
753.4633453214082
 20
676.9293140881818
 30
0.0
 10
754.5838294906025
 20
676.9293140881818
 30
0.0
  0
SPLINE
  5
10D
330
70
100
AcDbEntity
  8
Camada 1
 62
     7
370
    15
100
AcDbSpline
210
0.0
220
0.0
230
1.0
 70
     8
 71
     3
 72
     8
 73
     4
 74
     0
 42
0.0000000001
 43
0.0000000001
 40
0.0
 40
0.0
 40
0.0
 40
0.0
 40
1.0
 40
1.0
 40
1.0
 40
1.0
 10
742.600247616685
 20
675.6140487217107
 30
0.0
 10
742.600247616685
 20
676.0545113368062
 30
0.0
 10
742.2849502960744
 20
676.1849029889872
 30
0.0
 10
742.0079993898325
 20
676.1849029889872
 30
0.0
  0
SPLINE
  5
10E
330
70
100
AcDbEntity
  8
Camada 1
 62
     7
370
    15
100
AcDbSpline
210
0.0
220
0.0
230
1.0
 70
     8
 71
     3
 72
     8
 73
     4
 74
     0
 42
0.0000000001
 43
0.0000000001
 40
0.0
 40
0.0
 40
0.0
 40
0.0
 40
1.0
 40
1.0
 40
1.0
 40
1.0
 10
742.0079993898325
 20
675.0532541301035
 30
0.0
 10
742.2849502960744
 20
675.0532541301035
 30
0.0
 10
742.600247616685
 20
675.1840141169432
 30
0.0
 10
742.600247616685
 20
675.6140487217107
 30
0.0
  0
SPLINE
  5
10F
330
70
100
AcDbEntity
  8
Camada 1
 62
     7
370
    15
100
AcDbSpline
210
0.0
220
0.0
230
1.0
 70
     8
 71
     3
 72
     8
 73
     4
 74
     0
 42
0.0000000001
 43
0.0000000001
 40
0.0
 40
0.0
 40
0.0
 40
0.0
 40
1.0
 40
1.0
 40
1.0
 40
1.0
 10
764.6035805307092
 20
672.9387401903614
 30
0.0
 10
764.3978269288309
 20
672.9387401903614
 30
0.0
 10
764.3053740929135
 20
673.0308246905961
 30
0.0
 10
764.3053740929135
 20
673.2381989847308
 30
0.0
  0
SPLINE
  5
110
330
70
100
AcDbEntity
  8
Camada 1
 62
     7
370
    15
100
AcDbSpline
210
0.0
220
0.0
230
1.0
 70
     8
 71
     3
 72
     8
 73
     4
 74
     0
 42
0.0000000001
 43
0.0000000001
 40
0.0
 40
0.0
 40
0.0
 40
0.0
 40
1.0
 40
1.0
 40
1.0
 40
1.0
 10
738.7400654685843
 20
672.9387401903614
 30
0.0
 10
738.5330595174472
 20
672.9387401903614
 30
0.0
 10
738.4406066817082
 20
673.0308246905961
 30
0.0
 10
738.4406066817082
 20
673.2381989847308
 30
0.0
  0
SPLINE
  5
111
330
70
100
AcDbEntity
  8
Camada 1
 62
     7
370
    15
100
AcDbSpline
210
0.0
220
0.0
230
1.0
 70
     8
 71
     3
 72
     8
 73
     4
 74
     0
 42
0.0000000001
 43
0.0000000001
 40
0.0
 40
0.0
 40
0.0
 40
0.0
 40
1.0
 40
1.0
 40
1.0
 40
1.0
 10
737.6578884503124
 20
676.1578997657371
 30
0.0
 10
737.4508824993536
 20
676.1578997657371
 30
0.0
 10
737.3584296634362
 20
676.2503526016553
 30
0.0
 10
737.3584296634362
 20
676.4562903724836
 30
0.0
  0
SPLINE
  5
112
330
70
100
AcDbEntity
  8
Camada 1
 62
     7
370
    15
100
AcDbSpline
210
0.0
220
0.0
230
1.0
 70
     8
 71
     3
 72
     8
 73
     4
 74
     0
 42
0.0000000001
 43
0.0000000001
 40
0.0
 40
0.0
 40
0.0
 40
0.0
 40
1.0
 40
1.0
 40
1.0
 40
1.0
 10
762.2500142088374
 20
672.9387401903614
 30
0.0
 10
762.0428211481776
 20
672.9387401903614
 30
0.0
 10
761.9504051461517
 20
673.0308246905961
 30
0.0
 10
761.9504051461517
 20
673.2381989847308
 30
0.0
  0
SPLINE
  5
113
330
70
100
AcDbEntity
  8
Camada 1
 62
     7
370
    15
100
AcDbSpline
210
0.0
220
0.0
230
1.0
 70
     8
 71
     3
 72
     8
 73
     4
 74
     0
 42
0.0000000001
 43
0.0000000001
 40
0.0
 40
0.0
 40
0.0
 40
0.0
 40
1.0
 40
1.0
 40
1.0
 40
1.0
 10
761.1676869147559
 20
676.1578997657371
 30
0.0
 10
760.9608312070922
 20
676.1578997657371
 30
0.0
 10
760.8687467068557
 20
676.2503526016553
 30
0.0
 10
760.8687467068557
 20
676.4562903724836
 30
0.0
  0
SPLINE
  5
114
330
70
100
AcDbEntity
  8
Camada 1
 62
     7
370
    15
100
AcDbSpline
210
0.0
220
0.0
230
1.0
 70
     8
 71
     3
 72
     8
 73
     4
 74
     0
 42
0.0000000001
 43
0.0000000001
 40
0.0
 40
0.0
 40
0.0
 40
0.0
 40
1.0
 40
1.0
 40
1.0
 40
1.0
 10
754.5726688495324
 20
676.1849029889872
 30
0.0
 10
753.8922749121557
 20
676.1849029889872
 30
0.0
 10
753.3438952567831
 20
675.6028880806398
 30
0.0
 10
753.3438933108664
 20
674.8957199872402
 30
0.0
  0
SPLINE
  5
115
330
70
100
AcDbEntity
  8
Camada 1
 62
     7
370
    15
100
AcDbSpline
210
0.0
220
0.0
230
1.0
 70
     8
 71
     3
 72
     8
 73
     4
 74
     0
 42
0.0000000001
 43
0.0000000001
 40
0.0
 40
0.0
 40
0.0
 40
0.0
 40
1.0
 40
1.0
 40
1.0
 40
1.0
 10
755.8066379539832
 20
674.8957199872402
 30
0.0
 10
755.8066379539832
 20
675.6028880806398
 30
0.0
 10
755.2526972128998
 20
676.1849029889872
 30
0.0
 10
754.5726688495324
 20
676.1849029889872
 30
0.0
  0
SPLINE
  5
116
330
70
100
AcDbEntity
  8
Camada 1
 62
     7
370
    15
100
AcDbSpline
210
0.0
220
0.0
230
1.0
 70
     8
 71
     3
 72
     8
 73
     4
 74
     0
 42
0.0000000001
 43
0.0000000001
 40
0.0
 40
0.0
 40
0.0
 40
0.0
 40
1.0
 40
1.0
 40
1.0
 40
1.0
 10
754.5726688495324
 20
673.6131670693039
 30
0.0
 10
755.2526972128998
 20
673.6131651979449
 30
0.0
 10
755.8066379539832
 20
674.1896160401629
 30
0.0
 10
755.8066379539832
 20
674.8957199872402
 30
0.0
  0
SPLINE
  5
117
330
70
100
AcDbEntity
  8
Camada 1
 62
     7
370
    15
100
AcDbSpline
210
0.0
220
0.0
230
1.0
 70
     8
 71
     3
 72
     8
 73
     4
 74
     0
 42
0.0000000001
 43
0.0000000001
 40
0.0
 40
0.0
 40
0.0
 40
0.0
 40
1.0
 40
1.0
 40
1.0
 40
1.0
 10
772.7699653002855
 20
672.9387401903614
 30
0.0
 10
772.5911740393148
 20
672.9387401903614
 30
0.0
 10
772.4828937820566
 20
673.0263176013113
 30
0.0
 10
772.4174658426163
 20
673.2054497634189
 30
0.0
  0
SPLINE
  5
118
330
70
100
AcDbEntity
  8
Camada 1
 62
     7
370
    15
100
AcDbSpline
210
0.0
220
0.0
230
1.0
 70
     8
 71
     3
 72
     8
 73
     4
 74
     0
 42
0.0000000001
 43
0.0000000001
 40
0.0
 40
0.0
 40
0.0
 40
0.0
 40
1.0
 40
1.0
 40
1.0
 40
1.0
 10
746.9602275849174
 20
672.9387401903614
 30
0.0
 10
746.7812521549985
 20
672.9387401903614
 30
0.0
 10
746.6722025466515
 20
673.0263048020951
 30
0.0
 10
746.6069914512882
 20
673.2054497634189
 30
0.0
  0
SPLINE
  5
119
330
70
100
AcDbEntity
  8
Camada 1
 62
     7
370
    15
100
AcDbSpline
210
0.0
220
0.0
230
1.0
 70
     8
 71
     3
 72
     8
 73
     4
 74
     0
 42
0.0000000001
 43
0.0000000001
 40
0.0
 40
0.0
 40
0.0
 40
0.0
 40
1.0
 40
1.0
 40
1.0
 40
1.0
 10
757.4001077559914
 20
672.9387401903614
 30
0.0
 10
757.1929148177241
 20
672.9387401903614
 30
0.0
 10
757.1004988156983
 20
673.0308246905961
 30
0.0
 10
757.1004988156983
 20
673.2381989847308
 30
0.0
  0
SPLINE
  5
11A
330
70
100
AcDbEntity
  8
Camada 1
 62
     7
370
    15
100
AcDbSpline
210
0.0
220
0.0
230
1.0
 70
     8
 71
     3
 72
     8
 73
     4
 74
     0
 42
0.0000000001
 43
0.0000000001
 40
0.0
 40
0.0
 40
0.0
 40
0.0
 40
1.0
 40
1.0
 40
1.0
 40
1.0
 10
759.9824489265211
 20
672.9387401903614
 30
0.0
 10
759.7817415551853
 20
672.9387401903614
 30
0.0
 10
759.6510067476701
 20
673.0151312979769
 30
0.0
 10
759.5151753509544
 20
673.2108274979773
 30
0.0
  0
SPLINE
  5
11B
330
70
100
AcDbEntity
  8
Camada 1
 62
     7
370
    15
100
AcDbSpline
210
0.0
220
0.0
230
1.0
 70
     8
 71
     3
 72
     8
 73
     4
 74
     0
 42
0.0000000001
 43
0.0000000001
 40
0.0
 40
0.0
 40
0.0
 40
0.0
 40
1.0
 40
1.0
 40
1.0
 40
1.0
 10
753.3438933108664
 20
674.8957199872402
 30
0.0
 10
753.3438913676763
 20
674.1896160401629
 30
0.0
 10
753.8922749121557
 20
673.6131689416806
 30
0.0
 10
754.5726688495324
 20
673.6131670693039
 30
0.0
  0
SPLINE
  5
11C
330
70
100
AcDbEntity
  8
Camada 1
 62
     7
370
    15
100
AcDbSpline
210
0.0
220
0.0
230
1.0
 70
     8
 71
     3
 72
     8
 73
     4
 74
     0
 42
0.0000000001
 43
0.0000000001
 40
0.0
 40
0.0
 40
0.0
 40
0.0
 40
1.0
 40
1.0
 40
1.0
 40
1.0
 10
766.1204700460658
 20
672.9387401903614
 30
0.0
 10
765.914716444182
 20
672.9387401903614
 30
0.0
 10
765.8222636084446
 20
673.0308246905961
 30
0.0
 10
765.8222636084446
 20
673.2381989847308
 30
0.0
  0
SPLINE
  5
11D
330
70
100
AcDbEntity
  8
Camada 1
 62
     7
370
    15
100
AcDbSpline
210
0.0
220
0.0
230
1.0
 70
     8
 71
     3
 72
     8
 73
     4
 74
     0
 42
0.0000000001
 43
0.0000000001
 40
0.0
 40
0.0
 40
0.0
 40
0.0
 40
1.0
 40
1.0
 40
1.0
 40
1.0
 10
768.7034770432947
 20
672.9387401903614
 30
0.0
 10
768.5020698297339
 20
672.9387401903614
 30
0.0
 10
768.3721136267522
 20
673.0151604030079
 30
0.0
 10
768.236243393545
 20
673.2108274979773
 30
0.0
  0
SPLINE
  5
11E
330
70
100
AcDbEntity
  8
Camada 1
 62
     7
370
    15
100
AcDbSpline
210
0.0
220
0.0
230
1.0
 70
     8
 71
     3
 72
     8
 73
     4
 74
     0
 42
0.0000000001
 43
0.0000000001
 40
0.0
 40
0.0
 40
0.0
 40
0.0
 40
1.0
 40
1.0
 40
1.0
 40
1.0
 10
741.0619576639219
 20
672.9387401903614
 30
0.0
 10
740.8547675438385
 20
672.9387401903614
 30
0.0
 10
740.7626830459903
 20
673.0308246905961
 30
0.0
 10
740.7626830459903
 20
673.2381989847308
 30
0.0
  0
SPLINE
  5
11F
330
70
100
AcDbEntity
  8
Camada 1
 62
     7
370
    15
100
AcDbSpline
210
0.0
220
0.0
230
1.0
 70
     8
 71
     3
 72
     8
 73
     4
 74
     0
 42
0.0000000001
 43
0.0000000001
 40
0.0
 40
0.0
 40
0.0
 40
0.0
 40
1.0
 40
1.0
 40
1.0
 40
1.0
 10
743.002030697402
 20
672.9387401903614
 30
0.0
 10
742.8174933638038
 20
672.9387401903614
 30
0.0
 10
742.7085021522635
 20
672.9984438122883
 30
0.0
 10
742.6272099575854
 20
673.161584680668
 30
0.0
  0
SPLINE
  5
120
330
70
100
AcDbEntity
  8
Camada 1
 62
     7
370
    15
100
AcDbSpline
210
0.0
220
0.0
230
1.0
 70
     8
 71
     3
 72
     8
 73
     4
 74
     0
 42
0.0000000001
 43
0.0000000001
 40
0.0
 40
0.0
 40
0.0
 40
0.0
 40
1.0
 40
1.0
 40
1.0
 40
1.0
 10
743.3556351689258
 20
675.6084540181263
 30
0.0
 10
743.3556353437597
 20
675.1027259434795
 30
0.0
 10
743.0842069032624
 20
674.7167405413838
 30
0.0
 10
742.6926636185326
 20
674.5262769726214
 30
0.0
  0
SPLINE
  5
121
330
70
100
AcDbEntity
  8
Camada 1
 62
     7
370
    15
100
AcDbSpline
210
0.0
220
0.0
230
1.0
 70
     8
 71
     3
 72
     8
 73
     4
 74
     0
 42
0.0000000001
 43
0.0000000001
 40
0.0
 40
0.0
 40
0.0
 40
0.0
 40
1.0
 40
1.0
 40
1.0
 40
1.0
 10
742.0730822835048
 20
676.8586259603871
 30
0.0
 10
742.8174933638038
 20
676.8586259603871
 30
0.0
 10
743.3556349021764
 20
676.3807442504294
 30
0.0
 10
743.3556351689258
 20
675.6084540181263
 30
0.0
  0
SPLINE
  5
122
330
70
100
AcDbEntity
  8
Camada 1
 62
     7
370
    15
100
AcDbSpline
210
0.0
220
0.0
230
1.0
 70
     8
 71
     3
 72
     8
 73
     4
 74
     0
 42
0.0000000001
 43
0.0000000001
 40
0.0
 40
0.0
 40
0.0
 40
0.0
 40
1.0
 40
1.0
 40
1.0
 40
1.0
 10
751.5221699434787
 20
673.2266660317064
 30
0.0
 10
751.5493506174789
 20
673.0209124298235
 30
0.0
 10
751.6966489802907
 20
672.9387401903614
 30
0.0
 10
751.8757744240319
 20
672.9387401903614
 30
0.0
  0
SPLINE
  5
123
330
70
100
AcDbEntity
  8
Camada 1
 62
     7
370
    15
100
AcDbSpline
210
0.0
220
0.0
230
1.0
 70
     8
 71
     3
 72
     8
 73
     4
 74
     0
 42
0.0000000001
 43
0.0000000001
 40
0.0
 40
0.0
 40
0.0
 40
0.0
 40
1.0
 40
1.0
 40
1.0
 40
1.0
 10
754.5613267858644
 20
672.8676838254496
 30
0.0
 10
753.4465859427746
 20
672.8676838254496
 30
0.0
 10
752.5502323729869
 20
673.7762999822453
 30
0.0
 10
752.5502354410746
 20
674.8912222477638
 30
0.0
  0
SPLINE
  5
124
330
70
100
AcDbEntity
  8
Camada 1
 62
     7
370
    15
100
AcDbSpline
210
0.0
220
0.0
230
1.0
 70
     8
 71
     3
 72
     8
 73
     4
 74
     0
 42
0.0000000001
 43
0.0000000001
 40
0.0
 40
0.0
 40
0.0
 40
0.0
 40
1.0
 40
1.0
 40
1.0
 40
1.0
 10
756.6008483306177
 20
674.9012778749784
 30
0.0
 10
756.6008483306177
 20
673.7707380785723
 30
0.0
 10
755.6818109834857
 20
672.8676838254496
 30
0.0
 10
754.5613267858644
 20
672.8676838254496
 30
0.0
  0
SPLINE
  5
125
330
70
100
AcDbEntity
  8
Camada 1
 62
     7
370
    15
100
AcDbSpline
210
0.0
220
0.0
230
1.0
 70
     8
 71
     3
 72
     8
 73
     4
 74
     0
 42
0.0000000001
 43
0.0000000001
 40
0.0
 40
0.0
 40
0.0
 40
0.0
 40
1.0
 40
1.0
 40
1.0
 40
1.0
 10
749.9725719752714
 20
673.2649731827978
 30
0.0
 10
749.7824701074078
 20
673.2649731827978
 30
0.0
 10
749.6686168344295
 20
673.3574260185442
 30
0.0
 10
749.5920025322466
 20
673.5478935938808
 30
0.0
  0
SPLINE
  5
126
330
70
100
AcDbEntity
  8
Camada 1
 62
     7
370
    15
100
AcDbSpline
210
0.0
220
0.0
230
1.0
 70
     8
 71
     3
 72
     8
 73
     4
 74
     0
 42
0.0000000001
 43
0.0000000001
 40
0.0
 40
0.0
 40
0.0
 40
0.0
 40
1.0
 40
1.0
 40
1.0
 40
1.0
 10
774.7227828282666
 20
670.7754503677278
 30
0.0
 10
775.8529911206679
 20
670.7754503677278
 30
0.0
 10
776.5929084774271
 20
671.5139312062847
 30
0.0
 10
776.5929084774271
 20
672.6455760167182
 30
0.0
  0
SPLINE
  5
127
330
70
100
AcDbEntity
  8
Camada 1
 62
     7
370
    15
100
AcDbSpline
210
0.0
220
0.0
230
1.0
 70
     8
 71
     3
 72
     8
 73
     4
 74
     0
 42
0.0000000001
 43
0.0000000001
 40
0.0
 40
0.0
 40
0.0
 40
0.0
 40
1.0
 40
1.0
 40
1.0
 40
1.0
 10
776.5929084774271
 20
677.5981749790771
 30
0.0
 10
776.5929084774271
 20
678.7288989446042
 30
0.0
 10
775.8529911206679
 20
679.4686362637703
 30
0.0
 10
774.7227828282666
 20
679.4686362637703
 30
0.0
  0
SPLINE
  5
128
330
70
100
AcDbEntity
  8
Camada 1
 62
     7
370
    15
100
AcDbSpline
210
0.0
220
0.0
230
1.0
 70
     8
 71
     3
 72
     8
 73
     4
 74
     0
 42
0.0000000001
 43
0.0000000001
 40
0.0
 40
0.0
 40
0.0
 40
0.0
 40
1.0
 40
1.0
 40
1.0
 40
1.0
 10
735.7435254086595
 20
679.4686362637703
 30
0.0
 10
734.6131697811979
 20
679.4686362637703
 30
0.0
 10
733.8732546481805
 20
678.7288989446042
 30
0.0
 10
733.8732546481805
 20
677.5981749790771
 30
0.0
  0
SPLINE
  5
129
330
70
100
AcDbEntity
  8
Camada 1
 62
     7
370
    15
100
AcDbSpline
210
0.0
220
0.0
230
1.0
 70
     8
 71
     3
 72
     8
 73
     4
 74
     0
 42
0.0000000001
 43
0.0000000001
 40
0.0
 40
0.0
 40
0.0
 40
0.0
 40
1.0
 40
1.0
 40
1.0
 40
1.0
 10
733.8732546481805
 20
672.6455760167182
 30
0.0
 10
733.8732546481805
 20
671.5139312062847
 30
0.0
 10
734.6131697811979
 20
670.7754503677278
 30
0.0
 10
735.7435254086595
 20
670.7754503677278
 30
0.0
  0
SPLINE
  5
12A
330
70
100
AcDbEntity
  8
Camada 1
 62
     7
370
    30
100
AcDbSpline
210
0.0
220
0.0
230
1.0
 70
     9
 71
     3
 72
    29
 73
    25
 74
     0
 42
0.0000000001
 43
0.0000000001
 40
0.0
 40
0.0
 40
0.0
 40
0.0
 40
1.0
 40
1.0
 40
1.0
 40
2.0
 40
2.0
 40
2.0
 40
3.0
 40
3.0
 40
3.0
 40
4.0
 40
4.0
 40
4.0
 40
5.0
 40
5.0
 40
5.0
 40
6.0
 40
6.0
 40
6.0
 40
7.0
 40
7.0
 40
7.0
 40
8.0
 40
8.0
 40
8.0
 40
8.0
 10
1215.49295326956
 20
396.4742914769959
 30
0.0
 10
1215.49295326956
 20
396.4742914769959
 30
0.0
 10
1200.3406312606
 20
396.4742914769959
 30
0.0
 10
1200.3406312606
 20
396.4742914769959
 30
0.0
 10
1199.840127595729
 20
396.4742914769959
 30
0.0
 10
1199.4343892088
 20
396.8800298639326
 30
0.0
 10
1199.4343892088
 20
397.380533528798
 30
0.0
 10
1199.4343892088
 20
397.380533528798
 30
0.0
 10
1199.4343892088
 20
779.4406113249988
 30
0.0
 10
1199.4343892088
 20
779.4406113249988
 30
0.0
 10
1199.4343892088
 20
779.9411149898642
 30
0.0
 10
1199.840127595729
 20
780.3468533768009
 30
0.0
 10
1200.3406312606
 20
780.3468533768009
 30
0.0
 10
1200.3406312606
 20
780.3468533768009
 30
0.0
 10
1215.49295326956
 20
780.3468533768009
 30
0.0
 10
1215.49295326956
 20
780.3468533768009
 30
0.0
 10
1215.99345693442
 20
780.3468533768009
 30
0.0
 10
1216.399195321359
 20
779.9411149898642
 30
0.0
 10
1216.399195321359
 20
779.4406113249988
 30
0.0
 10
1216.399195321359
 20
779.4406113249988
 30
0.0
 10
1216.399195321359
 20
397.380533528798
 30
0.0
 10
1216.399195321359
 20
397.380533528798
 30
0.0
 10
1216.399195321359
 20
396.8800298639326
 30
0.0
 10
1215.99345693442
 20
396.4742914769959
 30
0.0
 10
1215.49295326956
 20
396.4742914769959
 30
0.0
  0
ENDSEC
  0
SECTION
  2
OBJECTS
  0
DICTIONARY
  5
C
330
0
100
AcDbDictionary
281
     1
  3
ACAD_COLOR
350
63
  3
ACAD_DETAILVIEWSTYLE
350
6A
  3
ACAD_GROUP
350
D
  3
ACAD_LAYOUT
350
62
  3
ACAD_MATERIAL
350
10
  3
ACAD_MLEADERSTYLE
350
66
  3
ACAD_MLINESTYLE
350
5F
  3
ACAD_PLOTSETTINGS
350
61
  3
ACAD_PLOTSTYLENAME
350
E
  3
ACAD_SCALELIST
350
42
  3
ACAD_SECTIONVIEWSTYLE
350
68
  3
ACAD_TABLESTYLE
350
64
  3
ACAD_VISUALSTYLE
350
29
  3
ACDB_RECOMPOSE_DATA
350
133
  3
AcDbVariableDictionary
350
12B
  0
DICTIONARY
  5
63
102
{ACAD_REACTORS
330
C
102
}
330
C
100
AcDbDictionary
281
     1
  0
DICTIONARY
  5
6A
102
{ACAD_REACTORS
330
C
102
}
330
C
100
AcDbDictionary
281
     1
  3
Imperial24
350
6B
  0
DICTIONARY
  5
D
102
{ACAD_REACTORS
330
C
102
}
330
C
100
AcDbDictionary
281
     1
  0
DICTIONARY
  5
62
102
{ACAD_REACTORS
330
C
102
}
330
C
100
AcDbDictionary
281
     1
  3
Layout1
350
6F
  3
Layout2
350
77
  3
Model
350
73
  0
DICTIONARY
  5
10
102
{ACAD_REACTORS
330
C
102
}
330
C
100
AcDbDictionary
281
     1
  3
ByBlock
350
19
  3
ByLayer
350
11
  3
Global
350
21
  0
DICTIONARY
  5
66
102
{ACAD_REACTORS
330
C
102
}
330
C
100
AcDbDictionary
281
     1
  3
Standard
350
67
  0
DICTIONARY
  5
5F
102
{ACAD_REACTORS
330
C
102
}
330
C
100
AcDbDictionary
281
     1
  3
Standard
350
60
  0
DICTIONARY
  5
61
102
{ACAD_REACTORS
330
C
102
}
330
C
100
AcDbDictionary
281
     1
  0
ACDBDICTIONARYWDFLT
  5
E
102
{ACAD_REACTORS
330
C
102
}
330
C
100
AcDbDictionary
281
     1
  3
Normal
350
F
100
AcDbDictionaryWithDefault
340
F
  0
DICTIONARY
  5
42
102
{ACAD_REACTORS
330
C
102
}
330
C
100
AcDbDictionary
281
     1
  3
A0
350
43
  3
A1
350
44
  3
A2
350
45
  3
A3
350
46
  3
A4
350
47
  3
A5
350
48
  3
A6
350
49
  3
A7
350
4A
  3
A8
350
4B
  3
A9
350
4C
  3
B0
350
4D
  3
B1
350
4E
  3
B2
350
4F
  3
B3
350
50
  3
B4
350
51
  3
B5
350
52
  3
B6
350
53
  0
DICTIONARY
  5
68
102
{ACAD_REACTORS
330
C
102
}
330
C
100
AcDbDictionary
281
     1
  3
Imperial24
350
69
  0
DICTIONARY
  5
64
102
{ACAD_REACTORS
330
C
102
}
330
C
100
AcDbDictionary
281
     1
  3
Standard
350
65
  0
DICTIONARY
  5
29
102
{ACAD_REACTORS
330
C
102
}
330
C
100
AcDbDictionary
281
     1
  3
2dWireframe
350
2F
  3
Basic
350
2E
  3
Brighten
350
35
  3
ColorChange
350
39
  3
Conceptual
350
32
  3
Dim
350
34
  3
EdgeColorOff
350
41
  3
Facepattern
350
38
  3
Flat
350
2A
  3
FlatWithEdges
350
2B
  3
Gouraud
350
2C
  3
GouraudWithEdges
350
2D
  3
Hidden
350
31
  3
JitterOff
350
3F
  3
Linepattern
350
37
  3
OverhangOff
350
40
  3
Realistic
350
33
  3
Shaded
350
3E
  3
Shaded with edges
350
3D
  3
Shades of Gray
350
3A
  3
Sketchy
350
3B
  3
Thicken
350
36
  3
Wireframe
350
30
  3
X-Ray
350
3C
  0
XRECORD
  5
133
102
{ACAD_REACTORS
330
C
102
}
330
C
100
AcDbXrecord
280
     1
 90
        1
330
65
  0
DICTIONARY
  5
12B
102
{ACAD_REACTORS
330
C
102
}
330
C
100
AcDbDictionary
281
     1
  3
CANNOSCALE
350
130
  3
CMLEADERSTYLE
350
12D
  3
CTABLESTYLE
350
12C
  3
CVIEWDETAILSTYLE
350
12E
  3
CVIEWSECTIONSTYLE
350
12F
  0
ACDBDETAILVIEWSTYLE
  5
6B
102
{ACAD_REACTORS
330
6A
102
}
330
6A
100
AcDbModelDocViewStyle
 70
     0
  3
Imperial24
290
     1
300
Imperial24
 90
        0
100
AcDbDetailViewStyle
 70
     0
 71
     0
 90
        3
 71
     1
340
55
 62
   256
 40
0.24
340
0
 62
   256
 40
0.24
300

 40
0.36
280
     3
 71
     2
340
5D
 90
       25
 62
   256
 71
     3
340
55
 62
   256
 40
0.24
 90
        1
 40
0.75
 90
        1
300
%<\AcVar ViewType \f "%tc1">% %<\AcVar ViewDetailId>%\PSCALE %<\AcVar ViewScale \f "%sn">%
 71
     4
340
5D
 90
       25
 62
   256
340
5D
 90
       25
 62
   256
280
     0
  0
LAYOUT
  5
6F
102
{ACAD_REACTORS
330
62
102
}
330
62
100
AcDbPlotSettings
  1

  2

  4

  6

 40
0.0
 41
0.0
 42
0.0
 43
0.0
 44
0.0
 45
0.0
 46
0.0
 47
0.0
 48
0.0
 49
0.0
140
0.0
141
0.0
142
1.0
143
1.0
 70
   688
 72
     0
 73
     0
 74
     5
  7

 75
    16
147
1.0
 76
     0
 77
     2
 78
   300
148
0.0
149
0.0
100
AcDbLayout
  1
Layout1
 70
     1
 71
     1
 10
0.0
 20
0.0
 11
12.0
 21
9.0
 12
0.0
 22
0.0
 32
0.0
 14
0.0
 24
0.0
 34
0.0
 15
0.0
 25
0.0
 35
0.0
146
0.0
 13
0.0
 23
0.0
 33
0.0
 16
1.0
 26
0.0
 36
0.0
 17
0.0
 27
1.0
 37
0.0
 76
     0
330
6C
  0
LAYOUT
  5
77
102
{ACAD_REACTORS
330
62
102
}
330
62
100
AcDbPlotSettings
  1

  2

  4

  6

 40
0.0
 41
0.0
 42
0.0
 43
0.0
 44
0.0
 45
0.0
 46
0.0
 47
0.0
 48
0.0
 49
0.0
140
0.0
141
0.0
142
1.0
143
1.0
 70
   688
 72
     0
 73
     0
 74
     5
  7

 75
    16
147
1.0
 76
     0
 77
     2
 78
   300
148
0.0
149
0.0
100
AcDbLayout
  1
Layout2
 70
     1
 71
     2
 10
0.0
 20
0.0
 11
12.0
 21
9.0
 12
0.0
 22
0.0
 32
0.0
 14
0.0
 24
0.0
 34
0.0
 15
0.0
 25
0.0
 35
0.0
146
0.0
 13
0.0
 23
0.0
 33
0.0
 16
1.0
 26
0.0
 36
0.0
 17
0.0
 27
1.0
 37
0.0
 76
     0
330
74
  0
LAYOUT
  5
73
102
{ACAD_REACTORS
330
62
102
}
330
62
100
AcDbPlotSettings
  1

  2

  4

  6

 40
0.0
 41
0.0
 42
0.0
 43
0.0
 44
0.0
 45
0.0
 46
0.0
 47
0.0
 48
0.0
 49
0.0
140
0.0
141
0.0
142
1.0
143
1.0
 70
  1712
 72
     0
 73
     0
 74
     0
  7

 75
     0
147
1.0
 76
     0
 77
     2
 78
   300
148
0.0
149
0.0
100
AcDbLayout
  1
Model
 70
     1
 71
     0
 10
0.0
 20
0.0
 11
12.0
 21
9.0
 12
0.0
 22
0.0
 32
0.0
 14
0.0
 24
0.0
 34
0.0
 15
0.0
 25
0.0
 35
0.0
146
0.0
 13
0.0
 23
0.0
 33
0.0
 16
1.0
 26
0.0
 36
0.0
 17
0.0
 27
1.0
 37
0.0
 76
     0
330
70
  0
MATERIAL
  5
19
102
{ACAD_XDICTIONARY
360
1A
102
}
102
{ACAD_REACTORS
330
10
102
}
330
10
100
AcDbMaterial
  1
ByBlock
 72
     0
 43
0.0208333333333333
 43
0.0
 43
0.0
 43
0.0
 43
0.0
 43
0.0208333333333333
 43
0.0
 43
0.0
 43
0.0
 43
0.0
 43
1.0
 43
0.0
 43
0.0
 43
0.0
 43
0.0
 43
1.0
 77
     0
 47
0.0208333333333333
 47
0.0
 47
0.0
 47
0.0
 47
0.0
 47
0.0208333333333333
 47
0.0
 47
0.0
 47
0.0
 47
0.0
 47
1.0
 47
0.0
 47
0.0
 47
0.0
 47
0.0
 47
1.0
171
     0
 49
0.0208333333333333
 49
0.0
 49
0.0
 49
0.0
 49
0.0
 49
0.0208333333333333
 49
0.0
 49
0.0
 49
0.0
 49
0.0
 49
1.0
 49
0.0
 49
0.0
 49
0.0
 49
0.0
 49
1.0
175
     0
142
0.0208333333333333
142
0.0
142
0.0
142
0.0
142
0.0
142
0.0208333333333333
142
0.0
142
0.0
142
0.0
142
0.0
142
1.0
142
0.0
142
0.0
142
0.0
142
0.0
142
1.0
179
     0
144
0.0208333333333333
144
0.0
144
0.0
144
0.0
144
0.0
144
0.0208333333333333
144
0.0
144
0.0
144
0.0
144
0.0
144
1.0
144
0.0
144
0.0
144
0.0
144
0.0
144
1.0
147
0.0208333333333333
147
0.0
147
0.0
147
0.0
147
0.0
147
0.0208333333333333
147
0.0
147
0.0
147
0.0
147
0.0
147
1.0
147
0.0
147
0.0
147
0.0
147
0.0
147
1.0
  0
MATERIAL
  5
11
102
{ACAD_XDICTIONARY
360
12
102
}
102
{ACAD_REACTORS
330
10
102
}
330
10
100
AcDbMaterial
  1
ByLayer
 72
     0
 43
0.0208333333333333
 43
0.0
 43
0.0
 43
0.0
 43
0.0
 43
0.0208333333333333
 43
0.0
 43
0.0
 43
0.0
 43
0.0
 43
1.0
 43
0.0
 43
0.0
 43
0.0
 43
0.0
 43
1.0
 77
     0
 47
0.0208333333333333
 47
0.0
 47
0.0
 47
0.0
 47
0.0
 47
0.0208333333333333
 47
0.0
 47
0.0
 47
0.0
 47
0.0
 47
1.0
 47
0.0
 47
0.0
 47
0.0
 47
0.0
 47
1.0
171
     0
 49
0.0208333333333333
 49
0.0
 49
0.0
 49
0.0
 49
0.0
 49
0.0208333333333333
 49
0.0
 49
0.0
 49
0.0
 49
0.0
 49
1.0
 49
0.0
 49
0.0
 49
0.0
 49
0.0
 49
1.0
175
     0
142
0.0208333333333333
142
0.0
142
0.0
142
0.0
142
0.0
142
0.0208333333333333
142
0.0
142
0.0
142
0.0
142
0.0
142
1.0
142
0.0
142
0.0
142
0.0
142
0.0
142
1.0
179
     0
144
0.0208333333333333
144
0.0
144
0.0
144
0.0
144
0.0
144
0.0208333333333333
144
0.0
144
0.0
144
0.0
144
0.0
144
1.0
144
0.0
144
0.0
144
0.0
144
0.0
144
1.0
147
0.0208333333333333
147
0.0
147
0.0
147
0.0
147
0.0
147
0.0208333333333333
147
0.0
147
0.0
147
0.0
147
0.0
147
1.0
147
0.0
147
0.0
147
0.0
147
0.0
147
1.0
  0
MATERIAL
  5
21
102
{ACAD_XDICTIONARY
360
22
102
}
102
{ACAD_REACTORS
330
10
102
}
330
10
100
AcDbMaterial
  1
Global
 72
     0
 43
0.0208333333333333
 43
0.0
 43
0.0
 43
0.0
 43
0.0
 43
0.0208333333333333
 43
0.0
 43
0.0
 43
0.0
 43
0.0
 43
1.0
 43
0.0
 43
0.0
 43
0.0
 43
0.0
 43
1.0
 77
     0
 47
0.0208333333333333
 47
0.0
 47
0.0
 47
0.0
 47
0.0
 47
0.0208333333333333
 47
0.0
 47
0.0
 47
0.0
 47
0.0
 47
1.0
 47
0.0
 47
0.0
 47
0.0
 47
0.0
 47
1.0
171
     0
 49
0.0208333333333333
 49
0.0
 49
0.0
 49
0.0
 49
0.0
 49
0.0208333333333333
 49
0.0
 49
0.0
 49
0.0
 49
0.0
 49
1.0
 49
0.0
 49
0.0
 49
0.0
 49
0.0
 49
1.0
175
     0
142
0.0208333333333333
142
0.0
142
0.0
142
0.0
142
0.0
142
0.0208333333333333
142
0.0
142
0.0
142
0.0
142
0.0
142
1.0
142
0.0
142
0.0
142
0.0
142
0.0
142
1.0
179
     0
144
0.0208333333333333
144
0.0
144
0.0
144
0.0
144
0.0
144
0.0208333333333333
144
0.0
144
0.0
144
0.0
144
0.0
144
1.0
144
0.0
144
0.0
144
0.0
144
0.0
144
1.0
147
0.0208333333333333
147
0.0
147
0.0
147
0.0
147
0.0
147
0.0208333333333333
147
0.0
147
0.0
147
0.0
147
0.0
147
1.0
147
0.0
147
0.0
147
0.0
147
0.0
147
1.0
  0
MLEADERSTYLE
  5
67
102
{ACAD_REACTORS
330
66
102
}
330
66
100
AcDbMLeaderStyle
179
     2
170
     2
171
     1
172
     0
 90
        2
 40
0.0
 41
0.0
173
     1
 91
-1056964608
340
5B
 92
       -2
290
     1
 42
0.09
291
     1
 43
0.36
  3
Standard
 44
0.18
300

342
55
174
     1
178
     6
175
     1
176
     0
 93
-1056964608
 45
0.18
292
     0
297
     0
 46
0.18
 94
-1056964608
 47
1.0
 49
1.0
140
1.0
293
     1
141
0.0
294
     1
177
     0
142
1.0
295
     1
296
     0
143
0.125
271
     0
272
     9
273
     9
298
     1
  0
MLINESTYLE
  5
60
102
{ACAD_REACTORS
330
5F
102
}
330
5F
100
AcDbMlineStyle
  2
STANDARD
 70
     0
  3

 62
   256
 51
90.0
 52
90.0
 71
     2
 49
0.5
 62
   256
  6
BYLAYER
 49
-0.5
 62
   256
  6
BYLAYER
  0
ACDBPLACEHOLDER
  5
F
102
{ACAD_REACTORS
330
E
102
}
330
E
  0
SCALE
  5
43
102
{ACAD_REACTORS
330
42
102
}
330
42
100
AcDbScale
 70
     0
300
1:1
140
1.0
141
1.0
290
     1
  0
SCALE
  5
44
102
{ACAD_REACTORS
330
42
102
}
330
42
100
AcDbScale
 70
     0
300
1/128" = 1'-0"
140
0.0078125
141
12.0
290
     0
  0
SCALE
  5
45
102
{ACAD_REACTORS
330
42
102
}
330
42
100
AcDbScale
 70
     0
300
1/64" = 1'-0"
140
0.015625
141
12.0
290
     0
  0
SCALE
  5
46
102
{ACAD_REACTORS
330
42
102
}
330
42
100
AcDbScale
 70
     0
300
1/32" = 1'-0"
140
0.03125
141
12.0
290
     0
  0
SCALE
  5
47
102
{ACAD_REACTORS
330
42
102
}
330
42
100
AcDbScale
 70
     0
300
1/16" = 1'-0"
140
0.0625
141
12.0
290
     0
  0
SCALE
  5
48
102
{ACAD_REACTORS
330
42
102
}
330
42
100
AcDbScale
 70
     0
300
3/32" = 1'-0"
140
0.09375
141
12.0
290
     0
  0
SCALE
  5
49
102
{ACAD_REACTORS
330
42
102
}
330
42
100
AcDbScale
 70
     0
300
1/8" = 1'-0"
140
0.125
141
12.0
290
     0
  0
SCALE
  5
4A
102
{ACAD_REACTORS
330
42
102
}
330
42
100
AcDbScale
 70
     0
300
3/16" = 1'-0"
140
0.1875
141
12.0
290
     0
  0
SCALE
  5
4B
102
{ACAD_REACTORS
330
42
102
}
330
42
100
AcDbScale
 70
     0
300
1/4" = 1'-0"
140
0.25
141
12.0
290
     0
  0
SCALE
  5
4C
102
{ACAD_REACTORS
330
42
102
}
330
42
100
AcDbScale
 70
     0
300
3/8" = 1'-0"
140
0.375
141
12.0
290
     0
  0
SCALE
  5
4D
102
{ACAD_REACTORS
330
42
102
}
330
42
100
AcDbScale
 70
     0
300
1/2" = 1'-0"
140
0.5
141
12.0
290
     0
  0
SCALE
  5
4E
102
{ACAD_REACTORS
330
42
102
}
330
42
100
AcDbScale
 70
     0
300
3/4" = 1'-0"
140
0.75
141
12.0
290
     0
  0
SCALE
  5
4F
102
{ACAD_REACTORS
330
42
102
}
330
42
100
AcDbScale
 70
     0
300
1" = 1'-0"
140
1.0
141
12.0
290
     0
  0
SCALE
  5
50
102
{ACAD_REACTORS
330
42
102
}
330
42
100
AcDbScale
 70
     0
300
1-1/2" = 1'-0"
140
1.5
141
12.0
290
     0
  0
SCALE
  5
51
102
{ACAD_REACTORS
330
42
102
}
330
42
100
AcDbScale
 70
     0
300
3" = 1'-0"
140
3.0
141
12.0
290
     0
  0
SCALE
  5
52
102
{ACAD_REACTORS
330
42
102
}
330
42
100
AcDbScale
 70
     0
300
6" = 1'-0"
140
6.0
141
12.0
290
     0
  0
SCALE
  5
53
102
{ACAD_REACTORS
330
42
102
}
330
42
100
AcDbScale
 70
     0
300
1'-0" = 1'-0"
140
12.0
141
12.0
290
     0
  0
ACDBSECTIONVIEWSTYLE
  5
69
102
{ACAD_REACTORS
330
68
102
}
330
68
100
AcDbModelDocViewStyle
 70
     0
  3
Imperial24
290
     1
300
Imperial24
 90
        0
100
AcDbSectionViewStyle
 70
     0
 71
     0
 90
       78
 71
     1
340
55
 62
   256
 40
0.24
340
0
340
0
 62
   256
 40
0.24
300
I, O, Q, S, X, Z
 40
0.48
 90
        3
 40
0.18
 90
        1
 71
     2
340
5D
 90
       25
 62
   256
340
5D
 90
       50
 62
   256
 40
0.24
 40
0.0
 40
0.24
 71
     3
340
55
 62
   256
 40
0.24
 90
        1
 40
0.75
 90
        1
300
%<\AcVar ViewType \f "%tc1">% %<\AcVar ViewSectionStartId>%-%<\AcVar ViewSectionEndId>%\PSCALE %<\AcVar ViewScale \f "%sn">%
 71
     4
 62
   256
 62
   257
300
ANSI31
 40
1.0
 90
        0
290
     0
290
     0
 90
        6
 40
0.0
 40
1.570796326794896
 40
0.2617993877991494
 40
1.308996938995747
 40
-0.2617993877991494
 40
1.832595714594046
  0
TABLESTYLE
  5
65
102
{ACAD_XDICTIONARY
360
131
102
}
102
{ACAD_REACTORS
330
64
102
}
330
64
100
AcDbTableStyle
280
     0
  3
Standard
 70
     0
 71
     0
 40
0.06
 41
0.06
280
     0
281
     0
  7
Standard
140
0.18
170
     2
 62
     0
 63
     7
283
     0
 90
      512
 91
        0
  1

274
    -2
284
     1
 64
     0
275
    -2
285
     1
 65
     0
276
    -2
286
     1
 66
     0
277
    -2
287
     1
 67
     0
278
    -2
288
     1
 68
     0
279
    -2
289
     1
 69
     0
  7
Standard
140
0.25
170
     5
 62
     0
 63
     7
283
     0
 90
      512
 91
        0
  1

274
    -2
284
     1
 64
     0
275
    -2
285
     1
 65
     0
276
    -2
286
     1
 66
     0
277
    -2
287
     1
 67
     0
278
    -2
288
     1
 68
     0
279
    -2
289
     1
 69
     0
  7
Standard
140
0.18
170
     5
 62
     0
 63
     7
283
     0
 90
      512
 91
        0
  1

274
    -2
284
     1
 64
     0
275
    -2
285
     1
 65
     0
276
    -2
286
     1
 66
     0
277
    -2
287
     1
 67
     0
278
    -2
288
     1
 68
     0
279
    -2
289
     1
 69
     0
  0
VISUALSTYLE
  5
2F
102
{ACAD_REACTORS
330
29
102
}
330
29
100
AcDbVisualStyle
  2
2dWireframe
 70
     4
177
     3
291
     0
 70
    58
 90
        0
176
     1
 90
        2
176
     1
 90
        0
176
     1
 90
        0
176
     1
 40
0.6
176
     1
 40
30.0
176
     1
 62
     7
420
 16777215
176
     1
 90
        1
176
     1
 90
        4
176
     1
 62
     7
176
     1
 62
   257
176
     1
 90
        1
176
     1
 90
        1
176
     1
 40
1.0
176
     1
 90
        0
176
     1
 62
   257
176
     1
 40
1.0
176
     1
 90
        1
176
     1
 90
        6
176
     1
 90
        2
176
     1
 62
     7
176
     1
 90
        5
176
     1
 90
        0
176
     1
 90
        0
176
     1
290
     0
176
     1
 90
        1
176
     1
 40
0.0
176
     1
 90
        0
176
     1
290
     1
176
     1
290
     1
176
     1
290
     0
176
     1
290
     0
176
     1
290
     0
176
     1
290
     0
176
     1
290
     0
176
     1
290
     0
176
     1
290
     0
176
     1
 90
       50
176
     1
 40
0.0
176
     1
 40
1.0
176
     1
 90
        0
176
     1
 62
    18
420
        0
176
     1
 90
       50
176
     1
 90
        3
176
     1
 62
     5
420
      255
176
     1
290
     0
176
     1
 90
       50
176
     1
 90
       50
176
     1
 90
       50
176
     1
290
     0
176
     1
 90
       50
176
     1
 62
   256
176
     0
 40
1.0
176
     0
 90
        2
176
     1
  1
strokes_ogs.tif
176
     1
290
     0
176
     1
 40
1.0
176
     1
 40
1.0
176
     1
  0
VISUALSTYLE
  5
2E
102
{ACAD_REACTORS
330
29
102
}
330
29
100
AcDbVisualStyle
  2
Basic
 70
     7
177
     3
291
     1
 70
    58
 90
        1
176
     1
 90
        0
176
     1
 90
        1
176
     1
 90
        0
176
     1
 40
0.6
176
     1
 40
30.0
176
     1
 62
     7
420
 16777215
176
     1
 90
        0
176
     1
 90
        4
176
     1
 62
     7
176
     1
 62
   257
176
     1
 90
        1
176
     1
 90
        1
176
     1
 40
1.0
176
     1
 90
        8
176
     1
 62
     7
176
     1
 40
1.0
176
     1
 90
        1
176
     1
 90
        6
176
     1
 90
        2
176
     1
 62
     7
176
     1
 90
        5
176
     1
 90
        0
176
     1
 90
        0
176
     1
290
     0
176
     1
 90
        1
176
     1
 40
0.0
176
     1
 90
        0
176
     1
290
     0
176
     1
290
     1
176
     1
290
     1
176
     1
290
     0
176
     1
290
     0
176
     1
290
     0
176
     1
290
     0
176
     1
290
     0
176
     1
290
     0
176
     1
 90
       50
176
     1
 40
0.0
176
     1
 40
1.0
176
     1
 90
        0
176
     1
 62
    18
420
        0
176
     1
 90
       50
176
     1
 90
        3
176
     1
 62
     5
420
      255
176
     1
290
     0
176
     1
 90
       50
176
     1
 90
       50
176
     1
 90
       50
176
     1
290
     0
176
     1
 90
       50
176
     1
 62
   256
176
     0
 40
1.0
176
     0
 90
        2
176
     1
  1
strokes_ogs.tif
176
     1
290
     0
176
     1
 40
1.0
176
     1
 40
1.0
176
     1
  0
VISUALSTYLE
  5
35
102
{ACAD_REACTORS
330
29
102
}
330
29
100
AcDbVisualStyle
  2
Brighten
 70
    12
177
     3
291
     1
 70
    58
 90
        2
176
     1
 90
        2
176
     1
 90
        0
176
     1
 90
        0
176
     1
 40
0.6
176
     1
 40
30.0
176
     1
 62
     7
420
 16777215
176
     1
 90
        1
176
     1
 90
        4
176
     1
 62
     7
176
     1
 62
   257
176
     1
 90
        1
176
     1
 90
        1
176
     1
 40
1.0
176
     1
 90
        8
176
     1
 62
     7
176
     1
 40
1.0
176
     1
 90
        1
176
     1
 90
        6
176
     1
 90
        2
176
     1
 62
     7
176
     1
 90
        5
176
     1
 90
        0
176
     1
 90
        0
176
     1
290
     0
176
     1
 90
        1
176
     1
 40
50.0
176
     1
 90
        0
176
     1
290
     0
176
     1
290
     1
176
     1
290
     1
176
     1
290
     0
176
     1
290
     0
176
     1
290
     0
176
     1
290
     0
176
     1
290
     0
176
     1
290
     0
176
     1
 90
       50
176
     1
 40
0.0
176
     1
 40
1.0
176
     1
 90
        0
176
     1
 62
    18
420
        0
176
     1
 90
       50
176
     1
 90
        3
176
     1
 62
     5
420
      255
176
     1
290
     0
176
     1
 90
       50
176
     1
 90
       50
176
     1
 90
       50
176
     1
290
     0
176
     1
 90
       50
176
     1
 62
   256
176
     0
 40
1.0
176
     0
 90
        2
176
     1
  1
strokes_ogs.tif
176
     1
290
     0
176
     1
 40
1.0
176
     1
 40
1.0
176
     1
  0
VISUALSTYLE
  5
39
102
{ACAD_REACTORS
330
29
102
}
330
29
100
AcDbVisualStyle
  2
ColorChange
 70
    16
177
     3
291
     1
 70
    58
 90
        2
176
     1
 90
        2
176
     1
 90
        3
176
     1
 90
        0
176
     1
 40
0.6
176
     1
 40
30.0
176
     1
 62
     8
420
  8421504
176
     1
 90
        1
176
     1
 90
        4
176
     1
 62
     7
176
     1
 62
   257
176
     1
 90
        1
176
     1
 90
        1
176
     1
 40
1.0
176
     1
 90
        8
176
     1
 62
     8
420
  8421504
176
     1
 40
1.0
176
     1
 90
        1
176
     1
 90
        6
176
     1
 90
        2
176
     1
 62
     7
176
     1
 90
        5
176
     1
 90
        0
176
     1
 90
        0
176
     1
290
     0
176
     1
 90
        1
176
     1
 40
0.0
176
     1
 90
        0
176
     1
290
     0
176
     1
290
     1
176
     1
290
     1
176
     1
290
     0
176
     1
290
     0
176
     1
290
     0
176
     1
290
     0
176
     1
290
     0
176
     1
290
     0
176
     1
 90
       50
176
     1
 40
0.0
176
     1
 40
1.0
176
     1
 90
        0
176
     1
 62
    18
420
        0
176
     1
 90
       50
176
     1
 90
        3
176
     1
 62
     5
420
      255
176
     1
290
     0
176
     1
 90
       50
176
     1
 90
       50
176
     1
 90
       50
176
     1
290
     0
176
     1
 90
       50
176
     1
 62
   256
176
     0
 40
1.0
176
     0
 90
        2
176
     1
  1
strokes_ogs.tif
176
     1
290
     0
176
     1
 40
1.0
176
     1
 40
1.0
176
     1
  0
VISUALSTYLE
  5
32
102
{ACAD_REACTORS
330
29
102
}
330
29
100
AcDbVisualStyle
  2
Conceptual
 70
     9
177
     3
291
     0
 70
    58
 90
        3
176
     1
 90
        2
176
     1
 90
        0
176
     1
 90
        0
176
     1
 40
0.6
176
     1
 40
30.0
176
     1
 62
     7
420
 16777215
176
     1
 90
        2
176
     1
 90
        2
176
     1
 62
     7
176
     1
 62
   257
176
     1
 90
        1
176
     1
 90
        1
176
     1
 40
179.0
176
     1
 90
        8
176
     1
 62
     7
176
     1
 40
1.0
176
     1
 90
        1
176
     1
 90
        6
176
     1
 90
        2
176
     1
 62
     7
176
     1
 90
        3
176
     1
 90
        0
176
     1
 90
        0
176
     1
290
     0
176
     1
 90
        1
176
     1
 40
0.0
176
     1
 90
        0
176
     1
290
     0
176
     1
290
     1
176
     1
290
     1
176
     1
290
     0
176
     1
290
     0
176
     1
290
     0
176
     1
290
     0
176
     1
290
     0
176
     1
290
     0
176
     1
 90
       50
176
     1
 40
0.0
176
     1
 40
1.0
176
     1
 90
        0
176
     1
 62
    18
420
        0
176
     1
 90
       50
176
     1
 90
        3
176
     1
 62
     5
420
      255
176
     1
290
     0
176
     1
 90
       50
176
     1
 90
       50
176
     1
 90
       50
176
     1
290
     0
176
     1
 90
       50
176
     1
 62
   256
176
     0
 40
1.0
176
     0
 90
        2
176
     1
  1
strokes_ogs.tif
176
     1
290
     0
176
     1
 40
1.0
176
     1
 40
1.0
176
     1
  0
VISUALSTYLE
  5
34
102
{ACAD_REACTORS
330
29
102
}
330
29
100
AcDbVisualStyle
  2
Dim
 70
    11
177
     3
291
     1
 70
    58
 90
        2
176
     1
 90
        2
176
     1
 90
        0
176
     1
 90
        0
176
     1
 40
0.6
176
     1
 40
30.0
176
     1
 62
     7
420
 16777215
176
     1
 90
        1
176
     1
 90
        4
176
     1
 62
     7
176
     1
 62
   257
176
     1
 90
        1
176
     1
 90
        1
176
     1
 40
1.0
176
     1
 90
        8
176
     1
 62
     7
176
     1
 40
1.0
176
     1
 90
        1
176
     1
 90
        6
176
     1
 90
        2
176
     1
 62
     7
176
     1
 90
        5
176
     1
 90
        0
176
     1
 90
        0
176
     1
290
     0
176
     1
 90
        1
176
     1
 40
-50.0
176
     1
 90
        0
176
     1
290
     0
176
     1
290
     1
176
     1
290
     1
176
     1
290
     0
176
     1
290
     0
176
     1
290
     0
176
     1
290
     0
176
     1
290
     0
176
     1
290
     0
176
     1
 90
       50
176
     1
 40
0.0
176
     1
 40
1.0
176
     1
 90
        0
176
     1
 62
    18
420
        0
176
     1
 90
       50
176
     1
 90
        3
176
     1
 62
     5
420
      255
176
     1
290
     0
176
     1
 90
       50
176
     1
 90
       50
176
     1
 90
       50
176
     1
290
     0
176
     1
 90
       50
176
     1
 62
   256
176
     0
 40
1.0
176
     0
 90
        2
176
     1
  1
strokes_ogs.tif
176
     1
290
     0
176
     1
 40
1.0
176
     1
 40
1.0
176
     1
  0
VISUALSTYLE
  5
41
102
{ACAD_REACTORS
330
29
102
}
330
29
100
AcDbVisualStyle
  2
EdgeColorOff
 70
    22
177
     3
291
     1
 70
    58
 90
        2
176
     0
 90
        2
176
     0
 90
        0
176
     0
 90
        0
176
     0
 40
0.6
176
     0
 40
30.0
176
     0
 62
     7
420
 16777215
176
     0
 90
        1
176
     0
 90
        4
176
     0
 62
     7
176
     0
 62
   257
176
     0
 90
        1
176
     0
 90
        1
176
     0
 40
1.0
176
     0
 90
        8
176
     2
 62
     7
176
     0
 40
1.0
176
     0
 90
        1
176
     0
 90
        6
176
     0
 90
        2
176
     0
 62
     7
176
     0
 90
        5
176
     0
 90
        0
176
     0
 90
        0
176
     0
290
     0
176
     0
 90
        1
176
     0
 40
0.0
176
     0
 90
        0
176
     0
290
     0
176
     0
290
     1
176
     0
290
     1
176
     0
290
     0
176
     0
290
     0
176
     0
290
     0
176
     0
290
     0
176
     0
290
     0
176
     0
290
     0
176
     0
 90
       50
176
     0
 40
0.0
176
     0
 40
1.0
176
     0
 90
        0
176
     0
 62
    18
420
        0
176
     0
 90
       50
176
     0
 90
        3
176
     0
 62
     5
420
      255
176
     0
290
     0
176
     0
 90
       50
176
     0
 90
       50
176
     0
 90
       50
176
     0
290
     0
176
     0
 90
       50
176
     0
 62
   256
176
     0
 40
1.0
176
     0
 90
        2
176
     0
  1
strokes_ogs.tif
176
     0
290
     0
176
     0
 40
1.0
176
     0
 40
1.0
176
     0
  0
VISUALSTYLE
  5
38
102
{ACAD_REACTORS
330
29
102
}
330
29
100
AcDbVisualStyle
  2
Facepattern
 70
    15
177
     3
291
     1
 70
    58
 90
        2
176
     1
 90
        2
176
     1
 90
        0
176
     1
 90
        0
176
     1
 40
0.6
176
     1
 40
30.0
176
     1
 62
     7
420
 16777215
176
     1
 90
        1
176
     1
 90
        4
176
     1
 62
     7
176
     1
 62
   257
176
     1
 90
        1
176
     1
 90
        1
176
     1
 40
1.0
176
     1
 90
        8
176
     1
 62
     7
176
     1
 40
1.0
176
     1
 90
        1
176
     1
 90
        6
176
     1
 90
        2
176
     1
 62
     7
176
     1
 90
        5
176
     1
 90
        0
176
     1
 90
        0
176
     1
290
     0
176
     1
 90
        1
176
     1
 40
0.0
176
     1
 90
        0
176
     1
290
     0
176
     1
290
     1
176
     1
290
     1
176
     1
290
     0
176
     1
290
     0
176
     1
290
     0
176
     1
290
     0
176
     1
290
     0
176
     1
290
     0
176
     1
 90
       50
176
     1
 40
0.0
176
     1
 40
1.0
176
     1
 90
        0
176
     1
 62
    18
420
        0
176
     1
 90
       50
176
     1
 90
        3
176
     1
 62
     5
420
      255
176
     1
290
     0
176
     1
 90
       50
176
     1
 90
       50
176
     1
 90
       50
176
     1
290
     0
176
     1
 90
       50
176
     1
 62
   256
176
     0
 40
1.0
176
     0
 90
        2
176
     1
  1
strokes_ogs.tif
176
     1
290
     0
176
     1
 40
1.0
176
     1
 40
1.0
176
     1
  0
VISUALSTYLE
  5
2A
102
{ACAD_REACTORS
330
29
102
}
330
29
100
AcDbVisualStyle
  2
Flat
 70
     0
177
     3
291
     1
 70
    58
 90
        2
176
     1
 90
        1
176
     1
 90
        1
176
     1
 90
        2
176
     1
 40
0.6
176
     1
 40
30.0
176
     1
 62
     7
420
 16777215
176
     1
 90
        0
176
     1
 90
        0
176
     1
 62
     7
176
     1
 62
   257
176
     1
 90
        1
176
     1
 90
        1
176
     1
 40
1.0
176
     1
 90
        8
176
     1
 62
     7
176
     1
 40
1.0
176
     1
 90
        1
176
     1
 90
        6
176
     1
 90
        2
176
     1
 62
     7
176
     1
 90
        5
176
     1
 90
        0
176
     1
 90
        0
176
     1
290
     0
176
     1
 90
       13
176
     1
 40
0.0
176
     1
 90
        0
176
     1
290
     0
176
     1
290
     1
176
     1
290
     1
176
     1
290
     0
176
     1
290
     0
176
     1
290
     0
176
     1
290
     0
176
     1
290
     0
176
     1
290
     0
176
     1
 90
       50
176
     1
 40
0.0
176
     1
 40
1.0
176
     1
 90
        0
176
     1
 62
    18
420
        0
176
     1
 90
       50
176
     1
 90
        3
176
     1
 62
     5
420
      255
176
     1
290
     0
176
     1
 90
       50
176
     1
 90
       50
176
     1
 90
       50
176
     1
290
     0
176
     1
 90
       50
176
     1
 62
   256
176
     0
 40
1.0
176
     0
 90
        2
176
     1
  1
strokes_ogs.tif
176
     1
290
     0
176
     1
 40
1.0
176
     1
 40
1.0
176
     1
  0
VISUALSTYLE
  5
2B
102
{ACAD_REACTORS
330
29
102
}
330
29
100
AcDbVisualStyle
  2
FlatWithEdges
 70
     1
177
     3
291
     1
 70
    58
 90
        2
176
     1
 90
        1
176
     1
 90
        1
176
     1
 90
        2
176
     1
 40
0.6
176
     1
 40
30.0
176
     1
 62
     7
420
 16777215
176
     1
 90
        1
176
     1
 90
        0
176
     1
 62
     7
176
     1
 62
   257
176
     1
 90
        1
176
     1
 90
        1
176
     1
 40
1.0
176
     1
 90
        0
176
     1
 62
   257
176
     1
 40
1.0
176
     1
 90
        1
176
     1
 90
        6
176
     1
 90
        2
176
     1
 62
     7
176
     1
 90
        5
176
     1
 90
        0
176
     1
 90
        0
176
     1
290
     0
176
     1
 90
       13
176
     1
 40
0.0
176
     1
 90
        0
176
     1
290
     0
176
     1
290
     1
176
     1
290
     1
176
     1
290
     0
176
     1
290
     0
176
     1
290
     0
176
     1
290
     0
176
     1
290
     0
176
     1
290
     0
176
     1
 90
       50
176
     1
 40
0.0
176
     1
 40
1.0
176
     1
 90
        0
176
     1
 62
    18
420
        0
176
     1
 90
       50
176
     1
 90
        3
176
     1
 62
     5
420
      255
176
     1
290
     0
176
     1
 90
       50
176
     1
 90
       50
176
     1
 90
       50
176
     1
290
     0
176
     1
 90
       50
176
     1
 62
   256
176
     0
 40
1.0
176
     0
 90
        2
176
     1
  1
strokes_ogs.tif
176
     1
290
     0
176
     1
 40
1.0
176
     1
 40
1.0
176
     1
  0
VISUALSTYLE
  5
2C
102
{ACAD_REACTORS
330
29
102
}
330
29
100
AcDbVisualStyle
  2
Gouraud
 70
     2
177
     3
291
     1
 70
    58
 90
        2
176
     1
 90
        2
176
     1
 90
        1
176
     1
 90
        2
176
     1
 40
0.6
176
     1
 40
30.0
176
     1
 62
     7
420
 16777215
176
     1
 90
        0
176
     1
 90
        0
176
     1
 62
     7
176
     1
 62
   257
176
     1
 90
        1
176
     1
 90
        1
176
     1
 40
1.0
176
     1
 90
        0
176
     1
 62
     7
176
     1
 40
1.0
176
     1
 90
        1
176
     1
 90
        6
176
     1
 90
        2
176
     1
 62
     7
176
     1
 90
        5
176
     1
 90
        0
176
     1
 90
        0
176
     1
290
     0
176
     1
 90
       13
176
     1
 40
0.0
176
     1
 90
        0
176
     1
290
     0
176
     1
290
     1
176
     1
290
     1
176
     1
290
     0
176
     1
290
     0
176
     1
290
     0
176
     1
290
     0
176
     1
290
     0
176
     1
290
     0
176
     1
 90
       50
176
     1
 40
0.0
176
     1
 40
1.0
176
     1
 90
        0
176
     1
 62
    18
420
        0
176
     1
 90
       50
176
     1
 90
        3
176
     1
 62
     5
420
      255
176
     1
290
     0
176
     1
 90
       50
176
     1
 90
       50
176
     1
 90
       50
176
     1
290
     0
176
     1
 90
       50
176
     1
 62
   256
176
     0
 40
1.0
176
     0
 90
        2
176
     1
  1
strokes_ogs.tif
176
     1
290
     0
176
     1
 40
1.0
176
     1
 40
1.0
176
     1
  0
VISUALSTYLE
  5
2D
102
{ACAD_REACTORS
330
29
102
}
330
29
100
AcDbVisualStyle
  2
GouraudWithEdges
 70
     3
177
     3
291
     1
 70
    58
 90
        2
176
     1
 90
        2
176
     1
 90
        1
176
     1
 90
        2
176
     1
 40
0.6
176
     1
 40
30.0
176
     1
 62
     7
420
 16777215
176
     1
 90
        1
176
     1
 90
        0
176
     1
 62
     7
176
     1
 62
   257
176
     1
 90
        1
176
     1
 90
        1
176
     1
 40
1.0
176
     1
 90
        0
176
     1
 62
   257
176
     1
 40
1.0
176
     1
 90
        1
176
     1
 90
        6
176
     1
 90
        2
176
     1
 62
     7
176
     1
 90
        5
176
     1
 90
        0
176
     1
 90
        0
176
     1
290
     0
176
     1
 90
       13
176
     1
 40
0.0
176
     1
 90
        0
176
     1
290
     0
176
     1
290
     1
176
     1
290
     1
176
     1
290
     0
176
     1
290
     0
176
     1
290
     0
176
     1
290
     0
176
     1
290
     0
176
     1
290
     0
176
     1
 90
       50
176
     1
 40
0.0
176
     1
 40
1.0
176
     1
 90
        0
176
     1
 62
    18
420
        0
176
     1
 90
       50
176
     1
 90
        3
176
     1
 62
     5
420
      255
176
     1
290
     0
176
     1
 90
       50
176
     1
 90
       50
176
     1
 90
       50
176
     1
290
     0
176
     1
 90
       50
176
     1
 62
   256
176
     0
 40
1.0
176
     0
 90
        2
176
     1
  1
strokes_ogs.tif
176
     1
290
     0
176
     1
 40
1.0
176
     1
 40
1.0
176
     1
  0
VISUALSTYLE
  5
31
102
{ACAD_REACTORS
330
29
102
}
330
29
100
AcDbVisualStyle
  2
Hidden
 70
     6
177
     3
291
     0
 70
    58
 90
        1
176
     1
 90
        2
176
     1
 90
        2
176
     1
 90
        0
176
     1
 40
0.6
176
     1
 40
30.0
176
     1
 62
     7
420
 16777215
176
     1
 90
        2
176
     1
 90
        2
176
     1
 62
     7
176
     1
 62
   257
176
     1
 90
        2
176
     1
 90
        1
176
     1
 40
40.0
176
     1
 90
        0
176
     1
 62
   257
176
     1
 40
1.0
176
     1
 90
        1
176
     1
 90
        6
176
     1
 90
        2
176
     1
 62
     7
176
     1
 90
        3
176
     1
 90
        0
176
     1
 90
        0
176
     1
290
     0
176
     1
 90
        1
176
     1
 40
0.0
176
     1
 90
        0
176
     1
290
     0
176
     1
290
     1
176
     1
290
     1
176
     1
290
     0
176
     1
290
     0
176
     1
290
     0
176
     1
290
     0
176
     1
290
     0
176
     1
290
     0
176
     1
 90
       50
176
     1
 40
0.0
176
     1
 40
1.0
176
     1
 90
        0
176
     1
 62
    18
420
        0
176
     1
 90
       50
176
     1
 90
        3
176
     1
 62
     5
420
      255
176
     1
290
     0
176
     1
 90
       50
176
     1
 90
       50
176
     1
 90
       50
176
     1
290
     0
176
     1
 90
       50
176
     1
 62
   256
176
     0
 40
1.0
176
     0
 90
        2
176
     1
  1
strokes_ogs.tif
176
     1
290
     0
176
     1
 40
1.0
176
     1
 40
1.0
176
     1
  0
VISUALSTYLE
  5
3F
102
{ACAD_REACTORS
330
29
102
}
330
29
100
AcDbVisualStyle
  2
JitterOff
 70
    20
177
     3
291
     1
 70
    58
 90
        2
176
     0
 90
        2
176
     0
 90
        0
176
     0
 90
        0
176
     0
 40
0.6
176
     0
 40
30.0
176
     0
 62
     7
420
 16777215
176
     0
 90
        1
176
     0
 90
        4
176
     0
 62
     7
176
     0
 62
   257
176
     0
 90
        1
176
     0
 90
        1
176
     0
 40
1.0
176
     0
 90
       10
176
     2
 62
     7
176
     0
 40
1.0
176
     0
 90
        1
176
     0
 90
        6
176
     0
 90
        2
176
     0
 62
     7
176
     0
 90
        5
176
     0
 90
        0
176
     0
 90
        0
176
     0
290
     0
176
     0
 90
        1
176
     0
 40
0.0
176
     0
 90
        0
176
     0
290
     0
176
     0
290
     1
176
     0
290
     1
176
     0
290
     0
176
     0
290
     0
176
     0
290
     0
176
     0
290
     0
176
     0
290
     0
176
     0
290
     0
176
     0
 90
       50
176
     0
 40
0.0
176
     0
 40
1.0
176
     0
 90
        0
176
     0
 62
    18
420
        0
176
     0
 90
       50
176
     0
 90
        3
176
     0
 62
     5
420
      255
176
     0
290
     0
176
     0
 90
       50
176
     0
 90
       50
176
     0
 90
       50
176
     0
290
     0
176
     0
 90
       50
176
     0
 62
   256
176
     0
 40
1.0
176
     0
 90
        2
176
     0
  1
strokes_ogs.tif
176
     0
290
     0
176
     0
 40
1.0
176
     0
 40
1.0
176
     0
  0
VISUALSTYLE
  5
37
102
{ACAD_REACTORS
330
29
102
}
330
29
100
AcDbVisualStyle
  2
Linepattern
 70
    14
177
     3
291
     1
 70
    58
 90
        2
176
     1
 90
        2
176
     1
 90
        0
176
     1
 90
        0
176
     1
 40
0.6
176
     1
 40
30.0
176
     1
 62
     7
420
 16777215
176
     1
 90
        1
176
     1
 90
        4
176
     1
 62
     7
176
     1
 62
   257
176
     1
 90
        7
176
     1
 90
        7
176
     1
 40
1.0
176
     1
 90
        8
176
     1
 62
     7
176
     1
 40
1.0
176
     1
 90
        1
176
     1
 90
        6
176
     1
 90
        2
176
     1
 62
     7
176
     1
 90
        5
176
     1
 90
        0
176
     1
 90
        0
176
     1
290
     0
176
     1
 90
        1
176
     1
 40
0.0
176
     1
 90
        0
176
     1
290
     0
176
     1
290
     1
176
     1
290
     1
176
     1
290
     0
176
     1
290
     0
176
     1
290
     0
176
     1
290
     0
176
     1
290
     0
176
     1
290
     0
176
     1
 90
       50
176
     1
 40
0.0
176
     1
 40
1.0
176
     1
 90
        0
176
     1
 62
    18
420
        0
176
     1
 90
       50
176
     1
 90
        3
176
     1
 62
     5
420
      255
176
     1
290
     0
176
     1
 90
       50
176
     1
 90
       50
176
     1
 90
       50
176
     1
290
     0
176
     1
 90
       50
176
     1
 62
   256
176
     0
 40
1.0
176
     0
 90
        2
176
     1
  1
strokes_ogs.tif
176
     1
290
     0
176
     1
 40
1.0
176
     1
 40
1.0
176
     1
  0
VISUALSTYLE
  5
40
102
{ACAD_REACTORS
330
29
102
}
330
29
100
AcDbVisualStyle
  2
OverhangOff
 70
    21
177
     3
291
     1
 70
    58
 90
        2
176
     0
 90
        2
176
     0
 90
        0
176
     0
 90
        0
176
     0
 40
0.6
176
     0
 40
30.0
176
     0
 62
     7
420
 16777215
176
     0
 90
        1
176
     0
 90
        4
176
     0
 62
     7
176
     0
 62
   257
176
     0
 90
        1
176
     0
 90
        1
176
     0
 40
1.0
176
     0
 90
        9
176
     2
 62
     7
176
     0
 40
1.0
176
     0
 90
        1
176
     0
 90
        6
176
     0
 90
        2
176
     0
 62
     7
176
     0
 90
        5
176
     0
 90
        0
176
     0
 90
        0
176
     0
290
     0
176
     0
 90
        1
176
     0
 40
0.0
176
     0
 90
        0
176
     0
290
     0
176
     0
290
     1
176
     0
290
     1
176
     0
290
     0
176
     0
290
     0
176
     0
290
     0
176
     0
290
     0
176
     0
290
     0
176
     0
290
     0
176
     0
 90
       50
176
     0
 40
0.0
176
     0
 40
1.0
176
     0
 90
        0
176
     0
 62
    18
420
        0
176
     0
 90
       50
176
     0
 90
        3
176
     0
 62
     5
420
      255
176
     0
290
     0
176
     0
 90
       50
176
     0
 90
       50
176
     0
 90
       50
176
     0
290
     0
176
     0
 90
       50
176
     0
 62
   256
176
     0
 40
1.0
176
     0
 90
        2
176
     0
  1
strokes_ogs.tif
176
     0
290
     0
176
     0
 40
1.0
176
     0
 40
1.0
176
     0
  0
VISUALSTYLE
  5
33
102
{ACAD_REACTORS
330
29
102
}
330
29
100
AcDbVisualStyle
  2
Realistic
 70
     8
177
     3
291
     0
 70
    58
 90
        2
176
     1
 90
        3
176
     1
 90
        0
176
     1
 90
        2
176
     1
 40
0.6
176
     1
 40
30.0
176
     1
 62
     7
420
 16777215
176
     1
 90
        0
176
     1
 90
        0
176
     1
 62
     7
176
     1
 62
   257
176
     1
 90
        1
176
     1
 90
        1
176
     1
 40
1.0
176
     1
 90
        8
176
     1
 62
   257
176
     1
 40
1.0
176
     1
 90
        1
176
     1
 90
        6
176
     1
 90
        2
176
     1
 62
     7
176
     1
 90
        3
176
     1
 90
        0
176
     1
 90
        0
176
     1
290
     0
176
     1
 90
       13
176
     1
 40
0.0
176
     1
 90
        0
176
     1
290
     0
176
     1
290
     1
176
     1
290
     1
176
     1
290
     0
176
     1
290
     0
176
     1
290
     0
176
     1
290
     0
176
     1
290
     0
176
     1
290
     0
176
     1
 90
       50
176
     1
 40
0.0
176
     1
 40
1.0
176
     1
 90
        0
176
     1
 62
    18
420
        0
176
     1
 90
       50
176
     1
 90
        3
176
     1
 62
     5
420
      255
176
     1
290
     0
176
     1
 90
       50
176
     1
 90
       50
176
     1
 90
       50
176
     1
290
     0
176
     1
 90
       50
176
     1
 62
   256
176
     0
 40
1.0
176
     0
 90
        2
176
     1
  1
strokes_ogs.tif
176
     1
290
     0
176
     1
 40
1.0
176
     1
 40
1.0
176
     1
  0
VISUALSTYLE
  5
3E
102
{ACAD_REACTORS
330
29
102
}
330
29
100
AcDbVisualStyle
  2
Shaded
 70
    27
177
     3
291
     0
 70
    58
 90
        2
176
     1
 90
        2
176
     1
 90
        1
176
     1
 90
        2
176
     1
 40
0.6
176
     1
 40
30.0
176
     1
 62
     7
420
 16777215
176
     1
 90
        0
176
     1
 90
        4
176
     1
 62
     7
176
     1
 62
   257
176
     1
 90
        1
176
     1
 90
        1
176
     1
 40
1.0
176
     1
 90
        8
176
     1
 62
   257
176
     1
 40
1.0
176
     1
 90
        1
176
     1
 90
        6
176
     1
 90
        2
176
     1
 62
     8
420
  7895160
176
     1
 90
        3
176
     1
 90
        0
176
     1
 90
        0
176
     1
290
     0
176
     1
 90
        5
176
     1
 40
0.0
176
     1
 90
        0
176
     1
290
     0
176
     1
290
     1
176
     1
290
     1
176
     1
290
     0
176
     1
290
     0
176
     1
290
     0
176
     1
290
     0
176
     1
290
     0
176
     1
290
     0
176
     1
 90
       50
176
     1
 40
0.0
176
     1
 40
1.0
176
     1
 90
        0
176
     1
 62
    18
420
        0
176
     1
 90
       50
176
     1
 90
        3
176
     1
 62
     5
420
      255
176
     1
290
     0
176
     1
 90
       50
176
     1
 90
       50
176
     1
 90
       50
176
     1
290
     0
176
     1
 90
       50
176
     1
 62
   256
176
     0
 40
1.0
176
     0
 90
        2
176
     1
  1
strokes_ogs.tif
176
     1
290
     0
176
     1
 40
1.0
176
     1
 40
1.0
176
     1
  0
VISUALSTYLE
  5
3D
102
{ACAD_REACTORS
330
29
102
}
330
29
100
AcDbVisualStyle
  2
Shaded with edges
 70
    26
177
     3
291
     0
 70
    58
 90
        2
176
     1
 90
        2
176
     1
 90
        1
176
     1
 90
        2
176
     1
 40
0.6
176
     1
 40
30.0
176
     1
 62
     7
420
 16777215
176
     1
 90
        1
176
     1
 90
        2
176
     1
 62
     7
176
     1
 62
   257
176
     1
 90
        2
176
     1
 90
        1
176
     1
 40
1.0
176
     1
 90
        8
176
     1
 62
   257
176
     1
 40
1.0
176
     1
 90
        1
176
     1
 90
        6
176
     1
 90
        2
176
     1
 62
     7
176
     1
 90
        3
176
     1
 90
        0
176
     1
 90
        0
176
     1
290
     0
176
     1
 90
        5
176
     1
 40
0.0
176
     1
 90
        0
176
     1
290
     0
176
     1
290
     1
176
     1
290
     1
176
     1
290
     0
176
     1
290
     0
176
     1
290
     0
176
     1
290
     0
176
     1
290
     0
176
     1
290
     0
176
     1
 90
       50
176
     1
 40
0.0
176
     1
 40
1.0
176
     1
 90
        0
176
     1
 62
    18
420
        0
176
     1
 90
       50
176
     1
 90
        3
176
     1
 62
     5
420
      255
176
     1
290
     0
176
     1
 90
       50
176
     1
 90
       50
176
     1
 90
       50
176
     1
290
     0
176
     1
 90
       50
176
     1
 62
   256
176
     0
 40
1.0
176
     0
 90
        2
176
     1
  1
strokes_ogs.tif
176
     1
290
     0
176
     1
 40
1.0
176
     1
 40
1.0
176
     1
  0
VISUALSTYLE
  5
3A
102
{ACAD_REACTORS
330
29
102
}
330
29
100
AcDbVisualStyle
  2
Shades of Gray
 70
    23
177
     3
291
     0
 70
    58
 90
        2
176
     1
 90
        2
176
     1
 90
        3
176
     1
 90
        0
176
     1
 40
0.6
176
     1
 40
30.0
176
     1
 62
     7
420
 16777215
176
     1
 90
        2
176
     1
 90
        2
176
     1
 62
     7
176
     1
 62
     7
176
     1
 90
        1
176
     1
 90
        1
176
     1
 40
40.0
176
     1
 90
        8
176
     1
 62
     7
176
     1
 40
1.0
176
     1
 90
        1
176
     1
 90
        6
176
     1
 90
        2
176
     1
 62
     7
176
     1
 90
        3
176
     1
 90
        0
176
     1
 90
        0
176
     1
290
     0
176
     1
 90
        1
176
     1
 40
0.0
176
     1
 90
        0
176
     1
290
     0
176
     1
290
     1
176
     1
290
     1
176
     1
290
     0
176
     1
290
     0
176
     1
290
     0
176
     1
290
     0
176
     1
290
     0
176
     1
290
     0
176
     1
 90
       50
176
     1
 40
0.0
176
     1
 40
1.0
176
     1
 90
        0
176
     1
 62
    18
420
        0
176
     1
 90
       50
176
     1
 90
        3
176
     1
 62
     5
420
      255
176
     1
290
     0
176
     1
 90
       50
176
     1
 90
       50
176
     1
 90
       50
176
     1
290
     0
176
     1
 90
       50
176
     1
 62
   256
176
     0
 40
1.0
176
     0
 90
        2
176
     1
  1
strokes_ogs.tif
176
     1
290
     0
176
     1
 40
1.0
176
     1
 40
1.0
176
     1
  0
VISUALSTYLE
  5
3B
102
{ACAD_REACTORS
330
29
102
}
330
29
100
AcDbVisualStyle
  2
Sketchy
 70
    24
177
     3
291
     0
 70
    58
 90
        1
176
     1
 90
        2
176
     1
 90
        2
176
     1
 90
        0
176
     1
 40
0.6
176
     1
 40
30.0
176
     1
 62
     7
420
 16777215
176
     1
 90
        2
176
     1
 90
        2
176
     1
 62
     7
176
     1
 62
     7
176
     1
 90
        1
176
     1
 90
        1
176
     1
 40
40.0
176
     1
 90
       11
176
     1
 62
     7
176
     1
 40
1.0
176
     1
 90
        1
176
     1
 90
        6
176
     1
 90
        2
176
     1
 62
     7
176
     1
 90
        6
176
     1
 90
        0
176
     1
 90
        0
176
     1
290
     0
176
     1
 90
        1
176
     1
 40
0.0
176
     1
 90
        0
176
     1
290
     0
176
     1
290
     1
176
     1
290
     1
176
     1
290
     0
176
     1
290
     0
176
     1
290
     0
176
     1
290
     0
176
     1
290
     0
176
     1
290
     0
176
     1
 90
       50
176
     1
 40
0.0
176
     1
 40
1.0
176
     1
 90
        0
176
     1
 62
    18
420
        0
176
     1
 90
       50
176
     1
 90
        3
176
     1
 62
     5
420
      255
176
     1
290
     0
176
     1
 90
       50
176
     1
 90
       50
176
     1
 90
       50
176
     1
290
     0
176
     1
 90
       50
176
     1
 62
   256
176
     0
 40
1.0
176
     0
 90
        2
176
     1
  1
strokes_ogs.tif
176
     1
290
     0
176
     1
 40
1.0
176
     1
 40
1.0
176
     1
  0
VISUALSTYLE
  5
36
102
{ACAD_REACTORS
330
29
102
}
330
29
100
AcDbVisualStyle
  2
Thicken
 70
    13
177
     3
291
     1
 70
    58
 90
        2
176
     1
 90
        2
176
     1
 90
        0
176
     1
 90
        0
176
     1
 40
0.6
176
     1
 40
30.0
176
     1
 62
     7
420
 16777215
176
     1
 90
        1
176
     1
 90
        4
176
     1
 62
     7
176
     1
 62
   257
176
     1
 90
        1
176
     1
 90
        1
176
     1
 40
1.0
176
     1
 90
       12
176
     1
 62
     7
176
     1
 40
1.0
176
     1
 90
        1
176
     1
 90
        6
176
     1
 90
        2
176
     1
 62
     7
176
     1
 90
        5
176
     1
 90
        0
176
     1
 90
        0
176
     1
290
     0
176
     1
 90
        1
176
     1
 40
0.0
176
     1
 90
        0
176
     1
290
     0
176
     1
290
     1
176
     1
290
     1
176
     1
290
     0
176
     1
290
     0
176
     1
290
     0
176
     1
290
     0
176
     1
290
     0
176
     1
290
     0
176
     1
 90
       50
176
     1
 40
0.0
176
     1
 40
1.0
176
     1
 90
        0
176
     1
 62
    18
420
        0
176
     1
 90
       50
176
     1
 90
        3
176
     1
 62
     5
420
      255
176
     1
290
     0
176
     1
 90
       50
176
     1
 90
       50
176
     1
 90
       50
176
     1
290
     0
176
     1
 90
       50
176
     1
 62
   256
176
     0
 40
1.0
176
     0
 90
        2
176
     1
  1
strokes_ogs.tif
176
     1
290
     0
176
     1
 40
1.0
176
     1
 40
1.0
176
     1
  0
VISUALSTYLE
  5
30
102
{ACAD_REACTORS
330
29
102
}
330
29
100
AcDbVisualStyle
  2
Wireframe
 70
     5
177
     3
291
     0
 70
    58
 90
        0
176
     1
 90
        2
176
     1
 90
        0
176
     1
 90
        0
176
     1
 40
0.6
176
     1
 40
30.0
176
     1
 62
     7
420
 16777215
176
     1
 90
        1
176
     1
 90
        4
176
     1
 62
     7
176
     1
 62
   257
176
     1
 90
        1
176
     1
 90
        1
176
     1
 40
1.0
176
     1
 90
        0
176
     1
 62
   257
176
     1
 40
1.0
176
     1
 90
        1
176
     1
 90
        6
176
     1
 90
        2
176
     1
 62
     7
176
     1
 90
        3
176
     1
 90
        0
176
     1
 90
        0
176
     1
290
     0
176
     1
 90
        1
176
     1
 40
0.0
176
     1
 90
        0
176
     1
290
     0
176
     1
290
     1
176
     1
290
     1
176
     1
290
     0
176
     1
290
     0
176
     1
290
     0
176
     1
290
     0
176
     1
290
     0
176
     1
290
     0
176
     1
 90
       50
176
     1
 40
0.0
176
     1
 40
1.0
176
     1
 90
        0
176
     1
 62
    18
420
        0
176
     1
 90
       50
176
     1
 90
        3
176
     1
 62
     5
420
      255
176
     1
290
     0
176
     1
 90
       50
176
     1
 90
       50
176
     1
 90
       50
176
     1
290
     0
176
     1
 90
       50
176
     1
 62
   256
176
     0
 40
1.0
176
     0
 90
        2
176
     1
  1
strokes_ogs.tif
176
     1
290
     0
176
     1
 40
1.0
176
     1
 40
1.0
176
     1
  0
VISUALSTYLE
  5
3C
102
{ACAD_REACTORS
330
29
102
}
330
29
100
AcDbVisualStyle
  2
X-Ray
 70
    25
177
     3
291
     0
 70
    58
 90
        2
176
     1
 90
        2
176
     1
 90
        1
176
     1
 90
        1
176
     1
 40
0.5
176
     1
 40
30.0
176
     1
 62
     7
420
 16777215
176
     1
 90
        1
176
     1
 90
        0
176
     1
 62
     7
176
     1
 62
   257
176
     1
 90
        1
176
     1
 90
        1
176
     1
 40
1.0
176
     1
 90
        8
176
     1
 62
     7
176
     1
 40
1.0
176
     1
 90
        1
176
     1
 90
        6
176
     1
 90
        2
176
     1
 62
     7
176
     1
 90
        3
176
     1
 90
        0
176
     1
 90
        0
176
     1
290
     0
176
     1
 90
       13
176
     1
 40
0.0
176
     1
 90
        0
176
     1
290
     0
176
     1
290
     1
176
     1
290
     1
176
     1
290
     0
176
     1
290
     0
176
     1
290
     0
176
     1
290
     0
176
     1
290
     0
176
     1
290
     0
176
     1
 90
       50
176
     1
 40
0.0
176
     1
 40
1.0
176
     1
 90
        0
176
     1
 62
    18
420
        0
176
     1
 90
       50
176
     1
 90
        3
176
     1
 62
     5
420
      255
176
     1
290
     0
176
     1
 90
       50
176
     1
 90
       50
176
     1
 90
       50
176
     1
290
     0
176
     1
 90
       50
176
     1
 62
   256
176
     0
 40
1.0
176
     0
 90
        2
176
     1
  1
strokes_ogs.tif
176
     1
290
     0
176
     1
 40
1.0
176
     1
 40
1.0
176
     1
  0
DICTIONARYVAR
  5
130
102
{ACAD_REACTORS
330
12B
102
}
330
12B
100
DictionaryVariables
280
     0
  1
1:1
  0
DICTIONARYVAR
  5
12D
102
{ACAD_REACTORS
330
12B
102
}
330
12B
100
DictionaryVariables
280
     0
  1
STANDARD
  0
DICTIONARYVAR
  5
12C
102
{ACAD_REACTORS
330
12B
102
}
330
12B
100
DictionaryVariables
280
     0
  1
STANDARD
  0
DICTIONARYVAR
  5
12E
102
{ACAD_REACTORS
330
12B
102
}
330
12B
100
DictionaryVariables
280
     0
  1
Imperial24
  0
DICTIONARYVAR
  5
12F
102
{ACAD_REACTORS
330
12B
102
}
330
12B
100
DictionaryVariables
280
     0
  1
Imperial24
  0
DICTIONARY
  5
1A
330
19
100
AcDbDictionary
280
     1
281
     1
  3
BUMPTILE
360
1C
  3
DIFFUSETILE
360
1B
  3
OPACITYTILE
360
1F
  3
REFLECTIONTILE
360
1E
  3
REFRACTIONTILE
360
20
  3
SPECULARTILE
360
1D
  0
DICTIONARY
  5
12
330
11
100
AcDbDictionary
280
     1
281
     1
  3
BUMPTILE
360
14
  3
DIFFUSETILE
360
13
  3
OPACITYTILE
360
17
  3
REFLECTIONTILE
360
16
  3
REFRACTIONTILE
360
18
  3
SPECULARTILE
360
15
  0
DICTIONARY
  5
22
330
21
100
AcDbDictionary
280
     1
281
     1
  3
BUMPTILE
360
24
  3
DIFFUSETILE
360
23
  3
OPACITYTILE
360
27
  3
REFLECTIONTILE
360
26
  3
REFRACTIONTILE
360
28
  3
SPECULARTILE
360
25
  0
DICTIONARY
  5
131
330
65
100
AcDbDictionary
280
     1
281
     1
  3
ACAD_ROUNDTRIP_2008_TABLESTYLE_CELLSTYLEMAP
360
132
  0
XRECORD
  5
1C
102
{ACAD_REACTORS
330
1A
102
}
330
1A
100
AcDbXrecord
280
     1
270
     1
271
     1
  0
XRECORD
  5
1B
102
{ACAD_REACTORS
330
1A
102
}
330
1A
100
AcDbXrecord
280
     1
270
     1
271
     1
  0
XRECORD
  5
1F
102
{ACAD_REACTORS
330
1A
102
}
330
1A
100
AcDbXrecord
280
     1
270
     1
271
     1
  0
XRECORD
  5
1E
102
{ACAD_REACTORS
330
1A
102
}
330
1A
100
AcDbXrecord
280
     1
270
     1
271
     1
  0
XRECORD
  5
20
102
{ACAD_REACTORS
330
1A
102
}
330
1A
100
AcDbXrecord
280
     1
270
     1
271
     1
  0
XRECORD
  5
1D
102
{ACAD_REACTORS
330
1A
102
}
330
1A
100
AcDbXrecord
280
     1
270
     1
271
     1
  0
XRECORD
  5
14
102
{ACAD_REACTORS
330
12
102
}
330
12
100
AcDbXrecord
280
     1
270
     1
271
     1
  0
XRECORD
  5
13
102
{ACAD_REACTORS
330
12
102
}
330
12
100
AcDbXrecord
280
     1
270
     1
271
     1
  0
XRECORD
  5
17
102
{ACAD_REACTORS
330
12
102
}
330
12
100
AcDbXrecord
280
     1
270
     1
271
     1
  0
XRECORD
  5
16
102
{ACAD_REACTORS
330
12
102
}
330
12
100
AcDbXrecord
280
     1
270
     1
271
     1
  0
XRECORD
  5
18
102
{ACAD_REACTORS
330
12
102
}
330
12
100
AcDbXrecord
280
     1
270
     1
271
     1
  0
XRECORD
  5
15
102
{ACAD_REACTORS
330
12
102
}
330
12
100
AcDbXrecord
280
     1
270
     1
271
     1
  0
XRECORD
  5
24
102
{ACAD_REACTORS
330
22
102
}
330
22
100
AcDbXrecord
280
     1
270
     1
271
     1
  0
XRECORD
  5
23
102
{ACAD_REACTORS
330
22
102
}
330
22
100
AcDbXrecord
280
     1
270
     1
271
     1
  0
XRECORD
  5
27
102
{ACAD_REACTORS
330
22
102
}
330
22
100
AcDbXrecord
280
     1
270
     1
271
     1
  0
XRECORD
  5
26
102
{ACAD_REACTORS
330
22
102
}
330
22
100
AcDbXrecord
280
     1
270
     1
271
     1
  0
XRECORD
  5
28
102
{ACAD_REACTORS
330
22
102
}
330
22
100
AcDbXrecord
280
     1
270
     1
271
     1
  0
XRECORD
  5
25
102
{ACAD_REACTORS
330
22
102
}
330
22
100
AcDbXrecord
280
     1
270
     1
271
     1
  0
CELLSTYLEMAP
  5
132
102
{ACAD_REACTORS
330
131
102
}
330
131
100
AcDbCellStyleMap
 90
        3
300
CELLSTYLE
  1
TABLEFORMAT_BEGIN
 90
        5
170
     1
 91
        0
 92
    32768
 62
   257
 93
        1
300
CONTENTFORMAT
  1
CONTENTFORMAT_BEGIN
 90
        0
 91
        0
 92
      512
 93
        0
300

 40
0.0
140
1.0
 94
        5
 62
     0
340
55
144
0.25
309
CONTENTFORMAT_END
171
     0
 94
        0
309
TABLEFORMAT_END
  1
CELLSTYLE_BEGIN
 90
        1
 91
        1
300
_TITLE
309
CELLSTYLE_END
300
CELLSTYLE
  1
TABLEFORMAT_BEGIN
 90
        5
170
     1
 91
        0
 92
        0
 62
   257
 93
        1
300
CONTENTFORMAT
  1
CONTENTFORMAT_BEGIN
 90
        0
 91
        0
 92
      512
 93
        0
300

 40
0.0
140
1.0
 94
        5
 62
     0
340
55
144
0.18
309
CONTENTFORMAT_END
171
     0
 94
        0
309
TABLEFORMAT_END
  1
CELLSTYLE_BEGIN
 90
        2
 91
        1
300
_HEADER
309
CELLSTYLE_END
300
CELLSTYLE
  1
TABLEFORMAT_BEGIN
 90
        5
170
     1
 91
        0
 92
        0
 62
   257
 93
        1
300
CONTENTFORMAT
  1
CONTENTFORMAT_BEGIN
 90
        0
 91
        0
 92
      512
 93
        0
300

 40
0.0
140
1.0
 94
        2
 62
     0
340
55
144
0.18
309
CONTENTFORMAT_END
171
     0
 94
        0
309
TABLEFORMAT_END
  1
CELLSTYLE_BEGIN
 90
        3
 91
        2
300
_DATA
309
CELLSTYLE_END
  0
ENDSEC
  0
EOF
