  0
SECTION
  2
HEADER
  9
$ACADVER
  1
AC1032
  9
$ACADMAINTVER
 90
      197
  9
$DWGCODEPAGE
  3
ANSI_1252
  9
$REQUIREDVERSIONS
160
                 0
  9
$INSBASE
 10
0.0
 20
0.0
 30
0.0
  9
$EXTMIN
 10
1.000000000000000E+20
 20
1.000000000000000E+20
 30
1.000000000000000E+20
  9
$EXTMAX
 10
-1.000000000000000E+20
 20
-1.000000000000000E+20
 30
-1.000000000000000E+20
  9
$LIMMIN
 10
0.0
 20
0.0
  9
$LIMMAX
 10
12.0
 20
9.0
  9
$ORTHOMODE
 70
     0
  9
$REGENMODE
 70
     1
  9
$FILLMODE
 70
     1
  9
$QTEXTMODE
 70
     0
  9
$MIRRTEXT
 70
     0
  9
$LTSCALE
 40
1.0
  9
$ATTMODE
 70
     1
  9
$TEXTSIZE
 40
0.2
  9
$TRACEWID
 40
0.05
  9
$TEXTSTYLE
  7
Standard
  9
$CLAYER
  8
0
  9
$CELTYPE
  6
ByLayer
  9
$CECOLOR
 62
   256
  9
$CELTSCALE
 40
1.0
  9
$DISPSILH
 70
     0
  9
$DIMSCALE
 40
1.0
  9
$DIMASZ
 40
0.18
  9
$DIMEXO
 40
0.0625
  9
$DIMDLI
 40
0.38
  9
$DIMRND
 40
0.0
  9
$DIMDLE
 40
0.0
  9
$DIMEXE
 40
0.18
  9
$DIMTP
 40
0.0
  9
$DIMTM
 40
0.0
  9
$DIMTXT
 40
0.18
  9
$DIMCEN
 40
0.09
  9
$DIMTSZ
 40
0.0
  9
$DIMTOL
 70
     0
  9
$DIMLIM
 70
     0
  9
$DIMTIH
 70
     1
  9
$DIMTOH
 70
     1
  9
$DIMSE1
 70
     0
  9
$DIMSE2
 70
     0
  9
$DIMTAD
 70
     0
  9
$DIMZIN
 70
     0
  9
$DIMBLK
  1

  9
$DIMASO
 70
     1
  9
$DIMSHO
 70
     1
  9
$DIMPOST
  1

  9
$DIMAPOST
  1

  9
$DIMALT
 70
     0
  9
$DIMALTD
 70
     2
  9
$DIMALTF
 40
25.4
  9
$DIMLFAC
 40
1.0
  9
$DIMTOFL
 70
     0
  9
$DIMTVP
 40
0.0
  9
$DIMTIX
 70
     0
  9
$DIMSOXD
 70
     0
  9
$DIMSAH
 70
     0
  9
$DIMBLK1
  1

  9
$DIMBLK2
  1

  9
$DIMSTYLE
  2
Standard
  9
$DIMCLRD
 70
     0
  9
$DIMCLRE
 70
     0
  9
$DIMCLRT
 70
     0
  9
$DIMTFAC
 40
1.0
  9
$DIMGAP
 40
0.09
  9
$DIMJUST
 70
     0
  9
$DIMSD1
 70
     0
  9
$DIMSD2
 70
     0
  9
$DIMTOLJ
 70
     1
  9
$DIMTZIN
 70
     0
  9
$DIMALTZ
 70
     0
  9
$DIMALTTZ
 70
     0
  9
$DIMUPT
 70
     0
  9
$DIMDEC
 70
     4
  9
$DIMTDEC
 70
     4
  9
$DIMALTU
 70
     2
  9
$DIMALTTD
 70
     2
  9
$DIMTXSTY
  7
Standard
  9
$DIMAUNIT
 70
     0
  9
$DIMADEC
 70
     0
  9
$DIMALTRND
 40
0.0
  9
$DIMAZIN
 70
     0
  9
$DIMDSEP
 70
    46
  9
$DIMATFIT
 70
     3
  9
$DIMFRAC
 70
     0
  9
$DIMLDRBLK
  1

  9
$DIMLUNIT
 70
     2
  9
$DIMLWD
 70
    -2
  9
$DIMLWE
 70
    -2
  9
$DIMTMOVE
 70
     0
  9
$DIMFXL
 40
1.0
  9
$DIMFXLON
 70
     0
  9
$DIMJOGANG
 40
0.7853981633974483
  9
$DIMTFILL
 70
     0
  9
$DIMTFILLCLR
 70
     0
  9
$DIMARCSYM
 70
     0
  9
$DIMLTYPE
  6

  9
$DIMLTEX1
  6

  9
$DIMLTEX2
  6

  9
$DIMTXTDIRECTION
 70
     0
  9
$LUNITS
 70
     2
  9
$LUPREC
 70
     4
  9
$SKETCHINC
 40
0.1
  9
$FILLETRAD
 40
0.0
  9
$AUNITS
 70
     0
  9
$AUPREC
 70
     0
  9
$MENU
  1
.
  9
$ELEVATION
 40
0.0
  9
$PELEVATION
 40
0.0
  9
$THICKNESS
 40
0.0
  9
$LIMCHECK
 70
     0
  9
$CHAMFERA
 40
0.0
  9
$CHAMFERB
 40
0.0
  9
$CHAMFERC
 40
0.0
  9
$CHAMFERD
 40
0.0
  9
$SKPOLY
 70
     0
  9
$TDCREATE
 40
2459657.457986112
  9
$TDUCREATE
 40
2459657.582986111
  9
$TDUPDATE
 40
2459657.457986112
  9
$TDUUPDATE
 40
2459657.582986111
  9
$TDINDWG
 40
0.0000000000
  9
$TDUSRTIMER
 40
0.0000000000
  9
$USRTIMER
 70
     1
  9
$ANGBASE
 50
0.0
  9
$ANGDIR
 70
     0
  9
$PDMODE
 70
     0
  9
$PDSIZE
 40
0.0
  9
$PLINEWID
 40
0.0
  9
$SPLFRAME
 70
     0
  9
$SPLINETYPE
 70
     6
  9
$SPLINESEGS
 70
     8
  9
$HANDSEED
  5
20B
  9
$SURFTAB1
 70
     6
  9
$SURFTAB2
 70
     6
  9
$SURFTYPE
 70
     6
  9
$SURFU
 70
     6
  9
$SURFV
 70
     6
  9
$UCSBASE
  2

  9
$UCSNAME
  2

  9
$UCSORG
 10
0.0
 20
0.0
 30
0.0
  9
$UCSXDIR
 10
1.0
 20
0.0
 30
0.0
  9
$UCSYDIR
 10
0.0
 20
1.0
 30
0.0
  9
$UCSORTHOREF
  2

  9
$UCSORTHOVIEW
 70
     0
  9
$UCSORGTOP
 10
0.0
 20
0.0
 30
0.0
  9
$UCSORGBOTTOM
 10
0.0
 20
0.0
 30
0.0
  9
$UCSORGLEFT
 10
0.0
 20
0.0
 30
0.0
  9
$UCSORGRIGHT
 10
0.0
 20
0.0
 30
0.0
  9
$UCSORGFRONT
 10
0.0
 20
0.0
 30
0.0
  9
$UCSORGBACK
 10
0.0
 20
0.0
 30
0.0
  9
$PUCSBASE
  2

  9
$PUCSNAME
  2

  9
$PUCSORG
 10
0.0
 20
0.0
 30
0.0
  9
$PUCSXDIR
 10
1.0
 20
0.0
 30
0.0
  9
$PUCSYDIR
 10
0.0
 20
1.0
 30
0.0
  9
$PUCSORTHOREF
  2

  9
$PUCSORTHOVIEW
 70
     0
  9
$PUCSORGTOP
 10
0.0
 20
0.0
 30
0.0
  9
$PUCSORGBOTTOM
 10
0.0
 20
0.0
 30
0.0
  9
$PUCSORGLEFT
 10
0.0
 20
0.0
 30
0.0
  9
$PUCSORGRIGHT
 10
0.0
 20
0.0
 30
0.0
  9
$PUCSORGFRONT
 10
0.0
 20
0.0
 30
0.0
  9
$PUCSORGBACK
 10
0.0
 20
0.0
 30
0.0
  9
$USERI1
 70
     0
  9
$USERI2
 70
     0
  9
$USERI3
 70
     0
  9
$USERI4
 70
     0
  9
$USERI5
 70
     0
  9
$USERR1
 40
0.0
  9
$USERR2
 40
0.0
  9
$USERR3
 40
0.0
  9
$USERR4
 40
0.0
  9
$USERR5
 40
0.0
  9
$WORLDVIEW
 70
     1
  9
$SHADEDGE
 70
     3
  9
$SHADEDIF
 70
    70
  9
$TILEMODE
 70
     1
  9
$MAXACTVP
 70
    64
  9
$PINSBASE
 10
0.0
 20
0.0
 30
0.0
  9
$PLIMCHECK
 70
     0
  9
$PEXTMIN
 10
1.000000000000000E+20
 20
1.000000000000000E+20
 30
1.000000000000000E+20
  9
$PEXTMAX
 10
-1.000000000000000E+20
 20
-1.000000000000000E+20
 30
-1.000000000000000E+20
  9
$PLIMMIN
 10
0.0
 20
0.0
  9
$PLIMMAX
 10
12.0
 20
9.0
  9
$UNITMODE
 70
     0
  9
$VISRETAIN
 70
     1
  9
$PLINEGEN
 70
     0
  9
$PSLTSCALE
 70
     1
  9
$TREEDEPTH
 70
  3020
  9
$CMLSTYLE
  2
Standard
  9
$CMLJUST
 70
     0
  9
$CMLSCALE
 40
1.0
  9
$PROXYGRAPHICS
 70
     1
  9
$MEASUREMENT
 70
     0
  9
$CELWEIGHT
370
    -1
  9
$ENDCAPS
280
     0
  9
$JOINSTYLE
280
     0
  9
$LWDISPLAY
290
     1
  9
$INSUNITS
 70
     0
  9
$HYPERLINKBASE
  1

  9
$STYLESHEET
  1

  9
$XEDIT
290
     1
  9
$CEPSNTYPE
380
     0
  9
$PSTYLEMODE
290
     1
  9
$FINGERPRINTGUID
  2
{4CBD402F-FE15-814F-B92E-74084FC0DB81}
  9
$VERSIONGUID
  2
{90F4A85E-916A-A346-B187-3F8A46A949FB}
  9
$EXTNAMES
290
     1
  9
$PSVPSCALE
 40
0.0
  9
$OLESTARTUP
290
     0
  9
$SORTENTS
280
   127
  9
$INDEXCTL
280
     0
  9
$HIDETEXT
280
     1
  9
$XCLIPFRAME
280
     2
  9
$HALOGAP
280
     0
  9
$OBSCOLOR
 70
   257
  9
$OBSLTYPE
280
     0
  9
$INTERSECTIONDISPLAY
280
     0
  9
$INTERSECTIONCOLOR
 70
   257
  9
$DIMASSOC
280
     2
  9
$PROJECTNAME
  1

  9
$CAMERADISPLAY
290
     0
  9
$LENSLENGTH
 40
50.0
  9
$CAMERAHEIGHT
 40
0.0
  9
$STEPSPERSEC
 40
2.0
  9
$STEPSIZE
 40
6.0
  9
$3DDWFPREC
 40
2.0
  9
$PSOLWIDTH
 40
0.25
  9
$PSOLHEIGHT
 40
4.0
  9
$LOFTANG1
 40
1.570796326794896
  9
$LOFTANG2
 40
1.570796326794896
  9
$LOFTMAG1
 40
0.0
  9
$LOFTMAG2
 40
0.0
  9
$LOFTPARAM
 70
     7
  9
$LOFTNORMALS
280
     1
  9
$LATITUDE
 40
37.795
  9
$LONGITUDE
 40
-122.394
  9
$NORTHDIRECTION
 40
0.0
  9
$TIMEZONE
 70
 -8000
  9
$LIGHTGLYPHDISPLAY
280
     1
  9
$TILEMODELIGHTSYNCH
280
     1
  9
$CMATERIAL
347
11
  9
$SOLIDHIST
280
     0
  9
$SHOWHIST
280
     1
  9
$DWFFRAME
280
     2
  9
$DGNFRAME
280
     0
  9
$REALWORLDSCALE
290
     1
  9
$INTERFERECOLOR
 62
     1
  9
$INTERFEREOBJVS
345
33
  9
$INTERFEREVPVS
346
30
  9
$CSHADOW
280
     0
  9
$SHADOWPLANELOCATION
 40
0.0
  0
ENDSEC
  0
SECTION
  2
CLASSES
  0
CLASS
  1
ACDBDICTIONARYWDFLT
  2
AcDbDictionaryWithDefault
  3
ObjectDBX Classes
 90
        0
 91
        1
280
     0
281
     0
  0
CLASS
  1
MATERIAL
  2
AcDbMaterial
  3
ObjectDBX Classes
 90
     1153
 91
        3
280
     0
281
     0
  0
CLASS
  1
VISUALSTYLE
  2
AcDbVisualStyle
  3
ObjectDBX Classes
 90
     4095
 91
       24
280
     0
281
     0
  0
CLASS
  1
SCALE
  2
AcDbScale
  3
ObjectDBX Classes
 90
     1153
 91
       17
280
     0
281
     0
  0
CLASS
  1
TABLESTYLE
  2
AcDbTableStyle
  3
ObjectDBX Classes
 90
     4095
 91
        1
280
     0
281
     0
  0
CLASS
  1
MLEADERSTYLE
  2
AcDbMLeaderStyle
  3
ACDB_MLEADERSTYLE_CLASS
 90
     4095
 91
        1
280
     0
281
     0
  0
CLASS
  1
ACDBSECTIONVIEWSTYLE
  2
AcDbSectionViewStyle
  3
ObjectDBX Classes
 90
     1025
 91
        1
280
     0
281
     0
  0
CLASS
  1
ACDBDETAILVIEWSTYLE
  2
AcDbDetailViewStyle
  3
ObjectDBX Classes
 90
     1025
 91
        1
280
     0
281
     0
  0
CLASS
  1
DICTIONARYVAR
  2
AcDbDictionaryVar
  3
ObjectDBX Classes
 90
        0
 91
        5
280
     0
281
     0
  0
CLASS
  1
CELLSTYLEMAP
  2
AcDbCellStyleMap
  3
ObjectDBX Classes
 90
     1152
 91
        1
280
     0
281
     0
  0
ENDSEC
  0
SECTION
  2
TABLES
  0
TABLE
  2
VPORT
  5
8
330
0
100
AcDbSymbolTable
 70
     1
  0
VPORT
  5
57
330
8
100
AcDbSymbolTableRecord
100
AcDbViewportTableRecord
  2
*Active
 70
     0
 10
0.0
 20
0.0
 11
1.0
 21
1.0
 12
0.0
 22
0.0
 13
0.0
 23
0.0
 14
1.0
 24
1.0
 15
0.0
 25
0.0
 16
0.0
 26
0.0
 36
1.0
 17
297.6379999999999
 27
420.9450000000002
 37
0.0
 40
858.7278000000003
 41
0.7070709950231024
 42
50.0
 43
0.0
 44
0.0
 50
0.0
 51
0.0
 71
     0
 72
   100
 73
     1
 74
     1
 75
     0
 76
     0
 77
     0
 78
     0
281
     0
 65
     1
110
0.0
120
0.0
130
0.0
111
1.0
121
0.0
131
0.0
112
0.0
122
1.0
132
0.0
 79
     0
146
0.0
 60
     3
 61
     5
292
     1
282
     1
141
0.0
142
0.0
 63
   250
421
  3355443
  0
ENDTAB
  0
TABLE
  2
LTYPE
  5
5
330
0
100
AcDbSymbolTable
 70
     4
  0
LTYPE
  5
5B
330
5
100
AcDbSymbolTableRecord
100
AcDbLinetypeTableRecord
  2
ByBlock
 70
     0
  3

 72
    65
 73
     0
 40
0.0
  0
LTYPE
  5
5C
330
5
100
AcDbSymbolTableRecord
100
AcDbLinetypeTableRecord
  2
ByLayer
 70
     0
  3

 72
    65
 73
     0
 40
0.0
  0
LTYPE
  5
5D
330
5
100
AcDbSymbolTableRecord
100
AcDbLinetypeTableRecord
  2
Continuous
 70
     0
  3
Solid line
 72
    65
 73
     0
 40
0.0
  0
LTYPE
  5
1FD
330
5
100
AcDbSymbolTableRecord
100
AcDbLinetypeTableRecord
  2
AI-Linetype-0
 70
     0
  3
Adobe Illustrator Linetype No. 0
 72
    65
 73
     2
 40
2.0
 49
1.0
 74
     0
 49
-1.0
 74
     0
  0
LTYPE
  5
1FF
330
5
100
AcDbSymbolTableRecord
100
AcDbLinetypeTableRecord
  2
AI-Linetype-1
 70
     0
  3
Adobe Illustrator Linetype No. 1
 72
    65
 73
     2
 40
2.0
 49
1.0
 74
     0
 49
-1.0
 74
     0
  0
LTYPE
  5
201
330
5
100
AcDbSymbolTableRecord
100
AcDbLinetypeTableRecord
  2
AI-Linetype-2
 70
     0
  3
Adobe Illustrator Linetype No. 2
 72
    65
 73
     2
 40
2.0
 49
1.0
 74
     0
 49
-1.0
 74
     0
  0
ENDTAB
  0
TABLE
  2
LAYER
  5
2
330
0
100
AcDbSymbolTable
 70
     3
  0
LAYER
  5
54
330
2
100
AcDbSymbolTableRecord
100
AcDbLayerTableRecord
  2
0
 70
     0
 62
     7
  6
Continuous
370
    -3
390
F
347
21
348
0
  0
LAYER
  5
78
330
2
100
AcDbSymbolTableRecord
100
AcDbLayerTableRecord
  2
1
 70
     0
 62
     7
  6
Continuous
370
     0
390
F
347
21
348
0
  0
LAYER
  5
102
330
2
100
AcDbSymbolTableRecord
100
AcDbLayerTableRecord
  2
Camada 2
 70
     0
 62
     7
  6
Continuous
370
     0
390
F
347
21
348
0
  0
ENDTAB
  0
TABLE
  2
STYLE
  5
3
330
0
100
AcDbSymbolTable
 70
     2
  0
STYLE
  5
55
330
3
100
AcDbSymbolTableRecord
100
AcDbTextStyleTableRecord
  2
Standard
 70
     0
 40
0.0
 41
1.0
 50
0.0
 71
     0
 42
0.2
  3
txt
  4

  0
STYLE
  5
5A
330
3
100
AcDbSymbolTableRecord
100
AcDbTextStyleTableRecord
  2
Annotative
 70
     0
 40
0.0
 41
1.0
 50
0.0
 71
     0
 42
0.2
  3
txt
  4

1001
AcadAnnotative
1000
AnnotativeData
1002
{
1070
     1
1070
     1
1002
}
  0
ENDTAB
  0
TABLE
  2
VIEW
  5
6
330
0
100
AcDbSymbolTable
 70
     0
  0
ENDTAB
  0
TABLE
  2
UCS
  5
7
330
0
100
AcDbSymbolTable
 70
     0
  0
ENDTAB
  0
TABLE
  2
APPID
  5
9
330
0
100
AcDbSymbolTable
 70
     2
  0
APPID
  5
56
330
9
100
AcDbSymbolTableRecord
100
AcDbRegAppTableRecord
  2
ACAD
 70
     0
  0
APPID
  5
5E
330
9
100
AcDbSymbolTableRecord
100
AcDbRegAppTableRecord
  2
AcadAnnotative
 70
     0
  0
ENDTAB
  0
TABLE
  2
DIMSTYLE
  5
A
330
0
100
AcDbSymbolTable
 70
     2
100
AcDbDimStyleTable
 71
     0
  0
DIMSTYLE
105
58
330
A
100
AcDbSymbolTableRecord
100
AcDbDimStyleTableRecord
  2
Standard
 70
     0
340
55
  0
DIMSTYLE
105
59
330
A
100
AcDbSymbolTableRecord
100
AcDbDimStyleTableRecord
  2
Annotative
 70
     0
340
55
1001
AcadAnnotative
1000
AnnotativeData
1002
{
1070
     1
1070
     1
1002
}
  0
ENDTAB
  0
TABLE
  2
BLOCK_RECORD
  5
1
330
0
100
AcDbSymbolTable
 70
     1
  0
BLOCK_RECORD
  5
70
330
1
100
AcDbSymbolTableRecord
100
AcDbBlockTableRecord
  2
*Model_Space
340
73
 70
     0
280
     1
281
     0
  0
BLOCK_RECORD
  5
6C
330
1
100
AcDbSymbolTableRecord
100
AcDbBlockTableRecord
  2
*Paper_Space
340
6F
 70
     0
280
     1
281
     0
  0
BLOCK_RECORD
  5
74
330
1
100
AcDbSymbolTableRecord
100
AcDbBlockTableRecord
  2
*Paper_Space0
340
77
 70
     0
280
     1
281
     0
  0
ENDTAB
  0
ENDSEC
  0
SECTION
  2
BLOCKS
  0
BLOCK
  5
71
330
70
100
AcDbEntity
  8
0
100
AcDbBlockBegin
  2
*Model_Space
 70
     0
 10
0.0
 20
0.0
 30
0.0
  3
*Model_Space
  1

  0
ENDBLK
  5
72
330
70
100
AcDbEntity
  8
0
100
AcDbBlockEnd
  0
BLOCK
  5
6D
330
6C
100
AcDbEntity
 67
     1
  8
0
100
AcDbBlockBegin
  2
*Paper_Space
 70
     0
 10
0.0
 20
0.0
 30
0.0
  3
*Paper_Space
  1

  0
ENDBLK
  5
6E
330
6C
100
AcDbEntity
 67
     1
  8
0
100
AcDbBlockEnd
  0
BLOCK
  5
75
330
74
100
AcDbEntity
 67
     1
  8
0
100
AcDbBlockBegin
  2
*Paper_Space0
 70
     0
 10
0.0
 20
0.0
 30
0.0
  3
*Paper_Space0
  1

  0
ENDBLK
  5
76
330
74
100
AcDbEntity
 67
     1
  8
0
100
AcDbBlockEnd
  0
ENDSEC
  0
SECTION
  2
ENTITIES
  0
LINE
  5
79
330
70
100
AcDbEntity
  8
1
 62
     7
370
    35
100
AcDbLine
 10
343.9179795935452
 20
301.5829996937518
 30
0.0
 11
343.9179795935452
 21
301.5733534263927
 31
0.0
  0
LINE
  5
7A
330
70
100
AcDbEntity
  8
1
 62
     7
370
    35
100
AcDbLine
 10
222.3136881742949
 20
652.3970729567418
 30
0.0
 11
225.1326375551007
 21
651.3711235212349
 31
0.0
  0
LINE
  5
7B
330
70
100
AcDbEntity
  8
1
 62
     7
370
    35
100
AcDbLine
 10
233.3412665678052
 20
673.9237520963252
 30
0.0
 11
230.5221449322253
 21
674.9497015318329
 31
0.0
  0
LINE
  5
7C
330
70
100
AcDbEntity
  8
1
 62
     7
370
    35
100
AcDbLine
 10
225.1326375551007
 20
651.371123521234
 30
0.0
 11
329.4943983254525
 21
613.3865342295157
 31
0.0
  0
LINE
  5
7D
330
70
100
AcDbEntity
  8
1
 62
     7
370
    35
100
AcDbLine
 10
337.703027338157
 20
635.9391628046068
 30
0.0
 11
233.3412665678052
 21
673.9237520963252
 31
0.0
  0
LINE
  5
7E
330
70
100
AcDbEntity
  8
1
 62
     7
370
    35
100
AcDbLine
 10
347.9177354519233
 20
587.0751342252424
 30
0.0
 11
347.9177354519233
 21
436.1734062898777
 31
0.0
  0
LINE
  5
7F
330
70
100
AcDbEntity
  8
1
 62
     7
370
    35
100
AcDbLine
 10
371.9179931499166
 20
436.1734062898777
 30
0.0
 11
371.9179931499166
 21
587.0751342252424
 31
0.0
  0
LINE
  5
80
330
70
100
AcDbEntity
  8
1
 62
     7
370
    35
100
AcDbLine
 10
347.9177354519233
 20
436.1734062898777
 30
0.0
 11
347.9177354519233
 21
431.6735948218193
 31
0.0
  0
LINE
  5
81
330
70
100
AcDbEntity
  8
1
 62
     7
370
    35
100
AcDbLine
 10
371.9179931499166
 20
431.6735948218193
 30
0.0
 11
371.9179931499166
 21
436.1734062898777
 31
0.0
  0
LINE
  5
82
330
70
100
AcDbEntity
  8
1
 62
     7
370
    35
100
AcDbLine
 10
370.9178819305453
 20
431.5733425431972
 30
0.0
 11
370.9178819305453
 21
431.6735948218193
 31
0.0
  0
LINE
  5
83
330
70
100
AcDbEntity
  8
1
 62
     7
370
    35
100
AcDbLine
 10
348.917846671291
 20
431.6735948218193
 30
0.0
 11
348.917846671291
 21
431.5733425431972
 31
0.0
  0
LINE
  5
84
330
70
100
AcDbEntity
  8
1
 62
     7
370
    35
100
AcDbLine
 10
306.5180230056758
 20
406.562982848929
 30
0.0
 11
306.5180230056758
 21
468.0734401903228
 31
0.0
  0
LINE
  5
85
330
70
100
AcDbEntity
  8
1
 62
     7
370
    35
100
AcDbLine
 10
296.5179443406396
 20
468.0734401903228
 30
0.0
 11
296.5179443406396
 21
406.562982848929
 31
0.0
  0
LINE
  5
86
330
70
100
AcDbEntity
  8
1
 62
     7
370
    35
100
AcDbLine
 10
317.5178683805279
 20
406.5733181353862
 30
0.0
 11
306.5679768902119
 21
406.5733181353862
 31
0.0
  0
LINE
  5
87
330
70
100
AcDbEntity
  8
1
 62
     7
370
    35
100
AcDbLine
 10
296.4679904561035
 20
406.5733181353862
 30
0.0
 11
292.0179606178063
 21
406.5733181353862
 31
0.0
  0
LINE
  5
88
330
70
100
AcDbEntity
  8
1
 62
     7
370
    35
100
AcDbLine
 10
292.0179606178063
 20
361.5734809070527
 30
0.0
 11
298.2677083375984
 21
361.5734809070527
 31
0.0
  0
LINE
  5
89
330
70
100
AcDbEntity
  8
1
 62
     7
370
    35
100
AcDbLine
 10
304.7679144991671
 20
361.5734809070527
 30
0.0
 11
308.4272949236001
 21
361.5734809070527
 31
0.0
  0
LINE
  5
8A
330
70
100
AcDbEntity
  8
1
 62
     7
370
    35
100
AcDbLine
 10
318.9179551857342
 20
361.6234347915888
 30
0.0
 11
337.4677273165143
 21
361.6234347915888
 31
0.0
  0
LINE
  5
8B
330
70
100
AcDbEntity
  8
1
 62
     7
370
    35
100
AcDbLine
 10
337.4677273165143
 20
406.5233642508501
 30
0.0
 11
318.9179551857342
 21
406.5233642508501
 31
0.0
  0
LINE
  5
8C
330
70
100
AcDbEntity
  8
1
 62
     7
370
    35
100
AcDbLine
 10
382.4179551698581
 20
336.5734564992399
 30
0.0
 11
382.4179551698581
 21
431.5733425431972
 31
0.0
  0
LINE
  5
8D
330
70
100
AcDbEntity
  8
1
 62
     7
370
    35
100
AcDbLine
 10
337.4177734319783
 20
431.5733425431972
 30
0.0
 11
337.4177734319783
 21
406.5733181353862
 31
0.0
  0
LINE
  5
8E
330
70
100
AcDbEntity
  8
1
 62
     7
370
    35
100
AcDbLine
 10
337.4177734319783
 20
361.5734809070527
 30
0.0
 11
337.4177734319783
 21
336.5734564992399
 31
0.0
  0
LINE
  5
8F
330
70
100
AcDbEntity
  8
1
 62
     7
370
    35
100
AcDbLine
 10
188.558470355043
 20
664.6829724762401
 30
0.0
 11
200.7945882447793
 21
660.2293252876834
 31
0.0
  0
LINE
  5
90
330
70
100
AcDbEntity
  8
1
 62
     7
370
    35
100
AcDbLine
 10
209.0032172574838
 20
682.7819538627745
 30
0.0
 11
196.7670993677475
 21
687.2356010513312
 31
0.0
  0
LINE
  5
91
330
70
100
AcDbEntity
  8
1
 62
     7
370
    35
100
AcDbLine
 10
167.7154704145068
 20
607.3543442896171
 30
0.0
 11
188.5701836796925
 21
664.6521388716465
 31
0.0
  0
LINE
  5
92
330
70
100
AcDbEntity
  8
1
 62
     7
370
    35
100
AcDbLine
 10
196.795693660275
 20
687.2517930001122
 30
0.0
 11
216.2823595082682
 21
740.7906438981854
 31
0.0
  0
LINE
  5
93
330
70
100
AcDbEntity
  8
1
 62
     7
370
    35
100
AcDbLine
 10
189.9709595039958
 20
750.3673203280832
 30
0.0
 11
141.4040704102344
 21
616.9310207195149
 31
0.0
  0
LINE
  5
94
330
70
100
AcDbEntity
  8
1
 62
     7
370
    35
100
AcDbLine
 10
202.846831625342
 20
665.8675685588432
 30
0.0
 11
209.5172255038833
 21
663.4396375156129
 31
0.0
  0
LINE
  5
95
330
70
100
AcDbEntity
  8
1
 62
     7
370
    35
100
AcDbLine
 10
213.6213677554615
 20
674.7159518031585
 30
0.0
 11
206.9509738769202
 21
677.1438828463888
 31
0.0
  0
LINE
  5
96
330
70
100
AcDbEntity
  8
1
 62
     7
370
    35
100
AcDbLine
 10
208.2182522511693
 20
657.5275091533758
 30
0.0
 11
222.3136881742949
 21
652.3970729567418
 31
0.0
  0
LINE
  5
97
330
70
100
AcDbEntity
  8
1
 62
     7
370
    35
100
AcDbLine
 10
230.5221449322253
 20
674.9497015318329
 30
0.0
 11
216.4267090090998
 21
680.0799654736929
 31
0.0
  0
LINE
  5
98
330
70
100
AcDbEntity
  8
1
 62
     7
370
    35
100
AcDbLine
 10
216.2823595082682
 20
740.7906438981854
 30
0.0
 11
216.9663832168644
 21
742.670115740163
 31
0.0
  0
LINE
  5
99
330
70
100
AcDbEntity
  8
1
 62
     7
370
    35
100
AcDbLine
 10
384.9177164539579
 20
331.5735894214959
 30
0.0
 11
384.9177164539579
 21
336.0735731443292
 31
0.0
  0
LINE
  5
9A
330
70
100
AcDbEntity
  8
1
 62
     7
370
    35
100
AcDbLine
 10
334.9180121478785
 20
336.0735731443292
 30
0.0
 11
334.9180121478785
 21
331.5735894214959
 31
0.0
  0
LINE
  5
9B
330
70
100
AcDbEntity
  8
1
 62
     7
370
    35
100
AcDbLine
 10
164.0319743216778
 20
603.3742254755079
 30
0.0
 11
165.7421197205558
 21
608.0726466982923
 31
0.0
  0
LINE
  5
9C
330
70
100
AcDbEntity
  8
1
 62
     7
370
    35
100
AcDbLine
 10
143.3774211041855
 20
616.2127183108404
 30
0.0
 11
141.6672757053075
 21
611.5142970880561
 31
0.0
  0
LINE
  5
9D
330
70
100
AcDbEntity
  8
1
 62
     7
370
    35
100
AcDbLine
 10
384.9177164539579
 20
331.5735894214959
 30
0.0
 11
428.2322129709064
 21
331.5735894214959
 31
0.0
  0
LINE
  5
9E
330
70
100
AcDbEntity
  8
1
 62
     7
370
    35
100
AcDbLine
 10
377.4177435825695
 20
301.5733534263927
 30
0.0
 11
377.4177435825695
 21
331.5735894214959
 31
0.0
  0
LINE
  5
9F
330
70
100
AcDbEntity
  8
1
 62
     7
370
    35
100
AcDbLine
 10
334.9180121478785
 20
331.5735894214959
 30
0.0
 11
384.9177164539579
 21
331.5735894214959
 31
0.0
  0
LINE
  5
A0
330
70
100
AcDbEntity
  8
1
 62
     7
370
    35
100
AcDbLine
 10
342.4179850192704
 20
331.5735894214959
 30
0.0
 11
342.4179850192704
 21
301.5733534263927
 31
0.0
  0
LINE
  5
A1
330
70
100
AcDbEntity
  8
1
 62
     7
370
    35
100
AcDbLine
 10
431.5749891202431
 20
301.5733534263927
 30
0.0
 11
387.46777613214
 21
301.5733534263927
 31
0.0
  0
LINE
  5
A2
330
70
100
AcDbEntity
  8
1
 62
     7
370
    35
100
AcDbLine
 10
222.3136881742949
 20
652.3970729567418
 30
0.0
 11
230.5221449322253
 21
674.9497015318329
 31
0.0
  0
LINE
  5
A3
330
70
100
AcDbEntity
  8
1
 62
     7
370
    35
100
AcDbLine
 10
225.1326375551007
 20
651.371123521234
 30
0.0
 11
233.3412665678052
 21
673.9237520963252
 31
0.0
  0
LINE
  5
A4
330
70
100
AcDbEntity
  8
1
 62
     7
370
    35
100
AcDbLine
 10
225.1326375551007
 20
651.371123521234
 30
0.0
 11
233.3412665678052
 21
673.9237520963252
 31
0.0
  0
LINE
  5
A5
330
70
100
AcDbEntity
  8
1
 62
     7
370
    35
100
AcDbLine
 10
347.9177354519233
 20
436.1734062898777
 30
0.0
 11
371.9179931499166
 21
436.1734062898777
 31
0.0
  0
LINE
  5
A6
330
70
100
AcDbEntity
  8
1
 62
     7
370
    35
100
AcDbLine
 10
347.9177354519233
 20
436.1734062898777
 30
0.0
 11
359.9176920461432
 21
436.1734062898777
 31
0.0
  0
LINE
  5
A7
330
70
100
AcDbEntity
  8
1
 62
     7
370
    35
100
AcDbLine
 10
359.9176920461432
 20
436.1734062898777
 30
0.0
 11
371.9179931499166
 21
436.1734062898777
 31
0.0
  0
LINE
  5
A8
330
70
100
AcDbEntity
  8
1
 62
     7
370
    35
100
AcDbLine
 10
371.9179931499166
 20
431.6735948218193
 30
0.0
 11
359.9176920461432
 21
431.6735948218193
 31
0.0
  0
LINE
  5
A9
330
70
100
AcDbEntity
  8
1
 62
     7
370
    35
100
AcDbLine
 10
359.9176920461432
 20
431.6735948218193
 30
0.0
 11
347.9177354519233
 21
431.6735948218193
 31
0.0
  0
LINE
  5
AA
330
70
100
AcDbEntity
  8
1
 62
     7
370
    35
100
AcDbLine
 10
306.0177951412152
 20
468.5734958000066
 30
0.0
 11
297.0178276955494
 21
468.5734958000066
 31
0.0
  0
LINE
  5
AB
330
70
100
AcDbEntity
  8
1
 62
     7
370
    35
100
AcDbLine
 10
296.5179443406396
 20
468.0734401903228
 30
0.0
 11
306.5180230056758
 21
468.0734401903228
 31
0.0
  0
LINE
  5
AC
330
70
100
AcDbEntity
  8
1
 62
     7
370
    35
100
AcDbLine
 10
315.3333333333321
 20
378.6666666666679
 30
0.0
 11
308.4272949236001
 21
361.5734809070527
 31
0.0
  0
LINE
  5
AD
330
70
100
AcDbEntity
  8
1
 62
     7
370
    35
100
AcDbLine
 10
317.5178683805279
 20
406.5733181353862
 30
0.0
 11
317.5178683805279
 21
389.9049126491009
 31
0.0
  0
LINE
  5
AE
330
70
100
AcDbEntity
  8
1
 62
     7
370
    35
100
AcDbLine
 10
292.0179606178063
 20
406.5733181353862
 30
0.0
 11
292.0179606178063
 21
361.5734809070527
 31
0.0
  0
LINE
  5
AF
330
70
100
AcDbEntity
  8
1
 62
     7
370
    35
100
AcDbLine
 10
318.3712185322256
 20
404.5231418121129
 30
0.0
 11
318.3712185322256
 21
384.0733995212195
 31
0.0
  0
LINE
  5
B0
330
70
100
AcDbEntity
  8
1
 62
     7
370
    35
100
AcDbLine
 10
318.3712185322256
 20
384.0733995212195
 30
0.0
 11
318.3712185322256
 21
363.6236572303242
 31
0.0
  0
LINE
  5
B1
330
70
100
AcDbEntity
  8
1
 62
     7
370
    35
100
AcDbLine
 10
318.9179551857342
 20
406.5233642508501
 30
0.0
 11
318.9179551857342
 21
361.6234347915888
 31
0.0
  0
LINE
  5
B2
330
70
100
AcDbEntity
  8
1
 62
     7
370
    35
100
AcDbLine
 10
351.4179524649371
 20
375.7066406257418
 30
0.0
 11
351.4179524649371
 21
384.0733995212195
 31
0.0
  0
LINE
  5
B3
330
70
100
AcDbEntity
  8
1
 62
     7
370
    35
100
AcDbLine
 10
351.4179524649371
 20
384.0733995212195
 30
0.0
 11
351.4179524649371
 21
392.4401584166972
 31
0.0
  0
LINE
  5
B4
330
70
100
AcDbEntity
  8
1
 62
     7
370
    35
100
AcDbLine
 10
351.4179524649371
 20
375.5733154304617
 30
0.0
 11
337.4177734319783
 21
361.5734809070527
 31
0.0
  0
LINE
  5
B5
330
70
100
AcDbEntity
  8
1
 62
     7
370
    35
100
AcDbLine
 10
351.4179524649371
 20
392.5734836119755
 30
0.0
 11
337.4177734319783
 21
406.5733181353862
 31
0.0
  0
LINE
  5
B6
330
70
100
AcDbEntity
  8
1
 62
     7
370
    35
100
AcDbLine
 10
351.4179524649371
 20
392.5734836119755
 30
0.0
 11
351.4179524649371
 21
392.4401584166972
 31
0.0
  0
LINE
  5
B7
330
70
100
AcDbEntity
  8
1
 62
     7
370
    35
100
AcDbLine
 10
351.4179524649371
 20
375.7066406257418
 30
0.0
 11
351.4179524649371
 21
375.5733154304617
 31
0.0
  0
LINE
  5
B8
330
70
100
AcDbEntity
  8
1
 62
     7
370
    35
100
AcDbLine
 10
337.4177734319783
 20
431.5733425431972
 30
0.0
 11
382.4179551698581
 21
431.5733425431972
 31
0.0
  0
LINE
  5
B9
330
70
100
AcDbEntity
  8
1
 62
     7
370
    35
100
AcDbLine
 10
200.7945882447793
 20
660.2293252876834
 30
0.0
 11
209.0032172574838
 21
682.7819538627745
 31
0.0
  0
LINE
  5
BA
330
70
100
AcDbEntity
  8
1
 62
     7
370
    35
100
AcDbLine
 10
167.7154704145068
 20
607.3543442896171
 30
0.0
 11
141.4040704102344
 21
616.9310207195149
 31
0.0
  0
LINE
  5
BB
330
70
100
AcDbEntity
  8
1
 62
     7
370
    35
100
AcDbLine
 10
216.2823595082682
 20
740.7906438981854
 30
0.0
 11
189.9709595039958
 21
750.3673203280832
 31
0.0
  0
LINE
  5
BC
330
70
100
AcDbEntity
  8
1
 62
     7
370
    35
100
AcDbLine
 10
213.6213677554615
 20
674.7159518031585
 30
0.0
 11
209.5172255038833
 21
663.4396375156129
 31
0.0
  0
LINE
  5
BD
330
70
100
AcDbEntity
  8
1
 62
     7
370
    35
100
AcDbLine
 10
216.4267090090998
 20
680.0799654736929
 30
0.0
 11
208.2182522511693
 21
657.5275091533758
 31
0.0
  0
LINE
  5
BE
330
70
100
AcDbEntity
  8
1
 62
     7
370
    35
100
AcDbLine
 10
230.5221449322253
 20
674.9497015318329
 30
0.0
 11
222.3136881742949
 21
652.3970729567418
 31
0.0
  0
LINE
  5
BF
330
70
100
AcDbEntity
  8
1
 62
     7
370
    35
100
AcDbLine
 10
190.654983212592
 20
752.2466199152868
 30
0.0
 11
216.9663832168644
 21
742.670115740163
 31
0.0
  0
LINE
  5
C0
330
70
100
AcDbEntity
  8
1
 62
     7
370
    35
100
AcDbLine
 10
216.2823595082682
 20
740.7906438981854
 30
0.0
 11
189.9709595039958
 21
750.3673203280832
 31
0.0
  0
LINE
  5
C1
330
70
100
AcDbEntity
  8
1
 62
     7
370
    35
100
AcDbLine
 10
384.9177164539579
 20
336.0735731443292
 30
0.0
 11
359.9176920461432
 21
336.0735731443292
 31
0.0
  0
LINE
  5
C2
330
70
100
AcDbEntity
  8
1
 62
     7
370
    35
100
AcDbLine
 10
359.9176920461432
 20
336.0735731443292
 30
0.0
 11
334.9180121478785
 21
336.0735731443292
 31
0.0
  0
LINE
  5
C3
330
70
100
AcDbEntity
  8
1
 62
     7
370
    35
100
AcDbLine
 10
330.9179117799577
 20
301.5733534263927
 30
0.0
 11
345.4179741678236
 21
301.5733534263927
 31
0.0
  0
LINE
  5
C4
330
70
100
AcDbEntity
  8
1
 62
     7
370
    35
100
AcDbLine
 10
376.3473524153014
 20
301.5733534263927
 30
0.0
 11
345.4179741678236
 21
301.5733534263927
 31
0.0
  0
LINE
  5
C5
330
70
100
AcDbEntity
  8
1
 62
     7
370
    35
100
AcDbLine
 10
376.3473524153014
 20
301.5733534263927
 30
0.0
 11
387.46777613214
 21
301.5733534263927
 31
0.0
  0
LINE
  5
C6
330
70
100
AcDbEntity
  8
1
 62
     7
370
    35
100
AcDbLine
 10
142.5130466469363
 20
611.2064778064495
 30
0.0
 11
141.6672757053075
 21
611.5142970880561
 31
0.0
  0
LINE
  5
C7
330
70
100
AcDbEntity
  8
1
 62
     7
370
    35
100
AcDbLine
 10
142.5130466469363
 20
611.2064778064495
 30
0.0
 11
141.7263590928796
 21
609.0451971537777
 31
0.0
  0
LINE
  5
C8
330
70
100
AcDbEntity
  8
1
 62
     7
370
    35
100
AcDbLine
 10
141.7263590928796
 20
609.0451971537777
 30
0.0
 11
162.3996880807663
 21
601.5207641044435
 31
0.0
  0
LINE
  5
C9
330
70
100
AcDbEntity
  8
1
 62
     7
370
    35
100
AcDbLine
 10
163.1862033800489
 20
603.6820447571153
 30
0.0
 11
162.3996880807663
 21
601.5205918496694
 31
0.0
  0
LINE
  5
CA
330
70
100
AcDbEntity
  8
1
 62
     7
370
    35
100
AcDbLine
 10
164.0319743216778
 20
603.3742254755079
 30
0.0
 11
163.1862033800489
 21
603.6820447571153
 31
0.0
  0
LINE
  5
CB
330
70
100
AcDbEntity
  8
1
 62
     7
370
    35
100
AcDbLine
 10
330.9172227608578
 20
301.5733534263927
 30
0.0
 11
293.5079644151774
 21
301.5733534263927
 31
0.0
  0
LINE
  5
CC
330
70
100
AcDbEntity
  8
1
 62
     7
370
    35
100
AcDbLine
 10
290.1221245722736
 20
331.5735894214959
 30
0.0
 11
334.9180121478785
 21
331.5735894214959
 31
0.0
  0
LINE
  5
CD
330
70
100
AcDbEntity
  8
1
 62
     7
370
    35
100
AcDbLine
 10
384.4178330990471
 20
336.5734564992399
 30
0.0
 11
359.9176920461432
 21
336.5734564992399
 31
0.0
  0
LINE
  5
CE
330
70
100
AcDbEntity
  8
1
 62
     7
370
    35
100
AcDbLine
 10
359.9176920461432
 20
336.5734564992399
 30
0.0
 11
335.4178955027892
 21
336.5734564992399
 31
0.0
  0
LINE
  5
CF
330
70
100
AcDbEntity
  8
1
 62
     7
370
    35
100
AcDbLine
 10
141.4869249566545
 20
608.3873561708696
 30
0.0
 11
162.1602539445421
 21
600.8629231215354
 31
0.0
  0
LINE
  5
D0
330
70
100
AcDbEntity
  8
1
 62
     7
370
    35
100
AcDbLine
 10
190.654983212592
 20
752.2466199152868
 30
0.0
 11
189.9709595039958
 21
750.3673203280832
 31
0.0
  0
SPLINE
  5
D1
330
70
100
AcDbEntity
  8
1
 62
     7
370
    35
100
AcDbSpline
210
0.0
220
0.0
230
1.0
 70
     8
 71
     3
 72
     8
 73
     4
 74
     0
 42
0.0000000001
 43
0.0000000001
 40
0.0
 40
0.0
 40
0.0
 40
0.0
 40
1.0
 40
1.0
 40
1.0
 40
1.0
 10
371.9179931499166
 20
587.0751342252424
 30
0.0
 10
371.9179931499166
 20
608.9358153721214
 30
0.0
 10
358.2454426976037
 20
628.4622720729685
 30
0.0
 10
337.703027338157
 20
635.9391628046068
 30
0.0
  0
SPLINE
  5
D2
330
70
100
AcDbEntity
  8
1
 62
     7
370
    35
100
AcDbSpline
210
0.0
220
0.0
230
1.0
 70
     8
 71
     3
 72
     8
 73
     4
 74
     0
 42
0.0000000001
 43
0.0000000001
 40
0.0
 40
0.0
 40
0.0
 40
0.0
 40
1.0
 40
1.0
 40
1.0
 40
1.0
 10
347.9177354519233
 20
587.0751342252424
 30
0.0
 10
347.9177354519233
 20
598.8461642244701
 30
0.0
 10
340.5555663999439
 20
609.3605956454521
 30
0.0
 10
329.4943983254525
 20
613.3865342295157
 30
0.0
  0
SPLINE
  5
D3
330
70
100
AcDbEntity
  8
1
 62
     7
370
    35
100
AcDbSpline
210
0.0
220
0.0
230
1.0
 70
     8
 71
     3
 72
     8
 73
     4
 74
     0
 42
0.0000000001
 43
0.0000000001
 40
0.0
 40
0.0
 40
0.0
 40
0.0
 40
1.0
 40
1.0
 40
1.0
 40
1.0
 10
306.5180230056758
 20
468.0734401903228
 30
0.0
 10
306.5180230056758
 20
468.3495645934653
 30
0.0
 10
306.2940917991327
 20
468.5734958000066
 30
0.0
 10
306.0177951412152
 20
468.5734958000066
 30
0.0
  0
SPLINE
  5
D4
330
70
100
AcDbEntity
  8
1
 62
     7
370
    35
100
AcDbSpline
210
0.0
220
0.0
230
1.0
 70
     8
 71
     3
 72
     8
 73
     4
 74
     0
 42
0.0000000001
 43
0.0000000001
 40
0.0
 40
0.0
 40
0.0
 40
0.0
 40
1.0
 40
1.0
 40
1.0
 40
1.0
 10
297.0178276955494
 20
468.5734958000066
 30
0.0
 10
296.7418755471808
 20
468.5734958000066
 30
0.0
 10
296.5179443406396
 20
468.3495645934653
 30
0.0
 10
296.5179443406396
 20
468.0734401903228
 30
0.0
  0
SPLINE
  5
D5
330
70
100
AcDbEntity
  8
1
 62
     7
370
    35
100
AcDbSpline
210
0.0
220
0.0
230
1.0
 70
     8
 71
     3
 72
    11
 73
     7
 74
     0
 42
0.0000000001
 43
0.0000000001
 40
0.0
 40
0.0
 40
0.0
 40
0.0
 40
1.0
 40
1.0
 40
1.0
 40
2.0
 40
2.0
 40
2.0
 40
2.0
 10
318.9179551857342
 20
404.0253255144944
 30
0.0
 10
318.9179551857342
 20
404.3016221724119
 30
0.0
 10
318.6940239791929
 20
404.525208869405
 30
0.0
 10
318.4177273212772
 20
404.525208869405
 30
0.0
 10
318.4022243915933
 20
404.525208869405
 30
0.0
 10
318.3867214619095
 20
404.5245198503071
 30
0.0
 10
318.3712185322256
 20
404.5231418121129
 30
0.0
  0
SPLINE
  5
D6
330
70
100
AcDbEntity
  8
1
 62
     7
370
    35
100
AcDbSpline
210
0.0
220
0.0
230
1.0
 70
     8
 71
     3
 72
    11
 73
     7
 74
     0
 42
0.0000000001
 43
0.0000000001
 40
0.0
 40
0.0
 40
0.0
 40
0.0
 40
1.0
 40
1.0
 40
1.0
 40
2.0
 40
2.0
 40
2.0
 40
2.0
 10
318.3712185322256
 20
363.6236572303242
 30
0.0
 10
318.6461371519472
 20
363.597819014185
 30
0.0
 10
318.8900499123047
 20
363.8000461191696
 30
0.0
 10
318.9155436188958
 20
364.0749647388911
 30
0.0
 10
318.917266166638
 20
364.090467668575
 30
0.0
 10
318.9179551857342
 20
364.1059705982589
 30
0.0
 10
318.9179551857342
 20
364.1214735279427
 30
0.0
  0
SPLINE
  5
D7
330
70
100
AcDbEntity
  8
1
 62
     7
370
    35
100
AcDbSpline
210
0.0
220
0.0
230
1.0
 70
     8
 71
     3
 72
     8
 73
     4
 74
     0
 42
0.0000000001
 43
0.0000000001
 40
0.0
 40
0.0
 40
0.0
 40
0.0
 40
1.0
 40
1.0
 40
1.0
 40
1.0
 10
214.587200274751
 20
675.0256658872831
 30
0.0
 10
214.2590549297811
 20
674.942983595637
 30
0.0
 10
213.9364217375869
 20
674.8394584763046
 30
0.0
 10
213.6213677554615
 20
674.7159518031585
 30
0.0
  0
SPLINE
  5
D8
330
70
100
AcDbEntity
  8
1
 62
     7
370
    35
100
AcDbSpline
210
0.0
220
0.0
230
1.0
 70
     8
 71
     3
 72
     8
 73
     4
 74
     0
 42
0.0000000001
 43
0.0000000001
 40
0.0
 40
0.0
 40
0.0
 40
0.0
 40
1.0
 40
1.0
 40
1.0
 40
1.0
 10
209.5172255038833
 20
663.4396375156129
 30
0.0
 10
209.67914499169
 20
663.1426702847847
 30
0.0
 10
209.859667995117
 20
662.8560383404119
 30
0.0
 10
210.0579332402931
 20
662.5818087397856
 30
0.0
  0
SPLINE
  5
D9
330
70
100
AcDbEntity
  8
1
 62
     7
370
    35
100
AcDbSpline
210
0.0
220
0.0
230
1.0
 70
     8
 71
     3
 72
     8
 73
     4
 74
     0
 42
0.0000000001
 43
0.0000000001
 40
0.0
 40
0.0
 40
0.0
 40
0.0
 40
1.0
 40
1.0
 40
1.0
 40
1.0
 10
384.9177164539579
 20
336.0735731443292
 30
0.0
 10
384.9177164539579
 20
336.3495252926987
 30
0.0
 10
384.6941297569647
 20
336.5734564992399
 30
0.0
 10
384.4178330990471
 20
336.5734564992399
 30
0.0
  0
SPLINE
  5
DA
330
70
100
AcDbEntity
  8
1
 62
     7
370
    35
100
AcDbSpline
210
0.0
220
0.0
230
1.0
 70
     8
 71
     3
 72
     8
 73
     4
 74
     0
 42
0.0000000001
 43
0.0000000001
 40
0.0
 40
0.0
 40
0.0
 40
0.0
 40
1.0
 40
1.0
 40
1.0
 40
1.0
 10
335.4178955027892
 20
336.5734564992399
 30
0.0
 10
335.1415988448716
 20
336.5734564992399
 30
0.0
 10
334.9180121478785
 20
336.3495252926987
 30
0.0
 10
334.9180121478785
 20
336.0735731443292
 30
0.0
  0
SPLINE
  5
DB
330
70
100
AcDbEntity
  8
1
 62
     7
370
    35
100
AcDbSpline
210
0.0
220
0.0
230
1.0
 70
     8
 71
     3
 72
     8
 73
     4
 74
     0
 42
0.0000000001
 43
0.0000000001
 40
0.0
 40
0.0
 40
0.0
 40
0.0
 40
1.0
 40
1.0
 40
1.0
 40
1.0
 10
318.5007541224695
 20
404.5351996463123
 30
0.0
 10
318.1703694654352
 20
404.5072943728809
 30
0.0
 10
317.8413628465933
 20
404.4738769466748
 30
0.0
 10
317.5130452468493
 20
404.4356363867882
 30
0.0
  0
SPLINE
  5
DC
330
70
100
AcDbEntity
  8
1
 62
     7
370
    35
100
AcDbSpline
210
0.0
220
0.0
230
1.0
 70
     8
 71
     3
 72
    14
 73
    10
 74
     0
 42
0.0000000001
 43
0.0000000001
 40
0.0
 40
0.0
 40
0.0
 40
0.0
 40
1.0
 40
1.0
 40
1.0
 40
2.0
 40
2.0
 40
2.0
 40
3.0
 40
3.0
 40
3.0
 40
3.0
 10
310.0265082478527
 20
365.5332736577984
 30
0.0
 10
310.9098307302702
 20
365.1529351162262
 30
0.0
 10
311.8365614158029
 20
364.8645806241111
 30
0.0
 10
312.7701822923063
 20
364.6161892396249
 30
0.0
 10
313.711382378875
 20
364.3660753073964
 30
0.0
 10
314.6594726564181
 20
364.1566135018929
 30
0.0
 10
315.6151421440263
 20
363.9888373517606
 30
0.0
 10
316.5697781029885
 20
363.8217502207262
 30
0.0
 10
317.5316487624696
 20
363.6960042355149
 30
0.0
 10
318.5007541224695
 20
363.6119439056747
 30
0.0
  0
SPLINE
  5
DD
330
70
100
AcDbEntity
  8
1
 62
     7
370
    35
100
AcDbSpline
210
0.0
220
0.0
230
1.0
 70
     8
 71
     3
 72
     8
 73
     4
 74
     0
 42
0.0000000001
 43
0.0000000001
 40
0.0
 40
0.0
 40
0.0
 40
0.0
 40
1.0
 40
1.0
 40
1.0
 40
1.0
 10
318.8266601553751
 20
365.5856391091747
 30
0.0
 10
318.8294162317634
 20
365.5811604850423
 30
0.0
 10
318.8321723081517
 20
365.5763373513637
 30
0.0
 10
318.8349283845401
 20
365.5718587272331
 30
0.0
  0
SPLINE
  5
DE
330
70
100
AcDbEntity
  8
1
 62
     7
370
    35
100
AcDbSpline
210
0.0
220
0.0
230
1.0
 70
     8
 71
     3
 72
    17
 73
    13
 74
     0
 42
0.0000000001
 43
0.0000000001
 40
0.0
 40
0.0
 40
0.0
 40
0.0
 40
1.0
 40
1.0
 40
1.0
 40
2.0
 40
2.0
 40
2.0
 40
3.0
 40
3.0
 40
3.0
 40
4.0
 40
4.0
 40
4.0
 40
4.0
 10
429.0883191989887
 20
304.0235053355027
 30
0.0
 10
429.2764214124836
 20
303.8119764727071
 30
0.0
 10
429.4696912692088
 20
303.6021701576556
 30
0.0
 10
429.6677842596109
 20
303.3944308998962
 30
0.0
 10
429.8662217595592
 20
303.186691642135
 30
0.0
 10
430.069482393188
 20
302.9810194416659
 30
0.0
 10
430.2768771414012
 20
302.7767252793911
 30
0.0
 10
430.4846163991605
 20
302.5727756266624
 30
0.0
 10
430.6968342810542
 20
302.3705485216797
 30
0.0
 10
430.9135307870747
 20
302.1700439644373
 30
0.0
 10
431.1298827835489
 20
301.9695394071969
 30
0.0
 10
431.3503688946038
 20
301.7707573976968
 30
0.0
 10
431.5749891202431
 20
301.5733534263927
 30
0.0
  0
SPLINE
  5
DF
330
70
100
AcDbEntity
  8
1
 62
     7
370
    35
100
AcDbSpline
210
0.0
220
0.0
230
1.0
 70
     8
 71
     3
 72
    20
 73
    16
 74
     0
 42
0.0000000001
 43
0.0000000001
 40
0.0
 40
0.0
 40
0.0
 40
0.0
 40
1.0
 40
1.0
 40
1.0
 40
2.0
 40
2.0
 40
2.0
 40
3.0
 40
3.0
 40
3.0
 40
4.0
 40
4.0
 40
4.0
 40
5.0
 40
5.0
 40
5.0
 40
5.0
 10
293.5079644151774
 20
301.5733534263927
 30
0.0
 10
290.7773817335683
 20
304.0117920108514
 30
0.0
 10
287.8028862916035
 20
307.3380317018618
 30
0.0
 10
287.3443440825167
 20
311.2237548996745
 30
0.0
 10
287.149351678051
 20
312.8763672039477
 30
0.0
 10
287.4094563871877
 20
314.6299208059409
 30
0.0
 10
288.1232801717315
 20
316.1037326545302
 30
0.0
 10
288.9032497895923
 20
317.7136257747879
 30
0.0
 10
290.2247884177341
 20
318.9893446329752
 30
0.0
 10
291.3272189730142
 20
320.4652235388567
 30
0.0
 10
292.3690158477539
 20
321.8601427008343
 30
0.0
 10
293.2151312989308
 20
323.4342068280457
 30
0.0
 10
293.422526047143
 20
325.1391845836952
 30
0.0
 10
293.7315511121696
 20
327.6813205422604
 30
0.0
 10
292.6208523277255
 20
330.514567069331
 30
0.0
 10
290.1221245722736
 20
331.5735894214959
 30
0.0
  0
SPLINE
  5
E0
330
70
100
AcDbEntity
  8
1
 62
     7
370
    35
100
AcDbSpline
210
0.0
220
0.0
230
1.0
 70
     8
 71
     3
 72
    20
 73
    16
 74
     0
 42
0.0000000001
 43
0.0000000001
 40
0.0
 40
0.0
 40
0.0
 40
0.0
 40
1.0
 40
1.0
 40
1.0
 40
2.0
 40
2.0
 40
2.0
 40
3.0
 40
3.0
 40
3.0
 40
4.0
 40
4.0
 40
4.0
 40
5.0
 40
5.0
 40
5.0
 40
5.0
 10
428.2322129709064
 20
331.5735894214959
 30
0.0
 10
430.7061360388652
 20
330.4480767264649
 30
0.0
 10
431.8685112555868
 20
327.5965711933241
 30
0.0
 10
431.5605197192053
 20
325.0272189804255
 30
0.0
 10
431.3562255569304
 20
323.3260308298086
 30
0.0
 10
430.5073540293633
 20
321.7485216071127
 30
0.0
 10
429.4641791164321
 20
320.3522244069409
 30
0.0
 10
428.3607150325042
 20
318.8749674628652
 30
0.0
 10
427.0402099330095
 20
317.6006266428722
 30
0.0
 10
426.2605848246967
 20
315.9910780321625
 30
0.0
 10
425.5471055497037
 20
314.5179552026693
 30
0.0
 10
425.2870008405661
 20
312.7644016006779
 30
0.0
 10
425.48199324503
 20
311.1114447868549
 30
0.0
 10
425.795841443738
 20
308.4473524481109
 30
0.0
 10
427.2910128843359
 20
306.0454318757948
 30
0.0
 10
429.0883191989887
 20
304.0235053355027
 30
0.0
  0
SPLINE
  5
E1
330
70
100
AcDbEntity
  8
1
 62
     7
370
    35
100
AcDbSpline
210
0.0
220
0.0
230
1.0
 70
     8
 71
     3
 72
    35
 73
    31
 74
     0
 42
0.0000000001
 43
0.0000000001
 40
0.0
 40
0.0
 40
0.0
 40
0.0
 40
1.0
 40
1.0
 40
1.0
 40
2.0
 40
2.0
 40
2.0
 40
3.0
 40
3.0
 40
3.0
 40
4.0
 40
4.0
 40
4.0
 40
5.0
 40
5.0
 40
5.0
 40
6.0
 40
6.0
 40
6.0
 40
7.0
 40
7.0
 40
7.0
 40
8.0
 40
8.0
 40
8.0
 40
9.0
 40
9.0
 40
9.0
 40
10.0
 40
10.0
 40
10.0
 40
10.0
 10
317.5178683805279
 20
389.9049126491009
 30
0.0
 10
317.5178683805279
 20
389.4325900580734
 30
0.0
 10
317.5068440749746
 20
388.9592339383998
 30
0.0
 10
317.4844509543218
 20
388.4855333091782
 30
0.0
 10
317.461713324119
 20
388.0114881704085
 30
0.0
 10
317.427951388363
 20
387.5370985220889
 30
0.0
 10
317.3828206375074
 20
387.061675345125
 30
0.0
 10
317.33768988665
 20
386.5862521681592
 30
0.0
 10
317.2808458111431
 20
386.1104844816473
 30
0.0
 10
317.2122884109867
 20
385.6336832664892
 30
0.0
 10
317.1437310108304
 20
385.1572265608793
 30
0.0
 10
317.0634602860246
 20
384.6800808361713
 30
0.0
 10
316.9707872174713
 20
384.2022460923672
 30
0.0
 10
316.9477050777205
 20
384.0827012790287
 30
0.0
 10
316.9239339188716
 20
383.9631564656902
 30
0.0
 10
316.8991292313767
 20
383.8436116523535
 30
0.0
 10
316.8746690534317
 20
383.724066839015
 30
0.0
 10
316.8491753468406
 20
383.6045220256765
 30
0.0
 10
316.8229926211534
 20
383.485321721886
 30
0.0
 10
316.7706271697789
 20
383.2469211143071
 30
0.0
 10
316.7158501515623
 20
383.0095540353741
 30
0.0
 10
316.6579725474112
 20
382.7739095041816
 30
0.0
 10
316.5425618486552
 20
382.3022759322521
 30
0.0
 10
316.4164713538958
 20
381.8361545130974
 30
0.0
 10
316.2797010631293
 20
381.3748562276233
 30
0.0
 10
316.1429307723665
 20
380.9135579421472
 30
0.0
 10
315.9954806855967
 20
380.4570827903517
 30
0.0
 10
315.8376953123734
 20
380.0057752817847
 30
0.0
 10
315.6799099391483
 20
379.554467773216
 30
0.0
 10
315.5117892794678
 20
379.1083279078776
 30
0.0
 10
315.3333333333321
 20
378.6666666666679
 30
0.0
  0
SPLINE
  5
E2
330
70
100
AcDbEntity
  8
1
 62
     7
370
    35
100
AcDbSpline
210
0.0
220
0.0
230
1.0
 70
     8
 71
     3
 72
   137
 73
   133
 74
     0
 42
0.0000000001
 43
0.0000000001
 40
0.0
 40
0.0
 40
0.0
 40
0.0
 40
1.0
 40
1.0
 40
1.0
 40
2.0
 40
2.0
 40
2.0
 40
3.0
 40
3.0
 40
3.0
 40
4.0
 40
4.0
 40
4.0
 40
5.0
 40
5.0
 40
5.0
 40
6.0
 40
6.0
 40
6.0
 40
7.0
 40
7.0
 40
7.0
 40
8.0
 40
8.0
 40
8.0
 40
9.0
 40
9.0
 40
9.0
 40
10.0
 40
10.0
 40
10.0
 40
11.0
 40
11.0
 40
11.0
 40
12.0
 40
12.0
 40
12.0
 40
13.0
 40
13.0
 40
13.0
 40
14.0
 40
14.0
 40
14.0
 40
15.0
 40
15.0
 40
15.0
 40
16.0
 40
16.0
 40
16.0
 40
17.0
 40
17.0
 40
17.0
 40
18.0
 40
18.0
 40
18.0
 40
19.0
 40
19.0
 40
19.0
 40
20.0
 40
20.0
 40
20.0
 40
21.0
 40
21.0
 40
21.0
 40
22.0
 40
22.0
 40
22.0
 40
23.0
 40
23.0
 40
23.0
 40
24.0
 40
24.0
 40
24.0
 40
25.0
 40
25.0
 40
25.0
 40
26.0
 40
26.0
 40
26.0
 40
27.0
 40
27.0
 40
27.0
 40
28.0
 40
28.0
 40
28.0
 40
29.0
 40
29.0
 40
29.0
 40
30.0
 40
30.0
 40
30.0
 40
31.0
 40
31.0
 40
31.0
 40
32.0
 40
32.0
 40
32.0
 40
33.0
 40
33.0
 40
33.0
 40
34.0
 40
34.0
 40
34.0
 40
35.0
 40
35.0
 40
35.0
 40
36.0
 40
36.0
 40
36.0
 40
37.0
 40
37.0
 40
37.0
 40
38.0
 40
38.0
 40
38.0
 40
39.0
 40
39.0
 40
39.0
 40
40.0
 40
40.0
 40
40.0
 40
41.0
 40
41.0
 40
41.0
 40
42.0
 40
42.0
 40
42.0
 40
43.0
 40
43.0
 40
43.0
 40
44.0
 40
44.0
 40
44.0
 40
44.0
 10
304.7679144991671
 20
361.5734809070527
 30
0.0
 10
304.7679144991671
 20
361.5734809070527
 30
0.0
 10
304.7624023463904
 20
361.5741699261489
 30
0.0
 10
304.7520670599352
 20
361.5755479643431
 30
0.0
 10
304.7417317734798
 20
361.5772705120853
 30
0.0
 10
304.726228843796
 20
361.5793375693775
 30
0.0
 10
304.7055582708854
 20
361.5824381553139
 30
0.0
 10
304.6848876979729
 20
361.5851942317022
 30
0.0
 10
304.6590494818338
 20
361.5889838367348
 30
0.0
 10
304.6280436224661
 20
361.5931179513172
 30
0.0
 10
304.6204644123991
 20
361.5941514799633
 30
0.0
 10
304.6121961832341
 20
361.5955295181575
 30
0.0
 10
304.603927954071
 20
361.5965630468036
 30
0.0
 10
304.5953152153561
 20
361.5975965754496
 30
0.0
 10
304.5867024766449
 20
361.598974613642
 30
0.0
 10
304.5777452283819
 20
361.600008142288
 30
0.0
 10
304.5594862223097
 20
361.6024197091283
 30
0.0
 10
304.5405381971414
 20
361.6051757855166
 30
0.0
 10
304.5198676242289
 20
361.6079318619049
 30
0.0
 10
304.4792154975039
 20
361.6134440146816
 30
0.0
 10
304.4337402370984
 20
361.6193006770063
 30
0.0
 10
304.3841308621104
 20
361.6255018488792
 30
0.0
 10
304.3341769775743
 20
361.6320475303019
 30
0.0
 10
304.2797444689077
 20
361.6389377212727
 30
0.0
 10
304.2208333361086
 20
361.6458279122416
 30
0.0
 10
304.1915500244868
 20
361.649273007728
 30
0.0
 10
304.1608886746653
 20
361.6530626127606
 30
0.0
 10
304.1291937962014
 20
361.656852217795
 30
0.0
 10
304.1133463569713
 20
361.6585747655372
 30
0.0
 10
304.0971544081894
 20
361.6606418228294
 30
0.0
 10
304.0806179498613
 20
361.6623643705716
 30
0.0
 10
304.0640814915314
 20
361.6640869183139
 30
0.0
 10
304.0475450332015
 20
361.666153975606
 30
0.0
 10
304.0306640653252
 20
361.6678765233483
 30
0.0
 10
303.9627956842651
 20
361.6758002429633
 30
0.0
 10
303.8914822077204
 20
361.6833794530321
 30
0.0
 10
303.8167236356894
 20
361.6909586630991
 30
0.0
 10
303.7419650636603
 20
361.6985378731661
 30
0.0
 10
303.6637613961448
 20
361.706461592783
 30
0.0
 10
303.5817681235967
 20
361.7140408028499
 30
0.0
 10
303.5001193605967
 20
361.7216200129169
 30
0.0
 10
303.4150255021086
 20
361.7288547134376
 30
0.0
 10
303.3264865481397
 20
361.7360894139565
 30
0.0
 10
303.2820448163802
 20
361.739534509441
 30
0.0
 10
303.2365695559747
 20
361.7433241144754
 30
0.0
 10
303.1907497860193
 20
361.7467692099599
 30
0.0
 10
303.1452745256138
 20
361.7498697958963
 30
0.0
 10
303.098765736564
 20
361.7533148913826
 30
0.0
 10
303.0519124379643
 20
361.7567599868671
 30
0.0
 10
302.9585503503149
 20
361.7629611587399
 30
0.0
 10
302.8627766958234
 20
361.7691623306146
 30
0.0
 10
302.7649359840434
 20
361.7743299738413
 30
0.0
 10
302.6674397818096
 20
361.779842126618
 30
0.0
 10
302.5678765222874
 20
361.7850097698465
 30
0.0
 10
302.4659016959231
 20
361.789143884429
 30
0.0
 10
302.4152587922908
 20
361.7912109417193
 30
0.0
 10
302.3639268695606
 20
361.7932779990115
 30
0.0
 10
302.3119059277342
 20
361.7953450563018
 30
0.0
 10
302.260229495454
 20
361.7970676040441
 30
0.0
 10
302.2075195345296
 20
361.7987901517881
 30
0.0
 10
302.1551540831533
 20
361.8001681899823
 30
0.0
 10
302.0500786708544
 20
361.8032687759187
 30
0.0
 10
301.9443142394557
 20
361.8056803427571
 30
0.0
 10
301.8382052985107
 20
361.8070583809513
 30
0.0
 10
301.7320963575658
 20
361.8084364191454
 30
0.0
 10
301.6252983975228
 20
361.8094699477915
 30
0.0
 10
301.5178114183836
 20
361.8094699477915
 30
0.0
 10
301.4103244392427
 20
361.8094699477915
 30
0.0
 10
301.3038709887478
 20
361.8084364191454
 30
0.0
 10
301.1981065573527
 20
361.8070583809513
 30
0.0
 10
301.092342125954
 20
361.8056803427571
 30
0.0
 10
300.9876112232032
 20
361.8032687759187
 30
0.0
 10
300.8839138490966
 20
361.8005126995304
 30
0.0
 10
300.779871965442
 20
361.797412113594
 30
0.0
 10
300.6768636104334
 20
361.7936225085596
 30
0.0
 10
300.5748887840709
 20
361.7894883939771
 30
0.0
 10
300.5493950774799
 20
361.788454865331
 30
0.0
 10
300.5239013708888
 20
361.7870768271369
 30
0.0
 10
300.4984076642977
 20
361.7860432984926
 30
0.0
 10
300.4729139577066
 20
361.7850097698465
 30
0.0
 10
300.4477647606655
 20
361.7836317316524
 30
0.0
 10
300.4222710540744
 20
361.7825982030063
 30
0.0
 10
300.3719726599884
 20
361.779842126618
 30
0.0
 10
300.3223632850022
 20
361.7774305597795
 30
0.0
 10
300.2730984195623
 20
361.7746744833912
 30
0.0
 10
300.1745686886843
 20
361.7691623306146
 30
0.0
 10
300.0791395437427
 20
361.7629611587399
 30
0.0
 10
299.9857774560915
 20
361.7567599868671
 30
0.0
 10
299.892415368442
 20
361.7502143054462
 30
0.0
 10
299.8018093571809
 20
361.7436686240235
 30
0.0
 10
299.7136149127582
 20
361.7364339235046
 30
0.0
 10
299.6691731809988
 20
361.7329888280183
 30
0.0
 10
299.6257649778836
 20
361.7291992229857
 30
0.0
 10
299.5830457938664
 20
361.7254096179513
 30
0.0
 10
299.5616862018578
 20
361.723687070209
 30
0.0
 10
299.5403266098492
 20
361.7216200129169
 30
0.0
 10
299.5193115273906
 20
361.7198974651747
 30
0.0
 10
299.49829644493
 20
361.7178304078843
 30
0.0
 10
299.4772813624695
 20
361.7161078601421
 30
0.0
 10
299.4566107895589
 20
361.7140408028499
 30
0.0
 10
299.3739284979128
 20
361.706461592783
 30
0.0
 10
299.2953803208475
 20
361.698882382716
 30
0.0
 10
299.2206217488183
 20
361.6913031726472
 30
0.0
 10
299.1455186672392
 20
361.6833794530321
 30
0.0
 10
299.0745497002426
 20
361.6758002429633
 30
0.0
 10
299.0073703382805
 20
361.6682210328963
 30
0.0
 10
298.9401909763182
 20
361.6606418228294
 30
0.0
 10
298.8768012193905
 20
361.6534071223104
 30
0.0
 10
298.8175455770433
 20
361.6461724217916
 30
0.0
 10
298.7879177558716
 20
361.6427273263052
 30
0.0
 10
298.758978953796
 20
361.6392822308208
 30
0.0
 10
298.7314181899128
 20
361.6358371353344
 30
0.0
 10
298.7042019355795
 20
361.63239203985
 30
0.0
 10
298.6776747003423
 20
361.6289469443655
 30
0.0
 10
298.6528700128492
 20
361.6258463584272
 30
0.0
 10
298.6025716187651
 20
361.6193006770063
 30
0.0
 10
298.5574408679076
 20
361.6134440146816
 30
0.0
 10
298.5167887411808
 20
361.6079318619049
 30
0.0
 10
298.4761366144558
 20
361.6027642186764
 30
0.0
 10
298.4403076214094
 20
361.5975965754496
 30
0.0
 10
298.4093017620416
 20
361.5934624608672
 30
0.0
 10
298.3937988323596
 20
361.591395403575
 30
0.0
 10
298.37932943132
 20
361.5893283462847
 30
0.0
 10
298.3662380684764
 20
361.5876057985424
 30
0.0
 10
298.3531467056327
 20
361.5855387412503
 30
0.0
 10
298.3414333809815
 20
361.5838161935081
 30
0.0
 10
298.331098094528
 20
361.5824381553139
 30
0.0
 10
298.3100830120675
 20
361.5793375693775
 30
0.0
 10
298.2942355728337
 20
361.5772705120853
 30
0.0
 10
298.2835557768303
 20
361.5755479643431
 30
0.0
 10
298.273220490375
 20
361.5741699261489
 30
0.0
 10
298.2677083375984
 20
361.5734809070527
 30
0.0
 10
298.2677083375984
 20
361.5734809070527
 30
0.0
  0
SPLINE
  5
E3
330
70
100
AcDbEntity
  8
1
 62
     7
370
    35
100
AcDbSpline
210
0.0
220
0.0
230
1.0
 70
     8
 71
     3
 72
   143
 73
   139
 74
     0
 42
0.0000000001
 43
0.0000000001
 40
0.0
 40
0.0
 40
0.0
 40
0.0
 40
1.0
 40
1.0
 40
1.0
 40
2.0
 40
2.0
 40
2.0
 40
3.0
 40
3.0
 40
3.0
 40
4.0
 40
4.0
 40
4.0
 40
5.0
 40
5.0
 40
5.0
 40
6.0
 40
6.0
 40
6.0
 40
7.0
 40
7.0
 40
7.0
 40
8.0
 40
8.0
 40
8.0
 40
9.0
 40
9.0
 40
9.0
 40
10.0
 40
10.0
 40
10.0
 40
11.0
 40
11.0
 40
11.0
 40
12.0
 40
12.0
 40
12.0
 40
13.0
 40
13.0
 40
13.0
 40
14.0
 40
14.0
 40
14.0
 40
15.0
 40
15.0
 40
15.0
 40
16.0
 40
16.0
 40
16.0
 40
17.0
 40
17.0
 40
17.0
 40
18.0
 40
18.0
 40
18.0
 40
19.0
 40
19.0
 40
19.0
 40
20.0
 40
20.0
 40
20.0
 40
21.0
 40
21.0
 40
21.0
 40
22.0
 40
22.0
 40
22.0
 40
23.0
 40
23.0
 40
23.0
 40
24.0
 40
24.0
 40
24.0
 40
25.0
 40
25.0
 40
25.0
 40
26.0
 40
26.0
 40
26.0
 40
27.0
 40
27.0
 40
27.0
 40
28.0
 40
28.0
 40
28.0
 40
29.0
 40
29.0
 40
29.0
 40
30.0
 40
30.0
 40
30.0
 40
31.0
 40
31.0
 40
31.0
 40
32.0
 40
32.0
 40
32.0
 40
33.0
 40
33.0
 40
33.0
 40
34.0
 40
34.0
 40
34.0
 40
35.0
 40
35.0
 40
35.0
 40
36.0
 40
36.0
 40
36.0
 40
37.0
 40
37.0
 40
37.0
 40
38.0
 40
38.0
 40
38.0
 40
39.0
 40
39.0
 40
39.0
 40
40.0
 40
40.0
 40
40.0
 40
41.0
 40
41.0
 40
41.0
 40
42.0
 40
42.0
 40
42.0
 40
43.0
 40
43.0
 40
43.0
 40
44.0
 40
44.0
 40
44.0
 40
45.0
 40
45.0
 40
45.0
 40
46.0
 40
46.0
 40
46.0
 40
46.0
 10
306.5679768902119
 20
406.5733181353862
 30
0.0
 10
306.5679768902119
 20
406.5733181353862
 30
0.0
 10
306.5597086610469
 20
406.5715955876421
 30
0.0
 10
306.543172202717
 20
406.5678059826096
 30
0.0
 10
306.5269802539369
 20
406.5643608871232
 30
0.0
 10
306.5028645855382
 20
406.5588487343466
 30
0.0
 10
306.4704806879781
 20
406.5516140338277
 30
0.0
 10
306.4380967904181
 20
406.5447238428587
 30
0.0
 10
306.3981336827892
 20
406.5357665945957
 30
0.0
 10
306.3499023459954
 20
406.5254313081404
 30
0.0
 10
306.337844511796
 20
406.5230197413002
 30
0.0
 10
306.3250976585004
 20
406.5202636649119
 30
0.0
 10
306.3120062956568
 20
406.5175075885235
 30
0.0
 10
306.2992594423613
 20
406.514751512137
 30
0.0
 10
306.2854790604215
 20
406.5116509261988
 30
0.0
 10
306.27135416893
 20
406.5088948498105
 30
0.0
 10
306.2434488955005
 20
406.5026936779377
 30
0.0
 10
306.2134765647788
 20
406.4964925060649
 30
0.0
 10
306.181781686315
 20
406.4899468246421
 30
0.0
 10
306.1183919293853
 20
406.4768554617985
 30
0.0
 10
306.0477674719368
 20
406.4623860607607
 30
0.0
 10
305.9702528235212
 20
406.4468831310769
 30
0.0
 10
305.8927381751018
 20
406.431380201393
 30
0.0
 10
305.8083333357136
 20
406.415188252613
 30
0.0
 10
305.7166937958064
 20
406.3979627751868
 30
0.0
 10
305.670874025851
 20
406.3893500364738
 30
0.0
 10
305.6233317081551
 20
406.3803927882108
 30
0.0
 10
305.574066842717
 20
406.3714355399497
 30
0.0
 10
305.5248019772771
 20
406.3624782916885
 30
0.0
 10
305.4734700545469
 20
406.3531765338775
 30
0.0
 10
305.4211046031706
 20
406.3442192856164
 30
0.0
 10
305.3160291908716
 20
406.3256157699961
 30
0.0
 10
305.2054416257943
 20
406.3070122543758
 30
0.0
 10
305.0893419079403
 20
406.2884087387556
 30
0.0
 10
304.973586699638
 20
406.2698052231353
 30
0.0
 10
304.8519748290091
 20
406.251201707515
 30
0.0
 10
304.7251953151499
 20
406.2325981918948
 30
0.0
 10
304.5984158012943
 20
406.2143391858226
 30
0.0
 10
304.4664686442084
 20
406.1964246892984
 30
0.0
 10
304.3286648247995
 20
406.1788547023243
 30
0.0
 10
304.2942138699455
 20
406.1743760781937
 30
0.0
 10
304.2594184055452
 20
406.1702419636112
 30
0.0
 10
304.2242784315949
 20
406.1657633394807
 30
0.0
 10
304.1891384576447
 20
406.1616292248982
 30
0.0
 10
304.1539984836963
 20
406.1571506007676
 30
0.0
 10
304.1185140001981
 20
406.1530164861851
 30
0.0
 10
304.0475450332015
 20
406.1447482570201
 30
0.0
 10
303.9755425375588
 20
406.1364800278552
 30
0.0
 10
303.9031955323699
 20
406.1289008177882
 30
0.0
 10
303.7578125028922
 20
406.1130533785562
 30
0.0
 10
303.6093288874781
 20
406.0982394679686
 30
0.0
 10
303.4577446861258
 20
406.0851481051249
 30
0.0
 10
303.3061604847753
 20
406.0717122327332
 30
0.0
 10
303.1511311879403
 20
406.0596543985338
 30
0.0
 10
302.9930013051671
 20
406.0489746025305
 30
0.0
 10
302.9141086185555
 20
406.0438069593019
 30
0.0
 10
302.8341824032978
 20
406.0386393160752
 30
0.0
 10
302.7532226593939
 20
406.0341606919446
 30
0.0
 10
302.7129150422152
 20
406.0317491251043
 30
0.0
 10
302.6722629154901
 20
406.0296820678122
 30
0.0
 10
302.6316107887651
 20
406.0276150105218
 30
0.0
 10
302.5909586620382
 20
406.0255479532298
 30
0.0
 10
302.5499620257651
 20
406.0234808959394
 30
0.0
 10
302.5093098990383
 20
406.0217583481971
 30
0.0
 10
302.3460123730365
 20
406.0145236476783
 30
0.0
 10
302.1816813183905
 20
406.0086669853535
 30
0.0
 10
302.0163167350984
 20
406.0048773803191
 30
0.0
 10
301.8512966613562
 20
406.0014322848346
 30
0.0
 10
301.684898549418
 20
405.9993652275425
 30
0.0
 10
301.5174669088338
 20
405.9993652275425
 30
0.0
 10
301.3503797777994
 20
405.9993652275425
 30
0.0
 10
301.1843261754111
 20
406.0014322848346
 30
0.0
 10
301.0199951207651
 20
406.0048773803191
 30
0.0
 10
300.8556640661191
 20
406.0086669853535
 30
0.0
 10
300.6927110496654
 20
406.0141791381302
 30
0.0
 10
300.5311360714077
 20
406.021413838649
 30
0.0
 10
300.3692165836
 20
406.0289930487161
 30
0.0
 10
300.2090196435365
 20
406.0379502969771
 30
0.0
 10
300.0502007416653
 20
406.0482855834325
 30
0.0
 10
300.0105821435864
 20
406.0510416598208
 30
0.0
 10
299.9709635455056
 20
406.0537977362091
 30
0.0
 10
299.9316894569747
 20
406.0565538125975
 30
0.0
 10
299.892070858894
 20
406.0596543985338
 30
0.0
 10
299.8524522608132
 20
406.0624104749222
 30
0.0
 10
299.8131781722804
 20
406.0655110608604
 30
0.0
 10
299.734974504765
 20
406.0717122327332
 30
0.0
 10
299.6574598563493
 20
406.077913404606
 30
0.0
 10
299.5813232461241
 20
406.0848035955769
 30
0.0
 10
299.4287055161276
 20
406.0982394679686
 30
0.0
 10
299.2798773911636
 20
406.1127088690081
 30
0.0
 10
299.135183380784
 20
406.1285563082401
 30
0.0
 10
298.9904893704042
 20
406.144059237924
 30
0.0
 10
298.8495849650572
 20
406.1605956962521
 30
0.0
 10
298.7124701647445
 20
406.1781656832281
 30
0.0
 10
298.6439127645862
 20
406.1867784219412
 30
0.0
 10
298.5763888930778
 20
406.1957356702023
 30
0.0
 10
298.5098985502118
 20
406.2046929184634
 30
0.0
 10
298.4434082073458
 20
406.2136501667246
 30
0.0
 10
298.3779513931258
 20
406.2229519245356
 30
0.0
 10
298.3138726171019
 20
406.2322536823448
 30
0.0
 10
298.1857150650503
 20
406.2508571979651
 30
0.0
 10
298.0641031944196
 20
406.2694607135872
 30
0.0
 10
297.9480034765675
 20
406.2880642292075
 30
0.0
 10
297.8319037587144
 20
406.3066677448277
 30
0.0
 10
297.722005212735
 20
406.325271260448
 30
0.0
 10
297.6176188195314
 20
406.3435302665184
 30
0.0
 10
297.5132324263286
 20
406.3617892725906
 30
0.0
 10
297.4150472049987
 20
406.3797037691147
 30
0.0
 10
297.3227186459944
 20
406.3972737560889
 30
0.0
 10
297.2996365062436
 20
406.4014078706714
 30
0.0
 10
297.2768988760408
 20
406.405886494802
 30
0.0
 10
297.2545057553862
 20
406.4100206093844
 30
0.0
 10
297.2324571442805
 20
406.4141547239669
 30
0.0
 10
297.2104085331748
 20
406.4182888385493
 30
0.0
 10
297.1890489411662
 20
406.4224229531318
 30
0.0
 10
297.146674266698
 20
406.4306911822968
 30
0.0
 10
297.1056776304231
 20
406.43895941146
 30
0.0
 10
297.0667480514403
 20
406.4465386215288
 30
0.0
 10
296.9888888934738
 20
406.4620415512126
 30
0.0
 10
296.9186089455743
 20
406.4765109522504
 30
0.0
 10
296.8555636981946
 20
406.489602315094
 30
0.0
 10
296.792518450814
 20
406.5026936779377
 30
0.0
 10
296.7367079039532
 20
406.514751512137
 30
0.0
 10
296.6881320576113
 20
406.5250867985923
 30
0.0
 10
296.6640163892143
 20
406.5302544418191
 30
0.0
 10
296.6416232685606
 20
406.5350775754995
 30
0.0
 10
296.6212972051971
 20
406.5395561996301
 30
0.0
 10
296.6113064282899
 20
406.5416232569204
 30
0.0
 10
296.6013156513827
 20
406.5436903142126
 30
0.0
 10
296.5923584031216
 20
406.5457573715029
 30
0.0
 10
296.5830566453115
 20
406.5478244287951
 30
0.0
 10
296.5744439065984
 20
406.5498914860854
 30
0.0
 10
296.5661756774334
 20
406.5516140338277
 30
0.0
 10
296.5334472703235
 20
406.5588487343466
 30
0.0
 10
296.5089870923785
 20
406.5643608871232
 30
0.0
 10
296.4924506340494
 20
406.5678059826096
 30
0.0
 10
296.4762586852685
 20
406.5715955876421
 30
0.0
 10
296.4679904561035
 20
406.5733181353862
 30
0.0
 10
296.4679904561035
 20
406.5733181353862
 30
0.0
  0
SPLINE
  5
E4
330
70
100
AcDbEntity
  8
1
 62
     7
370
    35
100
AcDbSpline
210
0.0
220
0.0
230
1.0
 70
     8
 71
     3
 72
   200
 73
   196
 74
     0
 42
0.0000000001
 43
0.0000000001
 40
0.0
 40
0.0
 40
0.0
 40
0.0
 40
1.0
 40
1.0
 40
1.0
 40
2.0
 40
2.0
 40
2.0
 40
3.0
 40
3.0
 40
3.0
 40
4.0
 40
4.0
 40
4.0
 40
5.0
 40
5.0
 40
5.0
 40
6.0
 40
6.0
 40
6.0
 40
7.0
 40
7.0
 40
7.0
 40
8.0
 40
8.0
 40
8.0
 40
9.0
 40
9.0
 40
9.0
 40
10.0
 40
10.0
 40
10.0
 40
11.0
 40
11.0
 40
11.0
 40
12.0
 40
12.0
 40
12.0
 40
13.0
 40
13.0
 40
13.0
 40
14.0
 40
14.0
 40
14.0
 40
15.0
 40
15.0
 40
15.0
 40
16.0
 40
16.0
 40
16.0
 40
17.0
 40
17.0
 40
17.0
 40
18.0
 40
18.0
 40
18.0
 40
19.0
 40
19.0
 40
19.0
 40
20.0
 40
20.0
 40
20.0
 40
21.0
 40
21.0
 40
21.0
 40
22.0
 40
22.0
 40
22.0
 40
23.0
 40
23.0
 40
23.0
 40
24.0
 40
24.0
 40
24.0
 40
25.0
 40
25.0
 40
25.0
 40
26.0
 40
26.0
 40
26.0
 40
27.0
 40
27.0
 40
27.0
 40
28.0
 40
28.0
 40
28.0
 40
29.0
 40
29.0
 40
29.0
 40
30.0
 40
30.0
 40
30.0
 40
31.0
 40
31.0
 40
31.0
 40
32.0
 40
32.0
 40
32.0
 40
33.0
 40
33.0
 40
33.0
 40
34.0
 40
34.0
 40
34.0
 40
35.0
 40
35.0
 40
35.0
 40
36.0
 40
36.0
 40
36.0
 40
37.0
 40
37.0
 40
37.0
 40
38.0
 40
38.0
 40
38.0
 40
39.0
 40
39.0
 40
39.0
 40
40.0
 40
40.0
 40
40.0
 40
41.0
 40
41.0
 40
41.0
 40
42.0
 40
42.0
 40
42.0
 40
43.0
 40
43.0
 40
43.0
 40
44.0
 40
44.0
 40
44.0
 40
45.0
 40
45.0
 40
45.0
 40
46.0
 40
46.0
 40
46.0
 40
47.0
 40
47.0
 40
47.0
 40
48.0
 40
48.0
 40
48.0
 40
49.0
 40
49.0
 40
49.0
 40
50.0
 40
50.0
 40
50.0
 40
51.0
 40
51.0
 40
51.0
 40
52.0
 40
52.0
 40
52.0
 40
53.0
 40
53.0
 40
53.0
 40
54.0
 40
54.0
 40
54.0
 40
55.0
 40
55.0
 40
55.0
 40
56.0
 40
56.0
 40
56.0
 40
57.0
 40
57.0
 40
57.0
 40
58.0
 40
58.0
 40
58.0
 40
59.0
 40
59.0
 40
59.0
 40
60.0
 40
60.0
 40
60.0
 40
61.0
 40
61.0
 40
61.0
 40
62.0
 40
62.0
 40
62.0
 40
63.0
 40
63.0
 40
63.0
 40
64.0
 40
64.0
 40
64.0
 40
65.0
 40
65.0
 40
65.0
 40
65.0
 10
188.5701836796925
 20
664.6521388716465
 30
0.0
 10
188.5701836796925
 20
664.6521388716465
 30
0.0
 10
188.5595038836882
 20
664.6802163998517
 30
0.0
 10
188.5390055655516
 20
664.7348211632925
 30
0.0
 10
188.5185072474141
 20
664.78925367196
 30
0.0
 10
188.4880181523694
 20
664.870213415863
 30
0.0
 10
188.4482272995146
 20
664.9768391211319
 30
0.0
 10
188.4282457457002
 20
665.0302381011534
 30
0.0
 10
188.4060248798205
 20
665.0900105078226
 30
0.0
 10
188.3813924471014
 20
665.1561563411387
 30
0.0
 10
188.3751912752277
 20
665.1726927994677
 30
0.0
 10
188.3688178485799
 20
665.1897460221207
 30
0.0
 10
188.3624444219322
 20
665.2069714995469
 30
0.0
 10
188.3560709952844
 20
665.224369231747
 30
0.0
 10
188.3493530590886
 20
665.2421114734961
 30
0.0
 10
188.3426351228918
 20
665.2601982247934
 30
0.0
 10
188.3293715052741
 20
665.2965439821628
 30
0.0
 10
188.3154188685585
 20
665.3340955229523
 30
0.0
 10
188.3009494675207
 20
665.3730251019351
 30
0.0
 10
188.2434163729167
 20
665.528915672643
 30
0.0
 10
188.1781318134717
 20
665.7065103449077
 30
0.0
 10
188.106473827378
 20
665.9039143162126
 30
0.0
 10
188.0346435865103
 20
666.1014905422916
 30
0.0
 10
187.9564399189957
 20
666.3188760674111
 30
0.0
 10
187.8727240987036
 20
666.5552096176988
 30
0.0
 10
187.851709016244
 20
666.6142930052711
 30
0.0
 10
187.8303494242354
 20
666.6745821762633
 30
0.0
 10
187.8088175774528
 20
666.7359048759008
 30
0.0
 10
187.7979655266745
 20
666.7665662257186
 30
0.0
 10
187.7871134758952
 20
666.7977443398604
 30
0.0
 10
187.7760891703428
 20
666.8289224540021
 30
0.0
 10
187.7650648647895
 20
666.8602728229179
 30
0.0
 10
187.7540405592372
 20
666.8916231918338
 30
0.0
 10
187.7430162536839
 20
666.9233180702977
 30
0.0
 10
187.6987467766985
 20
667.0500975841551
 30
0.0
 10
187.6534437710679
 20
667.1804944482719
 30
0.0
 10
187.6076240011143
 20
667.3143364078732
 30
0.0
 10
187.5156399516581
 20
667.5818480723037
 30
0.0
 10
187.4207275710387
 20
667.8627956091259
 30
0.0
 10
187.3242648974519
 20
668.1563177444687
 30
0.0
 10
187.2276299690911
 20
668.4498398798123
 30
0.0
 10
187.1292724929872
 20
668.7557643589025
 30
0.0
 10
187.0303982525602
 20
669.0739189269652
 30
0.0
 10
186.9316962669081
 20
669.3920734950279
 30
0.0
 10
186.832477516933
 20
669.7221136425151
 30
0.0
 10
186.7344645503772
 20
670.0645561337487
 30
0.0
 10
186.7100043724322
 20
670.1499945017831
 30
0.0
 10
186.6855441944872
 20
670.2361218889145
 30
0.0
 10
186.6614285260903
 20
670.3227660403682
 30
0.0
 10
186.6371406029193
 20
670.4094101918217
 30
0.0
 10
186.6131971892964
 20
670.4965711075992
 30
0.0
 10
186.5894260304485
 20
670.5840765329249
 30
0.0
 10
186.5418837127517
 20
670.7592596383492
 30
0.0
 10
186.495202668927
 20
670.9363375462908
 30
0.0
 10
186.4497274085215
 20
671.1153102567496
 30
0.0
 10
186.3586046329364
 20
671.473427932442
 30
0.0
 10
186.2719604814829
 20
671.8392970729755
 30
0.0
 10
186.1925510305473
 20
672.2132621878991
 30
0.0
 10
186.1527601776933
 20
672.4003308727478
 30
0.0
 10
186.1148641273548
 20
672.5892943601138
 30
0.0
 10
186.0793796438574
 20
672.7803249047711
 30
0.0
 10
186.0438951603591
 20
672.9715277042023
 30
0.0
 10
186.0104777341521
 20
673.1647975609249
 30
0.0
 10
185.9801608938824
 20
673.3603067297126
 30
0.0
 10
185.9498440536117
 20
673.5558158985004
 30
0.0
 10
185.9222832897294
 20
673.7535643793544
 30
0.0
 10
185.8983398761074
 20
673.9538966818217
 30
0.0
 10
185.886454296683
 20
674.053976705668
 30
0.0
 10
185.8754299911306
 20
674.1547457486112
 30
0.0
 10
185.8652669594485
 20
674.2562038106516
 30
0.0
 10
185.8602715709949
 20
674.3068467142856
 30
0.0
 10
185.8556206920902
 20
674.3576618726929
 30
0.0
 10
185.8511420679597
 20
674.4084770311001
 30
0.0
 10
185.8466634438282
 20
674.4592921895073
 30
0.0
 10
185.8423570744717
 20
674.5102796026895
 30
0.0
 10
185.8383952146641
 20
674.5612670158707
 30
0.0
 10
185.8228922849803
 20
674.7650444138234
 30
0.0
 10
185.8116957246529
 20
674.9698553404214
 30
0.0
 10
185.8061835718772
 20
675.1755275408913
 30
0.0
 10
185.8006714191006
 20
675.3811997413604
 30
0.0
 10
185.8004991643265
 20
675.5877332157015
 30
0.0
 10
185.8070448457483
 20
675.7953002186877
 30
0.0
 10
185.8134182723961
 20
676.002867221674
 30
0.0
 10
185.8265096352397
 20
676.2112954985314
 30
0.0
 10
185.8471802081512
 20
676.4207573040348
 30
0.0
 10
185.8575154946074
 20
676.5254882067865
 30
0.0
 10
185.869917838354
 20
676.6305636190864
 30
0.0
 10
185.8842149846177
 20
676.7358112861602
 30
0.0
 10
185.8986843856555
 20
676.8408866984609
 30
0.0
 10
185.9150485892105
 20
676.9456176012127
 30
0.0
 10
185.9334798500567
 20
677.0494872300933
 30
0.0
 10
185.9703423717492
 20
677.2575709974017
 30
0.0
 10
186.0154731226057
 20
677.4632431978716
 30
0.0
 10
186.0692166121753
 20
677.6663315767263
 30
0.0
 10
186.1229601017458
 20
677.8694199555821
 30
0.0
 10
186.1854885848024
 20
678.0699245128235
 30
0.0
 10
186.2568020613471
 20
678.2678452484515
 30
0.0
 10
186.3281155378918
 20
678.4657659840786
 30
0.0
 10
186.4083862626985
 20
678.6611028980924
 30
0.0
 10
186.4977864905404
 20
678.8536837357177
 30
0.0
 10
186.5424004770748
 20
678.9499741545305
 30
0.0
 10
186.5892537756744
 20
679.045747809021
 30
0.0
 10
186.6383463863385
 20
679.1406601896396
 30
0.0
 10
186.6872667422294
 20
679.2357448250323
 30
0.0
 10
186.7382541554116
 20
679.3291069126826
 30
0.0
 10
186.790791861561
 20
679.4212632169128
 30
0.0
 10
186.8958672738617
 20
679.6054035706001
 30
0.0
 10
187.0076606223574
 20
679.7838595167359
 30
0.0
 10
187.1251383784047
 20
679.957492329192
 30
0.0
 10
187.242788389226
 20
680.1311251416491
 30
0.0
 10
187.366295062372
 20
680.2997625656517
 30
0.0
 10
187.4946248691976
 20
680.4639213655236
 30
0.0
 10
187.5588758999974
 20
680.5460868928475
 30
0.0
 10
187.6243327142174
 20
680.6272188915245
 30
0.0
 10
187.6908230570825
 20
680.7071451067822
 30
0.0
 10
187.7242404832895
 20
680.7472804691861
 30
0.0
 10
187.7578301642707
 20
680.78707132204
 30
0.0
 10
187.7915921000267
 20
680.8265176653467
 30
0.0
 10
187.8255262905559
 20
680.8659640086525
 30
0.0
 10
187.85963273586
 20
680.9052380971843
 30
0.0
 10
187.8939114359382
 20
680.944167676168
 30
0.0
 10
188.0311984910258
 20
681.099885992101
 30
0.0
 10
188.1712416225009
 20
681.2500921552582
 30
0.0
 10
188.3133518112672
 20
681.395991949058
 30
0.0
 10
188.4554620000335
 20
681.5417194880847
 30
0.0
 10
188.599639246092
 20
681.6831406577539
 30
0.0
 10
188.7455390398918
 20
681.8205999676156
 30
0.0
 10
188.8914388336925
 20
681.9580592774764
 30
0.0
 10
189.0388889204614
 20
682.0919012370787
 30
0.0
 10
189.1873725358755
 20
682.2222981011955
 30
0.0
 10
189.3360284060636
 20
682.3526949653123
 30
0.0
 10
189.4857178048978
 20
682.4798189887178
 30
0.0
 10
189.6362684776031
 20
682.6041869357359
 30
0.0
 10
189.7866468955344
 20
682.728382627979
 30
0.0
 10
189.9378865873368
 20
682.8498222438338
 30
0.0
 10
190.0896430434622
 20
682.9686780380743
 30
0.0
 10
190.2413994995877
 20
683.0875338323157
 30
0.0
 10
190.3935004652612
 20
683.2039780597169
 30
0.0
 10
190.5457736857097
 20
683.3180107202788
 30
0.0
 10
190.6982191609313
 20
683.4322156356156
 30
0.0
 10
190.8498033622827
 20
683.5433199650142
 30
0.0
 10
191.000354034988
 20
683.6516682180254
 30
0.0
 10
191.3014553803987
 20
683.8687092335967
 30
0.0
 10
191.5987671207758
 20
684.0748981983888
 30
0.0
 10
191.8905667083763
 20
684.2721299149189
 30
0.0
 10
192.1823662959768
 20
684.4693616314498
 30
0.0
 10
192.4688259855757
 20
684.6576360997187
 30
0.0
 10
192.7483954842037
 20
684.8378145935967
 30
0.0
 10
193.0281372376057
 20
685.0178208327015
 30
0.0
 10
193.3011610548119
 20
685.1899033521894
 30
0.0
 10
193.5659166428531
 20
685.3540621520615
 30
0.0
 10
193.6983805642612
 20
685.4362276793854
 30
0.0
 10
193.828605173604
 20
685.5163261494172
 30
0.0
 10
193.9567627256556
 20
685.5945298169317
 30
0.0
 10
194.0208415016805
 20
685.6336316506895
 30
0.0
 10
194.0844035133841
 20
685.6723889748991
 30
0.0
 10
194.1471042512148
 20
685.7102850252367
 30
0.0
 10
194.2098049890464
 20
685.7483533303484
 30
0.0
 10
194.2716444530069
 20
685.7855603615889
 30
0.0
 10
194.3326226430963
 20
685.8224228832814
 30
0.0
 10
194.576363148677
 20
685.9691839509532
 30
0.0
 10
194.806667781866
 20
686.1059542417178
 30
0.0
 10
195.0219862496942
 20
686.2327337555743
 30
0.0
 10
195.2371324627484
 20
686.3593410146577
 30
0.0
 10
195.4374647652157
 20
686.4759574968338
 30
0.0
 10
195.620916099805
 20
686.5820664377788
 30
0.0
 10
195.7125556397122
 20
686.6351209082522
 30
0.0
 10
195.8000610650379
 20
686.6855915571104
 30
0.0
 10
195.8830878662329
 20
686.7333061295812
 30
0.0
 10
195.9037584391444
 20
686.7451917090057
 30
0.0
 10
195.924256757281
 20
686.7569050336551
 30
0.0
 10
195.9444105658704
 20
686.7684461035314
 30
0.0
 10
195.9645643744588
 20
686.7801594281809
 30
0.0
 10
195.9845459282733
 20
686.7915282432822
 30
0.0
 10
196.0040107177647
 20
686.8027248036096
 30
0.0
 10
196.0431125515224
 20
686.8249456694893
 30
0.0
 10
196.0806640923119
 20
686.846649771046
 30
0.0
 10
196.1170098496814
 20
686.8673203439575
 30
0.0
 10
196.2622206243841
 20
686.9501748903785
 30
0.0
 10
196.385382787982
 20
687.020110328729
 30
0.0
 10
196.4856350666032
 20
687.0767821494609
 30
0.0
 10
196.5858873452234
 20
687.1336262249679
 30
0.0
 10
196.6630574840928
 20
687.1772066828562
 30
0.0
 10
196.7155951902432
 20
687.2066622492548
 30
0.0
 10
196.722140871665
 20
687.2104518542892
 30
0.0
 10
196.7283420435387
 20
687.2138969497736
 30
0.0
 10
196.7340264510894
 20
687.2169975357101
 30
0.0
 10
196.7398831134142
 20
687.2202703764214
 30
0.0
 10
196.7452230114168
 20
687.2233709623579
 30
0.0
 10
196.7502183998704
 20
687.2261270387461
 30
0.0
 10
196.7602091767776
 20
687.2318114462968
 30
0.0
 10
196.7684774059416
 20
687.2364623252024
 30
0.0
 10
196.7751953421384
 20
687.2402519302359
 30
0.0
 10
196.7884589597561
 20
687.2476588855297
 30
0.0
 10
196.7953491507269
 20
687.2516207453372
 30
0.0
 10
196.795693660275
 20
687.2517930001122
 30
0.0
  0
SPLINE
  5
E5
330
70
100
AcDbEntity
  8
1
 62
     7
370
    35
100
AcDbSpline
210
0.0
220
0.0
230
1.0
 70
     8
 71
     3
 72
    11
 73
     7
 74
     0
 42
0.0000000001
 43
0.0000000001
 40
0.0
 40
0.0
 40
0.0
 40
0.0
 40
1.0
 40
1.0
 40
1.0
 40
2.0
 40
2.0
 40
2.0
 40
2.0
 10
162.3996880807663
 20
601.5205918496694
 30
0.0
 10
162.3480116484879
 20
601.3788261704512
 30
0.0
 10
162.3015028594372
 20
601.2513576374967
 30
0.0
 10
162.2613674970334
 20
601.1407700724203
 30
0.0
 10
162.2210598798565
 20
601.0301825073439
 30
0.0
 10
162.1869534345524
 20
600.9364759101454
 30
0.0
 10
162.1602539445421
 20
600.8629231215354
 30
0.0
  0
SPLINE
  5
E6
330
70
100
AcDbEntity
  8
1
 62
     7
370
    35
100
AcDbSpline
210
0.0
220
0.0
230
1.0
 70
     8
 71
     3
 72
    11
 73
     7
 74
     0
 42
0.0000000001
 43
0.0000000001
 40
0.0
 40
0.0
 40
0.0
 40
0.0
 40
1.0
 40
1.0
 40
1.0
 40
2.0
 40
2.0
 40
2.0
 40
2.0
 10
141.4869249566545
 20
608.3873561708696
 30
0.0
 10
141.5137967014398
 20
608.4609089594796
 30
0.0
 10
141.5479031467439
 20
608.554615556678
 30
0.0
 10
141.5880385091468
 20
608.6652031217545
 30
0.0
 10
141.6283461263238
 20
608.7757906868318
 30
0.0
 10
141.6746826606004
 20
608.9032592197854
 30
0.0
 10
141.7263590928796
 20
609.0451971537777
 30
0.0
  0
SPLINE
  5
E7
330
70
100
AcDbEntity
  8
1
 62
     7
370
     0
100
AcDbSpline
210
0.0
220
0.0
230
1.0
 70
     9
 71
     3
 72
    44
 73
    40
 74
     0
 42
0.0000000001
 43
0.0000000001
 40
0.0
 40
0.0
 40
0.0
 40
0.0
 40
1.0
 40
1.0
 40
1.0
 40
2.0
 40
2.0
 40
2.0
 40
3.0
 40
3.0
 40
3.0
 40
4.0
 40
4.0
 40
4.0
 40
5.0
 40
5.0
 40
5.0
 40
6.0
 40
6.0
 40
6.0
 40
7.0
 40
7.0
 40
7.0
 40
8.0
 40
8.0
 40
8.0
 40
9.0
 40
9.0
 40
9.0
 40
10.0
 40
10.0
 40
10.0
 40
11.0
 40
11.0
 40
11.0
 40
12.0
 40
12.0
 40
12.0
 40
13.0
 40
13.0
 40
13.0
 40
13.0
 10
293.5083089247255
 20
301.5730089168446
 30
0.0
 10
290.7777262431164
 20
304.0114475013033
 30
0.0
 10
287.8025417820545
 20
307.338720720958
 30
0.0
 10
287.3439995729677
 20
311.2234103901264
 30
0.0
 10
287.149351678051
 20
312.8756781848515
 30
0.0
 10
287.4094563871877
 20
314.6295762963928
 30
0.0
 10
288.1232801717315
 20
316.1033881449821
 30
0.0
 10
288.9032497895923
 20
317.7136257747879
 30
0.0
 10
290.2251329272822
 20
318.9890001234271
 30
0.0
 10
291.3268744634652
 20
320.4655680484048
 30
0.0
 10
292.3690158477539
 20
321.8601427008343
 30
0.0
 10
293.2147867893828
 20
323.4342068280457
 30
0.0
 10
293.422181537594
 20
325.1395290932432
 30
0.0
 10
293.7318956217186
 20
327.6813205422604
 30
0.0
 10
292.6208523277255
 20
330.514567069331
 30
0.0
 10
290.1221245722736
 20
331.5729004023997
 30
0.0
 10
290.1221245722736
 20
331.5729004023997
 30
0.0
 10
334.9180121478785
 20
331.5729004023997
 30
0.0
 10
334.9180121478785
 20
331.5729004023997
 30
0.0
 10
334.9180121478785
 20
331.5729004023997
 30
0.0
 10
335.9177788576999
 20
331.5729004023997
 30
0.0
 10
335.9177788576999
 20
331.5729004023997
 30
0.0
 10
335.9177788576999
 20
331.5729004023997
 30
0.0
 10
338.9177680062567
 20
331.5729004023997
 30
0.0
 10
338.9177680062567
 20
331.5729004023997
 30
0.0
 10
338.9177680062567
 20
331.5729004023997
 30
0.0
 10
339.9178792256244
 20
331.5729004023997
 30
0.0
 10
339.9178792256244
 20
331.5729004023997
 30
0.0
 10
339.9178792256244
 20
331.5729004023997
 30
0.0
 10
342.4179850192704
 20
331.5729004023997
 30
0.0
 10
342.4179850192704
 20
331.5729004023997
 30
0.0
 10
342.4179850192704
 20
331.5729004023997
 30
0.0
 10
342.4179850192704
 20
301.5730089168446
 30
0.0
 10
342.4179850192704
 20
301.5730089168446
 30
0.0
 10
342.4179850192704
 20
301.5730089168446
 30
0.0
 10
293.5083089247255
 20
301.5730089168446
 30
0.0
 10
293.5083089247255
 20
301.5730089168446
 30
0.0
 10
293.5083089247255
 20
301.5730089168446
 30
0.0
 10
293.5083089247255
 20
301.5730089168446
 30
0.0
 10
293.5083089247255
 20
301.5730089168446
 30
0.0
  0
LINE
  5
E8
330
70
100
AcDbEntity
  8
1
 62
     7
370
    18
100
AcDbLine
 10
319.9435601116929
 20
301.5730089168446
 30
0.0
 11
292.93745660282
 21
328.6228651383808
 31
0.0
  0
LINE
  5
E9
330
70
100
AcDbEntity
  8
1
 62
     7
370
    18
100
AcDbLine
 10
390.3022134745988
 20
302.1030211268553
 30
0.0
 11
377.4177435825695
 21
315.008536799769
 31
0.0
  0
LINE
  5
EA
330
70
100
AcDbEntity
  8
1
 62
     7
370
    18
100
AcDbLine
 10
342.4179850192704
 20
314.5634304630748
 30
0.0
 11
325.9714126340696
 21
331.0381876480715
 31
0.0
  0
LINE
  5
EB
330
70
100
AcDbEntity
  8
1
 62
     7
370
     0
100
AcDbLine
 10
329.7376220667102
 20
327.2644639885457
 30
0.0
 11
329.7376220667102
 21
327.2644639885457
 31
0.0
  0
LINE
  5
EC
330
70
100
AcDbEntity
  8
1
 62
     7
370
     0
100
AcDbLine
 10
423.8290364312088
 20
304.0231608259528
 30
0.0
 11
423.8290364312088
 21
304.0231608259528
 31
0.0
  0
LINE
  5
ED
330
70
100
AcDbEntity
  8
1
 62
     7
370
    18
100
AcDbLine
 10
425.7563987861358
 20
302.0937432036262
 30
0.0
 11
396.3227050578753
 21
331.5729004023997
 31
0.0
  0
LINE
  5
EE
330
70
100
AcDbEntity
  8
1
 62
     7
370
     0
100
AcDbLine
 10
396.3227050578753
 20
331.5729004023997
 30
0.0
 11
396.3227050578753
 21
331.5729004023997
 31
0.0
  0
SPLINE
  5
EF
330
70
100
AcDbEntity
  8
1
 62
     7
370
     0
100
AcDbSpline
210
0.0
220
0.0
230
1.0
 70
    11
 71
     3
 72
    17
 73
    13
 74
     0
 42
0.0000000001
 43
0.0000000001
 40
0.0
 40
0.0
 40
0.0
 40
0.0
 40
1.0
 40
1.0
 40
1.0
 40
2.0
 40
2.0
 40
2.0
 40
3.0
 40
3.0
 40
3.0
 40
4.0
 40
4.0
 40
4.0
 40
4.0
 10
336.2998399470125
 20
331.5729004023997
 30
0.0
 10
336.2998399470125
 20
331.5729004023997
 30
0.0
 10
338.5360514264903
 20
331.5729004023997
 30
0.0
 10
338.5360514264903
 20
331.5729004023997
 30
0.0
 10
338.4988443952498
 20
331.5319037661248
 30
0.0
 10
338.4592257971672
 20
331.492974187142
 30
0.0
 10
338.417884651346
 20
331.4557671559014
 30
0.0
 10
337.8005235403871
 20
330.9031738400663
 30
0.0
 10
336.8520887532977
 20
330.9558838009907
 30
0.0
 10
336.2998399470125
 20
331.5729004023997
 30
0.0
 10
336.2998399470125
 20
331.5729004023997
 30
0.0
 10
336.2998399470125
 20
331.5729004023997
 30
0.0
 10
336.2998399470125
 20
331.5729004023997
 30
0.0
  0
SPLINE
  5
F0
330
70
100
AcDbEntity
  8
1
 62
     7
370
     0
100
AcDbSpline
210
0.0
220
0.0
230
1.0
 70
    11
 71
     3
 72
    17
 73
    13
 74
     0
 42
0.0000000001
 43
0.0000000001
 40
0.0
 40
0.0
 40
0.0
 40
0.0
 40
1.0
 40
1.0
 40
1.0
 40
2.0
 40
2.0
 40
2.0
 40
3.0
 40
3.0
 40
3.0
 40
4.0
 40
4.0
 40
4.0
 40
4.0
 10
381.299677175346
 20
331.5729004023997
 30
0.0
 10
381.299677175346
 20
331.5729004023997
 30
0.0
 10
383.5358886548238
 20
331.5729004023997
 30
0.0
 10
383.5358886548238
 20
331.5729004023997
 30
0.0
 10
383.4990261331295
 20
331.5319037661248
 30
0.0
 10
383.4594075350505
 20
331.492974187142
 30
0.0
 10
383.4177218796794
 20
331.4557671559014
 30
0.0
 10
382.8007052782705
 20
330.9031738400663
 30
0.0
 10
381.8519259816312
 20
330.9558838009907
 30
0.0
 10
381.299677175346
 20
331.5729004023997
 30
0.0
 10
381.299677175346
 20
331.5729004023997
 30
0.0
 10
381.299677175346
 20
331.5729004023997
 30
0.0
 10
381.299677175346
 20
331.5729004023997
 30
0.0
  0
MTEXT
  5
F1
330
70
100
AcDbEntity
  8
1
100
AcDbMText
 10
197.4542447860513
 20
222.8763530049764
 30
0.0
 40
0.2
 41
0.0
 46
0.0
 71
     7
 72
     1
  1
\C7;\FMyriad Pro|b0|i0|c1;\H14.160000;\W1.000000;Max.
 11
-0.0000000437113882
 21
0.9999999999999992
 31
0.0
 73
     1
 44
1.0
  0
MTEXT
  5
F2
330
70
100
AcDbEntity
  8
1
100
AcDbMText
 10
197.4542447860513
 20
264.5824076924764
 30
0.0
 40
0.2
 41
0.0
 46
0.0
 71
     7
 72
     1
  1
\C7;\FMyriad Pro|b0|i0|c1;\H14.160000;\W1.000000;30
 11
-0.0000000437113882
 21
0.9999999999999992
 31
0.0
 73
     1
 44
1.0
  0
LINE
  5
F3
330
70
100
AcDbEntity
  8
1
 62
     7
370
    13
100
AcDbLine
 10
276.672583844972
 20
301.5733534263927
 30
0.0
 11
195.4503616227493
 21
301.5733534263927
 31
0.0
  0
LINE
  5
F4
330
70
100
AcDbEntity
  8
1
 62
     7
370
    18
100
AcDbLine
 10
201.4629069330322
 20
331.5381878618428
 30
0.0
 11
201.4629069330322
 21
301.7246737867772
 31
0.0
  0
LINE
  5
F5
330
70
100
AcDbEntity
  8
1
 62
     7
370
    18
100
AcDbLine
 10
201.46298472551
 20
339.093786806965
 30
0.0
 11
201.46298472551
 21
331.784902555195
 31
0.0
  0
LINE
  5
F6
330
70
100
AcDbEntity
  8
1
 62
     7
370
    18
100
AcDbLine
 10
201.4720662719537
 20
301.5733534263927
 30
0.0
 11
201.4720662719537
 21
222.6492987591828
 31
0.0
  0
MTEXT
  5
F7
330
70
100
AcDbEntity
  8
1
100
AcDbMText
 10
109.2311612899575
 20
452.6136576924755
 30
0.0
 40
0.2
 41
0.0
 46
0.0
 71
     7
 72
     1
  1
\C7;\FMyriad Pro|b0|i0|c1;\H14.160000;\W1.000000;273
 11
-0.0000000437113882
 21
0.9999999999999992
 31
0.0
 73
     1
 44
1.0
  0
LINE
  5
F8
330
70
100
AcDbEntity
  8
1
 62
     7
370
    18
100
AcDbLine
 10
276.5614727338607
 20
331.5735894214959
 30
0.0
 11
72.11702828941634
 21
331.5735894214959
 31
0.0
  0
LINE
  5
F9
330
70
100
AcDbEntity
  8
1
 62
     7
370
    18
100
AcDbLine
 10
137.7836949560824
 20
604.6251396462021
 30
0.0
 11
108.5614727338606
 21
604.6251396462021
 31
0.0
  0
LINE
  5
FA
330
70
100
AcDbEntity
  8
1
 62
     7
370
    18
100
AcDbLine
 10
150.7281993943024
 20
600.1251547143083
 30
0.0
 11
150.7281993943024
 21
579.4814839142591
 31
0.0
  0
LINE
  5
FB
330
70
100
AcDbEntity
  8
1
 62
     7
370
    18
100
AcDbLine
 10
359.9319477024455
 20
592.4444149050223
 30
0.0
 11
359.9319477024455
 21
580.0000146041193
 31
0.0
  0
LINE
  5
FC
330
70
100
AcDbEntity
  8
1
 62
     7
370
    18
100
AcDbLine
 10
113.2488553022558
 20
331.4788462477045
 30
0.0
 11
113.2488553022558
 21
604.5303964724098
 31
0.0
  0
LINE
  5
FD
330
70
100
AcDbEntity
  8
1
 62
     7
370
    18
100
AcDbLine
 10
150.9631988978799
 20
585.3379436521154
 30
0.0
 11
359.8512298175792
 21
585.3379436521154
 31
0.0
  0
MTEXT
  5
FE
330
70
100
AcDbEntity
  8
1
100
AcDbMText
 10
74.23110025480127
 20
526.5911967549754
 30
0.0
 40
0.2
 41
0.0
 46
0.0
 71
     7
 72
     1
  1
\C7;\FMyriad Pro|b0|i0|c1;\H14.160000;\W1.000000;421
 11
-0.0000000437113882
 21
0.9999999999999992
 31
0.0
 73
     1
 44
1.0
  0
MTEXT
  5
FF
330
70
100
AcDbEntity
  8
1
100
AcDbMText
 10
240.0177917480469
 20
588.137939453125
 30
0.0
 40
0.2
 41
0.0
 46
0.0
 71
     7
 72
     1
  1
\C7;\FMyriad Pro|b0|i0|c1;\H14.160000;\W1.000000;208
 73
     1
 44
1.0
  0
LINE
  5
100
330
70
100
AcDbEntity
  8
1
 62
     7
370
    18
100
AcDbLine
 10
173.1540653264528
 20
752.2466199152868
 30
0.0
 11
72.41332458571196
 21
752.2466199152868
 31
0.0
  0
LINE
  5
101
330
70
100
AcDbEntity
  8
1
 62
     7
370
    18
100
AcDbLine
 10
78.24875222940864
 20
331.644656735989
 30
0.0
 11
78.24875222940864
 21
752.3176872297799
 31
0.0
  0
LINE
  5
103
330
70
100
AcDbEntity
  8
Camada 2
 62
     7
370
    35
100
AcDbLine
 10
340.0467257967721
 20
286.6905409301125
 30
0.0
 11
380.9458658690128
 21
286.6905409301125
 31
0.0
  0
LINE
  5
104
330
70
100
AcDbEntity
  8
Camada 2
 62
     7
370
    35
100
AcDbLine
 10
339.742523865425
 20
269.2655924752671
 30
0.0
 11
381.2500678003598
 21
269.2655924752671
 31
0.0
  0
LINE
  5
105
330
70
100
AcDbEntity
  8
Camada 2
 62
     7
370
    35
100
AcDbLine
 10
383.0177462938409
 20
268.2451551925369
 30
0.0
 11
337.9748453719439
 21
268.2451551925369
 31
0.0
  0
LINE
  5
106
330
70
100
AcDbEntity
  8
Camada 2
 62
     7
370
    35
100
AcDbLine
 10
334.4963324604869
 20
212.1903510615848
 30
0.0
 11
333.4962212411192
 21
212.1903510615848
 31
0.0
  0
LINE
  5
107
330
70
100
AcDbEntity
  8
Camada 2
 62
     7
370
    35
100
AcDbLine
 10
334.002650277449
 20
241.1904758373221
 30
0.0
 11
334.7495469786518
 21
241.1904758373221
 31
0.0
  0
LINE
  5
108
330
70
100
AcDbEntity
  8
Camada 2
 62
     7
370
    35
100
AcDbLine
 10
386.496259205298
 20
212.1903510615848
 30
0.0
 11
387.4963704246657
 21
212.1903510615848
 31
0.0
  0
LINE
  5
109
330
70
100
AcDbEntity
  8
Camada 2
 62
     7
370
    35
100
AcDbLine
 10
386.2433891966793
 20
241.1904758373221
 30
0.0
 11
386.9902858978822
 21
241.1904758373221
 31
0.0
  0
LINE
  5
10A
330
70
100
AcDbEntity
  8
Camada 2
 62
     7
370
    35
100
AcDbLine
 10
384.1780544532739
 20
212.1903510615848
 30
0.0
 11
386.496259205298
 21
212.1903510615848
 31
0.0
  0
LINE
  5
10B
330
70
100
AcDbEntity
  8
Camada 2
 62
     7
370
    35
100
AcDbLine
 10
386.2433891966793
 20
241.1904758373221
 30
0.0
 11
383.924839935109
 21
241.1904758373221
 31
0.0
  0
LINE
  5
10C
330
70
100
AcDbEntity
  8
Camada 2
 62
     7
370
    35
100
AcDbLine
 10
386.496259205298
 20
212.1903510615848
 30
0.0
 11
386.2433891966793
 21
241.1904758373221
 31
0.0
  0
LINE
  5
10D
330
70
100
AcDbEntity
  8
Camada 2
 62
     7
370
    35
100
AcDbLine
 10
334.4963324604869
 20
212.1903510615848
 30
0.0
 11
336.8145372125109
 21
212.1903510615848
 31
0.0
  0
LINE
  5
10E
330
70
100
AcDbEntity
  8
Camada 2
 62
     7
370
    35
100
AcDbLine
 10
337.0677517306758
 20
241.1904758373221
 30
0.0
 11
334.7495469786518
 21
241.1904758373221
 31
0.0
  0
LINE
  5
10F
330
70
100
AcDbEntity
  8
Camada 2
 62
     7
370
    35
100
AcDbLine
 10
334.7495469786518
 20
241.1904758373221
 30
0.0
 11
334.4963324604869
 21
212.1903510615848
 31
0.0
  0
LINE
  5
110
330
70
100
AcDbEntity
  8
Camada 2
 62
     7
370
    35
100
AcDbLine
 10
336.8145372125109
 20
212.1903510615848
 30
0.0
 11
337.3016737141261
 21
212.1903510615848
 31
0.0
  0
LINE
  5
111
330
70
100
AcDbEntity
  8
Camada 2
 62
     7
370
    35
100
AcDbLine
 10
336.8145372125109
 20
212.1903510615848
 30
0.0
 11
337.0677517306758
 21
241.1904758373221
 31
0.0
  0
LINE
  5
112
330
70
100
AcDbEntity
  8
Camada 2
 62
     7
370
    35
100
AcDbLine
 10
337.8012125594869
 20
241.1904758373221
 30
0.0
 11
337.0677517306758
 21
241.1904758373221
 31
0.0
  0
LINE
  5
113
330
70
100
AcDbEntity
  8
Camada 2
 62
     7
370
    35
100
AcDbLine
 10
383.6909179516588
 20
212.1903510615848
 30
0.0
 11
384.1780544532739
 21
212.1903510615848
 31
0.0
  0
LINE
  5
114
330
70
100
AcDbEntity
  8
Camada 2
 62
     7
370
    35
100
AcDbLine
 10
383.924839935109
 20
241.1904758373221
 30
0.0
 11
384.1780544532739
 21
212.1903510615848
 31
0.0
  0
LINE
  5
115
330
70
100
AcDbEntity
  8
Camada 2
 62
     7
370
    35
100
AcDbLine
 10
383.924839935109
 20
241.1904758373221
 30
0.0
 11
383.191379106298
 21
241.1904758373221
 31
0.0
  0
LINE
  5
116
330
70
100
AcDbEntity
  8
Camada 2
 62
     7
370
    35
100
AcDbLine
 10
374.9961859659852
 20
212.1903510615848
 30
0.0
 11
375.36377765426
 21
212.1903510615848
 31
0.0
  0
LINE
  5
117
330
70
100
AcDbEntity
  8
Camada 2
 62
     7
370
    35
100
AcDbLine
 10
375.043383774133
 20
241.1904758373221
 30
0.0
 11
374.4901014392017
 21
241.1904758373221
 31
0.0
  0
LINE
  5
118
330
70
100
AcDbEntity
  8
Camada 2
 62
     7
370
    35
100
AcDbLine
 10
345.6291585210711
 20
212.1903510615848
 30
0.0
 11
345.9964056997997
 21
212.1903510615848
 31
0.0
  0
LINE
  5
119
330
70
100
AcDbEntity
  8
Camada 2
 62
     7
370
    35
100
AcDbLine
 10
346.5024902265795
 20
241.1904758373221
 30
0.0
 11
345.9492078916519
 21
241.1904758373221
 31
0.0
  0
LINE
  5
11A
330
70
100
AcDbEntity
  8
Camada 2
 62
     7
370
    35
100
AcDbLine
 10
368.8236083850643
 20
212.1903510615848
 30
0.0
 11
369.6779920654044
 21
212.1903510615848
 31
0.0
  0
LINE
  5
11B
330
70
100
AcDbEntity
  8
Camada 2
 62
     7
370
    35
100
AcDbLine
 10
369.9312065835729
 20
241.1904758373221
 30
0.0
 11
368.6441189102807
 21
241.1904758373221
 31
0.0
  0
LINE
  5
11C
330
70
100
AcDbEntity
  8
Camada 2
 62
     7
370
    35
100
AcDbLine
 10
351.3145996003768
 20
212.1903510615848
 30
0.0
 11
352.1689832807206
 21
212.1903510615848
 31
0.0
  0
LINE
  5
11D
330
70
100
AcDbEntity
  8
Camada 2
 62
     7
370
    35
100
AcDbLine
 10
352.3484727555005
 20
241.1904758373221
 30
0.0
 11
351.0617295917618
 21
241.1904758373221
 31
0.0
  0
LINE
  5
11E
330
70
100
AcDbEntity
  8
Camada 2
 62
     7
370
    35
100
AcDbLine
 10
348.9963948483528
 20
212.1903510615848
 30
0.0
 11
351.3145996003768
 21
212.1903510615848
 31
0.0
  0
LINE
  5
11F
330
70
100
AcDbEntity
  8
Camada 2
 62
     7
370
    35
100
AcDbLine
 10
351.3145996003768
 20
212.1903510615848
 30
0.0
 11
351.0617295917618
 21
241.1904758373221
 31
0.0
  0
LINE
  5
120
330
70
100
AcDbEntity
  8
Camada 2
 62
     7
370
    35
100
AcDbLine
 10
351.0617295917618
 20
241.1904758373221
 30
0.0
 11
348.7431803301879
 21
241.1904758373221
 31
0.0
  0
LINE
  5
121
330
70
100
AcDbEntity
  8
Camada 2
 62
     7
370
    35
100
AcDbLine
 10
369.6779920654044
 20
212.1903510615848
 30
0.0
 11
371.9961968174284
 21
212.1903510615848
 31
0.0
  0
LINE
  5
122
330
70
100
AcDbEntity
  8
Camada 2
 62
     7
370
    35
100
AcDbLine
 10
369.9312065835729
 20
241.1904758373221
 30
0.0
 11
369.6779920654044
 21
212.1903510615848
 31
0.0
  0
LINE
  5
123
330
70
100
AcDbEntity
  8
Camada 2
 62
     7
370
    35
100
AcDbLine
 10
372.249411335597
 20
241.1904758373221
 30
0.0
 11
369.9312065835729
 21
241.1904758373221
 31
0.0
  0
LINE
  5
124
330
70
100
AcDbEntity
  8
Camada 2
 62
     7
370
    35
100
AcDbLine
 10
375.36377765426
 20
212.1903510615848
 30
0.0
 11
383.6909179516588
 21
212.1903510615848
 31
0.0
  0
LINE
  5
125
330
70
100
AcDbEntity
  8
Camada 2
 62
     7
370
    35
100
AcDbLine
 10
352.1689832807206
 20
212.1903510615848
 30
0.0
 11
368.8236083850643
 21
212.1903510615848
 31
0.0
  0
LINE
  5
126
330
70
100
AcDbEntity
  8
Camada 2
 62
     7
370
    35
100
AcDbLine
 10
337.3016737141261
 20
212.1903510615848
 30
0.0
 11
345.6291585210711
 21
212.1903510615848
 31
0.0
  0
LINE
  5
127
330
70
100
AcDbEntity
  8
Camada 2
 62
     7
370
    35
100
AcDbLine
 10
337.8012125594869
 20
241.1904758373221
 30
0.0
 11
337.3016737141261
 21
212.1903510615848
 31
0.0
  0
LINE
  5
128
330
70
100
AcDbEntity
  8
Camada 2
 62
     7
370
    35
100
AcDbLine
 10
345.6291585210711
 20
212.1903510615848
 30
0.0
 11
345.9492078916519
 21
241.1904758373221
 31
0.0
  0
LINE
  5
129
330
70
100
AcDbEntity
  8
Camada 2
 62
     7
370
    35
100
AcDbLine
 10
352.3484727555005
 20
241.1904758373221
 30
0.0
 11
352.1689832807206
 21
212.1903510615848
 31
0.0
  0
LINE
  5
12A
330
70
100
AcDbEntity
  8
Camada 2
 62
     7
370
    35
100
AcDbLine
 10
368.8236083850643
 20
212.1903510615848
 30
0.0
 11
368.6441189102807
 21
241.1904758373221
 31
0.0
  0
LINE
  5
12B
330
70
100
AcDbEntity
  8
Camada 2
 62
     7
370
    35
100
AcDbLine
 10
375.043383774133
 20
241.1904758373221
 30
0.0
 11
375.36377765426
 21
212.1903510615848
 31
0.0
  0
LINE
  5
12C
330
70
100
AcDbEntity
  8
Camada 2
 62
     7
370
    35
100
AcDbLine
 10
371.9961968174284
 20
212.1903510615848
 30
0.0
 11
374.9961859659852
 21
212.1903510615848
 31
0.0
  0
LINE
  5
12D
330
70
100
AcDbEntity
  8
Camada 2
 62
     7
370
    35
100
AcDbLine
 10
374.4901014392017
 20
241.1904758373221
 30
0.0
 11
374.9961859659852
 21
212.1903510615848
 31
0.0
  0
LINE
  5
12E
330
70
100
AcDbEntity
  8
Camada 2
 62
     7
370
    35
100
AcDbLine
 10
374.4901014392017
 20
241.1904758373221
 30
0.0
 11
372.249411335597
 21
241.1904758373221
 31
0.0
  0
LINE
  5
12F
330
70
100
AcDbEntity
  8
Camada 2
 62
     7
370
    35
100
AcDbLine
 10
371.9961968174284
 20
212.1903510615848
 30
0.0
 11
372.249411335597
 21
241.1904758373221
 31
0.0
  0
LINE
  5
130
330
70
100
AcDbEntity
  8
Camada 2
 62
     7
370
    35
100
AcDbLine
 10
345.9964056997997
 20
212.1903510615848
 30
0.0
 11
348.9963948483528
 21
212.1903510615848
 31
0.0
  0
LINE
  5
131
330
70
100
AcDbEntity
  8
Camada 2
 62
     7
370
    35
100
AcDbLine
 10
348.7431803301879
 20
241.1904758373221
 30
0.0
 11
348.9963948483528
 21
212.1903510615848
 31
0.0
  0
LINE
  5
132
330
70
100
AcDbEntity
  8
Camada 2
 62
     7
370
    35
100
AcDbLine
 10
348.7431803301879
 20
241.1904758373221
 30
0.0
 11
346.5024902265795
 21
241.1904758373221
 31
0.0
  0
LINE
  5
133
330
70
100
AcDbEntity
  8
Camada 2
 62
     7
370
    35
100
AcDbLine
 10
345.9964056997997
 20
212.1903510615848
 30
0.0
 11
346.5024902265795
 21
241.1904758373221
 31
0.0
  0
LINE
  5
134
330
70
100
AcDbEntity
  8
Camada 2
 62
     1
370
    35
100
AcDbLine
 10
368.2896185848513
 20
293.7905382156641
 30
0.0
 11
368.2896185848513
 21
287.3051459646813
 31
0.0
  0
LINE
  5
135
330
70
100
AcDbEntity
  8
Camada 2
 62
     1
370
    35
100
AcDbLine
 10
368.2896185848513
 20
286.7904486991847
 30
0.0
 11
371.9906846646554
 21
286.7904486991847
 31
0.0
  0
LINE
  5
136
330
70
100
AcDbEntity
  8
Camada 2
 62
     1
370
    35
100
AcDbLine
 10
382.3841932341056
 20
293.7905382156641
 30
0.0
 11
371.541099703827
 21
286.7987169283497
 31
0.0
  0
LINE
  5
137
330
70
100
AcDbEntity
  8
Camada 2
 62
     1
370
    35
100
AcDbLine
 10
368.2896185848513
 20
287.3051459646813
 30
0.0
 11
378.3475748540368
 21
293.7905382156641
 31
0.0
  0
LINE
  5
138
330
70
100
AcDbEntity
  8
Camada 2
 62
     1
370
    35
100
AcDbLine
 10
342.3356472371706
 20
298.2905219384975
 30
0.0
 11
377.4353135695419
 21
298.2905219384975
 31
0.0
  0
LINE
  5
139
330
70
100
AcDbEntity
  8
Camada 2
 62
     1
370
    35
100
AcDbLine
 10
342.3356472371706
 20
298.2905219384975
 30
0.0
 11
342.3356472371706
 21
294.2904215705748
 31
0.0
  0
LINE
  5
13A
330
70
100
AcDbEntity
  8
Camada 2
 62
     1
370
    35
100
AcDbLine
 10
377.4353135695419
 20
294.2904215705748
 30
0.0
 11
342.3356472371706
 21
294.2904215705748
 31
0.0
  0
LINE
  5
13B
330
70
100
AcDbEntity
  8
Camada 2
 62
     1
370
    35
100
AcDbLine
 10
385.9963758503873
 20
298.2905219384975
 30
0.0
 11
385.9963758503873
 21
294.2904215705748
 31
0.0
  0
LINE
  5
13C
330
70
100
AcDbEntity
  8
Camada 2
 62
     1
370
    35
100
AcDbLine
 10
377.4353135695419
 20
298.2905219384975
 30
0.0
 11
385.9963758503873
 21
298.2905219384975
 31
0.0
  0
LINE
  5
13D
330
70
100
AcDbEntity
  8
Camada 2
 62
     1
370
    35
100
AcDbLine
 10
377.4353135695419
 20
298.2905219384975
 30
0.0
 11
377.4353135695419
 21
294.2904215705748
 31
0.0
  0
LINE
  5
13E
330
70
100
AcDbEntity
  8
Camada 2
 62
     1
370
    35
100
AcDbLine
 10
385.9963758503873
 20
294.2904215705748
 30
0.0
 11
377.4353135695419
 21
294.2904215705748
 31
0.0
  0
LINE
  5
13F
330
70
100
AcDbEntity
  8
Camada 2
 62
     1
370
    35
100
AcDbLine
 10
385.9963758503873
 20
286.7904486991847
 30
0.0
 11
371.9906846646554
 21
286.7904486991847
 31
0.0
  0
LINE
  5
140
330
70
100
AcDbEntity
  8
Camada 2
 62
     1
370
    35
100
AcDbLine
 10
334.9962158153939
 20
298.2905219384975
 30
0.0
 11
342.3356472371706
 21
298.2905219384975
 31
0.0
  0
LINE
  5
141
330
70
100
AcDbEntity
  8
Camada 2
 62
     1
370
    35
100
AcDbLine
 10
334.9962158153939
 20
286.7904486991847
 30
0.0
 11
368.2896185848513
 21
286.7904486991847
 31
0.0
  0
LINE
  5
142
330
70
100
AcDbEntity
  8
Camada 2
 62
     1
370
    35
100
AcDbLine
 10
385.4964924954802
 20
299.890424281848
 30
0.0
 11
360.4964680876656
 21
299.890424281848
 31
0.0
  0
LINE
  5
143
330
70
100
AcDbEntity
  8
Camada 2
 62
     1
370
    35
100
AcDbLine
 10
360.4964680876656
 20
299.890424281848
 30
0.0
 11
335.4964436798546
 21
299.890424281848
 31
0.0
  0
LINE
  5
144
330
70
100
AcDbEntity
  8
Camada 2
 62
     7
370
    35
100
AcDbLine
 10
340.0467257967721
 20
286.6905409301125
 30
0.0
 11
339.742523865425
 21
269.2655924752671
 31
0.0
  0
LINE
  5
145
330
70
100
AcDbEntity
  8
Camada 2
 62
     7
370
    35
100
AcDbLine
 10
381.2500678003598
 20
269.2655924752671
 30
0.0
 11
380.9458658690128
 21
286.6905409301125
 31
0.0
  0
LINE
  5
146
330
70
100
AcDbEntity
  8
Camada 2
 62
     7
370
    35
100
AcDbLine
 10
339.742523865425
 20
269.2655924752671
 30
0.0
 11
337.9748453719439
 21
268.2451551925369
 31
0.0
  0
LINE
  5
147
330
70
100
AcDbEntity
  8
Camada 2
 62
     7
370
    35
100
AcDbLine
 10
383.0177462938409
 20
268.2451551925369
 30
0.0
 11
381.2500678003598
 21
269.2655924752671
 31
0.0
  0
LINE
  5
148
330
70
100
AcDbEntity
  8
Camada 2
 62
     7
370
    35
100
AcDbLine
 10
337.9748453719439
 20
268.2451551925369
 30
0.0
 11
337.5025227809128
 21
241.1904758373221
 31
0.0
  0
LINE
  5
149
330
70
100
AcDbEntity
  8
Camada 2
 62
     7
370
    35
100
AcDbLine
 10
383.4900688848684
 20
241.1904758373221
 30
0.0
 11
383.0177462938409
 21
268.2451551925369
 31
0.0
  0
LINE
  5
14A
330
70
100
AcDbEntity
  8
Camada 2
 62
     7
370
    35
100
AcDbLine
 10
334.002650277449
 20
241.1904758373221
 30
0.0
 11
333.4962212411192
 21
212.1903510615848
 31
0.0
  0
LINE
  5
14B
330
70
100
AcDbEntity
  8
Camada 2
 62
     7
370
    35
100
AcDbLine
 10
387.4963704246657
 20
212.1903510615848
 30
0.0
 11
386.9902858978822
 21
241.1904758373221
 31
0.0
  0
LINE
  5
14C
330
70
100
AcDbEntity
  8
Camada 2
 62
     1
370
    35
100
AcDbLine
 10
385.9963758503873
 20
286.7904486991847
 30
0.0
 11
385.9963758503873
 21
294.2904215705748
 31
0.0
  0
LINE
  5
14D
330
70
100
AcDbEntity
  8
Camada 2
 62
     1
370
    35
100
AcDbLine
 10
334.9962158153939
 20
298.2905219384975
 30
0.0
 11
334.9962158153939
 21
286.7904486991847
 31
0.0
  0
LINE
  5
14E
330
70
100
AcDbEntity
  8
Camada 2
 62
     1
370
    35
100
AcDbLine
 10
371.7670979676622
 20
286.8645182521177
 30
0.0
 11
382.5085611811228
 21
293.7905382156641
 31
0.0
  0
LINE
  5
14F
330
70
100
AcDbEntity
  8
Camada 2
 62
     1
370
    35
100
AcDbLine
 10
384.9962646310196
 20
299.890424281848
 30
0.0
 11
384.9962646310196
 21
301.5752246851098
 31
0.0
  0
LINE
  5
150
330
70
100
AcDbEntity
  8
Camada 2
 62
     1
370
    35
100
AcDbLine
 10
335.9963270347616
 20
301.5774033343459
 30
0.0
 11
335.9963270347616
 21
299.890424281848
 31
0.0
  0
LINE
  5
151
330
70
100
AcDbEntity
  8
Camada 2
 62
     1
370
    35
100
AcDbLine
 10
385.4964924954802
 20
298.7904052934082
 30
0.0
 11
385.4964924954802
 21
299.890424281848
 31
0.0
  0
LINE
  5
152
330
70
100
AcDbEntity
  8
Camada 2
 62
     1
370
    35
100
AcDbLine
 10
335.4964436798546
 20
299.890424281848
 30
0.0
 11
335.4964436798546
 21
298.7904052934082
 31
0.0
  0
SPLINE
  5
153
330
70
100
AcDbEntity
  8
Camada 2
 62
     1
370
    35
100
AcDbSpline
210
0.0
220
0.0
230
1.0
 70
     8
 71
     3
 72
     8
 73
     4
 74
     0
 42
0.0000000001
 43
0.0000000001
 40
0.0
 40
0.0
 40
0.0
 40
0.0
 40
1.0
 40
1.0
 40
1.0
 40
1.0
 10
385.9963758503873
 20
298.2905219384975
 30
0.0
 10
385.9963758503873
 20
298.5664740868669
 30
0.0
 10
385.7724446438479
 20
298.7904052934082
 30
0.0
 10
385.4964924954802
 20
298.7904052934082
 30
0.0
  0
SPLINE
  5
154
330
70
100
AcDbEntity
  8
Camada 2
 62
     1
370
    35
100
AcDbSpline
210
0.0
220
0.0
230
1.0
 70
     8
 71
     3
 72
     8
 73
     4
 74
     0
 42
0.0000000001
 43
0.0000000001
 40
0.0
 40
0.0
 40
0.0
 40
0.0
 40
1.0
 40
1.0
 40
1.0
 40
1.0
 10
335.4964436798546
 20
298.7904052934082
 30
0.0
 10
335.220147021937
 20
298.7904052934082
 30
0.0
 10
334.9962158153939
 20
298.5664740868669
 30
0.0
 10
334.9962158153939
 20
298.2905219384975
 30
0.0
  0
SPLINE
  5
155
330
70
100
AcDbEntity
  8
Camada 2
 62
     1
370
    35
100
AcDbSpline
210
0.0
220
0.0
230
1.0
 70
     8
 71
     3
 72
     8
 73
     4
 74
     0
 42
0.0000000001
 43
0.0000000001
 40
0.0
 40
0.0
 40
0.0
 40
0.0
 40
1.0
 40
1.0
 40
1.0
 40
1.0
 10
377.4353135695419
 20
294.2904215705748
 30
0.0
 10
377.4353135695419
 20
294.0144694222054
 30
0.0
 10
377.5948214905111
 20
293.7905382156641
 30
0.0
 10
377.7915364427172
 20
293.7905382156641
 30
0.0
  0
SPLINE
  5
156
330
70
100
AcDbEntity
  8
Camada 2
 62
     7
370
    35
100
AcDbSpline
210
0.0
220
0.0
230
1.0
 70
     8
 71
     3
 72
     8
 73
     4
 74
     0
 42
0.0000000001
 43
0.0000000001
 40
0.0
 40
0.0
 40
0.0
 40
0.0
 40
1.0
 40
1.0
 40
1.0
 40
1.0
 10
383.6909179516588
 20
212.1903510615848
 30
0.0
 10
383.5245198397206
 20
221.8572889931966
 30
0.0
 10
383.3581217277824
 20
231.5238824152584
 30
0.0
 10
383.191379106298
 20
241.1904758373221
 30
0.0
  0
SPLINE
  5
157
330
70
100
AcDbEntity
  8
Camada 2
 62
     1
370
    35
100
AcDbSpline
210
0.0
220
0.0
230
1.0
 70
     8
 71
     3
 72
    20
 73
    16
 74
     0
 42
0.0000000001
 43
0.0000000001
 40
0.0
 40
0.0
 40
0.0
 40
0.0
 40
1.0
 40
1.0
 40
1.0
 40
2.0
 40
2.0
 40
2.0
 40
3.0
 40
3.0
 40
3.0
 40
4.0
 40
4.0
 40
4.0
 40
5.0
 40
5.0
 40
5.0
 40
5.0
 10
371.7670979676622
 20
286.8645182521177
 30
0.0
 10
371.7633083626278
 20
286.8621066852793
 30
0.0
 10
371.7595187575934
 20
286.859695118439
 30
0.0
 10
371.7557291525591
 20
286.8572835515988
 30
0.0
 10
371.7426377897173
 20
286.8493598319838
 30
0.0
 10
371.7292019173219
 20
286.842469641013
 30
0.0
 10
371.7154215353839
 20
286.8359239595902
 30
0.0
 10
371.7019856629886
 20
286.8297227877174
 30
0.0
 10
371.6878607715007
 20
286.8242106349407
 30
0.0
 10
371.6737358800092
 20
286.8193875012621
 30
0.0
 10
371.6596109885213
 20
286.8145643675816
 30
0.0
 10
371.6451415874835
 20
286.810774762549
 30
0.0
 10
371.6303276768958
 20
286.8076741766108
 30
0.0
 10
371.6006998557241
 20
286.8011284951899
 30
0.0
 10
371.5710720345487
 20
286.7983724188016
 30
0.0
 10
371.541099703827
 20
286.7987169283497
 30
0.0
  0
SPLINE
  5
158
330
70
100
AcDbEntity
  8
Camada 2
 62
     1
370
    35
100
AcDbSpline
210
0.0
220
0.0
230
1.0
 70
     8
 71
     3
 72
     8
 73
     4
 74
     0
 42
0.0000000001
 43
0.0000000001
 40
0.0
 40
0.0
 40
0.0
 40
0.0
 40
1.0
 40
1.0
 40
1.0
 40
1.0
 10
368.7653862713633
 20
286.7987169283497
 30
0.0
 10
368.60725638859
 20
286.7963053615095
 30
0.0
 10
368.4487819962669
 20
286.7935492851229
 30
0.0
 10
368.2896185848513
 20
286.7904486991847
 30
0.0
  0
SPLINE
  5
159
330
70
100
AcDbEntity
  8
Camada 2
 62
     1
370
    35
100
AcDbSpline
210
0.0
220
0.0
230
1.0
 70
     8
 71
     3
 72
     8
 73
     4
 74
     0
 42
0.0000000001
 43
0.0000000001
 40
0.0
 40
0.0
 40
0.0
 40
0.0
 40
1.0
 40
1.0
 40
1.0
 40
1.0
 10
371.541099703827
 20
286.7987169283497
 30
0.0
 10
371.6916503765351
 20
286.7963053615095
 30
0.0
 10
371.8415120301433
 20
286.7935492851229
 30
0.0
 10
371.9906846646554
 20
286.7904486991847
 30
0.0
  0
SPLINE
  5
15A
330
70
100
AcDbEntity
  8
Camada 2
 62
     1
370
    35
100
AcDbSpline
210
0.0
220
0.0
230
1.0
 70
     8
 71
     3
 72
    38
 73
    34
 74
     0
 42
0.0000000001
 43
0.0000000001
 40
0.0
 40
0.0
 40
0.0
 40
0.0
 40
1.0
 40
1.0
 40
1.0
 40
2.0
 40
2.0
 40
2.0
 40
3.0
 40
3.0
 40
3.0
 40
4.0
 40
4.0
 40
4.0
 40
5.0
 40
5.0
 40
5.0
 40
6.0
 40
6.0
 40
6.0
 40
7.0
 40
7.0
 40
7.0
 40
8.0
 40
8.0
 40
8.0
 40
9.0
 40
9.0
 40
9.0
 40
10.0
 40
10.0
 40
10.0
 40
11.0
 40
11.0
 40
11.0
 40
11.0
 10
368.7653862713633
 20
286.7987169283497
 30
0.0
 10
368.7336913928993
 20
286.7983724188016
 30
0.0
 10
368.7026855335316
 20
286.8011284951899
 30
0.0
 10
368.6720241837138
 20
286.8073296670628
 30
0.0
 10
368.6565212540299
 20
286.8104302529991
 30
0.0
 10
368.6413628338923
 20
286.8145643675816
 30
0.0
 10
368.6265489233083
 20
286.8190429917122
 30
0.0
 10
368.6113905031707
 20
286.8238661253927
 30
0.0
 10
368.5965765925867
 20
286.8293782781693
 30
0.0
 10
368.5821071915488
 20
286.8359239595902
 30
0.0
 10
368.5528238799234
 20
286.8483263033377
 30
0.0
 10
368.5256076255901
 20
286.8641737425696
 30
0.0
 10
368.4994248999028
 20
286.8827772581899
 30
0.0
 10
368.4863335370573
 20
286.891734506451
 30
0.0
 10
368.4739311933117
 20
286.9020697929082
 30
0.0
 10
368.4615288495625
 20
286.9124050793634
 30
0.0
 10
368.4494710153667
 20
286.9230848753669
 30
0.0
 10
368.4381022002635
 20
286.9344536904682
 30
0.0
 10
368.4270778947102
 20
286.9461670151195
 30
0.0
 10
368.4053737931535
 20
286.9695936644184
 30
0.0
 10
368.3857367488891
 20
286.9954318805576
 30
0.0
 10
368.3685112714629
 20
287.0233371539889
 30
0.0
 10
368.3509412844869
 20
287.0512424274184
 30
0.0
 10
368.336816392999
 20
287.0805257390439
 30
0.0
 10
368.3251030683496
 20
287.1111870888617
 30
0.0
 10
368.319246406023
 20
287.1263455089975
 30
0.0
 10
368.3140787627963
 20
287.1418484386813
 30
0.0
 10
368.3096001386657
 20
287.1580403874613
 30
0.0
 10
368.3051215145351
 20
287.1738878266933
 30
0.0
 10
368.3013319095007
 20
287.1900797754733
 30
0.0
 10
368.2985758331124
 20
287.2062717242552
 30
0.0
 10
368.2923746612396
 20
287.2390001313652
 30
0.0
 10
368.2896185848513
 20
287.2717285384752
 30
0.0
 10
368.2896185848513
 20
287.3051459646813
 30
0.0
  0
SPLINE
  5
15B
330
70
100
AcDbEntity
  8
Camada 2
 62
     1
370
    35
100
AcDbSpline
210
0.0
220
0.0
230
1.0
 70
     8
 71
     3
 72
    20
 73
    16
 74
     0
 42
0.0000000001
 43
0.0000000001
 40
0.0
 40
0.0
 40
0.0
 40
0.0
 40
1.0
 40
1.0
 40
1.0
 40
2.0
 40
2.0
 40
2.0
 40
3.0
 40
3.0
 40
3.0
 40
4.0
 40
4.0
 40
4.0
 40
5.0
 40
5.0
 40
5.0
 40
5.0
 10
367.908935533731
 20
286.7904486991847
 30
0.0
 10
367.4882893749818
 20
286.7832139986658
 30
0.0
 10
367.0576524393255
 20
286.776323807695
 30
0.0
 10
366.6194362936003
 20
286.7690891071761
 30
0.0
 10
366.1354003779234
 20
286.7615098971091
 30
0.0
 10
365.6420627044354
 20
286.7535861774941
 30
0.0
 10
365.1408013113323
 20
286.7456624578772
 30
0.0
 10
364.6398844277755
 20
286.7380832478102
 30
0.0
 10
364.1313883341536
 20
286.7301595281933
 30
0.0
 10
363.6177245973013
 20
286.7222358085765
 30
0.0
 10
363.1044053699989
 20
286.7146565985095
 30
0.0
 10
362.5855739899234
 20
286.7067328788944
 30
0.0
 10
362.0646755525522
 20
286.6988091592775
 30
0.0
 10
361.8765733390574
 20
286.6960530828892
 30
0.0
 10
361.6881266160126
 20
286.6932970065009
 30
0.0
 10
361.4993353834216
 20
286.6905409301125
 30
0.0
  0
SPLINE
  5
15C
330
70
100
AcDbEntity
  8
Camada 2
 62
     1
370
    35
100
AcDbSpline
210
0.0
220
0.0
230
1.0
 70
     8
 71
     3
 72
    20
 73
    16
 74
     0
 42
0.0000000001
 43
0.0000000001
 40
0.0
 40
0.0
 40
0.0
 40
0.0
 40
1.0
 40
1.0
 40
1.0
 40
2.0
 40
2.0
 40
2.0
 40
3.0
 40
3.0
 40
3.0
 40
4.0
 40
4.0
 40
4.0
 40
5.0
 40
5.0
 40
5.0
 40
5.0
 10
362.8363769412463
 20
286.6905409301125
 30
0.0
 10
363.0978596885798
 20
286.6943305351469
 30
0.0
 10
363.3583089072636
 20
286.6984646497294
 30
0.0
 10
363.6177245973013
 20
286.702254254762
 30
0.0
 10
364.1313883341536
 20
286.7101779743789
 30
0.0
 10
364.6398844277755
 20
286.7181016939958
 30
0.0
 10
365.1408013113323
 20
286.7256809040627
 30
0.0
 10
365.6420627044354
 20
286.7336046236778
 30
0.0
 10
366.1354003779234
 20
286.7415283432947
 30
0.0
 10
366.6194362936003
 20
286.7491075533617
 30
0.0
 10
367.103127699731
 20
286.7570312729786
 30
0.0
 10
367.5768283289508
 20
286.7649549925936
 30
0.0
 10
368.0388156335248
 20
286.7725342026624
 30
0.0
 10
368.3902153730196
 20
286.7787353745352
 30
0.0
 10
368.7350694310917
 20
286.78459203686
 30
0.0
 10
369.0716552600024
 20
286.7904486991847
 30
0.0
  0
SPLINE
  5
15D
330
70
100
AcDbEntity
  8
Camada 2
 62
     1
370
    35
100
AcDbSpline
210
0.0
220
0.0
230
1.0
 70
     8
 71
     3
 72
     8
 73
     4
 74
     0
 42
0.0000000001
 43
0.0000000001
 40
0.0
 40
0.0
 40
0.0
 40
0.0
 40
1.0
 40
1.0
 40
1.0
 40
1.0
 10
345.3573404872841
 20
286.8004394760919
 30
0.0
 10
345.2939507303563
 20
286.7635769544013
 30
0.0
 10
345.2305609734285
 20
286.7270589422569
 30
0.0
 10
345.1671712164971
 20
286.6905409301125
 30
0.0
  0
SPLINE
  5
15E
330
70
100
AcDbEntity
  8
Camada 2
 62
     1
370
    35
100
AcDbSpline
210
0.0
220
0.0
230
1.0
 70
     8
 71
     3
 72
     8
 73
     4
 74
     0
 42
0.0000000001
 43
0.0000000001
 40
0.0
 40
0.0
 40
0.0
 40
0.0
 40
1.0
 40
1.0
 40
1.0
 40
1.0
 10
375.9129258746107
 20
286.6905409301125
 30
0.0
 10
375.9708034787618
 20
286.7239583563205
 30
0.0
 10
376.0283365733667
 20
286.7570312729786
 30
0.0
 10
376.0862141775178
 20
286.7904486991847
 30
0.0
  0
MTEXT
  5
15F
330
70
100
AcDbEntity
  8
Camada 2
100
AcDbMText
 10
416.670196533203
 20
270.9627380371094
 30
0.0
 40
0.2
 41
0.0
 46
0.0
 71
     7
 72
     1
  1
\C7;\FMyriad Pro|b0|i0|c1;\H10.000000;\W1.000000;Arruela de nylon
 73
     1
 44
1.0
  0
MTEXT
  5
160
330
70
100
AcDbEntity
  8
Camada 2
100
AcDbMText
 10
416.6697692871093
 20
255.9879302978516
 30
0.0
 40
0.2
 41
0.0
 46
0.0
 71
     7
 72
     1
  1
\C7;\FMyriad Pro|b0|i0|c1;\H10.000000;\W1.000000;Nylon washer
 73
     1
 44
1.0
  0
MTEXT
  5
161
330
70
100
AcDbEntity
  8
Camada 2
100
AcDbMText
 10
416.670196533203
 20
241.0131378173828
 30
0.0
 40
0.2
 41
0.0
 46
0.0
 71
     7
 72
     1
  1
\C7;\FMyriad Pro|b0|i0|c1;\H10.000000;\W1.000000;Arandela de nylon
 73
     1
 44
1.0
  0
LINE
  5
162
330
70
100
AcDbEntity
  8
Camada 2
 62
     7
370
    35
100
AcDbLine
 10
362.0736328008133
 20
212.1903510615848
 30
0.0
 11
359.1391004664765
 21
212.1903510615848
 31
0.0
  0
LINE
  5
163
330
70
100
AcDbEntity
  8
Camada 2
 62
     7
370
    35
100
AcDbLine
 10
363.2084472536553
 20
212.1903510615848
 30
0.0
 11
362.0736328008133
 21
212.1903510615848
 31
0.0
  0
LINE
  5
164
330
70
100
AcDbEntity
  8
Camada 2
 62
     7
370
    35
100
AcDbLine
 10
359.1391004664765
 20
212.1903510615848
 30
0.0
 11
357.9994628799577
 21
212.1903510615848
 31
0.0
  0
LINE
  5
165
330
70
100
AcDbEntity
  8
Camada 2
 62
     7
370
    35
100
AcDbLine
 10
363.2084472536553
 20
212.1903510615848
 30
0.0
 11
363.8382107083598
 21
212.1903510615848
 31
0.0
  0
LINE
  5
166
330
70
100
AcDbEntity
  8
Camada 2
 62
     7
370
    35
100
AcDbLine
 10
357.3738335398339
 20
212.1903510615848
 30
0.0
 11
358.0035969945384
 21
212.1903510615848
 31
0.0
  0
LINE
  5
167
330
70
100
AcDbEntity
  8
Camada 2
 62
     7
370
    35
100
AcDbLine
 10
359.9976182614009
 20
188.4253933852342
 30
0.0
 11
358.9840711696415
 21
189.4396294960916
 31
0.0
  0
LINE
  5
168
330
70
100
AcDbEntity
  8
Camada 2
 62
     7
370
    35
100
AcDbLine
 10
357.2188042429989
 20
191.2048964227342
 30
0.0
 11
351.3848795482772
 21
197.0774061868906
 31
0.0
  0
LINE
  5
169
330
70
100
AcDbEntity
  8
Camada 2
 62
     7
370
    35
100
AcDbLine
 10
362.0350477313805
 20
194.0657037136861
 30
0.0
 11
353.06815320237
 21
203.0291531472085
 31
0.0
  0
LINE
  5
16A
330
70
100
AcDbEntity
  8
Camada 2
 62
     7
370
    35
100
AcDbLine
 10
363.7176323663734
 20
200.0119385212274
 30
0.0
 11
354.244997820133
 21
209.4893962011501
 31
0.0
  0
LINE
  5
16B
330
70
100
AcDbEntity
  8
Camada 2
 62
     7
370
    35
100
AcDbLine
 10
364.9688910466175
 20
206.4335965057326
 30
0.0
 11
359.177685535913
 21
212.1862169470023
 31
0.0
  0
LINE
  5
16C
330
70
100
AcDbEntity
  8
Camada 2
 62
     7
370
    35
100
AcDbLine
 10
353.7358127074112
 20
206.3950114362979
 30
0.0
 11
359.5277072372155
 21
212.1862169470023
 31
0.0
  0
LINE
  5
16D
330
70
100
AcDbEntity
  8
Camada 2
 62
     7
370
    35
100
AcDbLine
 10
351.0348578469748
 20
196.0597249805487
 30
0.0
 11
365.4780761593356
 21
210.507077407492
 31
0.0
  0
LINE
  5
16E
330
70
100
AcDbEntity
  8
Camada 2
 62
     7
370
    35
100
AcDbLine
 10
354.2849609277618
 20
191.6362223774886
 30
0.0
 11
364.0325140937275
 21
201.4230496319851
 31
0.0
  0
LINE
  5
16F
330
70
100
AcDbEntity
  8
Camada 2
 62
     7
370
    35
100
AcDbLine
 10
359.334092870944
 20
189.0510227253562
 30
0.0
 11
360.8223741205693
 21
190.54481612776
 31
0.0
  0
LWPOLYLINE
  5
170
330
70
100
AcDbEntity
  8
Camada 2
 62
     7
370
    35
100
AcDbPolyline
 90
        4
 70
     0
 43
0.0
 10
375.775466564748
 20
163.9617703444764
 10
376.7538736825591
 20
163.0991184349696
 10
377.8507920850643
 20
162.3956299368819
 10
379.0627766767757
 20
161.8471707356293
  0
LWPOLYLINE
  5
171
330
70
100
AcDbEntity
  8
Camada 2
 62
     7
370
    35
100
AcDbPolyline
 90
        4
 70
     0
 43
0.0
 10
386.3043673867687
 20
169.088072426528
 10
385.7565972046141
 20
170.262849986997
 10
385.0531087065283
 20
171.4017985544215
 10
384.1945909116039
 20
172.376760576748
  0
LWPOLYLINE
  5
172
330
70
100
AcDbEntity
  8
Camada 2
 62
     7
370
    35
100
AcDbPolyline
 90
        7
 70
     0
 43
0.0
 10
385.0916937759612
 20
155.81894265554
 10
385.1688639148306
 20
155.2711724733853
 10
385.3638563192981
 20
154.7619873606654
 10
385.6787380466485
 20
154.3306614059111
 10
386.1052408677206
 20
153.9758165709299
 10
386.6151149995385
 20
153.7815131855623
 10
387.1683973344698
 20
153.7002089321104
  0
LINE
  5
173
330
70
100
AcDbEntity
  8
Camada 2
 62
     7
370
    35
100
AcDbLine
 10
385.2859971613288
 20
156.1689643568406
 30
0.0
 11
379.3735242895455
 21
162.0456082355795
 31
0.0
  0
LINE
  5
174
330
70
100
AcDbEntity
  8
Camada 2
 62
     7
370
    35
100
AcDbLine
 10
385.5237087498135
 20
156.4046088880313
 30
0.0
 11
379.6498209474594
 21
162.3177707789145
 31
0.0
  0
LINE
  5
175
330
70
100
AcDbEntity
  8
Camada 2
 62
     7
370
    35
100
AcDbLine
 10
385.2859971613288
 20
156.0518311103424
 30
0.0
 11
385.0916937759612
 21
155.81894265554
 31
0.0
  0
LWPOLYLINE
  5
176
330
70
100
AcDbEntity
  8
Camada 2
 62
     7
370
    35
100
AcDbPolyline
 90
        3
 70
     0
 43
0.0
 10
385.5237087498135
 20
156.4046088880313
 10
385.6008788886829
 20
156.3667128376946
 10
385.6394639581158
 20
156.4046088880313
  0
LWPOLYLINE
  5
177
330
70
100
AcDbEntity
  8
Camada 2
 62
     7
370
    35
100
AcDbPolyline
 90
        3
 70
     0
 43
0.0
 10
385.2859971613288
 20
156.0518311103424
 10
385.3245822307654
 20
156.0897271606791
 10
385.2859971613288
 20
156.1724094523251
  0
LWPOLYLINE
  5
178
330
70
100
AcDbEntity
  8
Camada 2
 62
     7
370
    35
100
AcDbPolyline
 90
        3
 70
     0
 43
0.0
 10
385.0916937759612
 20
155.81894265554
 10
379.0627766767757
 20
161.8471707356293
 10
379.2577690812395
 20
162.041474120997
  0
LWPOLYLINE
  5
179
330
70
100
AcDbEntity
  8
Camada 2
 62
     7
370
    35
100
AcDbPolyline
 90
        3
 70
     0
 43
0.0
 10
379.6498209474594
 20
162.4342150063166
 10
379.6112358780265
 20
162.3563558483492
 10
379.6498209474594
 20
162.3177707789145
  0
LWPOLYLINE
  5
17A
330
70
100
AcDbEntity
  8
Camada 2
 62
     7
370
    35
100
AcDbPolyline
 90
        3
 70
     0
 43
0.0
 10
379.3735242895455
 20
162.041474120997
 10
379.3349392201089
 20
162.0800591904317
 10
379.2619031958238
 20
162.041474120997
  0
LINE
  5
17B
330
70
100
AcDbEntity
  8
Camada 2
 62
     7
370
    35
100
AcDbLine
 10
392.2940103974251
 20
163.0591553273407
 30
0.0
 11
392.0997070120575
 21
162.8655409610692
 31
0.0
  0
LWPOLYLINE
  5
17C
330
70
100
AcDbEntity
  8
Camada 2
 62
     7
370
    35
100
AcDbPolyline
 90
        7
 70
     0
 43
0.0
 10
394.4086100062705
 20
160.9452447375915
 10
394.3658908222533
 20
161.4937039388423
 10
394.1715874368856
 20
162.0028890515623
 10
393.820876716487
 20
162.4686659611689
 10
393.3895507617344
 20
162.7842367076173
 10
392.8803656490163
 20
162.9861193030538
 10
392.2940103974251
 20
163.0550212127582
  0
LINE
  5
17D
330
70
100
AcDbEntity
  8
Camada 2
 62
     7
370
    35
100
AcDbLine
 10
386.3043673867687
 20
169.088072426528
 30
0.0
 11
386.1107530204972
 21
168.8551839717238
 31
0.0
  0
LINE
  5
17E
330
70
100
AcDbEntity
  8
Camada 2
 62
     7
370
    35
100
AcDbLine
 10
387.7154784975282
 20
158.5584825854093
 30
0.0
 11
381.8030056257412
 21
164.4709554571964
 31
0.0
  0
LINE
  5
17F
330
70
100
AcDbEntity
  8
Camada 2
 62
     7
370
    35
100
AcDbLine
 10
387.4784559281434
 20
158.3600450854592
 30
0.0
 11
381.605257144889
 21
164.2380670023922
 31
0.0
  0
LINE
  5
180
330
70
100
AcDbEntity
  8
Camada 2
 62
     7
370
    35
100
AcDbLine
 10
389.785980884164
 20
160.6737712133526
 30
0.0
 11
383.8748860505729
 21
166.5421468629283
 31
0.0
  0
LINE
  5
181
330
70
100
AcDbEntity
  8
Camada 2
 62
     7
370
    35
100
AcDbLine
 10
389.553781448456
 20
160.4401937394541
 30
0.0
 11
383.6805826652017
 21
166.3519775921413
 31
0.0
  0
LINE
  5
182
330
70
100
AcDbEntity
  8
Camada 2
 62
     7
370
    35
100
AcDbLine
 10
391.7462402152705
 20
162.5892443031516
 30
0.0
 11
385.8337673434835
 21
168.5017171749386
 31
0.0
  0
LINE
  5
183
330
70
100
AcDbEntity
  8
Camada 2
 62
     7
370
    35
100
AcDbLine
 10
391.9791286700747
 20
162.8655409610692
 30
0.0
 11
386.1107530204972
 21
168.734605629741
 31
0.0
  0
LINE
  5
184
330
70
100
AcDbEntity
  8
Camada 2
 62
     7
370
    35
100
AcDbLine
 10
391.7462402152705
 20
162.4728000757514
 30
0.0
 11
389.9031141306623
 21
160.6737712133526
 31
0.0
  0
LINE
  5
185
330
70
100
AcDbEntity
  8
Camada 2
 62
     7
370
    35
100
AcDbLine
 10
389.553781448456
 20
160.3196153974695
 30
0.0
 11
387.8319227249304
 21
158.5584825854093
 31
0.0
  0
LWPOLYLINE
  5
186
330
70
100
AcDbEntity
  8
Camada 2
 62
     7
370
    35
100
AcDbPolyline
 90
        3
 70
     0
 43
0.0
 10
391.9791286700747
 20
162.8655409610692
 10
392.0604329235248
 20
162.8221327579558
 10
392.096261916573
 20
162.8655409610692
  0
LWPOLYLINE
  5
187
330
70
100
AcDbEntity
  8
Camada 2
 62
     7
370
    35
100
AcDbPolyline
 90
        3
 70
     0
 43
0.0
 10
391.7462402152705
 20
162.4728000757514
 10
391.7848252847034
 20
162.5547933482994
 10
391.7462402152705
 20
162.5892443031516
  0
LWPOLYLINE
  5
188
330
70
100
AcDbEntity
  8
Camada 2
 62
     7
370
    35
100
AcDbPolyline
 90
        3
 70
     0
 43
0.0
 10
389.785980884164
 20
160.6737712133526
 10
389.8693521949062
 20
160.6303630102393
 10
389.9031141306623
 20
160.6737712133526
  0
LWPOLYLINE
  5
189
330
70
100
AcDbEntity
  8
Camada 2
 62
     7
370
    35
100
AcDbPolyline
 90
        3
 70
     0
 43
0.0
 10
389.553781448456
 20
160.3196153974695
 10
389.5930555369887
 20
160.3588894860022
 10
389.553781448456
 20
160.4401937394541
  0
LINE
  5
18A
330
70
100
AcDbEntity
  8
Camada 2
 62
     7
370
    35
100
AcDbLine
 10
387.7154784975282
 20
158.5584825854093
 30
0.0
 11
387.8277886103461
 21
158.5584825854093
 31
0.0
  0
LWPOLYLINE
  5
18B
330
70
100
AcDbEntity
  8
Camada 2
 62
     7
370
    35
100
AcDbPolyline
 90
        3
 70
     0
 43
0.0
 10
387.4784559281434
 20
158.2442898771551
 10
387.5170409975763
 20
158.2821859274936
 10
387.4784559281434
 20
158.3641792000417
  0
LINE
  5
18C
330
70
100
AcDbEntity
  8
Camada 2
 62
     7
370
    35
100
AcDbLine
 10
392.2940103974251
 20
163.0591553273407
 30
0.0
 11
386.3043673867687
 21
169.088072426528
 31
0.0
  0
LINE
  5
18D
330
70
100
AcDbEntity
  8
Camada 2
 62
     7
370
    35
100
AcDbLine
 10
385.7166340969852
 20
168.5017171749386
 30
0.0
 11
383.8790201651536
 21
166.6634142240091
 31
0.0
  0
LINE
  5
18E
330
70
100
AcDbEntity
  8
Camada 2
 62
     7
370
    35
100
AcDbLine
 10
383.5641384378032
 20
166.3485324966568
 30
0.0
 11
381.8030056257412
 21
164.582576550918
 31
0.0
  0
LWPOLYLINE
  5
18F
330
70
100
AcDbEntity
  8
Camada 2
 62
     7
370
    35
100
AcDbPolyline
 90
        3
 70
     0
 43
0.0
 10
386.1107530204972
 20
168.8551839717238
 10
386.0714789319682
 20
168.8124647877084
 10
386.1107530204972
 20
168.734605629741
  0
LWPOLYLINE
  5
190
330
70
100
AcDbEntity
  8
Camada 2
 62
     7
370
    35
100
AcDbPolyline
 90
        3
 70
     0
 43
0.0
 10
385.8337673434835
 20
168.5017171749386
 10
385.7951822740506
 20
168.5403022443733
 10
385.7166340969852
 20
168.5017171749386
  0
LINE
  5
191
330
70
100
AcDbEntity
  8
Camada 2
 62
     7
370
    35
100
AcDbLine
 10
383.8790201651536
 20
166.6634142240091
 30
0.0
 11
383.8790201651536
 21
166.5462809775108
 31
0.0
  0
LINE
  5
192
330
70
100
AcDbEntity
  8
Camada 2
 62
     7
370
    35
100
AcDbLine
 10
383.6805826652017
 20
166.3485324966568
 30
0.0
 11
383.5682725523838
 21
166.3485324966568
 31
0.0
  0
LINE
  5
193
330
70
100
AcDbEntity
  8
Camada 2
 62
     7
370
    35
100
AcDbLine
 10
381.8030056257412
 20
164.5873996845967
 30
0.0
 11
381.8030056257412
 21
164.4661323235159
 31
0.0
  0
LWPOLYLINE
  5
194
330
70
100
AcDbEntity
  8
Camada 2
 62
     7
370
    35
100
AcDbPolyline
 90
        3
 70
     0
 43
0.0
 10
381.6093912594697
 20
164.2380670023922
 10
381.5273979869234
 20
164.2725179572462
 10
381.4543619626347
 20
164.2380670023922
  0
LINE
  5
195
330
70
100
AcDbEntity
  8
Camada 2
 62
     7
370
    35
100
AcDbLine
 10
396.0911946412671
 20
162.6278293725863
 30
0.0
 11
385.0916937759612
 21
151.6276394881843
 31
0.0
  0
LINE
  5
196
330
70
100
AcDbEntity
  8
Camada 2
 62
     7
370
    35
100
AcDbLine
 10
387.4784559281434
 20
158.2442898771551
 30
0.0
 11
385.6394639581158
 21
156.4046088880313
 31
0.0
  0
LINE
  5
197
330
70
100
AcDbEntity
  8
Camada 2
 62
     7
370
    35
100
AcDbLine
 10
381.450227848054
 20
164.2380670023922
 30
0.0
 11
379.6463758519749
 21
162.4342150063166
 31
0.0
  0
LINE
  5
198
330
70
100
AcDbEntity
  8
Camada 2
 62
     7
370
    35
100
AcDbLine
 10
403.2163411238616
 20
155.5467801122049
 30
0.0
 11
392.1782551891192
 21
144.5080051583663
 31
0.0
  0
LINE
  5
199
330
70
100
AcDbEntity
  8
Camada 2
 62
     7
370
    35
100
AcDbLine
 10
367.2819281554148
 20
207.9962918178426
 30
0.0
 11
365.4009060204662
 21
209.915899022224
 31
0.0
  0
LINE
  5
19A
330
70
100
AcDbEntity
  8
Camada 2
 62
     7
370
    35
100
AcDbLine
 10
369.7072753770299
 20
197.9414361345916
 30
0.0
 11
364.4211208644628
 21
203.2661757165934
 31
0.0
  0
LINE
  5
19B
330
70
100
AcDbEntity
  8
Camada 2
 62
     7
370
    35
100
AcDbLine
 10
366.2642469490711
 20
193.7900960748666
 30
0.0
 11
362.9755587988511
 21
197.0774061868906
 31
0.0
  0
LINE
  5
19C
330
70
100
AcDbEntity
  8
Camada 2
 62
     7
370
    35
100
AcDbLine
 10
362.466373686133
 20
189.953637742492
 30
0.0
 11
361.09384764481
 21
191.2820665616036
 31
0.0
  0
LINE
  5
19D
330
70
100
AcDbEntity
  8
Camada 2
 62
     7
370
    35
100
AcDbLine
 10
368.843934448425
 20
194.730607142339
 30
0.0
 11
370.2950086668134
 21
196.2147542773855
 31
0.0
  0
LINE
  5
19E
330
70
100
AcDbEntity
  8
Camada 2
 62
     7
370
    35
100
AcDbLine
 10
362.7378472103701
 20
196.2581624804989
 30
0.0
 11
368.533875854755
 21
202.0486789721072
 31
0.0
  0
LINE
  5
19F
330
70
100
AcDbEntity
  8
Camada 2
 62
     7
370
    35
100
AcDbLine
 10
364.8910318886519
 20
206.0801297089456
 30
0.0
 11
367.2433430859783
 21
208.4276177725951
 31
0.0
  0
LINE
  5
1A0
330
70
100
AcDbEntity
  8
Camada 2
 62
     7
370
    35
100
AcDbLine
 10
376.2839626583736
 20
164.5054064120486
 30
0.0
 11
370.8420898298718
 21
169.9465902214524
 31
0.0
  0
LINE
  5
1A1
330
70
100
AcDbEntity
  8
Camada 2
 62
     7
370
    35
100
AcDbLine
 10
380.1204209907446
 20
168.3032796749885
 30
0.0
 11
362.3892035472636
 21
186.03932025215
 31
0.0
  0
LINE
  5
1A2
330
70
100
AcDbEntity
  8
Camada 2
 62
     7
370
    35
100
AcDbLine
 10
378.670035791456
 20
177.3866184313974
 30
0.0
 11
366.8120171312257
 21
189.2839111801586
 31
0.0
  0
LINE
  5
1A3
330
70
100
AcDbEntity
  8
Camada 2
 62
     7
370
    35
100
AcDbLine
 10
362.8542914377722
 20
184.9437798878407
 30
0.0
 11
369.6301052381605
 21
191.7099474208717
 31
0.0
  0
LINE
  5
1A4
330
70
100
AcDbEntity
  8
Camada 2
 62
     7
370
    35
100
AcDbLine
 10
365.2458767236312
 20
179.6955214256122
 30
0.0
 11
373.5823187788374
 21
188.0326524999163
 31
0.0
  0
LINE
  5
1A5
330
70
100
AcDbEntity
  8
Camada 2
 62
     7
370
    35
100
AcDbLine
 10
367.7483940841157
 20
174.5692193435607
 30
0.0
 11
376.0469400889852
 21
182.8291802789954
 31
0.0
  0
LINE
  5
1A6
330
70
100
AcDbEntity
  8
Camada 2
 62
     7
370
    35
100
AcDbLine
 10
370.8420898298718
 20
169.9858643099833
 30
0.0
 11
378.5542805831501
 21
177.7015001587497
 31
0.0
  0
LINE
  5
1A7
330
70
100
AcDbEntity
  8
Camada 2
 62
     7
370
    35
100
AcDbLine
 10
374.4029405234251
 20
165.9165175228063
 30
0.0
 11
382.2350205995936
 21
173.748597598973
 31
0.0
  0
LINE
  5
1A8
330
70
100
AcDbEntity
  8
Camada 2
 62
     7
370
    35
100
AcDbLine
 10
376.0469400889852
 20
164.2725179572462
 30
0.0
 11
372.1712076680815
 21
168.108976289619
 31
0.0
  0
LINE
  5
1A9
330
70
100
AcDbEntity
  8
Camada 2
 62
     7
370
    35
100
AcDbLine
 10
383.8790201651536
 20
172.0660129639782
 30
0.0
 11
378.7871690379543
 21
177.153729976595
 31
0.0
  0
LINE
  5
1AA
330
70
100
AcDbEntity
  8
Camada 2
 62
     7
370
    35
100
AcDbLine
 10
384.1897677779234
 20
172.376760576748
 30
0.0
 11
375.775466564748
 21
163.956947210796
 31
0.0
  0
LINE
  5
1AB
330
70
100
AcDbEntity
  8
Camada 2
 62
     7
370
    35
100
AcDbLine
 10
400.0833712895764
 20
159.4996826719798
 30
0.0
 11
399.4577419494526
 21
160.0860379235691
 31
0.0
  0
LWPOLYLINE
  5
1AC
330
70
100
AcDbEntity
  8
Camada 2
 62
     7
370
    35
100
AcDbPolyline
 90
        7
 70
     0
 43
0.0
 10
403.2163411238616
 20
155.5467801122049
 10
402.2758300563873
 20
156.9537571083801
 10
401.2181857424147
 20
158.2442898771551
 10
400.0833712895764
 20
159.4996826719798
 10
398.8321126093324
 20
160.6344971248218
 10
397.5023057520266
 20
161.6921414387925
 10
396.0911946412671
 20
162.6278293725863
  0
LWPOLYLINE
  5
1AD
330
70
100
AcDbEntity
  8
Camada 2
 62
     7
370
    35
100
AcDbPolyline
 90
        7
 70
     0
 43
0.0
 10
385.0916937759612
 20
151.6276394881843
 10
386.0280707288512
 20
150.2213515111052
 10
387.0891601383082
 20
148.8922336728956
 10
388.2246636102463
 20
147.6327067634884
 10
389.4766113095866
 20
146.5013374061327
 10
390.7664550592635
 20
145.4402479966756
 10
392.1734320554424
 20
144.5080051583663
  0
SPLINE
  5
1AE
330
70
100
AcDbEntity
  8
Camada 2
 62
     7
370
    35
100
AcDbSpline
210
0.0
220
0.0
230
1.0
 70
    11
 71
     3
 72
    29
 73
    25
 74
     0
 42
0.0000000001
 43
0.0000000001
 40
0.0
 40
0.0
 40
0.0
 40
0.0
 40
1.0
 40
1.0
 40
1.0
 40
2.0
 40
2.0
 40
2.0
 40
3.0
 40
3.0
 40
3.0
 40
4.0
 40
4.0
 40
4.0
 40
5.0
 40
5.0
 40
5.0
 40
6.0
 40
6.0
 40
6.0
 40
7.0
 40
7.0
 40
7.0
 40
8.0
 40
8.0
 40
8.0
 40
8.0
 10
395.8541720718822
 20
161.0616889649918
 30
0.0
 10
395.8541720718822
 20
161.0616889649918
 30
0.0
 10
396.1297797107036
 20
161.2167182618286
 30
0.0
 10
396.1297797107036
 20
161.2167182618286
 30
0.0
 10
396.1297797107036
 20
161.2167182618286
 30
0.0
 10
396.4839355265867
 20
161.2952664388922
 30
0.0
 10
396.4839355265867
 20
161.2952664388922
 30
0.0
 10
398.3918294063187
 20
161.2263645291877
 30
0.0
 10
401.9306314887653
 20
157.7220134015915
 30
0.0
 10
401.7707790582498
 20
155.7796685670073
 30
0.0
 10
401.7707790582498
 20
155.7796685670073
 30
0.0
 10
401.6887857857
 20
155.4640978205589
 30
0.0
 10
401.6887857857
 20
155.4640978205589
 30
0.0
 10
401.6887857857
 20
155.4640978205589
 30
0.0
 10
401.4558973308994
 20
155.2711724733853
 30
0.0
 10
401.4558973308994
 20
155.2711724733853
 30
0.0
 10
399.6775390414114
 20
154.4071425256843
 30
0.0
 10
395.5523817073736
 20
158.7224691305073
 30
0.0
 10
395.6598686865145
 20
160.4746446943063
 30
0.0
 10
395.6598686865145
 20
160.4746446943063
 30
0.0
 10
395.7032768896279
 20
160.8288005101894
 30
0.0
 10
395.7032768896279
 20
160.8288005101894
 30
0.0
 10
395.7032768896279
 20
160.8288005101894
 30
0.0
 10
395.8541720718822
 20
161.0616889649918
 30
0.0
 10
395.8541720718822
 20
161.0616889649918
 30
0.0
  0
SPLINE
  5
1AF
330
70
100
AcDbEntity
  8
Camada 2
 62
     7
370
    35
100
AcDbSpline
210
0.0
220
0.0
230
1.0
 70
    11
 71
     3
 72
    44
 73
    40
 74
     0
 42
0.0000000001
 43
0.0000000001
 40
0.0
 40
0.0
 40
0.0
 40
0.0
 40
1.0
 40
1.0
 40
1.0
 40
2.0
 40
2.0
 40
2.0
 40
3.0
 40
3.0
 40
3.0
 40
4.0
 40
4.0
 40
4.0
 40
5.0
 40
5.0
 40
5.0
 40
6.0
 40
6.0
 40
6.0
 40
7.0
 40
7.0
 40
7.0
 40
8.0
 40
8.0
 40
8.0
 40
9.0
 40
9.0
 40
9.0
 40
10.0
 40
10.0
 40
10.0
 40
11.0
 40
11.0
 40
11.0
 40
12.0
 40
12.0
 40
12.0
 40
13.0
 40
13.0
 40
13.0
 40
13.0
 10
386.6578341835557
 20
151.8619059811808
 30
0.0
 10
386.6578341835557
 20
151.8619059811808
 30
0.0
 10
386.5028048867207
 20
151.5897434378457
 30
0.0
 10
386.5028048867207
 20
151.5897434378457
 30
0.0
 10
386.5028048867207
 20
151.5897434378457
 30
0.0
 10
386.4208116141708
 20
151.2355876219626
 30
0.0
 10
386.4208116141708
 20
151.2355876219626
 30
0.0
 10
386.5158962495625
 20
149.2980659210588
 30
0.0
 10
389.9637478112018
 20
145.8033610608217
 30
0.0
 10
391.9405436006382
 20
145.9494331093956
 30
0.0
 10
391.9405436006382
 20
145.9494331093956
 30
0.0
 10
392.2554253279886
 20
146.0314263819437
 30
0.0
 10
392.2554253279886
 20
146.0314263819437
 30
0.0
 10
392.2554253279886
 20
146.0314263819437
 30
0.0
 10
392.4490396942601
 20
146.2643148367478
 30
0.0
 10
392.4490396942601
 20
146.2643148367478
 30
0.0
 10
392.4490396942601
 20
146.2643148367478
 30
0.0
 10
392.5703070553427
 20
146.5791965640983
 30
0.0
 10
392.5703070553427
 20
146.5791965640983
 30
0.0
 10
392.5448133487516
 20
147.4514947409643
 30
0.0
 10
392.030805102353
 20
148.4829563292478
 30
0.0
 10
391.4747666910334
 20
149.1251221276998
 30
0.0
 10
391.4747666910334
 20
149.1251221276998
 30
0.0
 10
390.9993435140677
 20
149.6694472143681
 30
0.0
 10
390.9993435140677
 20
149.6694472143681
 30
0.0
 10
390.9993435140677
 20
149.6694472143681
 30
0.0
 10
390.4515733319131
 20
150.2213515111052
 30
0.0
 10
390.4515733319131
 20
150.2213515111052
 30
0.0
 10
389.6750488095386
 20
150.9944309379952
 30
0.0
 10
388.7552083149749
 20
151.7110107989265
 30
0.0
 10
387.6720702944149
 20
151.9824843231654
 30
0.0
 10
387.6720702944149
 20
151.9824843231654
 30
0.0
 10
387.244878454243
 20
152.060343481131
 30
0.0
 10
387.244878454243
 20
152.060343481131
 30
0.0
 10
387.244878454243
 20
152.060343481131
 30
0.0
 10
386.891411657456
 20
152.0169352780176
 30
0.0
 10
386.891411657456
 20
152.0169352780176
 30
0.0
 10
386.891411657456
 20
152.0169352780176
 30
0.0
 10
386.6578341835557
 20
151.8619059811808
 30
0.0
 10
386.6578341835557
 20
151.8619059811808
 30
0.0
  0
SPLINE
  5
1B0
330
70
100
AcDbEntity
  8
Camada 2
 62
     7
370
    35
100
AcDbSpline
210
0.0
220
0.0
230
1.0
 70
    11
 71
     3
 72
    29
 73
    25
 74
     0
 42
0.0000000001
 43
0.0000000001
 40
0.0
 40
0.0
 40
0.0
 40
0.0
 40
1.0
 40
1.0
 40
1.0
 40
2.0
 40
2.0
 40
2.0
 40
3.0
 40
3.0
 40
3.0
 40
4.0
 40
4.0
 40
4.0
 40
5.0
 40
5.0
 40
5.0
 40
6.0
 40
6.0
 40
6.0
 40
7.0
 40
7.0
 40
7.0
 40
8.0
 40
8.0
 40
8.0
 40
8.0
 10
398.1672091806795
 20
153.6264838887255
 30
0.0
 10
398.1672091806795
 20
153.6264838887255
 30
0.0
 10
398.0852159081296
 20
154.4071425256843
 30
0.0
 10
398.0852159081296
 20
154.4071425256843
 30
0.0
 10
398.0852159081296
 20
154.4071425256843
 30
0.0
 10
397.8523274533254
 20
155.1492160932066
 30
0.0
 10
397.8523274533254
 20
155.1492160932066
 30
0.0
 10
396.2255533651914
 20
158.8347792433269
 30
0.0
 10
391.0296603543393
 20
158.3262831497031
 30
0.0
 10
390.1401367000472
 20
154.4071425256843
 30
0.0
 10
390.1401367000472
 20
154.4071425256843
 30
0.0
 10
390.0629665611777
 20
153.6264838887255
 30
0.0
 10
390.0629665611777
 20
153.6264838887255
 30
0.0
 10
390.0629665611777
 20
153.6264838887255
 30
0.0
 10
390.1401367000472
 20
152.8017280295571
 30
0.0
 10
390.1401367000472
 20
152.8017280295571
 30
0.0
 10
391.0944281494594
 20
148.9177273794866
 30
0.0
 10
396.1049750232087
 20
148.336195261576
 30
0.0
 10
397.8523274533254
 20
152.060343481131
 30
0.0
 10
397.8523274533254
 20
152.060343481131
 30
0.0
 10
398.0852159081296
 20
152.8017280295571
 30
0.0
 10
398.0852159081296
 20
152.8017280295571
 30
0.0
 10
398.0852159081296
 20
152.8017280295571
 30
0.0
 10
398.1672091806795
 20
153.6264838887255
 30
0.0
 10
398.1672091806795
 20
153.6264838887255
 30
0.0
  0
LWPOLYLINE
  5
1B1
330
70
100
AcDbEntity
  8
Camada 2
 62
     7
370
    35
100
AcDbPolyline
 90
        4
 70
     0
 43
0.0
 10
378.7871690379543
 20
177.1495958620126
 10
375.3434515908994
 20
184.2354682560744
 10
373.6987630062395
 20
187.7997640451139
 10
372.1712076680815
 20
191.3991998081019
  0
LWPOLYLINE
  5
1B2
330
70
100
AcDbEntity
  8
Camada 2
 62
     7
370
    35
100
AcDbPolyline
 90
        7
 70
     0
 43
0.0
 10
370.9585340572739
 20
194.3764513264559
 10
369.4695637885488
 20
198.71727163787
 10
368.8487575821055
 20
200.9097304046827
 10
368.2575791968375
 20
203.1455973746106
 10
367.7918022872327
 20
205.3718180771793
 10
367.3597873133804
 20
207.6462701165401
 10
366.7300238586758
 20
212.1903510615848
  0
SPLINE
  5
1B3
330
70
100
AcDbEntity
  8
Camada 2
 62
     7
370
    35
100
AcDbSpline
210
0.0
220
0.0
230
1.0
 70
     8
 71
     3
 72
    14
 73
    10
 74
     0
 42
0.0000000001
 43
0.0000000001
 40
0.0
 40
0.0
 40
0.0
 40
0.0
 40
1.0
 40
1.0
 40
1.0
 40
2.0
 40
2.0
 40
2.0
 40
3.0
 40
3.0
 40
3.0
 40
3.0
 10
372.1712076680815
 20
168.108976289619
 30
0.0
 10
372.1712076680815
 20
168.108976289619
 30
0.0
 10
371.4291341005591
 20
169.1273465150589
 30
0.0
 10
371.4291341005591
 20
169.1273465150589
 30
0.0
 10
367.8090277646588
 20
173.8099202986104
 30
0.0
 10
366.5054036330403
 20
176.9422011137994
 30
0.0
 10
363.9160698663254
 20
182.595602805095
 30
0.0
 10
363.9160698663254
 20
182.595602805095
 30
0.0
 10
362.3113443892944
 20
186.237757752102
 30
0.0
 10
362.3113443892944
 20
186.237757752102
 30
0.0
  0
LINE
  5
1B4
330
70
100
AcDbEntity
  8
Camada 2
 62
     7
370
    35
100
AcDbLine
 10
361.0545735562773
 20
189.3659044527085
 30
0.0
 11
360.7011067594904
 21
190.2251112667291
 31
0.0
  0
LWPOLYLINE
  5
1B5
330
70
100
AcDbEntity
  8
Camada 2
 62
     7
370
    35
100
AcDbPolyline
 90
        4
 70
     0
 43
0.0
 10
342.1499565905179
 20
161.3379856229094
 10
343.3619411822292
 20
161.885755805064
 10
344.4581705656347
 20
162.5892443031516
 10
345.4765407910745
 20
163.4525852317565
  0
LWPOLYLINE
  5
1B6
330
70
100
AcDbEntity
  8
Camada 2
 62
     7
370
    35
100
AcDbPolyline
 90
        4
 70
     0
 43
0.0
 10
337.0574164442187
 20
171.867575464028
 10
336.1988986492943
 20
170.8926134417015
 10
335.4561360626758
 20
169.7529758551809
 10
334.9469509499577
 20
168.5795763329042
  0
LWPOLYLINE
  5
1B7
330
70
100
AcDbEntity
  8
Camada 2
 62
     7
370
    35
100
AcDbPolyline
 90
        7
 70
     0
 43
0.0
 10
334.0457139710161
 20
153.1951579339729
 10
334.5927951340709
 20
153.2764621874248
 10
335.1026692658888
 20
153.46663145821
 10
335.5339952206414
 20
153.820787274095
 10
335.8881510365281
 20
154.2521132288475
 10
336.081765402796
 20
154.7619873606654
 10
336.1210394913287
 20
155.3132026383045
  0
LINE
  5
1B8
330
70
100
AcDbEntity
  8
Camada 2
 62
     7
370
    35
100
AcDbLine
 10
335.9260470868648
 20
155.6584012059265
 30
0.0
 11
341.839208977748
 21
161.5371121419575
 31
0.0
  0
LINE
  5
1B9
330
70
100
AcDbEntity
  8
Camada 2
 62
     7
370
    35
100
AcDbLine
 10
335.6897135365762
 20
155.8961127944094
 30
0.0
 11
341.6014973892634
 21
161.7700005967599
 31
0.0
  0
LINE
  5
1BA
330
70
100
AcDbEntity
  8
Camada 2
 62
     7
370
    35
100
AcDbLine
 10
335.9260470868648
 20
155.5040609281877
 30
0.0
 11
336.1210394913287
 21
155.3097575428201
 31
0.0
  0
LWPOLYLINE
  5
1BB
330
70
100
AcDbEntity
  8
Camada 2
 62
     7
370
    35
100
AcDbPolyline
 90
        3
 70
     0
 43
0.0
 10
335.5732693091741
 20
155.8961127944094
 10
335.6511284671396
 20
155.8568387058767
 10
335.6897135365762
 20
155.8961127944094
  0
LINE
  5
1BC
330
70
100
AcDbEntity
  8
Camada 2
 62
     7
370
    35
100
AcDbLine
 10
335.9260470868648
 20
155.6584012059265
 30
0.0
 11
335.9260470868648
 21
155.5040609281877
 31
0.0
  0
LWPOLYLINE
  5
1BD
330
70
100
AcDbEntity
  8
Camada 2
 62
     7
370
    35
100
AcDbPolyline
 90
        3
 70
     0
 43
0.0
 10
336.1210394913287
 20
155.3097575428201
 10
342.1499565905179
 20
161.3379856229094
 10
341.9508300714697
 20
161.532289008277
  0
LINE
  5
1BE
330
70
100
AcDbEntity
  8
Camada 2
 62
     7
370
    35
100
AcDbLine
 10
341.6014973892634
 20
161.7700005967599
 30
0.0
 11
341.6014973892634
 21
161.9257189126929
 31
0.0
  0
LWPOLYLINE
  5
1BF
330
70
100
AcDbEntity
  8
Camada 2
 62
     7
370
    35
100
AcDbPolyline
 90
        3
 70
     0
 43
0.0
 10
341.9508300714697
 20
161.532289008277
 10
341.912934021133
 20
161.5708740777118
 10
341.839208977748
 20
161.532289008277
  0
SPLINE
  5
1C0
330
70
100
AcDbEntity
  8
Camada 2
 62
     7
370
    35
100
AcDbSpline
210
0.0
220
0.0
230
1.0
 70
     8
 71
     3
 72
    14
 73
    10
 74
     0
 42
0.0000000001
 43
0.0000000001
 40
0.0
 40
0.0
 40
0.0
 40
0.0
 40
1.0
 40
1.0
 40
1.0
 40
2.0
 40
2.0
 40
2.0
 40
3.0
 40
3.0
 40
3.0
 40
3.0
 10
329.1123372361362
 20
162.3563558483492
 30
0.0
 10
329.1123372361362
 20
162.3563558483492
 30
0.0
 10
328.9187228698647
 20
162.5465251191344
 30
0.0
 10
328.9187228698647
 20
162.5465251191344
 30
0.0
 10
327.917578121851
 20
162.5031169160211
 30
0.0
 10
327.1327853703115
 20
161.9773953449712
 30
0.0
 10
326.881982418985
 20
160.9845188261224
 30
0.0
 10
326.881982418985
 20
160.9845188261224
 30
0.0
 10
326.8034342419233
 20
160.4360596248716
 30
0.0
 10
326.8034342419233
 20
160.4360596248716
 30
0.0
  0
LINE
  5
1C1
330
70
100
AcDbEntity
  8
Camada 2
 62
     7
370
    35
100
AcDbLine
 10
334.9469509499577
 20
168.5795763329042
 30
0.0
 11
335.1412543353254
 21
168.3459988590039
 31
0.0
  0
LINE
  5
1C2
330
70
100
AcDbEntity
  8
Camada 2
 62
     7
370
    35
100
AcDbLine
 10
333.5365288582943
 20
158.0499864917874
 30
0.0
 11
339.4090386224525
 21
163.9617703444764
 31
0.0
  0
LINE
  5
1C3
330
70
100
AcDbEntity
  8
Camada 2
 62
     7
370
    35
100
AcDbLine
 10
333.7349663582463
 20
157.8508599727392
 30
0.0
 11
339.6467502109335
 21
163.7288818896722
 31
0.0
  0
LINE
  5
1C4
330
70
100
AcDbEntity
  8
Camada 2
 62
     7
370
    35
100
AcDbLine
 10
331.421929249449
 20
160.1645861006327
 30
0.0
 11
337.3330240830401
 21
166.0329617502084
 31
0.0
  0
LINE
  5
1C5
330
70
100
AcDbEntity
  8
Camada 2
 62
     7
370
    35
100
AcDbLine
 10
331.6589518188339
 20
159.9316976458303
 30
0.0
 11
337.5707356715211
 21
165.8427924794214
 31
0.0
  0
LINE
  5
1C6
330
70
100
AcDbEntity
  8
Camada 2
 62
     7
370
    35
100
AcDbLine
 10
329.4664930520194
 20
162.0800591904317
 30
0.0
 11
335.3782769047102
 21
167.9918430431207
 31
0.0
  0
LINE
  5
1C7
330
70
100
AcDbEntity
  8
Camada 2
 62
     7
370
    35
100
AcDbLine
 10
329.2294704826345
 20
162.3563558483492
 30
0.0
 11
335.1412543353254
 21
168.2254205170211
 31
0.0
  0
LINE
  5
1C8
330
70
100
AcDbEntity
  8
Camada 2
 62
     7
370
    35
100
AcDbLine
 10
329.4664930520194
 20
161.9636149630314
 30
0.0
 11
331.3096191366312
 21
160.1604519860502
 31
0.0
  0
LINE
  5
1C9
330
70
100
AcDbEntity
  8
Camada 2
 62
     7
370
    35
100
AcDbLine
 10
331.6589518188339
 20
159.8104302847496
 30
0.0
 11
333.3808105423632
 21
158.0499864917874
 31
0.0
  0
LWPOLYLINE
  5
1CA
330
70
100
AcDbEntity
  8
Camada 2
 62
     7
370
    35
100
AcDbPolyline
 90
        3
 70
     0
 43
0.0
 10
329.1123372361362
 20
162.3563558483492
 10
329.1943305086861
 20
162.3129476452359
 10
329.2294704826345
 20
162.3563558483492
  0
LINE
  5
1CB
330
70
100
AcDbEntity
  8
Camada 2
 62
     7
370
    35
100
AcDbLine
 10
329.4664930520194
 20
162.0800591904317
 30
0.0
 11
329.4664930520194
 21
161.9677490776139
 31
0.0
  0
LWPOLYLINE
  5
1CC
330
70
100
AcDbEntity
  8
Camada 2
 62
     7
370
    35
100
AcDbPolyline
 90
        3
 70
     0
 43
0.0
 10
331.3054850220469
 20
160.1645861006327
 10
331.3867892755006
 20
160.1211778975194
 10
331.421929249449
 20
160.1645861006327
  0
LWPOLYLINE
  5
1CD
330
70
100
AcDbEntity
  8
Camada 2
 62
     7
370
    35
100
AcDbPolyline
 90
        3
 70
     0
 43
0.0
 10
331.6589518188339
 20
159.9316976458303
 10
331.6203667493974
 20
159.8490153541843
 10
331.6589518188339
 20
159.8104302847496
  0
LINE
  5
1CE
330
70
100
AcDbEntity
  8
Camada 2
 62
     7
370
    35
100
AcDbLine
 10
333.3808105423632
 20
158.0499864917874
 30
0.0
 11
333.5365288582943
 21
158.0499864917874
 31
0.0
  0
LINE
  5
1CF
330
70
100
AcDbEntity
  8
Camada 2
 62
     7
370
    35
100
AcDbLine
 10
333.7349663582463
 20
157.8508599727392
 30
0.0
 11
333.7349663582463
 21
157.734415745339
 31
0.0
  0
LINE
  5
1D0
330
70
100
AcDbEntity
  8
Camada 2
 62
     7
370
    35
100
AcDbLine
 10
328.9187228698647
 20
162.5506592337169
 30
0.0
 11
334.9435058544695
 21
168.5795763329042
 31
0.0
  0
LINE
  5
1D1
330
70
100
AcDbEntity
  8
Camada 2
 62
     7
370
    35
100
AcDbLine
 10
335.4954101512085
 20
167.9918430431207
 30
0.0
 11
337.3330240830401
 21
166.1535400921912
 31
0.0
  0
LINE
  5
1D2
330
70
100
AcDbEntity
  8
Camada 2
 62
     7
370
    35
100
AcDbLine
 10
337.6871798989232
 20
165.8386583648407
 30
0.0
 11
339.4090386224525
 21
164.0740804572942
 31
0.0
  0
LWPOLYLINE
  5
1D3
330
70
100
AcDbEntity
  8
Camada 2
 62
     7
370
    35
100
AcDbPolyline
 90
        3
 70
     0
 43
0.0
 10
335.1412543353254
 20
168.2254205170211
 10
335.1805284238544
 20
168.3074137895692
 10
335.1412543353254
 20
168.3459988590039
  0
LWPOLYLINE
  5
1D4
330
70
100
AcDbEntity
  8
Camada 2
 62
     7
370
    35
100
AcDbPolyline
 90
        3
 70
     0
 43
0.0
 10
335.4954101512085
 20
167.9918430431207
 10
335.4520019480951
 20
168.0311171316534
 10
335.3782769047102
 20
167.9918430431207
  0
LWPOLYLINE
  5
1D5
330
70
100
AcDbEntity
  8
Camada 2
 62
     7
370
    35
100
AcDbPolyline
 90
        3
 70
     0
 43
0.0
 10
337.3330240830401
 20
166.0329617502084
 10
337.3722981715728
 20
166.1156440418544
 10
337.3330240830401
 20
166.1500949967067
  0
LINE
  5
1D6
330
70
100
AcDbEntity
  8
Camada 2
 62
     7
370
    35
100
AcDbLine
 10
337.6871798989232
 20
165.8386583648407
 30
0.0
 11
337.5666015569404
 21
165.8386583648407
 31
0.0
  0
LWPOLYLINE
  5
1D7
330
70
100
AcDbEntity
  8
Camada 2
 62
     7
370
    35
100
AcDbPolyline
 90
        3
 70
     0
 43
0.0
 10
339.4090386224525
 20
163.9617703444764
 10
339.4476236918854
 20
164.039629502442
 10
339.4090386224525
 20
164.0775255527805
  0
LWPOLYLINE
  5
1D8
330
70
100
AcDbEntity
  8
Camada 2
 62
     7
370
    35
100
AcDbPolyline
 90
        3
 70
     0
 43
0.0
 10
339.7583713046552
 20
163.7288818896722
 10
339.6812011657857
 20
163.7633328445245
 10
339.6426160963529
 20
163.7288818896722
  0
LINE
  5
1D9
330
70
100
AcDbEntity
  8
Camada 2
 62
     7
370
    35
100
AcDbLine
 10
325.1208496069267
 20
162.1186442598664
 30
0.0
 11
336.116905376748
 21
151.1191433945623
 31
0.0
  0
LINE
  5
1DA
330
70
100
AcDbEntity
  8
Camada 2
 62
     7
370
    35
100
AcDbLine
 10
333.7349663582463
 20
157.7392388790176
 30
0.0
 11
335.5691351945934
 21
155.900935928088
 31
0.0
  0
LINE
  5
1DB
330
70
100
AcDbEntity
  8
Camada 2
 62
     7
370
    35
100
AcDbLine
 10
339.7583713046552
 20
163.7288818896722
 30
0.0
 11
341.5980522937789
 21
161.9257189126929
 31
0.0
  0
LINE
  5
1DC
330
70
100
AcDbEntity
  8
Camada 2
 62
     7
370
    35
100
AcDbLine
 10
318.035666231961
 20
155.0382840185811
 30
0.0
 11
329.0351670972668
 21
143.9988200456464
 31
0.0
  0
LINE
  5
1DD
330
70
100
AcDbEntity
  8
Camada 2
 62
     7
370
    35
100
AcDbLine
 10
345.8258734732772
 20
164.393785318327
 30
0.0
 11
337.9986165307891
 21
172.2210422608132
 31
0.0
  0
LINE
  5
1DE
330
70
100
AcDbEntity
  8
Camada 2
 62
     7
370
    35
100
AcDbLine
 10
349.5458875782497
 20
168.3032796749885
 30
0.0
 11
341.8350748631638
 21
176.0526774595091
 31
0.0
  0
LINE
  5
1DF
330
70
100
AcDbEntity
  8
Camada 2
 62
     7
370
    35
100
AcDbLine
 10
352.7181315010675
 20
172.8080865315005
 30
0.0
 11
344.5401638381845
 21
180.9522922586311
 31
0.0
  0
LINE
  5
1E0
330
70
100
AcDbEntity
  8
Camada 2
 62
     7
370
    35
100
AcDbLine
 10
355.3419162226346
 20
177.8179443861499
 30
0.0
 11
347.000651033748
 21
186.1557644795521
 31
0.0
  0
LINE
  5
1E1
330
70
100
AcDbEntity
  8
Camada 2
 62
     7
370
    35
100
AcDbLine
 10
357.7665744251535
 20
183.0620687337978
 30
0.0
 11
353.6979166570745
 21
187.1355496355572
 31
0.0
  0
LINE
  5
1E2
330
70
100
AcDbEntity
  8
Camada 2
 62
     7
370
    35
100
AcDbLine
 10
345.437955721638
 20
182.7899061904627
 30
0.0
 11
349.3901692623185
 21
186.7813938196741
 31
0.0
  0
LINE
  5
1E3
330
70
100
AcDbEntity
  8
Camada 2
 62
     7
370
    35
100
AcDbLine
 10
339.6040310269163
 20
169.3209608813304
 30
0.0
 11
356.3947374029267
 21
186.1164903910212
 31
0.0
  0
LINE
  5
1E4
330
70
100
AcDbEntity
  8
Camada 2
 62
     7
370
    35
100
AcDbLine
 10
343.4012152707583
 20
165.4893256826362
 30
0.0
 11
354.9050781151054
 21
176.9945665651758
 31
0.0
  0
LINE
  5
1E5
330
70
100
AcDbEntity
  8
Camada 2
 62
     7
370
    35
100
AcDbLine
 10
345.1616590637204
 20
163.7633328445245
 30
0.0
 11
349.0367024655316
 21
167.5997911768991
 31
0.0
  0
LINE
  5
1E6
330
70
100
AcDbEntity
  8
Camada 2
 62
     7
370
    35
100
AcDbLine
 10
337.3330240830401
 20
171.5568278512582
 30
0.0
 11
342.4248752102394
 21
176.6445448638751
 31
0.0
  0
LINE
  5
1E7
330
70
100
AcDbEntity
  8
Camada 2
 62
     7
370
    35
100
AcDbLine
 10
337.0574164442187
 20
171.867575464028
 30
0.0
 11
345.4765407910745
 21
163.448451117174
 31
0.0
  0
LINE
  5
1E8
330
70
100
AcDbEntity
  8
Camada 2
 62
     7
370
    35
100
AcDbLine
 10
321.1686360662479
 20
158.9904975592599
 30
0.0
 11
321.7549913178373
 21
159.5768528108492
 31
0.0
  0
LWPOLYLINE
  5
1E9
330
70
100
AcDbEntity
  8
Camada 2
 62
     7
370
    35
100
AcDbPolyline
 90
        7
 70
     0
 43
0.0
 10
325.1208496069267
 20
162.1186442598664
 10
323.7104275152669
 20
161.1788222114901
 10
322.3806206579593
 20
160.1211778975194
 10
321.1638129325693
 20
158.9856744255812
 10
319.9938585057789
 20
157.7392388790176
 10
318.9720431848527
 20
156.4046088880313
 10
318.035666231961
 20
155.0382840185811
  0
SPLINE
  5
1EA
330
70
100
AcDbEntity
  8
Camada 2
 62
     7
370
    35
100
AcDbSpline
210
0.0
220
0.0
230
1.0
 70
    11
 71
     3
 72
    44
 73
    40
 74
     0
 42
0.0000000001
 43
0.0000000001
 40
0.0
 40
0.0
 40
0.0
 40
0.0
 40
1.0
 40
1.0
 40
1.0
 40
2.0
 40
2.0
 40
2.0
 40
3.0
 40
3.0
 40
3.0
 40
4.0
 40
4.0
 40
4.0
 40
5.0
 40
5.0
 40
5.0
 40
6.0
 40
6.0
 40
6.0
 40
7.0
 40
7.0
 40
7.0
 40
8.0
 40
8.0
 40
8.0
 40
9.0
 40
9.0
 40
9.0
 40
10.0
 40
10.0
 40
10.0
 40
11.0
 40
11.0
 40
11.0
 40
12.0
 40
12.0
 40
12.0
 40
13.0
 40
13.0
 40
13.0
 40
13.0
 10
325.354427080827
 20
160.5531928713699
 30
0.0
 10
325.354427080827
 20
160.5531928713699
 30
0.0
 10
325.1208496069267
 20
160.7082221682067
 30
0.0
 10
325.1208496069267
 20
160.7082221682067
 30
0.0
 10
325.1208496069267
 20
160.7082221682067
 30
0.0
 10
324.7673828101397
 20
160.7860813261723
 30
0.0
 10
324.7673828101397
 20
160.7860813261723
 30
0.0
 10
322.8939398852599
 20
160.7605876195812
 30
0.0
 10
319.2393825945073
 20
157.1570177420108
 30
0.0
 10
319.44195420904
 20
155.2711724733853
 30
0.0
 10
319.44195420904
 20
155.2711724733853
 30
0.0
 10
319.5625325510246
 20
154.9562907460331
 30
0.0
 10
319.5625325510246
 20
154.9562907460331
 30
0.0
 10
319.5625325510246
 20
154.9562907460331
 30
0.0
 10
319.7568359363923
 20
154.7619873606654
 30
0.0
 10
319.7568359363923
 20
154.7619873606654
 30
0.0
 10
319.7568359363923
 20
154.7619873606654
 30
0.0
 10
320.067583549162
 20
154.6414090186808
 30
0.0
 10
320.067583549162
 20
154.6414090186808
 30
0.0
 10
320.848931205217
 20
154.5194526385039
 30
0.0
 10
322.0574707014421
 20
155.2615262060262
 30
0.0
 10
322.6135091127617
 20
155.7369493829901
 30
0.0
 10
322.6135091127617
 20
155.7369493829901
 30
0.0
 10
323.2012424025452
 20
156.2109945217598
 30
0.0
 10
323.2012424025452
 20
156.2109945217598
 30
0.0
 10
323.2012424025452
 20
156.2109945217598
 30
0.0
 10
323.7483235656037
 20
156.7594537230125
 30
0.0
 10
323.7483235656037
 20
156.7594537230125
 30
0.0
 10
324.382910153985
 20
157.3685466048045
 30
0.0
 10
325.3151529922943
 20
158.6232503805331
 30
0.0
 10
325.509456377662
 20
159.4996826719798
 30
0.0
 10
325.509456377662
 20
159.4996826719798
 30
0.0
 10
325.5873155356312
 20
159.9654595815864
 30
0.0
 10
325.5873155356312
 20
159.9654595815864
 30
0.0
 10
325.5873155356312
 20
159.9654595815864
 30
0.0
 10
325.509456377662
 20
160.3196153974695
 30
0.0
 10
325.509456377662
 20
160.3196153974695
 30
0.0
 10
325.509456377662
 20
160.3196153974695
 30
0.0
 10
325.354427080827
 20
160.5531928713699
 30
0.0
 10
325.354427080827
 20
160.5531928713699
 30
0.0
  0
SPLINE
  5
1EB
330
70
100
AcDbEntity
  8
Camada 2
 62
     7
370
    35
100
AcDbSpline
210
0.0
220
0.0
230
1.0
 70
    11
 71
     3
 72
    56
 73
    52
 74
     0
 42
0.0000000001
 43
0.0000000001
 40
0.0
 40
0.0
 40
0.0
 40
0.0
 40
1.0
 40
1.0
 40
1.0
 40
2.0
 40
2.0
 40
2.0
 40
3.0
 40
3.0
 40
3.0
 40
4.0
 40
4.0
 40
4.0
 40
5.0
 40
5.0
 40
5.0
 40
6.0
 40
6.0
 40
6.0
 40
7.0
 40
7.0
 40
7.0
 40
8.0
 40
8.0
 40
8.0
 40
9.0
 40
9.0
 40
9.0
 40
10.0
 40
10.0
 40
10.0
 40
11.0
 40
11.0
 40
11.0
 40
12.0
 40
12.0
 40
12.0
 40
13.0
 40
13.0
 40
13.0
 40
14.0
 40
14.0
 40
14.0
 40
15.0
 40
15.0
 40
15.0
 40
16.0
 40
16.0
 40
16.0
 40
17.0
 40
17.0
 40
17.0
 40
17.0
 10
334.5927951340709
 20
151.3568549830434
 30
0.0
 10
334.5927951340709
 20
151.3568549830434
 30
0.0
 10
334.7492024691019
 20
151.0805583251258
 30
0.0
 10
334.7492024691019
 20
151.0805583251258
 30
0.0
 10
334.7492024691019
 20
151.0805583251258
 30
0.0
 10
334.7870985194422
 20
150.7305366238252
 30
0.0
 10
334.7870985194422
 20
150.7305366238252
 30
0.0
 10
334.7960557677034
 20
148.8922336728956
 30
0.0
 10
331.2145345012359
 20
145.2418104967255
 30
0.0
 10
329.3073296406037
 20
145.4402479966756
 30
0.0
 10
329.3073296406037
 20
145.4402479966756
 30
0.0
 10
328.9965820278339
 20
145.5222412692237
 30
0.0
 10
328.9965820278339
 20
145.5222412692237
 30
0.0
 10
328.9965820278339
 20
145.5222412692237
 30
0.0
 10
328.7588704393493
 20
145.7585748195124
 30
0.0
 10
328.7588704393493
 20
145.7585748195124
 30
0.0
 10
328.7588704393493
 20
145.7585748195124
 30
0.0
 10
328.6817003004799
 20
146.0700114513784
 30
0.0
 10
328.6817003004799
 20
146.0700114513784
 30
0.0
 10
328.6817003004799
 20
146.0700114513784
 30
0.0
 10
328.6817003004799
 20
146.4634413557942
 30
0.0
 10
328.6817003004799
 20
146.4634413557942
 30
0.0
 10
328.6817003004799
 20
146.4634413557942
 30
0.0
 10
328.8022786424662
 20
146.9333523799832
 30
0.0
 10
328.8022786424662
 20
146.9333523799832
 30
0.0
 10
328.8022786424662
 20
146.9333523799832
 30
0.0
 10
329.0351670972668
 20
147.4425374927032
 30
0.0
 10
329.0351670972668
 20
147.4425374927032
 30
0.0
 10
329.0351670972668
 20
147.4425374927032
 30
0.0
 10
329.3500488246209
 20
148.0295817633887
 30
0.0
 10
329.3500488246209
 20
148.0295817633887
 30
0.0
 10
329.3500488246209
 20
148.0295817633887
 30
0.0
 10
329.7427897099369
 20
148.616626034076
 30
0.0
 10
329.7427897099369
 20
148.616626034076
 30
0.0
 10
329.7427897099369
 20
148.616626034076
 30
0.0
 10
330.2085666195453
 20
149.1643962162306
 30
0.0
 10
330.2085666195453
 20
149.1643962162306
 30
0.0
 10
330.2085666195453
 20
149.1643962162306
 30
0.0
 10
330.7570258207961
 20
149.7121663983853
 30
0.0
 10
330.7570258207961
 20
149.7121663983853
 30
0.0
 10
331.6506835896689
 20
150.5024713027014
 30
0.0
 10
332.3321234766518
 20
151.1625515976757
 30
0.0
 10
333.5365288582943
 20
151.4732992104455
 30
0.0
 10
333.5365288582943
 20
151.4732992104455
 30
0.0
 10
333.9671657939507
 20
151.5504693493149
 30
0.0
 10
333.9671657939507
 20
151.5504693493149
 30
0.0
 10
333.9671657939507
 20
151.5504693493149
 30
0.0
 10
334.3213216098338
 20
151.5070611461997
 30
0.0
 10
334.3213216098338
 20
151.5070611461997
 30
0.0
 10
334.3213216098338
 20
151.5070611461997
 30
0.0
 10
334.5927951340709
 20
151.3568549830434
 30
0.0
 10
334.5927951340709
 20
151.3568549830434
 30
0.0
  0
SPLINE
  5
1EC
330
70
100
AcDbEntity
  8
Camada 2
 62
     7
370
    35
100
AcDbSpline
210
0.0
220
0.0
230
1.0
 70
    11
 71
     3
 72
    29
 73
    25
 74
     0
 42
0.0000000001
 43
0.0000000001
 40
0.0
 40
0.0
 40
0.0
 40
0.0
 40
1.0
 40
1.0
 40
1.0
 40
2.0
 40
2.0
 40
2.0
 40
3.0
 40
3.0
 40
3.0
 40
4.0
 40
4.0
 40
4.0
 40
5.0
 40
5.0
 40
5.0
 40
6.0
 40
6.0
 40
6.0
 40
7.0
 40
7.0
 40
7.0
 40
8.0
 40
8.0
 40
8.0
 40
8.0
 10
331.1497667061158
 20
153.1172987760055
 30
0.0
 10
331.1497667061158
 20
153.1172987760055
 30
0.0
 10
331.0677734335659
 20
153.8986464320605
 30
0.0
 10
331.0677734335659
 20
153.8986464320605
 30
0.0
 10
331.0677734335659
 20
153.8986464320605
 30
0.0
 10
330.8348849787617
 20
154.6414090186808
 30
0.0
 10
330.8348849787617
 20
154.6414090186808
 30
0.0
 10
329.2811469149128
 20
158.3262831497031
 30
0.0
 10
324.0080837651913
 20
157.8081407887221
 30
0.0
 10
323.1619683140125
 20
153.8986464320605
 30
0.0
 10
323.1619683140125
 20
153.8986464320605
 30
0.0
 10
323.0847981751431
 20
153.1172987760055
 30
0.0
 10
323.0847981751431
 20
153.1172987760055
 30
0.0
 10
323.0847981751431
 20
153.1172987760055
 30
0.0
 10
323.1619683140125
 20
152.2925429168372
 30
0.0
 10
323.1619683140125
 20
152.2925429168372
 30
0.0
 10
324.0080837651913
 20
148.3878716938561
 30
0.0
 10
329.2811469149128
 20
147.8655952182907
 30
0.0
 10
330.8348849787617
 20
151.5504693493149
 30
0.0
 10
330.8348849787617
 20
151.5504693493149
 30
0.0
 10
331.0677734335659
 20
152.2925429168372
 30
0.0
 10
331.0677734335659
 20
152.2925429168372
 30
0.0
 10
331.0677734335659
 20
152.2925429168372
 30
0.0
 10
331.1497667061158
 20
153.1172987760055
 30
0.0
 10
331.1497667061158
 20
153.1172987760055
 30
0.0
  0
LWPOLYLINE
  5
1ED
330
70
100
AcDbEntity
  8
Camada 2
 62
     7
370
    35
100
AcDbPolyline
 90
        3
 70
     0
 43
0.0
 10
342.4214301147549
 20
176.6404107492926
 10
345.1616590637204
 20
182.2848551923252
 10
347.7847547661913
 20
187.9162082725143
  0
SPLINE
  5
1EE
330
70
100
AcDbEntity
  8
Camada 2
 62
     7
370
    35
100
AcDbSpline
210
0.0
220
0.0
230
1.0
 70
     8
 71
     3
 72
    14
 73
    10
 74
     0
 42
0.0000000001
 43
0.0000000001
 40
0.0
 40
0.0
 40
0.0
 40
0.0
 40
1.0
 40
1.0
 40
1.0
 40
2.0
 40
2.0
 40
2.0
 40
3.0
 40
3.0
 40
3.0
 40
3.0
 10
349.6237467362189
 20
192.2232666481741
 30
0.0
 10
349.6237467362189
 20
192.2232666481741
 30
0.0
 10
351.3848795482772
 20
197.1118571417446
 30
0.0
 10
351.3848795482772
 20
197.1118571417446
 30
0.0
 10
352.8035698691019
 20
201.117814171992
 30
0.0
 10
353.6414170911157
 20
205.4145372611965
 30
0.0
 10
354.244997820133
 20
209.6010172948718
 30
0.0
 10
354.244997820133
 20
209.6010172948718
 30
0.0
 10
354.556434451999
 20
212.1903510615848
 30
0.0
 10
354.556434451999
 20
212.1903510615848
 30
0.0
  0
SPLINE
  5
1EF
330
70
100
AcDbEntity
  8
Camada 2
 62
     7
370
    35
100
AcDbSpline
210
0.0
220
0.0
230
1.0
 70
     8
 71
     3
 72
    14
 73
    10
 74
     0
 42
0.0000000001
 43
0.0000000001
 40
0.0
 40
0.0
 40
0.0
 40
0.0
 40
1.0
 40
1.0
 40
1.0
 40
2.0
 40
2.0
 40
2.0
 40
3.0
 40
3.0
 40
3.0
 40
3.0
 10
349.0367024655316
 20
167.6039252914816
 30
0.0
 10
349.0367024655316
 20
167.6039252914816
 30
0.0
 10
349.7057400087651
 20
168.5017171749386
 30
0.0
 10
349.7057400087651
 20
168.5017171749386
 30
0.0
 10
353.0281900947411
 20
172.9203966443201
 30
0.0
 10
354.4055392697446
 20
175.4752794561809
 30
0.0
 10
356.7488932188098
 20
180.8696099669851
 30
0.0
 10
356.7488932188098
 20
180.8696099669851
 30
0.0
 10
358.1985893990059
 20
184.0370307561243
 30
0.0
 10
358.1985893990059
 20
184.0370307561243
 30
0.0
  0
SPLINE
  5
1F0
330
70
100
AcDbEntity
  8
Camada 2
 62
     7
370
    35
100
AcDbSpline
210
0.0
220
0.0
230
1.0
 70
     8
 71
     3
 72
    14
 73
    10
 74
     0
 42
0.0000000001
 43
0.0000000001
 40
0.0
 40
0.0
 40
0.0
 40
0.0
 40
1.0
 40
1.0
 40
1.0
 40
2.0
 40
2.0
 40
2.0
 40
3.0
 40
3.0
 40
3.0
 40
3.0
 10
359.9204481225315
 20
188.2310899998665
 30
0.0
 10
359.9204481225315
 20
188.2310899998665
 30
0.0
 10
361.0159884868408
 20
191.0498671258974
 30
0.0
 10
361.0159884868408
 20
191.0498671258974
 30
0.0
 10
363.1050943890987
 20
196.9485596157428
 30
0.0
 10
364.6712347966932
 20
202.9292453781363
 30
0.0
 10
365.3196017670162
 20
209.1690023210213
 30
0.0
 10
365.3196017670162
 20
209.1690023210213
 30
0.0
 10
365.6344834943666
 20
212.1903510615848
 30
0.0
 10
365.6344834943666
 20
212.1903510615848
 30
0.0
  0
LWPOLYLINE
  5
1F1
330
70
100
AcDbEntity
  8
Camada 2
 62
     7
370
    35
100
AcDbPolyline
 90
       14
 70
     0
 43
0.0
 10
370.9585340572739
 20
194.3764513264559
 10
369.2373643528408
 20
194.6871989392257
 10
368.4126084936725
 20
194.7650580971913
 10
367.6712239452463
 20
194.6871989392257
 10
367.0063205165934
 20
194.4887614392737
 10
366.4578613153426
 20
194.0657037136861
 10
366.0265353605901
 20
193.4745253284163
 10
365.6723795447069
 20
192.7710368303287
 10
365.2458767236312
 20
192.1061334016758
 10
364.7704535466655
 20
191.4763699469713
 10
364.2226833645109
 20
190.9671848342514
 10
363.601188138975
 20
190.5399929940813
 10
362.2327962122326
 20
189.8371935150899
 10
360.7438259435075
 20
189.2115641749697
  0
LWPOLYLINE
  5
1F2
330
70
100
AcDbEntity
  8
Camada 2
 62
     7
370
    35
100
AcDbPolyline
 90
       14
 70
     0
 43
0.0
 10
372.3696451680298
 20
191.3647488532497
 10
370.6436523299199
 20
191.6754964660194
 10
369.8244086235281
 20
191.7175266309405
 10
369.0816460369096
 20
191.6754964660194
 10
368.4126084936725
 20
191.4419189921191
 10
367.8648383115178
 20
191.0443549731226
 10
367.4376464713459
 20
190.4242377857772
 10
367.0834906554628
 20
189.7593343571243
 10
366.6562988152946
 20
189.0510227253562
 10
366.1822536765212
 20
188.4646674737669
 10
365.6344834943666
 20
187.9554823610469
 10
365.0122992497309
 20
187.4890164323442
 10
363.6356390938272
 20
186.7813938196741
 10
362.1514919587789
 20
186.1950385680848
  0
SPLINE
  5
1F3
330
70
100
AcDbEntity
  8
Camada 2
 62
     7
370
    35
100
AcDbSpline
210
0.0
220
0.0
230
1.0
 70
     8
 71
     3
 72
    14
 73
    10
 74
     0
 42
0.0000000001
 43
0.0000000001
 40
0.0
 40
0.0
 40
0.0
 40
0.0
 40
1.0
 40
1.0
 40
1.0
 40
2.0
 40
2.0
 40
2.0
 40
3.0
 40
3.0
 40
3.0
 40
3.0
 10
359.9204481225315
 20
188.2310899998665
 30
0.0
 10
359.9204481225315
 20
188.2310899998665
 30
0.0
 10
358.7856336696896
 20
189.6814751991569
 30
0.0
 10
358.7856336696896
 20
189.6814751991569
 30
0.0
 10
355.1296983407447
 20
194.3764513264559
 30
0.0
 10
353.3527180894525
 20
189.5650309717548
 30
0.0
 10
350.132931848937
 20
191.8305257628562
 30
0.0
 10
350.132931848937
 20
191.8305257628562
 30
0.0
 10
348.8045030298235
 20
192.9694743302789
 30
0.0
 10
348.8045030298235
 20
192.9694743302789
 30
0.0
  0
SPLINE
  5
1F4
330
70
100
AcDbEntity
  8
Camada 2
 62
     7
370
    35
100
AcDbSpline
210
0.0
220
0.0
230
1.0
 70
     8
 71
     3
 72
    14
 73
    10
 74
     0
 42
0.0000000001
 43
0.0000000001
 40
0.0
 40
0.0
 40
0.0
 40
0.0
 40
1.0
 40
1.0
 40
1.0
 40
2.0
 40
2.0
 40
2.0
 40
3.0
 40
3.0
 40
3.0
 40
3.0
 10
358.5520561957928
 20
183.5319797579868
 30
0.0
 10
358.5520561957928
 20
183.5319797579868
 30
0.0
 10
357.4172417429509
 20
185.0209500267101
 30
0.0
 10
357.4172417429509
 20
185.0209500267101
 30
0.0
 10
353.7964463879507
 20
189.6635607026328
 30
0.0
 10
351.8368760759404
 20
184.8397380041861
 30
0.0
 10
348.760405807614
 20
187.1741347049919
 30
0.0
 10
348.760405807614
 20
187.1741347049919
 30
0.0
 10
347.4312879694044
 20
188.2703640883992
 30
0.0
 10
347.4312879694044
 20
188.2703640883992
 30
0.0
  0
LWPOLYLINE
  5
1F5
330
70
100
AcDbEntity
  8
Camada 2
 62
     7
370
    35
100
AcDbPolyline
 90
        7
 70
     0
 43
0.0
 10
329.0351670972668
 20
143.9988200456464
 10
330.4462782080264
 20
144.9400201322169
 10
331.775396046236
 20
145.9921522934128
 10
333.0266547264764
 20
147.1317898799334
 10
334.1614691793184
 20
148.3789144455932
 10
335.2239366269714
 20
149.7121663983853
 10
336.116905376748
 20
151.1191433945623
  0
LINE
  5
1F6
330
70
100
AcDbEntity
  8
Camada 2
 62
     7
370
    35
100
AcDbLine
 10
366.7300238586758
 20
212.1903510615848
 30
0.0
 11
354.556434451999
 21
212.1903510615848
 31
0.0
  0
MTEXT
  5
1F7
330
70
100
AcDbEntity
  8
Camada 2
100
AcDbMText
 10
474.2044067382813
 20
318.9480285644531
 30
0.0
 40
0.2
 41
0.0
 46
0.0
 71
     7
 72
     1
  1
\C7;\FMyriad Pro|b0|i0|c1;\H14.160000;\W1.000000;35
 73
     1
 44
1.0
  0
MTEXT
  5
1F8
330
70
100
AcDbEntity
  8
Camada 2
100
AcDbMText
 10
272.87109375
 20
128.2813720703125
 30
0.0
 40
0.2
 41
0.0
 46
0.0
 71
     7
 72
     1
  1
\C7;\FMyriad Pro|b0|i0|c1;\H14.160000;\W1.000000;1/2”
 73
     1
 44
1.0
  0
MTEXT
  5
1F9
330
70
100
AcDbEntity
  8
Camada 2
100
AcDbMText
 10
456.7568969726562
 20
319.1781616210938
 30
0.0
 40
0.2
 41
0.0
 46
0.0
 71
     7
 72
     1
  1
\C7;\FMyriad Pro|b0|i0|c1;\H14.160000;\W1.000000;Ø
 73
     1
 44
1.0
  0
LINE
  5
1FA
330
70
100
AcDbEntity
  8
Camada 2
 62
     7
370
    18
100
AcDbLine
 10
334.7836949560842
 20
315.3900394999237
 30
0.0
 11
342.2836949560842
 21
315.3900394999237
 31
0.0
  0
LINE
  5
1FB
330
70
100
AcDbEntity
  8
Camada 2
 62
     7
370
    18
100
AcDbLine
 10
377.5614727338616
 20
315.3900394999237
 30
0.0
 11
521.0059171783068
 21
315.3900394999237
 31
0.0
  0
LINE
  5
1FC
330
70
100
AcDbEntity
  8
Camada 2
  6
AI-Linetype-0
 62
     7
370
    18
100
AcDbLine
 10
322.0429542153433
 20
146.9455950554784
 30
0.0
 11
322.0429542153433
 21
125.3159654258488
 31
0.0
  0
LINE
  5
1FE
330
70
100
AcDbEntity
  8
Camada 2
  6
AI-Linetype-1
 62
     7
370
    18
100
AcDbLine
 10
265.1540653264537
 20
125.0196691295532
 30
0.0
 11
397.9781394005258
 21
125.0196691295532
 31
0.0
  0
LINE
  5
200
330
70
100
AcDbEntity
  8
Camada 2
  6
AI-Linetype-2
 62
     7
370
    18
100
AcDbLine
 10
397.7466579190477
 20
146.6492987591828
 30
0.0
 11
397.7466579190477
 21
125.167817277701
 31
0.0
  0
ENDSEC
  0
SECTION
  2
OBJECTS
  0
DICTIONARY
  5
C
330
0
100
AcDbDictionary
281
     1
  3
ACAD_COLOR
350
63
  3
ACAD_DETAILVIEWSTYLE
350
6A
  3
ACAD_GROUP
350
D
  3
ACAD_LAYOUT
350
62
  3
ACAD_MATERIAL
350
10
  3
ACAD_MLEADERSTYLE
350
66
  3
ACAD_MLINESTYLE
350
5F
  3
ACAD_PLOTSETTINGS
350
61
  3
ACAD_PLOTSTYLENAME
350
E
  3
ACAD_SCALELIST
350
42
  3
ACAD_SECTIONVIEWSTYLE
350
68
  3
ACAD_TABLESTYLE
350
64
  3
ACAD_VISUALSTYLE
350
29
  3
ACDB_RECOMPOSE_DATA
350
20A
  3
AcDbVariableDictionary
350
202
  0
DICTIONARY
  5
63
102
{ACAD_REACTORS
330
C
102
}
330
C
100
AcDbDictionary
281
     1
  0
DICTIONARY
  5
6A
102
{ACAD_REACTORS
330
C
102
}
330
C
100
AcDbDictionary
281
     1
  3
Imperial24
350
6B
  0
DICTIONARY
  5
D
102
{ACAD_REACTORS
330
C
102
}
330
C
100
AcDbDictionary
281
     1
  0
DICTIONARY
  5
62
102
{ACAD_REACTORS
330
C
102
}
330
C
100
AcDbDictionary
281
     1
  3
Layout1
350
6F
  3
Layout2
350
77
  3
Model
350
73
  0
DICTIONARY
  5
10
102
{ACAD_REACTORS
330
C
102
}
330
C
100
AcDbDictionary
281
     1
  3
ByBlock
350
19
  3
ByLayer
350
11
  3
Global
350
21
  0
DICTIONARY
  5
66
102
{ACAD_REACTORS
330
C
102
}
330
C
100
AcDbDictionary
281
     1
  3
Standard
350
67
  0
DICTIONARY
  5
5F
102
{ACAD_REACTORS
330
C
102
}
330
C
100
AcDbDictionary
281
     1
  3
Standard
350
60
  0
DICTIONARY
  5
61
102
{ACAD_REACTORS
330
C
102
}
330
C
100
AcDbDictionary
281
     1
  0
ACDBDICTIONARYWDFLT
  5
E
102
{ACAD_REACTORS
330
C
102
}
330
C
100
AcDbDictionary
281
     1
  3
Normal
350
F
100
AcDbDictionaryWithDefault
340
F
  0
DICTIONARY
  5
42
102
{ACAD_REACTORS
330
C
102
}
330
C
100
AcDbDictionary
281
     1
  3
A0
350
43
  3
A1
350
44
  3
A2
350
45
  3
A3
350
46
  3
A4
350
47
  3
A5
350
48
  3
A6
350
49
  3
A7
350
4A
  3
A8
350
4B
  3
A9
350
4C
  3
B0
350
4D
  3
B1
350
4E
  3
B2
350
4F
  3
B3
350
50
  3
B4
350
51
  3
B5
350
52
  3
B6
350
53
  0
DICTIONARY
  5
68
102
{ACAD_REACTORS
330
C
102
}
330
C
100
AcDbDictionary
281
     1
  3
Imperial24
350
69
  0
DICTIONARY
  5
64
102
{ACAD_REACTORS
330
C
102
}
330
C
100
AcDbDictionary
281
     1
  3
Standard
350
65
  0
DICTIONARY
  5
29
102
{ACAD_REACTORS
330
C
102
}
330
C
100
AcDbDictionary
281
     1
  3
2dWireframe
350
2F
  3
Basic
350
2E
  3
Brighten
350
35
  3
ColorChange
350
39
  3
Conceptual
350
32
  3
Dim
350
34
  3
EdgeColorOff
350
41
  3
Facepattern
350
38
  3
Flat
350
2A
  3
FlatWithEdges
350
2B
  3
Gouraud
350
2C
  3
GouraudWithEdges
350
2D
  3
Hidden
350
31
  3
JitterOff
350
3F
  3
Linepattern
350
37
  3
OverhangOff
350
40
  3
Realistic
350
33
  3
Shaded
350
3E
  3
Shaded with edges
350
3D
  3
Shades of Gray
350
3A
  3
Sketchy
350
3B
  3
Thicken
350
36
  3
Wireframe
350
30
  3
X-Ray
350
3C
  0
XRECORD
  5
20A
102
{ACAD_REACTORS
330
C
102
}
330
C
100
AcDbXrecord
280
     1
 90
        1
330
65
  0
DICTIONARY
  5
202
102
{ACAD_REACTORS
330
C
102
}
330
C
100
AcDbDictionary
281
     1
  3
CANNOSCALE
350
207
  3
CMLEADERSTYLE
350
204
  3
CTABLESTYLE
350
203
  3
CVIEWDETAILSTYLE
350
205
  3
CVIEWSECTIONSTYLE
350
206
  0
ACDBDETAILVIEWSTYLE
  5
6B
102
{ACAD_REACTORS
330
6A
102
}
330
6A
100
AcDbModelDocViewStyle
 70
     0
  3
Imperial24
290
     1
300
Imperial24
 90
        0
100
AcDbDetailViewStyle
 70
     0
 71
     0
 90
        3
 71
     1
340
55
 62
   256
 40
0.24
340
0
 62
   256
 40
0.24
300

 40
0.36
280
     3
 71
     2
340
5D
 90
       25
 62
   256
 71
     3
340
55
 62
   256
 40
0.24
 90
        1
 40
0.75
 90
        1
300
%<\AcVar ViewType \f "%tc1">% %<\AcVar ViewDetailId>%\PSCALE %<\AcVar ViewScale \f "%sn">%
 71
     4
340
5D
 90
       25
 62
   256
340
5D
 90
       25
 62
   256
280
     0
  0
LAYOUT
  5
6F
102
{ACAD_REACTORS
330
62
102
}
330
62
100
AcDbPlotSettings
  1

  2

  4

  6

 40
0.0
 41
0.0
 42
0.0
 43
0.0
 44
0.0
 45
0.0
 46
0.0
 47
0.0
 48
0.0
 49
0.0
140
0.0
141
0.0
142
1.0
143
1.0
 70
   688
 72
     0
 73
     0
 74
     5
  7

 75
    16
147
1.0
 76
     0
 77
     2
 78
   300
148
0.0
149
0.0
100
AcDbLayout
  1
Layout1
 70
     1
 71
     1
 10
0.0
 20
0.0
 11
12.0
 21
9.0
 12
0.0
 22
0.0
 32
0.0
 14
0.0
 24
0.0
 34
0.0
 15
0.0
 25
0.0
 35
0.0
146
0.0
 13
0.0
 23
0.0
 33
0.0
 16
1.0
 26
0.0
 36
0.0
 17
0.0
 27
1.0
 37
0.0
 76
     0
330
6C
  0
LAYOUT
  5
77
102
{ACAD_REACTORS
330
62
102
}
330
62
100
AcDbPlotSettings
  1

  2

  4

  6

 40
0.0
 41
0.0
 42
0.0
 43
0.0
 44
0.0
 45
0.0
 46
0.0
 47
0.0
 48
0.0
 49
0.0
140
0.0
141
0.0
142
1.0
143
1.0
 70
   688
 72
     0
 73
     0
 74
     5
  7

 75
    16
147
1.0
 76
     0
 77
     2
 78
   300
148
0.0
149
0.0
100
AcDbLayout
  1
Layout2
 70
     1
 71
     2
 10
0.0
 20
0.0
 11
12.0
 21
9.0
 12
0.0
 22
0.0
 32
0.0
 14
0.0
 24
0.0
 34
0.0
 15
0.0
 25
0.0
 35
0.0
146
0.0
 13
0.0
 23
0.0
 33
0.0
 16
1.0
 26
0.0
 36
0.0
 17
0.0
 27
1.0
 37
0.0
 76
     0
330
74
  0
LAYOUT
  5
73
102
{ACAD_REACTORS
330
62
102
}
330
62
100
AcDbPlotSettings
  1

  2

  4

  6

 40
0.0
 41
0.0
 42
0.0
 43
0.0
 44
0.0
 45
0.0
 46
0.0
 47
0.0
 48
0.0
 49
0.0
140
0.0
141
0.0
142
1.0
143
1.0
 70
  1712
 72
     0
 73
     0
 74
     0
  7

 75
     0
147
1.0
 76
     0
 77
     2
 78
   300
148
0.0
149
0.0
100
AcDbLayout
  1
Model
 70
     1
 71
     0
 10
0.0
 20
0.0
 11
12.0
 21
9.0
 12
0.0
 22
0.0
 32
0.0
 14
0.0
 24
0.0
 34
0.0
 15
0.0
 25
0.0
 35
0.0
146
0.0
 13
0.0
 23
0.0
 33
0.0
 16
1.0
 26
0.0
 36
0.0
 17
0.0
 27
1.0
 37
0.0
 76
     0
330
70
  0
MATERIAL
  5
19
102
{ACAD_XDICTIONARY
360
1A
102
}
102
{ACAD_REACTORS
330
10
102
}
330
10
100
AcDbMaterial
  1
ByBlock
 72
     0
 43
0.0208333333333333
 43
0.0
 43
0.0
 43
0.0
 43
0.0
 43
0.0208333333333333
 43
0.0
 43
0.0
 43
0.0
 43
0.0
 43
1.0
 43
0.0
 43
0.0
 43
0.0
 43
0.0
 43
1.0
 77
     0
 47
0.0208333333333333
 47
0.0
 47
0.0
 47
0.0
 47
0.0
 47
0.0208333333333333
 47
0.0
 47
0.0
 47
0.0
 47
0.0
 47
1.0
 47
0.0
 47
0.0
 47
0.0
 47
0.0
 47
1.0
171
     0
 49
0.0208333333333333
 49
0.0
 49
0.0
 49
0.0
 49
0.0
 49
0.0208333333333333
 49
0.0
 49
0.0
 49
0.0
 49
0.0
 49
1.0
 49
0.0
 49
0.0
 49
0.0
 49
0.0
 49
1.0
175
     0
142
0.0208333333333333
142
0.0
142
0.0
142
0.0
142
0.0
142
0.0208333333333333
142
0.0
142
0.0
142
0.0
142
0.0
142
1.0
142
0.0
142
0.0
142
0.0
142
0.0
142
1.0
179
     0
144
0.0208333333333333
144
0.0
144
0.0
144
0.0
144
0.0
144
0.0208333333333333
144
0.0
144
0.0
144
0.0
144
0.0
144
1.0
144
0.0
144
0.0
144
0.0
144
0.0
144
1.0
147
0.0208333333333333
147
0.0
147
0.0
147
0.0
147
0.0
147
0.0208333333333333
147
0.0
147
0.0
147
0.0
147
0.0
147
1.0
147
0.0
147
0.0
147
0.0
147
0.0
147
1.0
  0
MATERIAL
  5
11
102
{ACAD_XDICTIONARY
360
12
102
}
102
{ACAD_REACTORS
330
10
102
}
330
10
100
AcDbMaterial
  1
ByLayer
 72
     0
 43
0.0208333333333333
 43
0.0
 43
0.0
 43
0.0
 43
0.0
 43
0.0208333333333333
 43
0.0
 43
0.0
 43
0.0
 43
0.0
 43
1.0
 43
0.0
 43
0.0
 43
0.0
 43
0.0
 43
1.0
 77
     0
 47
0.0208333333333333
 47
0.0
 47
0.0
 47
0.0
 47
0.0
 47
0.0208333333333333
 47
0.0
 47
0.0
 47
0.0
 47
0.0
 47
1.0
 47
0.0
 47
0.0
 47
0.0
 47
0.0
 47
1.0
171
     0
 49
0.0208333333333333
 49
0.0
 49
0.0
 49
0.0
 49
0.0
 49
0.0208333333333333
 49
0.0
 49
0.0
 49
0.0
 49
0.0
 49
1.0
 49
0.0
 49
0.0
 49
0.0
 49
0.0
 49
1.0
175
     0
142
0.0208333333333333
142
0.0
142
0.0
142
0.0
142
0.0
142
0.0208333333333333
142
0.0
142
0.0
142
0.0
142
0.0
142
1.0
142
0.0
142
0.0
142
0.0
142
0.0
142
1.0
179
     0
144
0.0208333333333333
144
0.0
144
0.0
144
0.0
144
0.0
144
0.0208333333333333
144
0.0
144
0.0
144
0.0
144
0.0
144
1.0
144
0.0
144
0.0
144
0.0
144
0.0
144
1.0
147
0.0208333333333333
147
0.0
147
0.0
147
0.0
147
0.0
147
0.0208333333333333
147
0.0
147
0.0
147
0.0
147
0.0
147
1.0
147
0.0
147
0.0
147
0.0
147
0.0
147
1.0
  0
MATERIAL
  5
21
102
{ACAD_XDICTIONARY
360
22
102
}
102
{ACAD_REACTORS
330
10
102
}
330
10
100
AcDbMaterial
  1
Global
 72
     0
 43
0.0208333333333333
 43
0.0
 43
0.0
 43
0.0
 43
0.0
 43
0.0208333333333333
 43
0.0
 43
0.0
 43
0.0
 43
0.0
 43
1.0
 43
0.0
 43
0.0
 43
0.0
 43
0.0
 43
1.0
 77
     0
 47
0.0208333333333333
 47
0.0
 47
0.0
 47
0.0
 47
0.0
 47
0.0208333333333333
 47
0.0
 47
0.0
 47
0.0
 47
0.0
 47
1.0
 47
0.0
 47
0.0
 47
0.0
 47
0.0
 47
1.0
171
     0
 49
0.0208333333333333
 49
0.0
 49
0.0
 49
0.0
 49
0.0
 49
0.0208333333333333
 49
0.0
 49
0.0
 49
0.0
 49
0.0
 49
1.0
 49
0.0
 49
0.0
 49
0.0
 49
0.0
 49
1.0
175
     0
142
0.0208333333333333
142
0.0
142
0.0
142
0.0
142
0.0
142
0.0208333333333333
142
0.0
142
0.0
142
0.0
142
0.0
142
1.0
142
0.0
142
0.0
142
0.0
142
0.0
142
1.0
179
     0
144
0.0208333333333333
144
0.0
144
0.0
144
0.0
144
0.0
144
0.0208333333333333
144
0.0
144
0.0
144
0.0
144
0.0
144
1.0
144
0.0
144
0.0
144
0.0
144
0.0
144
1.0
147
0.0208333333333333
147
0.0
147
0.0
147
0.0
147
0.0
147
0.0208333333333333
147
0.0
147
0.0
147
0.0
147
0.0
147
1.0
147
0.0
147
0.0
147
0.0
147
0.0
147
1.0
  0
MLEADERSTYLE
  5
67
102
{ACAD_REACTORS
330
66
102
}
330
66
100
AcDbMLeaderStyle
179
     2
170
     2
171
     1
172
     0
 90
        2
 40
0.0
 41
0.0
173
     1
 91
-1056964608
340
5B
 92
       -2
290
     1
 42
0.09
291
     1
 43
0.36
  3
Standard
 44
0.18
300

342
55
174
     1
178
     6
175
     1
176
     0
 93
-1056964608
 45
0.18
292
     0
297
     0
 46
0.18
 94
-1056964608
 47
1.0
 49
1.0
140
1.0
293
     1
141
0.0
294
     1
177
     0
142
1.0
295
     1
296
     0
143
0.125
271
     0
272
     9
273
     9
298
     1
  0
MLINESTYLE
  5
60
102
{ACAD_REACTORS
330
5F
102
}
330
5F
100
AcDbMlineStyle
  2
STANDARD
 70
     0
  3

 62
   256
 51
90.0
 52
90.0
 71
     2
 49
0.5
 62
   256
  6
BYLAYER
 49
-0.5
 62
   256
  6
BYLAYER
  0
ACDBPLACEHOLDER
  5
F
102
{ACAD_REACTORS
330
E
102
}
330
E
  0
SCALE
  5
43
102
{ACAD_REACTORS
330
42
102
}
330
42
100
AcDbScale
 70
     0
300
1:1
140
1.0
141
1.0
290
     1
  0
SCALE
  5
44
102
{ACAD_REACTORS
330
42
102
}
330
42
100
AcDbScale
 70
     0
300
1/128" = 1'-0"
140
0.0078125
141
12.0
290
     0
  0
SCALE
  5
45
102
{ACAD_REACTORS
330
42
102
}
330
42
100
AcDbScale
 70
     0
300
1/64" = 1'-0"
140
0.015625
141
12.0
290
     0
  0
SCALE
  5
46
102
{ACAD_REACTORS
330
42
102
}
330
42
100
AcDbScale
 70
     0
300
1/32" = 1'-0"
140
0.03125
141
12.0
290
     0
  0
SCALE
  5
47
102
{ACAD_REACTORS
330
42
102
}
330
42
100
AcDbScale
 70
     0
300
1/16" = 1'-0"
140
0.0625
141
12.0
290
     0
  0
SCALE
  5
48
102
{ACAD_REACTORS
330
42
102
}
330
42
100
AcDbScale
 70
     0
300
3/32" = 1'-0"
140
0.09375
141
12.0
290
     0
  0
SCALE
  5
49
102
{ACAD_REACTORS
330
42
102
}
330
42
100
AcDbScale
 70
     0
300
1/8" = 1'-0"
140
0.125
141
12.0
290
     0
  0
SCALE
  5
4A
102
{ACAD_REACTORS
330
42
102
}
330
42
100
AcDbScale
 70
     0
300
3/16" = 1'-0"
140
0.1875
141
12.0
290
     0
  0
SCALE
  5
4B
102
{ACAD_REACTORS
330
42
102
}
330
42
100
AcDbScale
 70
     0
300
1/4" = 1'-0"
140
0.25
141
12.0
290
     0
  0
SCALE
  5
4C
102
{ACAD_REACTORS
330
42
102
}
330
42
100
AcDbScale
 70
     0
300
3/8" = 1'-0"
140
0.375
141
12.0
290
     0
  0
SCALE
  5
4D
102
{ACAD_REACTORS
330
42
102
}
330
42
100
AcDbScale
 70
     0
300
1/2" = 1'-0"
140
0.5
141
12.0
290
     0
  0
SCALE
  5
4E
102
{ACAD_REACTORS
330
42
102
}
330
42
100
AcDbScale
 70
     0
300
3/4" = 1'-0"
140
0.75
141
12.0
290
     0
  0
SCALE
  5
4F
102
{ACAD_REACTORS
330
42
102
}
330
42
100
AcDbScale
 70
     0
300
1" = 1'-0"
140
1.0
141
12.0
290
     0
  0
SCALE
  5
50
102
{ACAD_REACTORS
330
42
102
}
330
42
100
AcDbScale
 70
     0
300
1-1/2" = 1'-0"
140
1.5
141
12.0
290
     0
  0
SCALE
  5
51
102
{ACAD_REACTORS
330
42
102
}
330
42
100
AcDbScale
 70
     0
300
3" = 1'-0"
140
3.0
141
12.0
290
     0
  0
SCALE
  5
52
102
{ACAD_REACTORS
330
42
102
}
330
42
100
AcDbScale
 70
     0
300
6" = 1'-0"
140
6.0
141
12.0
290
     0
  0
SCALE
  5
53
102
{ACAD_REACTORS
330
42
102
}
330
42
100
AcDbScale
 70
     0
300
1'-0" = 1'-0"
140
12.0
141
12.0
290
     0
  0
ACDBSECTIONVIEWSTYLE
  5
69
102
{ACAD_REACTORS
330
68
102
}
330
68
100
AcDbModelDocViewStyle
 70
     0
  3
Imperial24
290
     1
300
Imperial24
 90
        0
100
AcDbSectionViewStyle
 70
     0
 71
     0
 90
       78
 71
     1
340
55
 62
   256
 40
0.24
340
0
340
0
 62
   256
 40
0.24
300
I, O, Q, S, X, Z
 40
0.48
 90
        3
 40
0.18
 90
        1
 71
     2
340
5D
 90
       25
 62
   256
340
5D
 90
       50
 62
   256
 40
0.24
 40
0.0
 40
0.24
 71
     3
340
55
 62
   256
 40
0.24
 90
        1
 40
0.75
 90
        1
300
%<\AcVar ViewType \f "%tc1">% %<\AcVar ViewSectionStartId>%-%<\AcVar ViewSectionEndId>%\PSCALE %<\AcVar ViewScale \f "%sn">%
 71
     4
 62
   256
 62
   257
300
ANSI31
 40
1.0
 90
        0
290
     0
290
     0
 90
        6
 40
0.0
 40
1.570796326794896
 40
0.2617993877991494
 40
1.308996938995747
 40
-0.2617993877991494
 40
1.832595714594046
  0
TABLESTYLE
  5
65
102
{ACAD_XDICTIONARY
360
208
102
}
102
{ACAD_REACTORS
330
64
102
}
330
64
100
AcDbTableStyle
280
     0
  3
Standard
 70
     0
 71
     0
 40
0.06
 41
0.06
280
     0
281
     0
  7
Standard
140
0.18
170
     2
 62
     0
 63
     7
283
     0
 90
      512
 91
        0
  1

274
    -2
284
     1
 64
     0
275
    -2
285
     1
 65
     0
276
    -2
286
     1
 66
     0
277
    -2
287
     1
 67
     0
278
    -2
288
     1
 68
     0
279
    -2
289
     1
 69
     0
  7
Standard
140
0.25
170
     5
 62
     0
 63
     7
283
     0
 90
      512
 91
        0
  1

274
    -2
284
     1
 64
     0
275
    -2
285
     1
 65
     0
276
    -2
286
     1
 66
     0
277
    -2
287
     1
 67
     0
278
    -2
288
     1
 68
     0
279
    -2
289
     1
 69
     0
  7
Standard
140
0.18
170
     5
 62
     0
 63
     7
283
     0
 90
      512
 91
        0
  1

274
    -2
284
     1
 64
     0
275
    -2
285
     1
 65
     0
276
    -2
286
     1
 66
     0
277
    -2
287
     1
 67
     0
278
    -2
288
     1
 68
     0
279
    -2
289
     1
 69
     0
  0
VISUALSTYLE
  5
2F
102
{ACAD_REACTORS
330
29
102
}
330
29
100
AcDbVisualStyle
  2
2dWireframe
 70
     4
177
     3
291
     0
 70
    58
 90
        0
176
     1
 90
        2
176
     1
 90
        0
176
     1
 90
        0
176
     1
 40
0.6
176
     1
 40
30.0
176
     1
 62
     7
420
 16777215
176
     1
 90
        1
176
     1
 90
        4
176
     1
 62
     7
176
     1
 62
   257
176
     1
 90
        1
176
     1
 90
        1
176
     1
 40
1.0
176
     1
 90
        0
176
     1
 62
   257
176
     1
 40
1.0
176
     1
 90
        1
176
     1
 90
        6
176
     1
 90
        2
176
     1
 62
     7
176
     1
 90
        5
176
     1
 90
        0
176
     1
 90
        0
176
     1
290
     0
176
     1
 90
        1
176
     1
 40
0.0
176
     1
 90
        0
176
     1
290
     1
176
     1
290
     1
176
     1
290
     0
176
     1
290
     0
176
     1
290
     0
176
     1
290
     0
176
     1
290
     0
176
     1
290
     0
176
     1
290
     0
176
     1
 90
       50
176
     1
 40
0.0
176
     1
 40
1.0
176
     1
 90
        0
176
     1
 62
    18
420
        0
176
     1
 90
       50
176
     1
 90
        3
176
     1
 62
     5
420
      255
176
     1
290
     0
176
     1
 90
       50
176
     1
 90
       50
176
     1
 90
       50
176
     1
290
     0
176
     1
 90
       50
176
     1
 62
   256
176
     0
 40
1.0
176
     0
 90
        2
176
     1
  1
strokes_ogs.tif
176
     1
290
     0
176
     1
 40
1.0
176
     1
 40
1.0
176
     1
  0
VISUALSTYLE
  5
2E
102
{ACAD_REACTORS
330
29
102
}
330
29
100
AcDbVisualStyle
  2
Basic
 70
     7
177
     3
291
     1
 70
    58
 90
        1
176
     1
 90
        0
176
     1
 90
        1
176
     1
 90
        0
176
     1
 40
0.6
176
     1
 40
30.0
176
     1
 62
     7
420
 16777215
176
     1
 90
        0
176
     1
 90
        4
176
     1
 62
     7
176
     1
 62
   257
176
     1
 90
        1
176
     1
 90
        1
176
     1
 40
1.0
176
     1
 90
        8
176
     1
 62
     7
176
     1
 40
1.0
176
     1
 90
        1
176
     1
 90
        6
176
     1
 90
        2
176
     1
 62
     7
176
     1
 90
        5
176
     1
 90
        0
176
     1
 90
        0
176
     1
290
     0
176
     1
 90
        1
176
     1
 40
0.0
176
     1
 90
        0
176
     1
290
     0
176
     1
290
     1
176
     1
290
     1
176
     1
290
     0
176
     1
290
     0
176
     1
290
     0
176
     1
290
     0
176
     1
290
     0
176
     1
290
     0
176
     1
 90
       50
176
     1
 40
0.0
176
     1
 40
1.0
176
     1
 90
        0
176
     1
 62
    18
420
        0
176
     1
 90
       50
176
     1
 90
        3
176
     1
 62
     5
420
      255
176
     1
290
     0
176
     1
 90
       50
176
     1
 90
       50
176
     1
 90
       50
176
     1
290
     0
176
     1
 90
       50
176
     1
 62
   256
176
     0
 40
1.0
176
     0
 90
        2
176
     1
  1
strokes_ogs.tif
176
     1
290
     0
176
     1
 40
1.0
176
     1
 40
1.0
176
     1
  0
VISUALSTYLE
  5
35
102
{ACAD_REACTORS
330
29
102
}
330
29
100
AcDbVisualStyle
  2
Brighten
 70
    12
177
     3
291
     1
 70
    58
 90
        2
176
     1
 90
        2
176
     1
 90
        0
176
     1
 90
        0
176
     1
 40
0.6
176
     1
 40
30.0
176
     1
 62
     7
420
 16777215
176
     1
 90
        1
176
     1
 90
        4
176
     1
 62
     7
176
     1
 62
   257
176
     1
 90
        1
176
     1
 90
        1
176
     1
 40
1.0
176
     1
 90
        8
176
     1
 62
     7
176
     1
 40
1.0
176
     1
 90
        1
176
     1
 90
        6
176
     1
 90
        2
176
     1
 62
     7
176
     1
 90
        5
176
     1
 90
        0
176
     1
 90
        0
176
     1
290
     0
176
     1
 90
        1
176
     1
 40
50.0
176
     1
 90
        0
176
     1
290
     0
176
     1
290
     1
176
     1
290
     1
176
     1
290
     0
176
     1
290
     0
176
     1
290
     0
176
     1
290
     0
176
     1
290
     0
176
     1
290
     0
176
     1
 90
       50
176
     1
 40
0.0
176
     1
 40
1.0
176
     1
 90
        0
176
     1
 62
    18
420
        0
176
     1
 90
       50
176
     1
 90
        3
176
     1
 62
     5
420
      255
176
     1
290
     0
176
     1
 90
       50
176
     1
 90
       50
176
     1
 90
       50
176
     1
290
     0
176
     1
 90
       50
176
     1
 62
   256
176
     0
 40
1.0
176
     0
 90
        2
176
     1
  1
strokes_ogs.tif
176
     1
290
     0
176
     1
 40
1.0
176
     1
 40
1.0
176
     1
  0
VISUALSTYLE
  5
39
102
{ACAD_REACTORS
330
29
102
}
330
29
100
AcDbVisualStyle
  2
ColorChange
 70
    16
177
     3
291
     1
 70
    58
 90
        2
176
     1
 90
        2
176
     1
 90
        3
176
     1
 90
        0
176
     1
 40
0.6
176
     1
 40
30.0
176
     1
 62
     8
420
  8421504
176
     1
 90
        1
176
     1
 90
        4
176
     1
 62
     7
176
     1
 62
   257
176
     1
 90
        1
176
     1
 90
        1
176
     1
 40
1.0
176
     1
 90
        8
176
     1
 62
     8
420
  8421504
176
     1
 40
1.0
176
     1
 90
        1
176
     1
 90
        6
176
     1
 90
        2
176
     1
 62
     7
176
     1
 90
        5
176
     1
 90
        0
176
     1
 90
        0
176
     1
290
     0
176
     1
 90
        1
176
     1
 40
0.0
176
     1
 90
        0
176
     1
290
     0
176
     1
290
     1
176
     1
290
     1
176
     1
290
     0
176
     1
290
     0
176
     1
290
     0
176
     1
290
     0
176
     1
290
     0
176
     1
290
     0
176
     1
 90
       50
176
     1
 40
0.0
176
     1
 40
1.0
176
     1
 90
        0
176
     1
 62
    18
420
        0
176
     1
 90
       50
176
     1
 90
        3
176
     1
 62
     5
420
      255
176
     1
290
     0
176
     1
 90
       50
176
     1
 90
       50
176
     1
 90
       50
176
     1
290
     0
176
     1
 90
       50
176
     1
 62
   256
176
     0
 40
1.0
176
     0
 90
        2
176
     1
  1
strokes_ogs.tif
176
     1
290
     0
176
     1
 40
1.0
176
     1
 40
1.0
176
     1
  0
VISUALSTYLE
  5
32
102
{ACAD_REACTORS
330
29
102
}
330
29
100
AcDbVisualStyle
  2
Conceptual
 70
     9
177
     3
291
     0
 70
    58
 90
        3
176
     1
 90
        2
176
     1
 90
        0
176
     1
 90
        0
176
     1
 40
0.6
176
     1
 40
30.0
176
     1
 62
     7
420
 16777215
176
     1
 90
        2
176
     1
 90
        2
176
     1
 62
     7
176
     1
 62
   257
176
     1
 90
        1
176
     1
 90
        1
176
     1
 40
179.0
176
     1
 90
        8
176
     1
 62
     7
176
     1
 40
1.0
176
     1
 90
        1
176
     1
 90
        6
176
     1
 90
        2
176
     1
 62
     7
176
     1
 90
        3
176
     1
 90
        0
176
     1
 90
        0
176
     1
290
     0
176
     1
 90
        1
176
     1
 40
0.0
176
     1
 90
        0
176
     1
290
     0
176
     1
290
     1
176
     1
290
     1
176
     1
290
     0
176
     1
290
     0
176
     1
290
     0
176
     1
290
     0
176
     1
290
     0
176
     1
290
     0
176
     1
 90
       50
176
     1
 40
0.0
176
     1
 40
1.0
176
     1
 90
        0
176
     1
 62
    18
420
        0
176
     1
 90
       50
176
     1
 90
        3
176
     1
 62
     5
420
      255
176
     1
290
     0
176
     1
 90
       50
176
     1
 90
       50
176
     1
 90
       50
176
     1
290
     0
176
     1
 90
       50
176
     1
 62
   256
176
     0
 40
1.0
176
     0
 90
        2
176
     1
  1
strokes_ogs.tif
176
     1
290
     0
176
     1
 40
1.0
176
     1
 40
1.0
176
     1
  0
VISUALSTYLE
  5
34
102
{ACAD_REACTORS
330
29
102
}
330
29
100
AcDbVisualStyle
  2
Dim
 70
    11
177
     3
291
     1
 70
    58
 90
        2
176
     1
 90
        2
176
     1
 90
        0
176
     1
 90
        0
176
     1
 40
0.6
176
     1
 40
30.0
176
     1
 62
     7
420
 16777215
176
     1
 90
        1
176
     1
 90
        4
176
     1
 62
     7
176
     1
 62
   257
176
     1
 90
        1
176
     1
 90
        1
176
     1
 40
1.0
176
     1
 90
        8
176
     1
 62
     7
176
     1
 40
1.0
176
     1
 90
        1
176
     1
 90
        6
176
     1
 90
        2
176
     1
 62
     7
176
     1
 90
        5
176
     1
 90
        0
176
     1
 90
        0
176
     1
290
     0
176
     1
 90
        1
176
     1
 40
-50.0
176
     1
 90
        0
176
     1
290
     0
176
     1
290
     1
176
     1
290
     1
176
     1
290
     0
176
     1
290
     0
176
     1
290
     0
176
     1
290
     0
176
     1
290
     0
176
     1
290
     0
176
     1
 90
       50
176
     1
 40
0.0
176
     1
 40
1.0
176
     1
 90
        0
176
     1
 62
    18
420
        0
176
     1
 90
       50
176
     1
 90
        3
176
     1
 62
     5
420
      255
176
     1
290
     0
176
     1
 90
       50
176
     1
 90
       50
176
     1
 90
       50
176
     1
290
     0
176
     1
 90
       50
176
     1
 62
   256
176
     0
 40
1.0
176
     0
 90
        2
176
     1
  1
strokes_ogs.tif
176
     1
290
     0
176
     1
 40
1.0
176
     1
 40
1.0
176
     1
  0
VISUALSTYLE
  5
41
102
{ACAD_REACTORS
330
29
102
}
330
29
100
AcDbVisualStyle
  2
EdgeColorOff
 70
    22
177
     3
291
     1
 70
    58
 90
        2
176
     0
 90
        2
176
     0
 90
        0
176
     0
 90
        0
176
     0
 40
0.6
176
     0
 40
30.0
176
     0
 62
     7
420
 16777215
176
     0
 90
        1
176
     0
 90
        4
176
     0
 62
     7
176
     0
 62
   257
176
     0
 90
        1
176
     0
 90
        1
176
     0
 40
1.0
176
     0
 90
        8
176
     2
 62
     7
176
     0
 40
1.0
176
     0
 90
        1
176
     0
 90
        6
176
     0
 90
        2
176
     0
 62
     7
176
     0
 90
        5
176
     0
 90
        0
176
     0
 90
        0
176
     0
290
     0
176
     0
 90
        1
176
     0
 40
0.0
176
     0
 90
        0
176
     0
290
     0
176
     0
290
     1
176
     0
290
     1
176
     0
290
     0
176
     0
290
     0
176
     0
290
     0
176
     0
290
     0
176
     0
290
     0
176
     0
290
     0
176
     0
 90
       50
176
     0
 40
0.0
176
     0
 40
1.0
176
     0
 90
        0
176
     0
 62
    18
420
        0
176
     0
 90
       50
176
     0
 90
        3
176
     0
 62
     5
420
      255
176
     0
290
     0
176
     0
 90
       50
176
     0
 90
       50
176
     0
 90
       50
176
     0
290
     0
176
     0
 90
       50
176
     0
 62
   256
176
     0
 40
1.0
176
     0
 90
        2
176
     0
  1
strokes_ogs.tif
176
     0
290
     0
176
     0
 40
1.0
176
     0
 40
1.0
176
     0
  0
VISUALSTYLE
  5
38
102
{ACAD_REACTORS
330
29
102
}
330
29
100
AcDbVisualStyle
  2
Facepattern
 70
    15
177
     3
291
     1
 70
    58
 90
        2
176
     1
 90
        2
176
     1
 90
        0
176
     1
 90
        0
176
     1
 40
0.6
176
     1
 40
30.0
176
     1
 62
     7
420
 16777215
176
     1
 90
        1
176
     1
 90
        4
176
     1
 62
     7
176
     1
 62
   257
176
     1
 90
        1
176
     1
 90
        1
176
     1
 40
1.0
176
     1
 90
        8
176
     1
 62
     7
176
     1
 40
1.0
176
     1
 90
        1
176
     1
 90
        6
176
     1
 90
        2
176
     1
 62
     7
176
     1
 90
        5
176
     1
 90
        0
176
     1
 90
        0
176
     1
290
     0
176
     1
 90
        1
176
     1
 40
0.0
176
     1
 90
        0
176
     1
290
     0
176
     1
290
     1
176
     1
290
     1
176
     1
290
     0
176
     1
290
     0
176
     1
290
     0
176
     1
290
     0
176
     1
290
     0
176
     1
290
     0
176
     1
 90
       50
176
     1
 40
0.0
176
     1
 40
1.0
176
     1
 90
        0
176
     1
 62
    18
420
        0
176
     1
 90
       50
176
     1
 90
        3
176
     1
 62
     5
420
      255
176
     1
290
     0
176
     1
 90
       50
176
     1
 90
       50
176
     1
 90
       50
176
     1
290
     0
176
     1
 90
       50
176
     1
 62
   256
176
     0
 40
1.0
176
     0
 90
        2
176
     1
  1
strokes_ogs.tif
176
     1
290
     0
176
     1
 40
1.0
176
     1
 40
1.0
176
     1
  0
VISUALSTYLE
  5
2A
102
{ACAD_REACTORS
330
29
102
}
330
29
100
AcDbVisualStyle
  2
Flat
 70
     0
177
     3
291
     1
 70
    58
 90
        2
176
     1
 90
        1
176
     1
 90
        1
176
     1
 90
        2
176
     1
 40
0.6
176
     1
 40
30.0
176
     1
 62
     7
420
 16777215
176
     1
 90
        0
176
     1
 90
        0
176
     1
 62
     7
176
     1
 62
   257
176
     1
 90
        1
176
     1
 90
        1
176
     1
 40
1.0
176
     1
 90
        8
176
     1
 62
     7
176
     1
 40
1.0
176
     1
 90
        1
176
     1
 90
        6
176
     1
 90
        2
176
     1
 62
     7
176
     1
 90
        5
176
     1
 90
        0
176
     1
 90
        0
176
     1
290
     0
176
     1
 90
       13
176
     1
 40
0.0
176
     1
 90
        0
176
     1
290
     0
176
     1
290
     1
176
     1
290
     1
176
     1
290
     0
176
     1
290
     0
176
     1
290
     0
176
     1
290
     0
176
     1
290
     0
176
     1
290
     0
176
     1
 90
       50
176
     1
 40
0.0
176
     1
 40
1.0
176
     1
 90
        0
176
     1
 62
    18
420
        0
176
     1
 90
       50
176
     1
 90
        3
176
     1
 62
     5
420
      255
176
     1
290
     0
176
     1
 90
       50
176
     1
 90
       50
176
     1
 90
       50
176
     1
290
     0
176
     1
 90
       50
176
     1
 62
   256
176
     0
 40
1.0
176
     0
 90
        2
176
     1
  1
strokes_ogs.tif
176
     1
290
     0
176
     1
 40
1.0
176
     1
 40
1.0
176
     1
  0
VISUALSTYLE
  5
2B
102
{ACAD_REACTORS
330
29
102
}
330
29
100
AcDbVisualStyle
  2
FlatWithEdges
 70
     1
177
     3
291
     1
 70
    58
 90
        2
176
     1
 90
        1
176
     1
 90
        1
176
     1
 90
        2
176
     1
 40
0.6
176
     1
 40
30.0
176
     1
 62
     7
420
 16777215
176
     1
 90
        1
176
     1
 90
        0
176
     1
 62
     7
176
     1
 62
   257
176
     1
 90
        1
176
     1
 90
        1
176
     1
 40
1.0
176
     1
 90
        0
176
     1
 62
   257
176
     1
 40
1.0
176
     1
 90
        1
176
     1
 90
        6
176
     1
 90
        2
176
     1
 62
     7
176
     1
 90
        5
176
     1
 90
        0
176
     1
 90
        0
176
     1
290
     0
176
     1
 90
       13
176
     1
 40
0.0
176
     1
 90
        0
176
     1
290
     0
176
     1
290
     1
176
     1
290
     1
176
     1
290
     0
176
     1
290
     0
176
     1
290
     0
176
     1
290
     0
176
     1
290
     0
176
     1
290
     0
176
     1
 90
       50
176
     1
 40
0.0
176
     1
 40
1.0
176
     1
 90
        0
176
     1
 62
    18
420
        0
176
     1
 90
       50
176
     1
 90
        3
176
     1
 62
     5
420
      255
176
     1
290
     0
176
     1
 90
       50
176
     1
 90
       50
176
     1
 90
       50
176
     1
290
     0
176
     1
 90
       50
176
     1
 62
   256
176
     0
 40
1.0
176
     0
 90
        2
176
     1
  1
strokes_ogs.tif
176
     1
290
     0
176
     1
 40
1.0
176
     1
 40
1.0
176
     1
  0
VISUALSTYLE
  5
2C
102
{ACAD_REACTORS
330
29
102
}
330
29
100
AcDbVisualStyle
  2
Gouraud
 70
     2
177
     3
291
     1
 70
    58
 90
        2
176
     1
 90
        2
176
     1
 90
        1
176
     1
 90
        2
176
     1
 40
0.6
176
     1
 40
30.0
176
     1
 62
     7
420
 16777215
176
     1
 90
        0
176
     1
 90
        0
176
     1
 62
     7
176
     1
 62
   257
176
     1
 90
        1
176
     1
 90
        1
176
     1
 40
1.0
176
     1
 90
        0
176
     1
 62
     7
176
     1
 40
1.0
176
     1
 90
        1
176
     1
 90
        6
176
     1
 90
        2
176
     1
 62
     7
176
     1
 90
        5
176
     1
 90
        0
176
     1
 90
        0
176
     1
290
     0
176
     1
 90
       13
176
     1
 40
0.0
176
     1
 90
        0
176
     1
290
     0
176
     1
290
     1
176
     1
290
     1
176
     1
290
     0
176
     1
290
     0
176
     1
290
     0
176
     1
290
     0
176
     1
290
     0
176
     1
290
     0
176
     1
 90
       50
176
     1
 40
0.0
176
     1
 40
1.0
176
     1
 90
        0
176
     1
 62
    18
420
        0
176
     1
 90
       50
176
     1
 90
        3
176
     1
 62
     5
420
      255
176
     1
290
     0
176
     1
 90
       50
176
     1
 90
       50
176
     1
 90
       50
176
     1
290
     0
176
     1
 90
       50
176
     1
 62
   256
176
     0
 40
1.0
176
     0
 90
        2
176
     1
  1
strokes_ogs.tif
176
     1
290
     0
176
     1
 40
1.0
176
     1
 40
1.0
176
     1
  0
VISUALSTYLE
  5
2D
102
{ACAD_REACTORS
330
29
102
}
330
29
100
AcDbVisualStyle
  2
GouraudWithEdges
 70
     3
177
     3
291
     1
 70
    58
 90
        2
176
     1
 90
        2
176
     1
 90
        1
176
     1
 90
        2
176
     1
 40
0.6
176
     1
 40
30.0
176
     1
 62
     7
420
 16777215
176
     1
 90
        1
176
     1
 90
        0
176
     1
 62
     7
176
     1
 62
   257
176
     1
 90
        1
176
     1
 90
        1
176
     1
 40
1.0
176
     1
 90
        0
176
     1
 62
   257
176
     1
 40
1.0
176
     1
 90
        1
176
     1
 90
        6
176
     1
 90
        2
176
     1
 62
     7
176
     1
 90
        5
176
     1
 90
        0
176
     1
 90
        0
176
     1
290
     0
176
     1
 90
       13
176
     1
 40
0.0
176
     1
 90
        0
176
     1
290
     0
176
     1
290
     1
176
     1
290
     1
176
     1
290
     0
176
     1
290
     0
176
     1
290
     0
176
     1
290
     0
176
     1
290
     0
176
     1
290
     0
176
     1
 90
       50
176
     1
 40
0.0
176
     1
 40
1.0
176
     1
 90
        0
176
     1
 62
    18
420
        0
176
     1
 90
       50
176
     1
 90
        3
176
     1
 62
     5
420
      255
176
     1
290
     0
176
     1
 90
       50
176
     1
 90
       50
176
     1
 90
       50
176
     1
290
     0
176
     1
 90
       50
176
     1
 62
   256
176
     0
 40
1.0
176
     0
 90
        2
176
     1
  1
strokes_ogs.tif
176
     1
290
     0
176
     1
 40
1.0
176
     1
 40
1.0
176
     1
  0
VISUALSTYLE
  5
31
102
{ACAD_REACTORS
330
29
102
}
330
29
100
AcDbVisualStyle
  2
Hidden
 70
     6
177
     3
291
     0
 70
    58
 90
        1
176
     1
 90
        2
176
     1
 90
        2
176
     1
 90
        0
176
     1
 40
0.6
176
     1
 40
30.0
176
     1
 62
     7
420
 16777215
176
     1
 90
        2
176
     1
 90
        2
176
     1
 62
     7
176
     1
 62
   257
176
     1
 90
        2
176
     1
 90
        1
176
     1
 40
40.0
176
     1
 90
        0
176
     1
 62
   257
176
     1
 40
1.0
176
     1
 90
        1
176
     1
 90
        6
176
     1
 90
        2
176
     1
 62
     7
176
     1
 90
        3
176
     1
 90
        0
176
     1
 90
        0
176
     1
290
     0
176
     1
 90
        1
176
     1
 40
0.0
176
     1
 90
        0
176
     1
290
     0
176
     1
290
     1
176
     1
290
     1
176
     1
290
     0
176
     1
290
     0
176
     1
290
     0
176
     1
290
     0
176
     1
290
     0
176
     1
290
     0
176
     1
 90
       50
176
     1
 40
0.0
176
     1
 40
1.0
176
     1
 90
        0
176
     1
 62
    18
420
        0
176
     1
 90
       50
176
     1
 90
        3
176
     1
 62
     5
420
      255
176
     1
290
     0
176
     1
 90
       50
176
     1
 90
       50
176
     1
 90
       50
176
     1
290
     0
176
     1
 90
       50
176
     1
 62
   256
176
     0
 40
1.0
176
     0
 90
        2
176
     1
  1
strokes_ogs.tif
176
     1
290
     0
176
     1
 40
1.0
176
     1
 40
1.0
176
     1
  0
VISUALSTYLE
  5
3F
102
{ACAD_REACTORS
330
29
102
}
330
29
100
AcDbVisualStyle
  2
JitterOff
 70
    20
177
     3
291
     1
 70
    58
 90
        2
176
     0
 90
        2
176
     0
 90
        0
176
     0
 90
        0
176
     0
 40
0.6
176
     0
 40
30.0
176
     0
 62
     7
420
 16777215
176
     0
 90
        1
176
     0
 90
        4
176
     0
 62
     7
176
     0
 62
   257
176
     0
 90
        1
176
     0
 90
        1
176
     0
 40
1.0
176
     0
 90
       10
176
     2
 62
     7
176
     0
 40
1.0
176
     0
 90
        1
176
     0
 90
        6
176
     0
 90
        2
176
     0
 62
     7
176
     0
 90
        5
176
     0
 90
        0
176
     0
 90
        0
176
     0
290
     0
176
     0
 90
        1
176
     0
 40
0.0
176
     0
 90
        0
176
     0
290
     0
176
     0
290
     1
176
     0
290
     1
176
     0
290
     0
176
     0
290
     0
176
     0
290
     0
176
     0
290
     0
176
     0
290
     0
176
     0
290
     0
176
     0
 90
       50
176
     0
 40
0.0
176
     0
 40
1.0
176
     0
 90
        0
176
     0
 62
    18
420
        0
176
     0
 90
       50
176
     0
 90
        3
176
     0
 62
     5
420
      255
176
     0
290
     0
176
     0
 90
       50
176
     0
 90
       50
176
     0
 90
       50
176
     0
290
     0
176
     0
 90
       50
176
     0
 62
   256
176
     0
 40
1.0
176
     0
 90
        2
176
     0
  1
strokes_ogs.tif
176
     0
290
     0
176
     0
 40
1.0
176
     0
 40
1.0
176
     0
  0
VISUALSTYLE
  5
37
102
{ACAD_REACTORS
330
29
102
}
330
29
100
AcDbVisualStyle
  2
Linepattern
 70
    14
177
     3
291
     1
 70
    58
 90
        2
176
     1
 90
        2
176
     1
 90
        0
176
     1
 90
        0
176
     1
 40
0.6
176
     1
 40
30.0
176
     1
 62
     7
420
 16777215
176
     1
 90
        1
176
     1
 90
        4
176
     1
 62
     7
176
     1
 62
   257
176
     1
 90
        7
176
     1
 90
        7
176
     1
 40
1.0
176
     1
 90
        8
176
     1
 62
     7
176
     1
 40
1.0
176
     1
 90
        1
176
     1
 90
        6
176
     1
 90
        2
176
     1
 62
     7
176
     1
 90
        5
176
     1
 90
        0
176
     1
 90
        0
176
     1
290
     0
176
     1
 90
        1
176
     1
 40
0.0
176
     1
 90
        0
176
     1
290
     0
176
     1
290
     1
176
     1
290
     1
176
     1
290
     0
176
     1
290
     0
176
     1
290
     0
176
     1
290
     0
176
     1
290
     0
176
     1
290
     0
176
     1
 90
       50
176
     1
 40
0.0
176
     1
 40
1.0
176
     1
 90
        0
176
     1
 62
    18
420
        0
176
     1
 90
       50
176
     1
 90
        3
176
     1
 62
     5
420
      255
176
     1
290
     0
176
     1
 90
       50
176
     1
 90
       50
176
     1
 90
       50
176
     1
290
     0
176
     1
 90
       50
176
     1
 62
   256
176
     0
 40
1.0
176
     0
 90
        2
176
     1
  1
strokes_ogs.tif
176
     1
290
     0
176
     1
 40
1.0
176
     1
 40
1.0
176
     1
  0
VISUALSTYLE
  5
40
102
{ACAD_REACTORS
330
29
102
}
330
29
100
AcDbVisualStyle
  2
OverhangOff
 70
    21
177
     3
291
     1
 70
    58
 90
        2
176
     0
 90
        2
176
     0
 90
        0
176
     0
 90
        0
176
     0
 40
0.6
176
     0
 40
30.0
176
     0
 62
     7
420
 16777215
176
     0
 90
        1
176
     0
 90
        4
176
     0
 62
     7
176
     0
 62
   257
176
     0
 90
        1
176
     0
 90
        1
176
     0
 40
1.0
176
     0
 90
        9
176
     2
 62
     7
176
     0
 40
1.0
176
     0
 90
        1
176
     0
 90
        6
176
     0
 90
        2
176
     0
 62
     7
176
     0
 90
        5
176
     0
 90
        0
176
     0
 90
        0
176
     0
290
     0
176
     0
 90
        1
176
     0
 40
0.0
176
     0
 90
        0
176
     0
290
     0
176
     0
290
     1
176
     0
290
     1
176
     0
290
     0
176
     0
290
     0
176
     0
290
     0
176
     0
290
     0
176
     0
290
     0
176
     0
290
     0
176
     0
 90
       50
176
     0
 40
0.0
176
     0
 40
1.0
176
     0
 90
        0
176
     0
 62
    18
420
        0
176
     0
 90
       50
176
     0
 90
        3
176
     0
 62
     5
420
      255
176
     0
290
     0
176
     0
 90
       50
176
     0
 90
       50
176
     0
 90
       50
176
     0
290
     0
176
     0
 90
       50
176
     0
 62
   256
176
     0
 40
1.0
176
     0
 90
        2
176
     0
  1
strokes_ogs.tif
176
     0
290
     0
176
     0
 40
1.0
176
     0
 40
1.0
176
     0
  0
VISUALSTYLE
  5
33
102
{ACAD_REACTORS
330
29
102
}
330
29
100
AcDbVisualStyle
  2
Realistic
 70
     8
177
     3
291
     0
 70
    58
 90
        2
176
     1
 90
        3
176
     1
 90
        0
176
     1
 90
        2
176
     1
 40
0.6
176
     1
 40
30.0
176
     1
 62
     7
420
 16777215
176
     1
 90
        0
176
     1
 90
        0
176
     1
 62
     7
176
     1
 62
   257
176
     1
 90
        1
176
     1
 90
        1
176
     1
 40
1.0
176
     1
 90
        8
176
     1
 62
   257
176
     1
 40
1.0
176
     1
 90
        1
176
     1
 90
        6
176
     1
 90
        2
176
     1
 62
     7
176
     1
 90
        3
176
     1
 90
        0
176
     1
 90
        0
176
     1
290
     0
176
     1
 90
       13
176
     1
 40
0.0
176
     1
 90
        0
176
     1
290
     0
176
     1
290
     1
176
     1
290
     1
176
     1
290
     0
176
     1
290
     0
176
     1
290
     0
176
     1
290
     0
176
     1
290
     0
176
     1
290
     0
176
     1
 90
       50
176
     1
 40
0.0
176
     1
 40
1.0
176
     1
 90
        0
176
     1
 62
    18
420
        0
176
     1
 90
       50
176
     1
 90
        3
176
     1
 62
     5
420
      255
176
     1
290
     0
176
     1
 90
       50
176
     1
 90
       50
176
     1
 90
       50
176
     1
290
     0
176
     1
 90
       50
176
     1
 62
   256
176
     0
 40
1.0
176
     0
 90
        2
176
     1
  1
strokes_ogs.tif
176
     1
290
     0
176
     1
 40
1.0
176
     1
 40
1.0
176
     1
  0
VISUALSTYLE
  5
3E
102
{ACAD_REACTORS
330
29
102
}
330
29
100
AcDbVisualStyle
  2
Shaded
 70
    27
177
     3
291
     0
 70
    58
 90
        2
176
     1
 90
        2
176
     1
 90
        1
176
     1
 90
        2
176
     1
 40
0.6
176
     1
 40
30.0
176
     1
 62
     7
420
 16777215
176
     1
 90
        0
176
     1
 90
        4
176
     1
 62
     7
176
     1
 62
   257
176
     1
 90
        1
176
     1
 90
        1
176
     1
 40
1.0
176
     1
 90
        8
176
     1
 62
   257
176
     1
 40
1.0
176
     1
 90
        1
176
     1
 90
        6
176
     1
 90
        2
176
     1
 62
     8
420
  7895160
176
     1
 90
        3
176
     1
 90
        0
176
     1
 90
        0
176
     1
290
     0
176
     1
 90
        5
176
     1
 40
0.0
176
     1
 90
        0
176
     1
290
     0
176
     1
290
     1
176
     1
290
     1
176
     1
290
     0
176
     1
290
     0
176
     1
290
     0
176
     1
290
     0
176
     1
290
     0
176
     1
290
     0
176
     1
 90
       50
176
     1
 40
0.0
176
     1
 40
1.0
176
     1
 90
        0
176
     1
 62
    18
420
        0
176
     1
 90
       50
176
     1
 90
        3
176
     1
 62
     5
420
      255
176
     1
290
     0
176
     1
 90
       50
176
     1
 90
       50
176
     1
 90
       50
176
     1
290
     0
176
     1
 90
       50
176
     1
 62
   256
176
     0
 40
1.0
176
     0
 90
        2
176
     1
  1
strokes_ogs.tif
176
     1
290
     0
176
     1
 40
1.0
176
     1
 40
1.0
176
     1
  0
VISUALSTYLE
  5
3D
102
{ACAD_REACTORS
330
29
102
}
330
29
100
AcDbVisualStyle
  2
Shaded with edges
 70
    26
177
     3
291
     0
 70
    58
 90
        2
176
     1
 90
        2
176
     1
 90
        1
176
     1
 90
        2
176
     1
 40
0.6
176
     1
 40
30.0
176
     1
 62
     7
420
 16777215
176
     1
 90
        1
176
     1
 90
        2
176
     1
 62
     7
176
     1
 62
   257
176
     1
 90
        2
176
     1
 90
        1
176
     1
 40
1.0
176
     1
 90
        8
176
     1
 62
   257
176
     1
 40
1.0
176
     1
 90
        1
176
     1
 90
        6
176
     1
 90
        2
176
     1
 62
     7
176
     1
 90
        3
176
     1
 90
        0
176
     1
 90
        0
176
     1
290
     0
176
     1
 90
        5
176
     1
 40
0.0
176
     1
 90
        0
176
     1
290
     0
176
     1
290
     1
176
     1
290
     1
176
     1
290
     0
176
     1
290
     0
176
     1
290
     0
176
     1
290
     0
176
     1
290
     0
176
     1
290
     0
176
     1
 90
       50
176
     1
 40
0.0
176
     1
 40
1.0
176
     1
 90
        0
176
     1
 62
    18
420
        0
176
     1
 90
       50
176
     1
 90
        3
176
     1
 62
     5
420
      255
176
     1
290
     0
176
     1
 90
       50
176
     1
 90
       50
176
     1
 90
       50
176
     1
290
     0
176
     1
 90
       50
176
     1
 62
   256
176
     0
 40
1.0
176
     0
 90
        2
176
     1
  1
strokes_ogs.tif
176
     1
290
     0
176
     1
 40
1.0
176
     1
 40
1.0
176
     1
  0
VISUALSTYLE
  5
3A
102
{ACAD_REACTORS
330
29
102
}
330
29
100
AcDbVisualStyle
  2
Shades of Gray
 70
    23
177
     3
291
     0
 70
    58
 90
        2
176
     1
 90
        2
176
     1
 90
        3
176
     1
 90
        0
176
     1
 40
0.6
176
     1
 40
30.0
176
     1
 62
     7
420
 16777215
176
     1
 90
        2
176
     1
 90
        2
176
     1
 62
     7
176
     1
 62
     7
176
     1
 90
        1
176
     1
 90
        1
176
     1
 40
40.0
176
     1
 90
        8
176
     1
 62
     7
176
     1
 40
1.0
176
     1
 90
        1
176
     1
 90
        6
176
     1
 90
        2
176
     1
 62
     7
176
     1
 90
        3
176
     1
 90
        0
176
     1
 90
        0
176
     1
290
     0
176
     1
 90
        1
176
     1
 40
0.0
176
     1
 90
        0
176
     1
290
     0
176
     1
290
     1
176
     1
290
     1
176
     1
290
     0
176
     1
290
     0
176
     1
290
     0
176
     1
290
     0
176
     1
290
     0
176
     1
290
     0
176
     1
 90
       50
176
     1
 40
0.0
176
     1
 40
1.0
176
     1
 90
        0
176
     1
 62
    18
420
        0
176
     1
 90
       50
176
     1
 90
        3
176
     1
 62
     5
420
      255
176
     1
290
     0
176
     1
 90
       50
176
     1
 90
       50
176
     1
 90
       50
176
     1
290
     0
176
     1
 90
       50
176
     1
 62
   256
176
     0
 40
1.0
176
     0
 90
        2
176
     1
  1
strokes_ogs.tif
176
     1
290
     0
176
     1
 40
1.0
176
     1
 40
1.0
176
     1
  0
VISUALSTYLE
  5
3B
102
{ACAD_REACTORS
330
29
102
}
330
29
100
AcDbVisualStyle
  2
Sketchy
 70
    24
177
     3
291
     0
 70
    58
 90
        1
176
     1
 90
        2
176
     1
 90
        2
176
     1
 90
        0
176
     1
 40
0.6
176
     1
 40
30.0
176
     1
 62
     7
420
 16777215
176
     1
 90
        2
176
     1
 90
        2
176
     1
 62
     7
176
     1
 62
     7
176
     1
 90
        1
176
     1
 90
        1
176
     1
 40
40.0
176
     1
 90
       11
176
     1
 62
     7
176
     1
 40
1.0
176
     1
 90
        1
176
     1
 90
        6
176
     1
 90
        2
176
     1
 62
     7
176
     1
 90
        6
176
     1
 90
        0
176
     1
 90
        0
176
     1
290
     0
176
     1
 90
        1
176
     1
 40
0.0
176
     1
 90
        0
176
     1
290
     0
176
     1
290
     1
176
     1
290
     1
176
     1
290
     0
176
     1
290
     0
176
     1
290
     0
176
     1
290
     0
176
     1
290
     0
176
     1
290
     0
176
     1
 90
       50
176
     1
 40
0.0
176
     1
 40
1.0
176
     1
 90
        0
176
     1
 62
    18
420
        0
176
     1
 90
       50
176
     1
 90
        3
176
     1
 62
     5
420
      255
176
     1
290
     0
176
     1
 90
       50
176
     1
 90
       50
176
     1
 90
       50
176
     1
290
     0
176
     1
 90
       50
176
     1
 62
   256
176
     0
 40
1.0
176
     0
 90
        2
176
     1
  1
strokes_ogs.tif
176
     1
290
     0
176
     1
 40
1.0
176
     1
 40
1.0
176
     1
  0
VISUALSTYLE
  5
36
102
{ACAD_REACTORS
330
29
102
}
330
29
100
AcDbVisualStyle
  2
Thicken
 70
    13
177
     3
291
     1
 70
    58
 90
        2
176
     1
 90
        2
176
     1
 90
        0
176
     1
 90
        0
176
     1
 40
0.6
176
     1
 40
30.0
176
     1
 62
     7
420
 16777215
176
     1
 90
        1
176
     1
 90
        4
176
     1
 62
     7
176
     1
 62
   257
176
     1
 90
        1
176
     1
 90
        1
176
     1
 40
1.0
176
     1
 90
       12
176
     1
 62
     7
176
     1
 40
1.0
176
     1
 90
        1
176
     1
 90
        6
176
     1
 90
        2
176
     1
 62
     7
176
     1
 90
        5
176
     1
 90
        0
176
     1
 90
        0
176
     1
290
     0
176
     1
 90
        1
176
     1
 40
0.0
176
     1
 90
        0
176
     1
290
     0
176
     1
290
     1
176
     1
290
     1
176
     1
290
     0
176
     1
290
     0
176
     1
290
     0
176
     1
290
     0
176
     1
290
     0
176
     1
290
     0
176
     1
 90
       50
176
     1
 40
0.0
176
     1
 40
1.0
176
     1
 90
        0
176
     1
 62
    18
420
        0
176
     1
 90
       50
176
     1
 90
        3
176
     1
 62
     5
420
      255
176
     1
290
     0
176
     1
 90
       50
176
     1
 90
       50
176
     1
 90
       50
176
     1
290
     0
176
     1
 90
       50
176
     1
 62
   256
176
     0
 40
1.0
176
     0
 90
        2
176
     1
  1
strokes_ogs.tif
176
     1
290
     0
176
     1
 40
1.0
176
     1
 40
1.0
176
     1
  0
VISUALSTYLE
  5
30
102
{ACAD_REACTORS
330
29
102
}
330
29
100
AcDbVisualStyle
  2
Wireframe
 70
     5
177
     3
291
     0
 70
    58
 90
        0
176
     1
 90
        2
176
     1
 90
        0
176
     1
 90
        0
176
     1
 40
0.6
176
     1
 40
30.0
176
     1
 62
     7
420
 16777215
176
     1
 90
        1
176
     1
 90
        4
176
     1
 62
     7
176
     1
 62
   257
176
     1
 90
        1
176
     1
 90
        1
176
     1
 40
1.0
176
     1
 90
        0
176
     1
 62
   257
176
     1
 40
1.0
176
     1
 90
        1
176
     1
 90
        6
176
     1
 90
        2
176
     1
 62
     7
176
     1
 90
        3
176
     1
 90
        0
176
     1
 90
        0
176
     1
290
     0
176
     1
 90
        1
176
     1
 40
0.0
176
     1
 90
        0
176
     1
290
     0
176
     1
290
     1
176
     1
290
     1
176
     1
290
     0
176
     1
290
     0
176
     1
290
     0
176
     1
290
     0
176
     1
290
     0
176
     1
290
     0
176
     1
 90
       50
176
     1
 40
0.0
176
     1
 40
1.0
176
     1
 90
        0
176
     1
 62
    18
420
        0
176
     1
 90
       50
176
     1
 90
        3
176
     1
 62
     5
420
      255
176
     1
290
     0
176
     1
 90
       50
176
     1
 90
       50
176
     1
 90
       50
176
     1
290
     0
176
     1
 90
       50
176
     1
 62
   256
176
     0
 40
1.0
176
     0
 90
        2
176
     1
  1
strokes_ogs.tif
176
     1
290
     0
176
     1
 40
1.0
176
     1
 40
1.0
176
     1
  0
VISUALSTYLE
  5
3C
102
{ACAD_REACTORS
330
29
102
}
330
29
100
AcDbVisualStyle
  2
X-Ray
 70
    25
177
     3
291
     0
 70
    58
 90
        2
176
     1
 90
        2
176
     1
 90
        1
176
     1
 90
        1
176
     1
 40
0.5
176
     1
 40
30.0
176
     1
 62
     7
420
 16777215
176
     1
 90
        1
176
     1
 90
        0
176
     1
 62
     7
176
     1
 62
   257
176
     1
 90
        1
176
     1
 90
        1
176
     1
 40
1.0
176
     1
 90
        8
176
     1
 62
     7
176
     1
 40
1.0
176
     1
 90
        1
176
     1
 90
        6
176
     1
 90
        2
176
     1
 62
     7
176
     1
 90
        3
176
     1
 90
        0
176
     1
 90
        0
176
     1
290
     0
176
     1
 90
       13
176
     1
 40
0.0
176
     1
 90
        0
176
     1
290
     0
176
     1
290
     1
176
     1
290
     1
176
     1
290
     0
176
     1
290
     0
176
     1
290
     0
176
     1
290
     0
176
     1
290
     0
176
     1
290
     0
176
     1
 90
       50
176
     1
 40
0.0
176
     1
 40
1.0
176
     1
 90
        0
176
     1
 62
    18
420
        0
176
     1
 90
       50
176
     1
 90
        3
176
     1
 62
     5
420
      255
176
     1
290
     0
176
     1
 90
       50
176
     1
 90
       50
176
     1
 90
       50
176
     1
290
     0
176
     1
 90
       50
176
     1
 62
   256
176
     0
 40
1.0
176
     0
 90
        2
176
     1
  1
strokes_ogs.tif
176
     1
290
     0
176
     1
 40
1.0
176
     1
 40
1.0
176
     1
  0
DICTIONARYVAR
  5
207
102
{ACAD_REACTORS
330
202
102
}
330
202
100
DictionaryVariables
280
     0
  1
1:1
  0
DICTIONARYVAR
  5
204
102
{ACAD_REACTORS
330
202
102
}
330
202
100
DictionaryVariables
280
     0
  1
STANDARD
  0
DICTIONARYVAR
  5
203
102
{ACAD_REACTORS
330
202
102
}
330
202
100
DictionaryVariables
280
     0
  1
STANDARD
  0
DICTIONARYVAR
  5
205
102
{ACAD_REACTORS
330
202
102
}
330
202
100
DictionaryVariables
280
     0
  1
Imperial24
  0
DICTIONARYVAR
  5
206
102
{ACAD_REACTORS
330
202
102
}
330
202
100
DictionaryVariables
280
     0
  1
Imperial24
  0
DICTIONARY
  5
1A
330
19
100
AcDbDictionary
280
     1
281
     1
  3
BUMPTILE
360
1C
  3
DIFFUSETILE
360
1B
  3
OPACITYTILE
360
1F
  3
REFLECTIONTILE
360
1E
  3
REFRACTIONTILE
360
20
  3
SPECULARTILE
360
1D
  0
DICTIONARY
  5
12
330
11
100
AcDbDictionary
280
     1
281
     1
  3
BUMPTILE
360
14
  3
DIFFUSETILE
360
13
  3
OPACITYTILE
360
17
  3
REFLECTIONTILE
360
16
  3
REFRACTIONTILE
360
18
  3
SPECULARTILE
360
15
  0
DICTIONARY
  5
22
330
21
100
AcDbDictionary
280
     1
281
     1
  3
BUMPTILE
360
24
  3
DIFFUSETILE
360
23
  3
OPACITYTILE
360
27
  3
REFLECTIONTILE
360
26
  3
REFRACTIONTILE
360
28
  3
SPECULARTILE
360
25
  0
DICTIONARY
  5
208
330
65
100
AcDbDictionary
280
     1
281
     1
  3
ACAD_ROUNDTRIP_2008_TABLESTYLE_CELLSTYLEMAP
360
209
  0
XRECORD
  5
1C
102
{ACAD_REACTORS
330
1A
102
}
330
1A
100
AcDbXrecord
280
     1
270
     1
271
     1
  0
XRECORD
  5
1B
102
{ACAD_REACTORS
330
1A
102
}
330
1A
100
AcDbXrecord
280
     1
270
     1
271
     1
  0
XRECORD
  5
1F
102
{ACAD_REACTORS
330
1A
102
}
330
1A
100
AcDbXrecord
280
     1
270
     1
271
     1
  0
XRECORD
  5
1E
102
{ACAD_REACTORS
330
1A
102
}
330
1A
100
AcDbXrecord
280
     1
270
     1
271
     1
  0
XRECORD
  5
20
102
{ACAD_REACTORS
330
1A
102
}
330
1A
100
AcDbXrecord
280
     1
270
     1
271
     1
  0
XRECORD
  5
1D
102
{ACAD_REACTORS
330
1A
102
}
330
1A
100
AcDbXrecord
280
     1
270
     1
271
     1
  0
XRECORD
  5
14
102
{ACAD_REACTORS
330
12
102
}
330
12
100
AcDbXrecord
280
     1
270
     1
271
     1
  0
XRECORD
  5
13
102
{ACAD_REACTORS
330
12
102
}
330
12
100
AcDbXrecord
280
     1
270
     1
271
     1
  0
XRECORD
  5
17
102
{ACAD_REACTORS
330
12
102
}
330
12
100
AcDbXrecord
280
     1
270
     1
271
     1
  0
XRECORD
  5
16
102
{ACAD_REACTORS
330
12
102
}
330
12
100
AcDbXrecord
280
     1
270
     1
271
     1
  0
XRECORD
  5
18
102
{ACAD_REACTORS
330
12
102
}
330
12
100
AcDbXrecord
280
     1
270
     1
271
     1
  0
XRECORD
  5
15
102
{ACAD_REACTORS
330
12
102
}
330
12
100
AcDbXrecord
280
     1
270
     1
271
     1
  0
XRECORD
  5
24
102
{ACAD_REACTORS
330
22
102
}
330
22
100
AcDbXrecord
280
     1
270
     1
271
     1
  0
XRECORD
  5
23
102
{ACAD_REACTORS
330
22
102
}
330
22
100
AcDbXrecord
280
     1
270
     1
271
     1
  0
XRECORD
  5
27
102
{ACAD_REACTORS
330
22
102
}
330
22
100
AcDbXrecord
280
     1
270
     1
271
     1
  0
XRECORD
  5
26
102
{ACAD_REACTORS
330
22
102
}
330
22
100
AcDbXrecord
280
     1
270
     1
271
     1
  0
XRECORD
  5
28
102
{ACAD_REACTORS
330
22
102
}
330
22
100
AcDbXrecord
280
     1
270
     1
271
     1
  0
XRECORD
  5
25
102
{ACAD_REACTORS
330
22
102
}
330
22
100
AcDbXrecord
280
     1
270
     1
271
     1
  0
CELLSTYLEMAP
  5
209
102
{ACAD_REACTORS
330
208
102
}
330
208
100
AcDbCellStyleMap
 90
        3
300
CELLSTYLE
  1
TABLEFORMAT_BEGIN
 90
        5
170
     1
 91
        0
 92
    32768
 62
   257
 93
        1
300
CONTENTFORMAT
  1
CONTENTFORMAT_BEGIN
 90
        0
 91
        0
 92
      512
 93
        0
300

 40
0.0
140
1.0
 94
        5
 62
     0
340
55
144
0.25
309
CONTENTFORMAT_END
171
     0
 94
        0
309
TABLEFORMAT_END
  1
CELLSTYLE_BEGIN
 90
        1
 91
        1
300
_TITLE
309
CELLSTYLE_END
300
CELLSTYLE
  1
TABLEFORMAT_BEGIN
 90
        5
170
     1
 91
        0
 92
        0
 62
   257
 93
        1
300
CONTENTFORMAT
  1
CONTENTFORMAT_BEGIN
 90
        0
 91
        0
 92
      512
 93
        0
300

 40
0.0
140
1.0
 94
        5
 62
     0
340
55
144
0.18
309
CONTENTFORMAT_END
171
     0
 94
        0
309
TABLEFORMAT_END
  1
CELLSTYLE_BEGIN
 90
        2
 91
        1
300
_HEADER
309
CELLSTYLE_END
300
CELLSTYLE
  1
TABLEFORMAT_BEGIN
 90
        5
170
     1
 91
        0
 92
        0
 62
   257
 93
        1
300
CONTENTFORMAT
  1
CONTENTFORMAT_BEGIN
 90
        0
 91
        0
 92
      512
 93
        0
300

 40
0.0
140
1.0
 94
        2
 62
     0
340
55
144
0.18
309
CONTENTFORMAT_END
171
     0
 94
        0
309
TABLEFORMAT_END
  1
CELLSTYLE_BEGIN
 90
        3
 91
        2
300
_DATA
309
CELLSTYLE_END
  0
ENDSEC
  0
EOF
