  0
SECTION
  2
HEADER
  9
$ACADVER
  1
AC1032
  9
$ACADMAINTVER
 90
      251
  9
$DWGCODEPAGE
  3
ANSI_1252
  9
$REQUIREDVERSIONS
160
                 0
  9
$INSBASE
 10
0.0
 20
0.0
 30
0.0
  9
$EXTMIN
 10
1.000000000000000E+20
 20
1.000000000000000E+20
 30
1.000000000000000E+20
  9
$EXTMAX
 10
-1.000000000000000E+20
 20
-1.000000000000000E+20
 30
-1.000000000000000E+20
  9
$LIMMIN
 10
0.0
 20
0.0
  9
$LIMMAX
 10
12.0
 20
9.0
  9
$ORTHOMODE
 70
     0
  9
$REGENMODE
 70
     1
  9
$FILLMODE
 70
     1
  9
$QTEXTMODE
 70
     0
  9
$MIRRTEXT
 70
     0
  9
$LTSCALE
 40
1.0
  9
$ATTMODE
 70
     1
  9
$TEXTSIZE
 40
0.2
  9
$TRACEWID
 40
0.05
  9
$TEXTSTYLE
  7
Standard
  9
$CLAYER
  8
0
  9
$CELTYPE
  6
ByLayer
  9
$CECOLOR
 62
   256
  9
$CELTSCALE
 40
1.0
  9
$DISPSILH
 70
     0
  9
$DIMSCALE
 40
1.0
  9
$DIMASZ
 40
0.18
  9
$DIMEXO
 40
0.0625
  9
$DIMDLI
 40
0.38
  9
$DIMRND
 40
0.0
  9
$DIMDLE
 40
0.0
  9
$DIMEXE
 40
0.18
  9
$DIMTP
 40
0.0
  9
$DIMTM
 40
0.0
  9
$DIMTXT
 40
0.18
  9
$DIMCEN
 40
0.09
  9
$DIMTSZ
 40
0.0
  9
$DIMTOL
 70
     0
  9
$DIMLIM
 70
     0
  9
$DIMTIH
 70
     1
  9
$DIMTOH
 70
     1
  9
$DIMSE1
 70
     0
  9
$DIMSE2
 70
     0
  9
$DIMTAD
 70
     0
  9
$DIMZIN
 70
     0
  9
$DIMBLK
  1

  9
$DIMASO
 70
     1
  9
$DIMSHO
 70
     1
  9
$DIMPOST
  1

  9
$DIMAPOST
  1

  9
$DIMALT
 70
     0
  9
$DIMALTD
 70
     2
  9
$DIMALTF
 40
25.4
  9
$DIMLFAC
 40
1.0
  9
$DIMTOFL
 70
     0
  9
$DIMTVP
 40
0.0
  9
$DIMTIX
 70
     0
  9
$DIMSOXD
 70
     0
  9
$DIMSAH
 70
     0
  9
$DIMBLK1
  1

  9
$DIMBLK2
  1

  9
$DIMSTYLE
  2
Standard
  9
$DIMCLRD
 70
     0
  9
$DIMCLRE
 70
     0
  9
$DIMCLRT
 70
     0
  9
$DIMTFAC
 40
1.0
  9
$DIMGAP
 40
0.09
  9
$DIMJUST
 70
     0
  9
$DIMSD1
 70
     0
  9
$DIMSD2
 70
     0
  9
$DIMTOLJ
 70
     1
  9
$DIMTZIN
 70
     0
  9
$DIMALTZ
 70
     0
  9
$DIMALTTZ
 70
     0
  9
$DIMUPT
 70
     0
  9
$DIMDEC
 70
     4
  9
$DIMTDEC
 70
     4
  9
$DIMALTU
 70
     2
  9
$DIMALTTD
 70
     2
  9
$DIMTXSTY
  7
Standard
  9
$DIMAUNIT
 70
     0
  9
$DIMADEC
 70
     0
  9
$DIMALTRND
 40
0.0
  9
$DIMAZIN
 70
     0
  9
$DIMDSEP
 70
    46
  9
$DIMATFIT
 70
     3
  9
$DIMFRAC
 70
     0
  9
$DIMLDRBLK
  1

  9
$DIMLUNIT
 70
     2
  9
$DIMLWD
 70
    -2
  9
$DIMLWE
 70
    -2
  9
$DIMTMOVE
 70
     0
  9
$DIMFXL
 40
1.0
  9
$DIMFXLON
 70
     0
  9
$DIMJOGANG
 40
0.7853981633974483
  9
$DIMTFILL
 70
     0
  9
$DIMTFILLCLR
 70
     0
  9
$DIMARCSYM
 70
     0
  9
$DIMLTYPE
  6

  9
$DIMLTEX1
  6

  9
$DIMLTEX2
  6

  9
$DIMTXTDIRECTION
 70
     0
  9
$LUNITS
 70
     2
  9
$LUPREC
 70
     4
  9
$SKETCHINC
 40
0.1
  9
$FILLETRAD
 40
0.0
  9
$AUNITS
 70
     0
  9
$AUPREC
 70
     0
  9
$MENU
  1
.
  9
$ELEVATION
 40
0.0
  9
$PELEVATION
 40
0.0
  9
$THICKNESS
 40
0.0
  9
$LIMCHECK
 70
     0
  9
$CHAMFERA
 40
0.0
  9
$CHAMFERB
 40
0.0
  9
$CHAMFERC
 40
0.0
  9
$CHAMFERD
 40
0.0
  9
$SKPOLY
 70
     0
  9
$TDCREATE
 40
2460179.646400463
  9
$TDUCREATE
 40
2460179.771400463
  9
$TDUPDATE
 40
2460179.646400463
  9
$TDUUPDATE
 40
2460179.771400463
  9
$TDINDWG
 40
0.0000000000
  9
$TDUSRTIMER
 40
0.0000000000
  9
$USRTIMER
 70
     1
  9
$ANGBASE
 50
0.0
  9
$ANGDIR
 70
     0
  9
$PDMODE
 70
     0
  9
$PDSIZE
 40
0.0
  9
$PLINEWID
 40
0.0
  9
$SPLFRAME
 70
     0
  9
$SPLINETYPE
 70
     6
  9
$SPLINESEGS
 70
     8
  9
$HANDSEED
  5
3B2
  9
$SURFTAB1
 70
     6
  9
$SURFTAB2
 70
     6
  9
$SURFTYPE
 70
     6
  9
$SURFU
 70
     6
  9
$SURFV
 70
     6
  9
$UCSBASE
  2

  9
$UCSNAME
  2

  9
$UCSORG
 10
0.0
 20
0.0
 30
0.0
  9
$UCSXDIR
 10
1.0
 20
0.0
 30
0.0
  9
$UCSYDIR
 10
0.0
 20
1.0
 30
0.0
  9
$UCSORTHOREF
  2

  9
$UCSORTHOVIEW
 70
     0
  9
$UCSORGTOP
 10
0.0
 20
0.0
 30
0.0
  9
$UCSORGBOTTOM
 10
0.0
 20
0.0
 30
0.0
  9
$UCSORGLEFT
 10
0.0
 20
0.0
 30
0.0
  9
$UCSORGRIGHT
 10
0.0
 20
0.0
 30
0.0
  9
$UCSORGFRONT
 10
0.0
 20
0.0
 30
0.0
  9
$UCSORGBACK
 10
0.0
 20
0.0
 30
0.0
  9
$PUCSBASE
  2

  9
$PUCSNAME
  2

  9
$PUCSORG
 10
0.0
 20
0.0
 30
0.0
  9
$PUCSXDIR
 10
1.0
 20
0.0
 30
0.0
  9
$PUCSYDIR
 10
0.0
 20
1.0
 30
0.0
  9
$PUCSORTHOREF
  2

  9
$PUCSORTHOVIEW
 70
     0
  9
$PUCSORGTOP
 10
0.0
 20
0.0
 30
0.0
  9
$PUCSORGBOTTOM
 10
0.0
 20
0.0
 30
0.0
  9
$PUCSORGLEFT
 10
0.0
 20
0.0
 30
0.0
  9
$PUCSORGRIGHT
 10
0.0
 20
0.0
 30
0.0
  9
$PUCSORGFRONT
 10
0.0
 20
0.0
 30
0.0
  9
$PUCSORGBACK
 10
0.0
 20
0.0
 30
0.0
  9
$USERI1
 70
     0
  9
$USERI2
 70
     0
  9
$USERI3
 70
     0
  9
$USERI4
 70
     0
  9
$USERI5
 70
     0
  9
$USERR1
 40
0.0
  9
$USERR2
 40
0.0
  9
$USERR3
 40
0.0
  9
$USERR4
 40
0.0
  9
$USERR5
 40
0.0
  9
$WORLDVIEW
 70
     1
  9
$SHADEDGE
 70
     3
  9
$SHADEDIF
 70
    70
  9
$TILEMODE
 70
     1
  9
$MAXACTVP
 70
    64
  9
$PINSBASE
 10
0.0
 20
0.0
 30
0.0
  9
$PLIMCHECK
 70
     0
  9
$PEXTMIN
 10
1.000000000000000E+20
 20
1.000000000000000E+20
 30
1.000000000000000E+20
  9
$PEXTMAX
 10
-1.000000000000000E+20
 20
-1.000000000000000E+20
 30
-1.000000000000000E+20
  9
$PLIMMIN
 10
0.0
 20
0.0
  9
$PLIMMAX
 10
12.0
 20
9.0
  9
$UNITMODE
 70
     0
  9
$VISRETAIN
 70
     1
  9
$PLINEGEN
 70
     0
  9
$PSLTSCALE
 70
     1
  9
$TREEDEPTH
 70
  3020
  9
$CMLSTYLE
  2
Standard
  9
$CMLJUST
 70
     0
  9
$CMLSCALE
 40
1.0
  9
$PROXYGRAPHICS
 70
     1
  9
$MEASUREMENT
 70
     0
  9
$CELWEIGHT
370
    -1
  9
$ENDCAPS
280
     0
  9
$JOINSTYLE
280
     0
  9
$LWDISPLAY
290
     1
  9
$INSUNITS
 70
     0
  9
$HYPERLINKBASE
  1

  9
$STYLESHEET
  1

  9
$XEDIT
290
     1
  9
$CEPSNTYPE
380
     0
  9
$PSTYLEMODE
290
     1
  9
$FINGERPRINTGUID
  2
{69CAC1AE-885C-F543-B1AA-6C885CE8AF94}
  9
$VERSIONGUID
  2
{4DB162C4-AE08-7441-A316-827334929BB4}
  9
$EXTNAMES
290
     1
  9
$PSVPSCALE
 40
0.0
  9
$OLESTARTUP
290
     0
  9
$SORTENTS
280
   127
  9
$INDEXCTL
280
     0
  9
$HIDETEXT
280
     1
  9
$XCLIPFRAME
280
     2
  9
$HALOGAP
280
     0
  9
$OBSCOLOR
 70
   257
  9
$OBSLTYPE
280
     0
  9
$INTERSECTIONDISPLAY
280
     0
  9
$INTERSECTIONCOLOR
 70
   257
  9
$DIMASSOC
280
     2
  9
$PROJECTNAME
  1

  9
$CAMERADISPLAY
290
     0
  9
$LENSLENGTH
 40
50.0
  9
$CAMERAHEIGHT
 40
0.0
  9
$STEPSPERSEC
 40
2.0
  9
$STEPSIZE
 40
6.0
  9
$3DDWFPREC
 40
2.0
  9
$PSOLWIDTH
 40
0.25
  9
$PSOLHEIGHT
 40
4.0
  9
$LOFTANG1
 40
1.570796326794896
  9
$LOFTANG2
 40
1.570796326794896
  9
$LOFTMAG1
 40
0.0
  9
$LOFTMAG2
 40
0.0
  9
$LOFTPARAM
 70
     7
  9
$LOFTNORMALS
280
     1
  9
$LATITUDE
 40
37.795
  9
$LONGITUDE
 40
-122.394
  9
$NORTHDIRECTION
 40
0.0
  9
$TIMEZONE
 70
 -8000
  9
$LIGHTGLYPHDISPLAY
280
     1
  9
$TILEMODELIGHTSYNCH
280
     1
  9
$CMATERIAL
347
11
  9
$SOLIDHIST
280
     0
  9
$SHOWHIST
280
     1
  9
$DWFFRAME
280
     2
  9
$DGNFRAME
280
     0
  9
$REALWORLDSCALE
290
     1
  9
$INTERFERECOLOR
 62
     1
  9
$INTERFEREOBJVS
345
33
  9
$INTERFEREVPVS
346
30
  9
$CSHADOW
280
     0
  9
$SHADOWPLANELOCATION
 40
0.0
  0
ENDSEC
  0
SECTION
  2
CLASSES
  0
CLASS
  1
ACDBDICTIONARYWDFLT
  2
AcDbDictionaryWithDefault
  3
ObjectDBX Classes
 90
        0
 91
        1
280
     0
281
     0
  0
CLASS
  1
MATERIAL
  2
AcDbMaterial
  3
ObjectDBX Classes
 90
     1153
 91
        3
280
     0
281
     0
  0
CLASS
  1
VISUALSTYLE
  2
AcDbVisualStyle
  3
ObjectDBX Classes
 90
     4095
 91
       24
280
     0
281
     0
  0
CLASS
  1
SCALE
  2
AcDbScale
  3
ObjectDBX Classes
 90
     1153
 91
       17
280
     0
281
     0
  0
CLASS
  1
TABLESTYLE
  2
AcDbTableStyle
  3
ObjectDBX Classes
 90
     4095
 91
        1
280
     0
281
     0
  0
CLASS
  1
MLEADERSTYLE
  2
AcDbMLeaderStyle
  3
ACDB_MLEADERSTYLE_CLASS
 90
     4095
 91
        1
280
     0
281
     0
  0
CLASS
  1
ACDBSECTIONVIEWSTYLE
  2
AcDbSectionViewStyle
  3
ObjectDBX Classes
 90
     1025
 91
        1
280
     0
281
     0
  0
CLASS
  1
ACDBDETAILVIEWSTYLE
  2
AcDbDetailViewStyle
  3
ObjectDBX Classes
 90
     1025
 91
        1
280
     0
281
     0
  0
CLASS
  1
DICTIONARYVAR
  2
AcDbDictionaryVar
  3
ObjectDBX Classes
 90
        0
 91
        5
280
     0
281
     0
  0
CLASS
  1
CELLSTYLEMAP
  2
AcDbCellStyleMap
  3
ObjectDBX Classes
 90
     1152
 91
        1
280
     0
281
     0
  0
ENDSEC
  0
SECTION
  2
TABLES
  0
TABLE
  2
VPORT
  5
8
330
0
100
AcDbSymbolTable
 70
     1
  0
VPORT
  5
57
330
8
100
AcDbSymbolTableRecord
100
AcDbViewportTableRecord
  2
*Active
 70
     0
 10
0.0
 20
0.0
 11
1.0
 21
1.0
 12
0.0
 22
0.0
 13
0.0
 23
0.0
 14
1.0
 24
1.0
 15
0.0
 25
0.0
 16
0.0
 26
0.0
 36
1.0
 17
297.6377868652498
 27
420.9449157714998
 37
0.0
 40
858.7276281738596
 41
0.7070706301791172
 42
50.0
 43
0.0
 44
0.0
 50
0.0
 51
0.0
 71
     0
 72
   100
 73
     1
 74
     1
 75
     0
 76
     0
 77
     0
 78
     0
281
     0
 65
     1
110
0.0
120
0.0
130
0.0
111
1.0
121
0.0
131
0.0
112
0.0
122
1.0
132
0.0
 79
     0
146
0.0
 60
     3
 61
     5
292
     1
282
     1
141
0.0
142
0.0
 63
   250
421
  3355443
  0
ENDTAB
  0
TABLE
  2
LTYPE
  5
5
330
0
100
AcDbSymbolTable
 70
     1
  0
LTYPE
  5
5B
330
5
100
AcDbSymbolTableRecord
100
AcDbLinetypeTableRecord
  2
ByBlock
 70
     0
  3

 72
    65
 73
     0
 40
0.0
  0
LTYPE
  5
5C
330
5
100
AcDbSymbolTableRecord
100
AcDbLinetypeTableRecord
  2
ByLayer
 70
     0
  3

 72
    65
 73
     0
 40
0.0
  0
LTYPE
  5
5D
330
5
100
AcDbSymbolTableRecord
100
AcDbLinetypeTableRecord
  2
Continuous
 70
     0
  3
Solid line
 72
    65
 73
     0
 40
0.0
  0
ENDTAB
  0
TABLE
  2
LAYER
  5
2
330
0
100
AcDbSymbolTable
 70
     2
  0
LAYER
  5
54
330
2
100
AcDbSymbolTableRecord
100
AcDbLayerTableRecord
  2
0
 70
     0
 62
     7
  6
Continuous
370
    -3
390
F
347
21
348
0
  0
LAYER
  5
78
330
2
100
AcDbSymbolTableRecord
100
AcDbLayerTableRecord
  2
Camada 1
 70
     0
 62
     7
  6
Continuous
370
     0
390
F
347
21
348
0
  0
ENDTAB
  0
TABLE
  2
STYLE
  5
3
330
0
100
AcDbSymbolTable
 70
     2
  0
STYLE
  5
55
330
3
100
AcDbSymbolTableRecord
100
AcDbTextStyleTableRecord
  2
Standard
 70
     0
 40
0.0
 41
1.0
 50
0.0
 71
     0
 42
0.2
  3
txt
  4

  0
STYLE
  5
5A
330
3
100
AcDbSymbolTableRecord
100
AcDbTextStyleTableRecord
  2
Annotative
 70
     0
 40
0.0
 41
1.0
 50
0.0
 71
     0
 42
0.2
  3
txt
  4

1001
AcadAnnotative
1000
AnnotativeData
1002
{
1070
     1
1070
     1
1002
}
  0
ENDTAB
  0
TABLE
  2
VIEW
  5
6
330
0
100
AcDbSymbolTable
 70
     0
  0
ENDTAB
  0
TABLE
  2
UCS
  5
7
330
0
100
AcDbSymbolTable
 70
     0
  0
ENDTAB
  0
TABLE
  2
APPID
  5
9
330
0
100
AcDbSymbolTable
 70
     2
  0
APPID
  5
56
330
9
100
AcDbSymbolTableRecord
100
AcDbRegAppTableRecord
  2
ACAD
 70
     0
  0
APPID
  5
5E
330
9
100
AcDbSymbolTableRecord
100
AcDbRegAppTableRecord
  2
AcadAnnotative
 70
     0
  0
ENDTAB
  0
TABLE
  2
DIMSTYLE
  5
A
330
0
100
AcDbSymbolTable
 70
     2
100
AcDbDimStyleTable
 71
     0
  0
DIMSTYLE
105
58
330
A
100
AcDbSymbolTableRecord
100
AcDbDimStyleTableRecord
  2
Standard
 70
     0
340
55
  0
DIMSTYLE
105
59
330
A
100
AcDbSymbolTableRecord
100
AcDbDimStyleTableRecord
  2
Annotative
 70
     0
340
55
1001
AcadAnnotative
1000
AnnotativeData
1002
{
1070
     1
1070
     1
1002
}
  0
ENDTAB
  0
TABLE
  2
BLOCK_RECORD
  5
1
330
0
100
AcDbSymbolTable
 70
     1
  0
BLOCK_RECORD
  5
70
330
1
100
AcDbSymbolTableRecord
100
AcDbBlockTableRecord
  2
*Model_Space
340
73
 70
     0
280
     1
281
     0
  0
BLOCK_RECORD
  5
6C
330
1
100
AcDbSymbolTableRecord
100
AcDbBlockTableRecord
  2
*Paper_Space
340
6F
 70
     0
280
     1
281
     0
  0
BLOCK_RECORD
  5
74
330
1
100
AcDbSymbolTableRecord
100
AcDbBlockTableRecord
  2
*Paper_Space0
340
77
 70
     0
280
     1
281
     0
  0
ENDTAB
  0
ENDSEC
  0
SECTION
  2
BLOCKS
  0
BLOCK
  5
71
330
70
100
AcDbEntity
  8
0
100
AcDbBlockBegin
  2
*Model_Space
 70
     0
 10
0.0
 20
0.0
 30
0.0
  3
*Model_Space
  1

  0
ENDBLK
  5
72
330
70
100
AcDbEntity
  8
0
100
AcDbBlockEnd
  0
BLOCK
  5
6D
330
6C
100
AcDbEntity
 67
     1
  8
0
100
AcDbBlockBegin
  2
*Paper_Space
 70
     0
 10
0.0
 20
0.0
 30
0.0
  3
*Paper_Space
  1

  0
ENDBLK
  5
6E
330
6C
100
AcDbEntity
 67
     1
  8
0
100
AcDbBlockEnd
  0
BLOCK
  5
75
330
74
100
AcDbEntity
 67
     1
  8
0
100
AcDbBlockBegin
  2
*Paper_Space0
 70
     0
 10
0.0
 20
0.0
 30
0.0
  3
*Paper_Space0
  1

  0
ENDBLK
  5
76
330
74
100
AcDbEntity
 67
     1
  8
0
100
AcDbBlockEnd
  0
ENDSEC
  0
SECTION
  2
ENTITIES
  0
LINE
  5
79
330
70
100
AcDbEntity
  8
Camada 1
 62
    18
420
        0
370
     5
100
AcDbLine
 10
45.29541015625
 20
274.78857421875
 30
0.0
 11
45.29541015625
 21
583.08740234375
 31
0.0
  0
LINE
  5
7A
330
70
100
AcDbEntity
  8
Camada 1
 62
    18
420
        0
370
     5
100
AcDbLine
 10
72.03369140625
 20
586.08447265625
 30
0.0
 11
45.064453125
 21
586.08447265625
 31
0.0
  0
LINE
  5
7B
330
70
100
AcDbEntity
  8
Camada 1
 62
    18
420
        0
370
     5
100
AcDbLine
 10
234.19287109375
 20
271.79345703125
 30
0.0
 11
45.064453125
 21
271.79345703125
 31
0.0
  0
LWPOLYLINE
  5
7C
330
70
100
AcDbEntity
  8
Camada 1
 62
    18
420
        0
370
     0
100
AcDbPolyline
 90
        4
 70
     0
 43
0.0
 10
44.8349609375
 20
274.78857421875
 10
45.7568359375
 20
274.78857421875
 10
45.29541015625
 20
271.79345703125
 10
44.8349609375
 20
274.78857421875
  0
LWPOLYLINE
  5
7D
330
70
100
AcDbEntity
  8
Camada 1
 62
    18
420
        0
370
    35
100
AcDbPolyline
 90
        3
 70
     1
 43
0.0
 10
44.8349609375
 20
274.78857421875
 10
45.7568359375
 20
274.78857421875
 10
45.29541015625
 20
271.79345703125
  0
LWPOLYLINE
  5
7E
330
70
100
AcDbEntity
  8
Camada 1
 62
    18
420
        0
370
     0
100
AcDbPolyline
 90
        4
 70
     0
 43
0.0
 10
44.8349609375
 20
583.08740234375
 10
45.7568359375
 20
583.08740234375
 10
45.29541015625
 20
586.08447265625
 10
44.8349609375
 20
583.08740234375
  0
LWPOLYLINE
  5
7F
330
70
100
AcDbEntity
  8
Camada 1
 62
    18
420
        0
370
    35
100
AcDbPolyline
 90
        3
 70
     1
 43
0.0
 10
44.8349609375
 20
583.08740234375
 10
45.7568359375
 20
583.08740234375
 10
45.29541015625
 20
586.08447265625
  0
MTEXT
  5
80
330
70
100
AcDbEntity
  8
Camada 1
100
AcDbMText
 10
45.05715005948878
 20
375.0609233174764
 30
0.0
 40
0.2
 41
0.0
 46
0.0
 71
     7
 72
     1
  1
\C7;\c16777215;\FMyriad Pro|b0|i0|c1;\H9.874765;\W1.000000;315
 11
-0.0000000437113882
 21
0.9999999999999992
 31
0.0
 73
     1
 44
1.0
  0
LINE
  5
81
330
70
100
AcDbEntity
  8
Camada 1
 62
    18
420
        0
370
     5
100
AcDbLine
 10
254.24755859375
 20
283.54931640625
 30
0.0
 11
75.14599609375
 21
283.54931640625
 31
0.0
  0
LINE
  5
82
330
70
100
AcDbEntity
  8
Camada 1
 62
    18
420
        0
370
     5
100
AcDbLine
 10
72.14892578125
 20
586.08447265625
 30
0.0
 11
72.14892578125
 21
283.31884765625
 31
0.0
  0
LINE
  5
83
330
70
100
AcDbEntity
  8
Camada 1
 62
    18
420
        0
370
     5
100
AcDbLine
 10
257.24365234375
 20
297.06494140625
 30
0.0
 11
257.24365234375
 21
283.31884765625
 31
0.0
  0
LWPOLYLINE
  5
84
330
70
100
AcDbEntity
  8
Camada 1
 62
    18
420
        0
370
     0
100
AcDbPolyline
 90
        4
 70
     0
 43
0.0
 10
254.24755859375
 20
284.01025390625
 10
254.24755859375
 20
283.08642578125
 10
257.24365234375
 20
283.54931640625
 10
254.24755859375
 20
284.01025390625
  0
LWPOLYLINE
  5
85
330
70
100
AcDbEntity
  8
Camada 1
 62
    18
420
        0
370
    35
100
AcDbPolyline
 90
        3
 70
     1
 43
0.0
 10
254.24755859375
 20
284.01025390625
 10
254.24755859375
 20
283.08642578125
 10
257.24365234375
 20
283.54931640625
  0
LWPOLYLINE
  5
86
330
70
100
AcDbEntity
  8
Camada 1
 62
    18
420
        0
370
     0
100
AcDbPolyline
 90
        4
 70
     0
 43
0.0
 10
75.14599609375
 20
284.01025390625
 10
75.14599609375
 20
283.08642578125
 10
72.14892578125
 20
283.54931640625
 10
75.14599609375
 20
284.01025390625
  0
LWPOLYLINE
  5
87
330
70
100
AcDbEntity
  8
Camada 1
 62
    18
420
        0
370
    35
100
AcDbPolyline
 90
        3
 70
     1
 43
0.0
 10
75.14599609375
 20
284.01025390625
 10
75.14599609375
 20
283.08642578125
 10
72.14892578125
 20
283.54931640625
  0
MTEXT
  5
88
330
70
100
AcDbEntity
  8
Camada 1
100
AcDbMText
 10
166.7646484375
 20
283.77490234375
 30
0.0
 40
0.2
 41
0.0
 46
0.0
 71
     7
 72
     1
  1
\C7;\c16777215;\FMyriad Pro|b0|i0|c1;\H9.874766;\W1.000000;185
 73
     1
 44
1.0
  0
LINE
  5
89
330
70
100
AcDbEntity
  8
Camada 1
 62
    18
420
        0
370
     5
100
AcDbLine
 10
486.59326171875
 20
380.12939453125
 30
0.0
 11
493.62451171875
 21
380.12939453125
 31
0.0
  0
LINE
  5
8A
330
70
100
AcDbEntity
  8
Camada 1
 62
    18
420
        0
370
     5
100
AcDbLine
 10
486.13330078125
 20
379.66845703125
 30
0.0
 11
494.0864257812499
 21
379.66845703125
 31
0.0
  0
LINE
  5
8B
330
70
100
AcDbEntity
  8
Camada 1
 62
    18
420
        0
370
     5
100
AcDbLine
 10
433.92333984375
 20
586.08447265625
 30
0.0
 11
433.92333984375
 21
586.19970703125
 31
0.0
  0
LINE
  5
8C
330
70
100
AcDbEntity
  8
Camada 1
 62
    18
420
        0
370
     5
100
AcDbLine
 10
435.8833007812499
 20
588.04345703125
 30
0.0
 11
435.8833007812499
 21
588.1591796875
 31
0.0
  0
LINE
  5
8D
330
70
100
AcDbEntity
  8
Camada 1
 62
    18
420
        0
370
     5
100
AcDbLine
 10
435.65380859375
 20
586.5458984375
 30
0.0
 11
435.65380859375
 21
585.39306640625
 31
0.0
  0
LINE
  5
8E
330
70
100
AcDbEntity
  8
Camada 1
 62
    18
420
        0
370
     5
100
AcDbLine
 10
435.65380859375
 20
587.92822265625
 30
0.0
 11
435.65380859375
 21
586.7763671875
 31
0.0
  0
LINE
  5
8F
330
70
100
AcDbEntity
  8
Camada 1
 62
    18
420
        0
370
     5
100
AcDbLine
 10
434.61572265625
 20
356.73388671875
 30
0.0
 11
434.61572265625
 21
356.84912109375
 31
0.0
  0
LINE
  5
90
330
70
100
AcDbEntity
  8
Camada 1
 62
    18
420
        0
370
     5
100
AcDbLine
 10
434.38525390625
 20
587.236328125
 30
0.0
 11
434.38525390625
 21
586.89111328125
 31
0.0
  0
LINE
  5
91
330
70
100
AcDbEntity
  8
Camada 1
 62
    18
420
        0
370
     5
100
AcDbLine
 10
434.1547851562499
 20
586.7763671875
 30
0.0
 11
434.1547851562499
 21
586.08447265625
 31
0.0
  0
LINE
  5
92
330
70
100
AcDbEntity
  8
Camada 1
 62
    18
420
        0
370
     5
100
AcDbLine
 10
433.3481445312499
 20
356.84912109375
 30
0.0
 11
433.3481445312499
 21
677.1328125
 31
0.0
  0
LINE
  5
93
330
70
100
AcDbEntity
  8
Camada 1
 62
    18
420
        0
370
     5
100
AcDbLine
 10
428.3920898437499
 20
356.73388671875
 30
0.0
 11
428.3920898437499
 21
278.70751953125
 31
0.0
  0
LINE
  5
94
330
70
100
AcDbEntity
  8
Camada 1
 62
    18
420
        0
370
     5
100
AcDbLine
 10
433.3481445312499
 20
356.84912109375
 30
0.0
 11
453.40185546875
 21
356.84912109375
 31
0.0
  0
LINE
  5
95
330
70
100
AcDbEntity
  8
Camada 1
 62
    18
420
        0
370
     5
100
AcDbLine
 10
428.3920898437499
 20
356.73388671875
 30
0.0
 11
458.35791015625
 21
356.73388671875
 31
0.0
  0
LINE
  5
96
330
70
100
AcDbEntity
  8
Camada 1
 62
    18
420
        0
370
     5
100
AcDbLine
 10
420.9008789062499
 20
271.79345703125
 30
0.0
 11
420.9008789062499
 21
278.59228515625
 31
0.0
  0
LINE
  5
97
330
70
100
AcDbEntity
  8
Camada 1
 62
    18
420
        0
370
     5
100
AcDbLine
 10
445.44873046875
 20
588.73486328125
 30
0.0
 11
445.7954101562499
 21
589.1962890624999
 31
0.0
  0
LINE
  5
98
330
70
100
AcDbEntity
  8
Camada 1
 62
    18
420
        0
370
     5
100
AcDbLine
 10
441.3002929687499
 20
583.4335937499999
 30
0.0
 11
440.95458984375
 21
583.08740234375
 31
0.0
  0
LINE
  5
99
330
70
100
AcDbEntity
  8
Camada 1
 62
    18
420
        0
370
     5
100
AcDbLine
 10
494.20166015625
 20
326.76806640625
 30
0.0
 11
499.61767578125
 21
326.76806640625
 31
0.0
  0
LINE
  5
9A
330
70
100
AcDbEntity
  8
Camada 1
 62
    18
420
        0
370
     5
100
AcDbLine
 10
472.0737304687499
 20
326.76806640625
 30
0.0
 11
486.01708984375
 21
326.76806640625
 31
0.0
  0
LINE
  5
9B
330
70
100
AcDbEntity
  8
Camada 1
 62
    18
420
        0
370
     5
100
AcDbLine
 10
471.3813476562499
 20
326.76806640625
 30
0.0
 11
458.2426757812499
 21
326.76806640625
 31
0.0
  0
LINE
  5
9C
330
70
100
AcDbEntity
  8
Camada 1
 62
    18
420
        0
370
     5
100
AcDbLine
 10
471.3813476562499
 20
326.1923828125
 30
0.0
 11
472.0737304687499
 21
326.1923828125
 31
0.0
  0
LINE
  5
9D
330
70
100
AcDbEntity
  8
Camada 1
 62
    18
420
        0
370
     5
100
AcDbLine
 10
436.80517578125
 20
583.89501953125
 30
0.0
 11
437.72607421875
 21
584.1254882812499
 31
0.0
  0
LINE
  5
9E
330
70
100
AcDbEntity
  8
Camada 1
 62
    18
420
        0
370
     5
100
AcDbLine
 10
449.94384765625
 20
588.2744140625
 30
0.0
 11
449.0229492187499
 21
588.04345703125
 31
0.0
  0
LINE
  5
9F
330
70
100
AcDbEntity
  8
Camada 1
 62
    18
420
        0
370
     5
100
AcDbLine
 10
436.80517578125
 20
585.046875
 30
0.0
 11
437.72607421875
 21
585.39306640625
 31
0.0
  0
LINE
  5
A0
330
70
100
AcDbEntity
  8
Camada 1
 62
    18
420
        0
370
     5
100
AcDbLine
 10
471.3813476562499
 20
299.22216796875
 30
0.0
 11
472.0737304687499
 21
299.22216796875
 31
0.0
  0
LINE
  5
A1
330
70
100
AcDbEntity
  8
Camada 1
 62
    18
420
        0
370
     5
100
AcDbLine
 10
472.0737304687499
 20
298.76123046875
 30
0.0
 11
499.61767578125
 21
298.76123046875
 31
0.0
  0
LINE
  5
A2
330
70
100
AcDbEntity
  8
Camada 1
 62
    18
420
        0
370
     5
100
AcDbLine
 10
421.13232421875
 20
278.70751953125
 30
0.0
 11
465.61767578125
 21
278.70751953125
 31
0.0
  0
LINE
  5
A3
330
70
100
AcDbEntity
  8
Camada 1
 62
    18
420
        0
370
     5
100
AcDbLine
 10
420.9008789062499
 20
278.59228515625
 30
0.0
 11
465.84912109375
 21
278.59228515625
 31
0.0
  0
LINE
  5
A4
330
70
100
AcDbEntity
  8
Camada 1
 62
    18
420
        0
370
     5
100
AcDbLine
 10
466.31005859375
 20
271.79345703125
 30
0.0
 11
420.9008789062499
 21
271.79345703125
 31
0.0
  0
LINE
  5
A5
330
70
100
AcDbEntity
  8
Camada 1
 62
    18
420
        0
370
     5
100
AcDbLine
 10
436.80517578125
 20
587.6982421874999
 30
0.0
 11
436.80517578125
 21
587.3525390624999
 31
0.0
  0
LINE
  5
A6
330
70
100
AcDbEntity
  8
Camada 1
 62
    18
420
        0
370
     5
100
AcDbLine
 10
436.80517578125
 20
585.046875
 30
0.0
 11
436.80517578125
 21
583.89501953125
 31
0.0
  0
LINE
  5
A7
330
70
100
AcDbEntity
  8
Camada 1
 62
    18
420
        0
370
     5
100
AcDbLine
 10
436.80517578125
 20
588.3896484374999
 30
0.0
 11
436.80517578125
 21
588.2744140625
 31
0.0
  0
LINE
  5
A8
330
70
100
AcDbEntity
  8
Camada 1
 62
    18
420
        0
370
     5
100
AcDbLine
 10
436.9213867187499
 20
587.92822265625
 30
0.0
 11
436.9213867187499
 21
587.236328125
 31
0.0
  0
LINE
  5
A9
330
70
100
AcDbEntity
  8
Camada 1
 62
    18
420
        0
370
     5
100
AcDbLine
 10
437.49658203125
 20
586.7763671875
 30
0.0
 11
437.49658203125
 21
587.0063476562499
 31
0.0
  0
LINE
  5
AA
330
70
100
AcDbEntity
  8
Camada 1
 62
    18
420
        0
370
     5
100
AcDbLine
 10
437.38232421875
 20
587.0063476562499
 30
0.0
 11
437.38232421875
 21
586.7763671875
 31
0.0
  0
LINE
  5
AB
330
70
100
AcDbEntity
  8
Camada 1
 62
    18
420
        0
370
     5
100
AcDbLine
 10
436.9213867187499
 20
587.4677734375
 30
0.0
 11
436.9213867187499
 21
587.12158203125
 31
0.0
  0
LINE
  5
AC
330
70
100
AcDbEntity
  8
Camada 1
 62
    18
420
        0
370
     5
100
AcDbLine
 10
436.9213867187499
 20
587.92822265625
 30
0.0
 11
436.9213867187499
 21
588.04345703125
 31
0.0
  0
LINE
  5
AD
330
70
100
AcDbEntity
  8
Camada 1
 62
    18
420
        0
370
     5
100
AcDbLine
 10
437.49658203125
 20
587.5830078125
 30
0.0
 11
437.49658203125
 21
588.04345703125
 31
0.0
  0
LINE
  5
AE
330
70
100
AcDbEntity
  8
Camada 1
 62
    18
420
        0
370
     5
100
AcDbLine
 10
438.76318359375
 20
587.5830078125
 30
0.0
 11
438.76318359375
 21
587.8129882812499
 31
0.0
  0
LINE
  5
AF
330
70
100
AcDbEntity
  8
Camada 1
 62
    18
420
        0
370
     5
100
AcDbLine
 10
438.76318359375
 20
586.08447265625
 30
0.0
 11
438.76318359375
 21
586.3149414062499
 31
0.0
  0
LINE
  5
B0
330
70
100
AcDbEntity
  8
Camada 1
 62
    18
420
        0
370
     5
100
AcDbLine
 10
438.18798828125
 20
586.6611328124999
 30
0.0
 11
438.18798828125
 21
586.43017578125
 31
0.0
  0
LINE
  5
B1
330
70
100
AcDbEntity
  8
Camada 1
 62
    18
420
        0
370
     5
100
AcDbLine
 10
438.18798828125
 20
587.4677734375
 30
0.0
 11
438.18798828125
 21
587.12158203125
 31
0.0
  0
LINE
  5
B2
330
70
100
AcDbEntity
  8
Camada 1
 62
    18
420
        0
370
     5
100
AcDbLine
 10
438.18798828125
 20
588.1591796875
 30
0.0
 11
438.18798828125
 21
587.92822265625
 31
0.0
  0
LINE
  5
B3
330
70
100
AcDbEntity
  8
Camada 1
 62
    18
420
        0
370
     5
100
AcDbLine
 10
438.18798828125
 20
586.6611328124999
 30
0.0
 11
438.18798828125
 21
587.12158203125
 31
0.0
  0
LINE
  5
B4
330
70
100
AcDbEntity
  8
Camada 1
 62
    18
420
        0
370
     5
100
AcDbLine
 10
438.18798828125
 20
587.4677734375
 30
0.0
 11
438.18798828125
 21
587.92822265625
 31
0.0
  0
LINE
  5
B5
330
70
100
AcDbEntity
  8
Camada 1
 62
    18
420
        0
370
     5
100
AcDbLine
 10
438.0727539062499
 20
587.92822265625
 30
0.0
 11
438.0727539062499
 21
588.1591796875
 31
0.0
  0
LINE
  5
B6
330
70
100
AcDbEntity
  8
Camada 1
 62
    18
420
        0
370
     5
100
AcDbLine
 10
438.0727539062499
 20
587.12158203125
 30
0.0
 11
438.0727539062499
 21
587.4677734375
 31
0.0
  0
LINE
  5
B7
330
70
100
AcDbEntity
  8
Camada 1
 62
    18
420
        0
370
     5
100
AcDbLine
 10
438.0727539062499
 20
586.43017578125
 30
0.0
 11
438.0727539062499
 21
586.6611328124999
 31
0.0
  0
LINE
  5
B8
330
70
100
AcDbEntity
  8
Camada 1
 62
    18
420
        0
370
     5
100
AcDbLine
 10
437.95751953125
 20
586.6611328124999
 30
0.0
 11
437.95751953125
 21
586.43017578125
 31
0.0
  0
LINE
  5
B9
330
70
100
AcDbEntity
  8
Camada 1
 62
    18
420
        0
370
     5
100
AcDbLine
 10
437.72607421875
 20
585.39306640625
 30
0.0
 11
437.72607421875
 21
584.1254882812499
 31
0.0
  0
LINE
  5
BA
330
70
100
AcDbEntity
  8
Camada 1
 62
    18
420
        0
370
     5
100
AcDbLine
 10
437.61181640625
 20
587.0063476562499
 30
0.0
 11
437.61181640625
 21
586.7763671875
 31
0.0
  0
LINE
  5
BB
330
70
100
AcDbEntity
  8
Camada 1
 62
    18
420
        0
370
     5
100
AcDbLine
 10
437.61181640625
 20
587.8129882812499
 30
0.0
 11
437.61181640625
 21
587.5830078125
 31
0.0
  0
LINE
  5
BC
330
70
100
AcDbEntity
  8
Camada 1
 62
    18
420
        0
370
     5
100
AcDbLine
 10
437.49658203125
 20
587.0063476562499
 30
0.0
 11
437.49658203125
 21
587.5830078125
 31
0.0
  0
LINE
  5
BD
330
70
100
AcDbEntity
  8
Camada 1
 62
    18
420
        0
370
     5
100
AcDbLine
 10
438.76318359375
 20
587.0063476562499
 30
0.0
 11
438.76318359375
 21
586.3149414062499
 31
0.0
  0
LINE
  5
BE
330
70
100
AcDbEntity
  8
Camada 1
 62
    18
420
        0
370
     5
100
AcDbLine
 10
438.87939453125
 20
587.0063476562499
 30
0.0
 11
438.87939453125
 21
586.7763671875
 31
0.0
  0
LINE
  5
BF
330
70
100
AcDbEntity
  8
Camada 1
 62
    18
420
        0
370
     5
100
AcDbLine
 10
438.87939453125
 20
587.8129882812499
 30
0.0
 11
438.87939453125
 21
587.5830078125
 31
0.0
  0
LINE
  5
C0
330
70
100
AcDbEntity
  8
Camada 1
 62
    18
420
        0
370
     5
100
AcDbLine
 10
438.87939453125
 20
588.3896484374999
 30
0.0
 11
438.87939453125
 21
588.5048828124999
 31
0.0
  0
LINE
  5
C1
330
70
100
AcDbEntity
  8
Camada 1
 62
    18
420
        0
370
     5
100
AcDbLine
 10
438.76318359375
 20
587.8129882812499
 30
0.0
 11
438.76318359375
 21
588.2744140625
 31
0.0
  0
LINE
  5
C2
330
70
100
AcDbEntity
  8
Camada 1
 62
    18
420
        0
370
     5
100
AcDbLine
 10
438.76318359375
 20
587.0063476562499
 30
0.0
 11
438.76318359375
 21
587.5830078125
 31
0.0
  0
LINE
  5
C3
330
70
100
AcDbEntity
  8
Camada 1
 62
    18
420
        0
370
     5
100
AcDbLine
 10
438.87939453125
 20
586.08447265625
 30
0.0
 11
438.87939453125
 21
585.9687499999999
 31
0.0
  0
LINE
  5
C4
330
70
100
AcDbEntity
  8
Camada 1
 62
    18
420
        0
370
     5
100
AcDbLine
 10
439.45556640625
 20
586.6611328124999
 30
0.0
 11
439.45556640625
 21
587.12158203125
 31
0.0
  0
LINE
  5
C5
330
70
100
AcDbEntity
  8
Camada 1
 62
    18
420
        0
370
     5
100
AcDbLine
 10
439.45556640625
 20
587.4677734375
 30
0.0
 11
439.45556640625
 21
587.92822265625
 31
0.0
  0
LINE
  5
C6
330
70
100
AcDbEntity
  8
Camada 1
 62
    18
420
        0
370
     5
100
AcDbLine
 10
439.45556640625
 20
585.85302734375
 30
0.0
 11
439.45556640625
 21
586.43017578125
 31
0.0
  0
LINE
  5
C7
330
70
100
AcDbEntity
  8
Camada 1
 62
    18
420
        0
370
     5
100
AcDbLine
 10
439.45556640625
 20
587.92822265625
 30
0.0
 11
439.45556640625
 21
588.1591796875
 31
0.0
  0
LINE
  5
C8
330
70
100
AcDbEntity
  8
Camada 1
 62
    18
420
        0
370
     5
100
AcDbLine
 10
439.45556640625
 20
587.12158203125
 30
0.0
 11
439.45556640625
 21
587.4677734375
 31
0.0
  0
LINE
  5
C9
330
70
100
AcDbEntity
  8
Camada 1
 62
    18
420
        0
370
     5
100
AcDbLine
 10
439.45556640625
 20
585.85302734375
 30
0.0
 11
439.45556640625
 21
585.9687499999999
 31
0.0
  0
LINE
  5
CA
330
70
100
AcDbEntity
  8
Camada 1
 62
    18
420
        0
370
     5
100
AcDbLine
 10
439.45556640625
 20
586.43017578125
 30
0.0
 11
439.45556640625
 21
586.6611328124999
 31
0.0
  0
LINE
  5
CB
330
70
100
AcDbEntity
  8
Camada 1
 62
    18
420
        0
370
     5
100
AcDbLine
 10
439.45556640625
 20
588.5048828124999
 30
0.0
 11
439.45556640625
 21
587.92822265625
 31
0.0
  0
LINE
  5
CC
330
70
100
AcDbEntity
  8
Camada 1
 62
    18
420
        0
370
     5
100
AcDbLine
 10
445.33447265625
 20
587.8129882812499
 30
0.0
 11
445.33447265625
 21
588.2744140625
 31
0.0
  0
LINE
  5
CD
330
70
100
AcDbEntity
  8
Camada 1
 62
    18
420
        0
370
     5
100
AcDbLine
 10
445.33447265625
 20
587.0063476562499
 30
0.0
 11
445.33447265625
 21
587.5830078125
 31
0.0
  0
LINE
  5
CE
330
70
100
AcDbEntity
  8
Camada 1
 62
    18
420
        0
370
     5
100
AcDbLine
 10
445.33447265625
 20
586.3149414062499
 30
0.0
 11
445.33447265625
 21
586.7763671875
 31
0.0
  0
LINE
  5
CF
330
70
100
AcDbEntity
  8
Camada 1
 62
    18
420
        0
370
     5
100
AcDbLine
 10
445.33447265625
 20
585.9687499999999
 30
0.0
 11
445.33447265625
 21
585.5087890624999
 31
0.0
  0
LINE
  5
D0
330
70
100
AcDbEntity
  8
Camada 1
 62
    18
420
        0
370
     5
100
AcDbLine
 10
445.21923828125
 20
589.0815429687499
 30
0.0
 11
445.21923828125
 21
589.31201171875
 31
0.0
  0
LINE
  5
D1
330
70
100
AcDbEntity
  8
Camada 1
 62
    18
420
        0
370
     5
100
AcDbLine
 10
445.21923828125
 20
587.5830078125
 30
0.0
 11
445.21923828125
 21
587.8129882812499
 31
0.0
  0
LINE
  5
D2
330
70
100
AcDbEntity
  8
Camada 1
 62
    18
420
        0
370
     5
100
AcDbLine
 10
445.21923828125
 20
585.9687499999999
 30
0.0
 11
445.21923828125
 21
586.3149414062499
 31
0.0
  0
LINE
  5
D3
330
70
100
AcDbEntity
  8
Camada 1
 62
    18
420
        0
370
     5
100
AcDbLine
 10
444.7583007812499
 20
585.85302734375
 30
0.0
 11
444.7583007812499
 21
585.6230468749999
 31
0.0
  0
LINE
  5
D4
330
70
100
AcDbEntity
  8
Camada 1
 62
    18
420
        0
370
     5
100
AcDbLine
 10
444.7583007812499
 20
586.6611328124999
 30
0.0
 11
444.7583007812499
 21
586.43017578125
 31
0.0
  0
LINE
  5
D5
330
70
100
AcDbEntity
  8
Camada 1
 62
    18
420
        0
370
     5
100
AcDbLine
 10
444.7583007812499
 20
587.4677734375
 30
0.0
 11
444.7583007812499
 21
587.12158203125
 31
0.0
  0
LINE
  5
D6
330
70
100
AcDbEntity
  8
Camada 1
 62
    18
420
        0
370
     5
100
AcDbLine
 10
444.7583007812499
 20
588.9658203125
 30
0.0
 11
444.7583007812499
 21
588.73486328125
 31
0.0
  0
LINE
  5
D7
330
70
100
AcDbEntity
  8
Camada 1
 62
    18
420
        0
370
     5
100
AcDbLine
 10
444.7583007812499
 20
588.1591796875
 30
0.0
 11
444.7583007812499
 21
587.92822265625
 31
0.0
  0
LINE
  5
D8
330
70
100
AcDbEntity
  8
Camada 1
 62
    18
420
        0
370
     5
100
AcDbLine
 10
444.64306640625
 20
588.9658203125
 30
0.0
 11
444.64306640625
 21
589.31201171875
 31
0.0
  0
LINE
  5
D9
330
70
100
AcDbEntity
  8
Camada 1
 62
    18
420
        0
370
     5
100
AcDbLine
 10
444.64306640625
 20
587.4677734375
 30
0.0
 11
444.64306640625
 21
587.92822265625
 31
0.0
  0
LINE
  5
DA
330
70
100
AcDbEntity
  8
Camada 1
 62
    18
420
        0
370
     5
100
AcDbLine
 10
444.64306640625
 20
585.85302734375
 30
0.0
 11
444.64306640625
 21
586.43017578125
 31
0.0
  0
LINE
  5
DB
330
70
100
AcDbEntity
  8
Camada 1
 62
    18
420
        0
370
     5
100
AcDbLine
 10
444.64306640625
 20
588.73486328125
 30
0.0
 11
444.64306640625
 21
588.9658203125
 31
0.0
  0
LINE
  5
DC
330
70
100
AcDbEntity
  8
Camada 1
 62
    18
420
        0
370
     5
100
AcDbLine
 10
444.64306640625
 20
587.92822265625
 30
0.0
 11
444.64306640625
 21
588.1591796875
 31
0.0
  0
LINE
  5
DD
330
70
100
AcDbEntity
  8
Camada 1
 62
    18
420
        0
370
     5
100
AcDbLine
 10
444.64306640625
 20
587.12158203125
 30
0.0
 11
444.64306640625
 21
587.4677734375
 31
0.0
  0
LINE
  5
DE
330
70
100
AcDbEntity
  8
Camada 1
 62
    18
420
        0
370
     5
100
AcDbLine
 10
444.64306640625
 20
585.6230468749999
 30
0.0
 11
444.64306640625
 21
585.85302734375
 31
0.0
  0
LINE
  5
DF
330
70
100
AcDbEntity
  8
Camada 1
 62
    18
420
        0
370
     5
100
AcDbLine
 10
444.64306640625
 20
586.43017578125
 30
0.0
 11
444.64306640625
 21
586.6611328124999
 31
0.0
  0
LINE
  5
E0
330
70
100
AcDbEntity
  8
Camada 1
 62
    18
420
        0
370
     5
100
AcDbLine
 10
444.0659179687499
 20
585.5087890624999
 30
0.0
 11
444.0659179687499
 21
585.39306640625
 31
0.0
  0
LINE
  5
E1
330
70
100
AcDbEntity
  8
Camada 1
 62
    18
420
        0
370
     5
100
AcDbLine
 10
444.0659179687499
 20
586.3149414062499
 30
0.0
 11
444.0659179687499
 21
585.9687499999999
 31
0.0
  0
LINE
  5
E2
330
70
100
AcDbEntity
  8
Camada 1
 62
    18
420
        0
370
     5
100
AcDbLine
 10
444.0659179687499
 20
587.8129882812499
 30
0.0
 11
444.0659179687499
 21
587.5830078125
 31
0.0
  0
LINE
  5
E3
330
70
100
AcDbEntity
  8
Camada 1
 62
    18
420
        0
370
     5
100
AcDbLine
 10
444.0659179687499
 20
589.31201171875
 30
0.0
 11
444.0659179687499
 21
589.0815429687499
 31
0.0
  0
LINE
  5
E4
330
70
100
AcDbEntity
  8
Camada 1
 62
    18
420
        0
370
     5
100
AcDbLine
 10
443.95166015625
 20
588.62060546875
 30
0.0
 11
443.95166015625
 21
589.0815429687499
 31
0.0
  0
LINE
  5
E5
330
70
100
AcDbEntity
  8
Camada 1
 62
    18
420
        0
370
     5
100
AcDbLine
 10
443.95166015625
 20
587.8129882812499
 30
0.0
 11
443.95166015625
 21
588.2744140625
 31
0.0
  0
LINE
  5
E6
330
70
100
AcDbEntity
  8
Camada 1
 62
    18
420
        0
370
     5
100
AcDbLine
 10
443.95166015625
 20
587.0063476562499
 30
0.0
 11
443.95166015625
 21
587.5830078125
 31
0.0
  0
LINE
  5
E7
330
70
100
AcDbEntity
  8
Camada 1
 62
    18
420
        0
370
     5
100
AcDbLine
 10
443.95166015625
 20
585.5087890624999
 30
0.0
 11
443.95166015625
 21
585.9687499999999
 31
0.0
  0
LINE
  5
E8
330
70
100
AcDbEntity
  8
Camada 1
 62
    18
420
        0
370
     5
100
AcDbLine
 10
443.95166015625
 20
586.3149414062499
 30
0.0
 11
443.95166015625
 21
586.7763671875
 31
0.0
  0
LINE
  5
E9
330
70
100
AcDbEntity
  8
Camada 1
 62
    18
420
        0
370
     5
100
AcDbLine
 10
443.95166015625
 20
589.0815429687499
 30
0.0
 11
443.95166015625
 21
589.31201171875
 31
0.0
  0
LINE
  5
EA
330
70
100
AcDbEntity
  8
Camada 1
 62
    18
420
        0
370
     5
100
AcDbLine
 10
443.95166015625
 20
588.3896484374999
 30
0.0
 11
443.95166015625
 21
588.62060546875
 31
0.0
  0
LINE
  5
EB
330
70
100
AcDbEntity
  8
Camada 1
 62
    18
420
        0
370
     5
100
AcDbLine
 10
443.95166015625
 20
586.7763671875
 30
0.0
 11
443.95166015625
 21
587.0063476562499
 31
0.0
  0
LINE
  5
EC
330
70
100
AcDbEntity
  8
Camada 1
 62
    18
420
        0
370
     5
100
AcDbLine
 10
443.95166015625
 20
585.9687499999999
 30
0.0
 11
443.95166015625
 21
586.3149414062499
 31
0.0
  0
LINE
  5
ED
330
70
100
AcDbEntity
  8
Camada 1
 62
    18
420
        0
370
     5
100
AcDbLine
 10
443.95166015625
 20
585.39306640625
 30
0.0
 11
443.95166015625
 21
585.5087890624999
 31
0.0
  0
LINE
  5
EE
330
70
100
AcDbEntity
  8
Camada 1
 62
    18
420
        0
370
     5
100
AcDbLine
 10
443.37353515625
 20
585.85302734375
 30
0.0
 11
443.37353515625
 21
585.6230468749999
 31
0.0
  0
LINE
  5
EF
330
70
100
AcDbEntity
  8
Camada 1
 62
    18
420
        0
370
     5
100
AcDbLine
 10
443.37353515625
 20
586.6611328124999
 30
0.0
 11
443.37353515625
 21
586.43017578125
 31
0.0
  0
LINE
  5
F0
330
70
100
AcDbEntity
  8
Camada 1
 62
    18
420
        0
370
     5
100
AcDbLine
 10
443.37353515625
 20
587.4677734375
 30
0.0
 11
443.37353515625
 21
587.12158203125
 31
0.0
  0
LINE
  5
F1
330
70
100
AcDbEntity
  8
Camada 1
 62
    18
420
        0
370
     5
100
AcDbLine
 10
443.37353515625
 20
588.9658203125
 30
0.0
 11
443.37353515625
 21
588.73486328125
 31
0.0
  0
LINE
  5
F2
330
70
100
AcDbEntity
  8
Camada 1
 62
    18
420
        0
370
     5
100
AcDbLine
 10
443.37353515625
 20
588.1591796875
 30
0.0
 11
443.37353515625
 21
587.92822265625
 31
0.0
  0
LINE
  5
F3
330
70
100
AcDbEntity
  8
Camada 1
 62
    18
420
        0
370
     5
100
AcDbLine
 10
443.37353515625
 20
588.9658203125
 30
0.0
 11
443.37353515625
 21
589.31201171875
 31
0.0
  0
LINE
  5
F4
330
70
100
AcDbEntity
  8
Camada 1
 62
    18
420
        0
370
     5
100
AcDbLine
 10
443.37353515625
 20
588.1591796875
 30
0.0
 11
443.37353515625
 21
588.73486328125
 31
0.0
  0
LINE
  5
F5
330
70
100
AcDbEntity
  8
Camada 1
 62
    18
420
        0
370
     5
100
AcDbLine
 10
443.37353515625
 20
586.6611328124999
 30
0.0
 11
443.37353515625
 21
587.12158203125
 31
0.0
  0
LINE
  5
F6
330
70
100
AcDbEntity
  8
Camada 1
 62
    18
420
        0
370
     5
100
AcDbLine
 10
443.37353515625
 20
585.85302734375
 30
0.0
 11
443.37353515625
 21
586.43017578125
 31
0.0
  0
LINE
  5
F7
330
70
100
AcDbEntity
  8
Camada 1
 62
    18
420
        0
370
     5
100
AcDbLine
 10
443.25927734375
 20
588.73486328125
 30
0.0
 11
443.25927734375
 21
588.9658203125
 31
0.0
  0
LINE
  5
F8
330
70
100
AcDbEntity
  8
Camada 1
 62
    18
420
        0
370
     5
100
AcDbLine
 10
443.25927734375
 20
587.92822265625
 30
0.0
 11
443.25927734375
 21
588.1591796875
 31
0.0
  0
LINE
  5
F9
330
70
100
AcDbEntity
  8
Camada 1
 62
    18
420
        0
370
     5
100
AcDbLine
 10
443.25927734375
 20
587.12158203125
 30
0.0
 11
443.25927734375
 21
587.4677734375
 31
0.0
  0
LINE
  5
FA
330
70
100
AcDbEntity
  8
Camada 1
 62
    18
420
        0
370
     5
100
AcDbLine
 10
443.25927734375
 20
585.6230468749999
 30
0.0
 11
443.25927734375
 21
585.85302734375
 31
0.0
  0
LINE
  5
FB
330
70
100
AcDbEntity
  8
Camada 1
 62
    18
420
        0
370
     5
100
AcDbLine
 10
443.25927734375
 20
586.43017578125
 30
0.0
 11
443.25927734375
 21
586.6611328124999
 31
0.0
  0
LINE
  5
FC
330
70
100
AcDbEntity
  8
Camada 1
 62
    18
420
        0
370
     5
100
AcDbLine
 10
442.79833984375
 20
585.5087890624999
 30
0.0
 11
442.79833984375
 21
585.39306640625
 31
0.0
  0
LINE
  5
FD
330
70
100
AcDbEntity
  8
Camada 1
 62
    18
420
        0
370
     5
100
AcDbLine
 10
442.79833984375
 20
586.3149414062499
 30
0.0
 11
442.79833984375
 21
585.9687499999999
 31
0.0
  0
LINE
  5
FE
330
70
100
AcDbEntity
  8
Camada 1
 62
    18
420
        0
370
     5
100
AcDbLine
 10
442.79833984375
 20
587.0063476562499
 30
0.0
 11
442.79833984375
 21
586.7763671875
 31
0.0
  0
LINE
  5
FF
330
70
100
AcDbEntity
  8
Camada 1
 62
    18
420
        0
370
     5
100
AcDbLine
 10
442.79833984375
 20
588.62060546875
 30
0.0
 11
442.79833984375
 21
588.3896484374999
 31
0.0
  0
LINE
  5
100
330
70
100
AcDbEntity
  8
Camada 1
 62
    18
420
        0
370
     5
100
AcDbLine
 10
442.79833984375
 20
589.31201171875
 30
0.0
 11
442.79833984375
 21
589.0815429687499
 31
0.0
  0
LINE
  5
101
330
70
100
AcDbEntity
  8
Camada 1
 62
    18
420
        0
370
     5
100
AcDbLine
 10
442.68408203125
 20
588.62060546875
 30
0.0
 11
442.68408203125
 21
589.0815429687499
 31
0.0
  0
LINE
  5
102
330
70
100
AcDbEntity
  8
Camada 1
 62
    18
420
        0
370
     5
100
AcDbLine
 10
442.68408203125
 20
587.8129882812499
 30
0.0
 11
442.68408203125
 21
588.2744140625
 31
0.0
  0
LINE
  5
103
330
70
100
AcDbEntity
  8
Camada 1
 62
    18
420
        0
370
     5
100
AcDbLine
 10
442.68408203125
 20
587.0063476562499
 30
0.0
 11
442.68408203125
 21
587.5830078125
 31
0.0
  0
LINE
  5
104
330
70
100
AcDbEntity
  8
Camada 1
 62
    18
420
        0
370
     5
100
AcDbLine
 10
442.68408203125
 20
585.5087890624999
 30
0.0
 11
442.68408203125
 21
585.9687499999999
 31
0.0
  0
LINE
  5
105
330
70
100
AcDbEntity
  8
Camada 1
 62
    18
420
        0
370
     5
100
AcDbLine
 10
442.68408203125
 20
586.3149414062499
 30
0.0
 11
442.68408203125
 21
586.7763671875
 31
0.0
  0
LINE
  5
106
330
70
100
AcDbEntity
  8
Camada 1
 62
    18
420
        0
370
     5
100
AcDbLine
 10
442.68408203125
 20
589.0815429687499
 30
0.0
 11
442.68408203125
 21
589.31201171875
 31
0.0
  0
LINE
  5
107
330
70
100
AcDbEntity
  8
Camada 1
 62
    18
420
        0
370
     5
100
AcDbLine
 10
442.68408203125
 20
588.3896484374999
 30
0.0
 11
442.68408203125
 21
588.62060546875
 31
0.0
  0
LINE
  5
108
330
70
100
AcDbEntity
  8
Camada 1
 62
    18
420
        0
370
     5
100
AcDbLine
 10
442.68408203125
 20
586.7763671875
 30
0.0
 11
442.68408203125
 21
587.0063476562499
 31
0.0
  0
LINE
  5
109
330
70
100
AcDbEntity
  8
Camada 1
 62
    18
420
        0
370
     5
100
AcDbLine
 10
442.68408203125
 20
587.5830078125
 30
0.0
 11
442.68408203125
 21
587.8129882812499
 31
0.0
  0
LINE
  5
10A
330
70
100
AcDbEntity
  8
Camada 1
 62
    18
420
        0
370
     5
100
AcDbLine
 10
442.68408203125
 20
585.9687499999999
 30
0.0
 11
442.68408203125
 21
586.3149414062499
 31
0.0
  0
LINE
  5
10B
330
70
100
AcDbEntity
  8
Camada 1
 62
    18
420
        0
370
     5
100
AcDbLine
 10
442.68408203125
 20
585.39306640625
 30
0.0
 11
442.68408203125
 21
585.5087890624999
 31
0.0
  0
LINE
  5
10C
330
70
100
AcDbEntity
  8
Camada 1
 62
    18
420
        0
370
     5
100
AcDbLine
 10
442.10693359375
 20
585.85302734375
 30
0.0
 11
442.10693359375
 21
585.6230468749999
 31
0.0
  0
LINE
  5
10D
330
70
100
AcDbEntity
  8
Camada 1
 62
    18
420
        0
370
     5
100
AcDbLine
 10
442.10693359375
 20
586.6611328124999
 30
0.0
 11
442.10693359375
 21
586.43017578125
 31
0.0
  0
LINE
  5
10E
330
70
100
AcDbEntity
  8
Camada 1
 62
    18
420
        0
370
     5
100
AcDbLine
 10
442.10693359375
 20
587.4677734375
 30
0.0
 11
442.10693359375
 21
587.12158203125
 31
0.0
  0
LINE
  5
10F
330
70
100
AcDbEntity
  8
Camada 1
 62
    18
420
        0
370
     5
100
AcDbLine
 10
442.10693359375
 20
588.9658203125
 30
0.0
 11
442.10693359375
 21
588.73486328125
 31
0.0
  0
LINE
  5
110
330
70
100
AcDbEntity
  8
Camada 1
 62
    18
420
        0
370
     5
100
AcDbLine
 10
442.10693359375
 20
588.1591796875
 30
0.0
 11
442.10693359375
 21
587.92822265625
 31
0.0
  0
LINE
  5
111
330
70
100
AcDbEntity
  8
Camada 1
 62
    18
420
        0
370
     5
100
AcDbLine
 10
442.10693359375
 20
588.9658203125
 30
0.0
 11
442.10693359375
 21
589.31201171875
 31
0.0
  0
LINE
  5
112
330
70
100
AcDbEntity
  8
Camada 1
 62
    18
420
        0
370
     5
100
AcDbLine
 10
442.10693359375
 20
588.1591796875
 30
0.0
 11
442.10693359375
 21
588.73486328125
 31
0.0
  0
LINE
  5
113
330
70
100
AcDbEntity
  8
Camada 1
 62
    18
420
        0
370
     5
100
AcDbLine
 10
442.10693359375
 20
586.6611328124999
 30
0.0
 11
442.10693359375
 21
587.12158203125
 31
0.0
  0
LINE
  5
114
330
70
100
AcDbEntity
  8
Camada 1
 62
    18
420
        0
370
     5
100
AcDbLine
 10
442.10693359375
 20
587.4677734375
 30
0.0
 11
442.10693359375
 21
587.92822265625
 31
0.0
  0
LINE
  5
115
330
70
100
AcDbEntity
  8
Camada 1
 62
    18
420
        0
370
     5
100
AcDbLine
 10
442.10693359375
 20
585.85302734375
 30
0.0
 11
442.10693359375
 21
586.43017578125
 31
0.0
  0
LINE
  5
116
330
70
100
AcDbEntity
  8
Camada 1
 62
    18
420
        0
370
     5
100
AcDbLine
 10
441.9916992187499
 20
588.73486328125
 30
0.0
 11
441.9916992187499
 21
588.9658203125
 31
0.0
  0
LINE
  5
117
330
70
100
AcDbEntity
  8
Camada 1
 62
    18
420
        0
370
     5
100
AcDbLine
 10
441.9916992187499
 20
587.92822265625
 30
0.0
 11
441.9916992187499
 21
588.1591796875
 31
0.0
  0
LINE
  5
118
330
70
100
AcDbEntity
  8
Camada 1
 62
    18
420
        0
370
     5
100
AcDbLine
 10
441.9916992187499
 20
587.12158203125
 30
0.0
 11
441.9916992187499
 21
587.4677734375
 31
0.0
  0
LINE
  5
119
330
70
100
AcDbEntity
  8
Camada 1
 62
    18
420
        0
370
     5
100
AcDbLine
 10
441.9916992187499
 20
585.6230468749999
 30
0.0
 11
441.9916992187499
 21
585.85302734375
 31
0.0
  0
LINE
  5
11A
330
70
100
AcDbEntity
  8
Camada 1
 62
    18
420
        0
370
     5
100
AcDbLine
 10
441.9916992187499
 20
586.43017578125
 30
0.0
 11
441.9916992187499
 21
586.6611328124999
 31
0.0
  0
LINE
  5
11B
330
70
100
AcDbEntity
  8
Camada 1
 62
    18
420
        0
370
     5
100
AcDbLine
 10
441.4135742187499
 20
586.3149414062499
 30
0.0
 11
441.4135742187499
 21
585.9687499999999
 31
0.0
  0
LINE
  5
11C
330
70
100
AcDbEntity
  8
Camada 1
 62
    18
420
        0
370
     5
100
AcDbLine
 10
441.4135742187499
 20
587.0063476562499
 30
0.0
 11
441.4135742187499
 21
586.7763671875
 31
0.0
  0
LINE
  5
11D
330
70
100
AcDbEntity
  8
Camada 1
 62
    18
420
        0
370
     5
100
AcDbLine
 10
441.4135742187499
 20
587.8129882812499
 30
0.0
 11
441.4135742187499
 21
587.5830078125
 31
0.0
  0
LINE
  5
11E
330
70
100
AcDbEntity
  8
Camada 1
 62
    18
420
        0
370
     5
100
AcDbLine
 10
441.4135742187499
 20
589.31201171875
 30
0.0
 11
441.4135742187499
 21
589.0815429687499
 31
0.0
  0
LINE
  5
11F
330
70
100
AcDbEntity
  8
Camada 1
 62
    18
420
        0
370
     5
100
AcDbLine
 10
441.4135742187499
 20
588.62060546875
 30
0.0
 11
441.4135742187499
 21
588.3896484374999
 31
0.0
  0
LINE
  5
120
330
70
100
AcDbEntity
  8
Camada 1
 62
    18
420
        0
370
     5
100
AcDbLine
 10
441.4135742187499
 20
585.9687499999999
 30
0.0
 11
441.4135742187499
 21
585.5087890624999
 31
0.0
  0
LINE
  5
121
330
70
100
AcDbEntity
  8
Camada 1
 62
    18
420
        0
370
     5
100
AcDbLine
 10
441.4135742187499
 20
588.62060546875
 30
0.0
 11
441.4135742187499
 21
589.0815429687499
 31
0.0
  0
LINE
  5
122
330
70
100
AcDbEntity
  8
Camada 1
 62
    18
420
        0
370
     5
100
AcDbLine
 10
441.4135742187499
 20
587.8129882812499
 30
0.0
 11
441.4135742187499
 21
588.2744140625
 31
0.0
  0
LINE
  5
123
330
70
100
AcDbEntity
  8
Camada 1
 62
    18
420
        0
370
     5
100
AcDbLine
 10
441.4135742187499
 20
587.0063476562499
 30
0.0
 11
441.4135742187499
 21
587.5830078125
 31
0.0
  0
LINE
  5
124
330
70
100
AcDbEntity
  8
Camada 1
 62
    18
420
        0
370
     5
100
AcDbLine
 10
441.4135742187499
 20
586.3149414062499
 30
0.0
 11
441.4135742187499
 21
586.7763671875
 31
0.0
  0
LINE
  5
125
330
70
100
AcDbEntity
  8
Camada 1
 62
    18
420
        0
370
     5
100
AcDbLine
 10
441.4135742187499
 20
589.0815429687499
 30
0.0
 11
441.4135742187499
 21
589.31201171875
 31
0.0
  0
LINE
  5
126
330
70
100
AcDbEntity
  8
Camada 1
 62
    18
420
        0
370
     5
100
AcDbLine
 10
441.4135742187499
 20
588.3896484374999
 30
0.0
 11
441.4135742187499
 21
588.62060546875
 31
0.0
  0
LINE
  5
127
330
70
100
AcDbEntity
  8
Camada 1
 62
    18
420
        0
370
     5
100
AcDbLine
 10
441.4135742187499
 20
586.7763671875
 30
0.0
 11
441.4135742187499
 21
587.0063476562499
 31
0.0
  0
LINE
  5
128
330
70
100
AcDbEntity
  8
Camada 1
 62
    18
420
        0
370
     5
100
AcDbLine
 10
441.4135742187499
 20
585.9687499999999
 30
0.0
 11
441.4135742187499
 21
586.3149414062499
 31
0.0
  0
LINE
  5
129
330
70
100
AcDbEntity
  8
Camada 1
 62
    18
420
        0
370
     5
100
AcDbLine
 10
441.3002929687499
 20
585.9687499999999
 30
0.0
 11
441.3002929687499
 21
585.5087890624999
 31
0.0
  0
LINE
  5
12A
330
70
100
AcDbEntity
  8
Camada 1
 62
    18
420
        0
370
     5
100
AcDbLine
 10
441.3002929687499
 20
584.7021484375
 30
0.0
 11
441.3002929687499
 21
583.4335937499999
 31
0.0
  0
LINE
  5
12B
330
70
100
AcDbEntity
  8
Camada 1
 62
    18
420
        0
370
     5
100
AcDbLine
 10
441.3002929687499
 20
589.1962890624999
 30
0.0
 11
441.3002929687499
 21
588.73486328125
 31
0.0
  0
LINE
  5
12C
330
70
100
AcDbEntity
  8
Camada 1
 62
    18
420
        0
370
     5
100
AcDbLine
 10
440.95458984375
 20
589.1962890624999
 30
0.0
 11
440.95458984375
 21
589.31201171875
 31
0.0
  0
LINE
  5
12D
330
70
100
AcDbEntity
  8
Camada 1
 62
    18
420
        0
370
     5
100
AcDbLine
 10
440.8393554687499
 20
585.85302734375
 30
0.0
 11
440.8393554687499
 21
585.6230468749999
 31
0.0
  0
LINE
  5
12E
330
70
100
AcDbEntity
  8
Camada 1
 62
    18
420
        0
370
     5
100
AcDbLine
 10
440.8393554687499
 20
586.6611328124999
 30
0.0
 11
440.8393554687499
 21
586.43017578125
 31
0.0
  0
LINE
  5
12F
330
70
100
AcDbEntity
  8
Camada 1
 62
    18
420
        0
370
     5
100
AcDbLine
 10
440.8393554687499
 20
587.4677734375
 30
0.0
 11
440.8393554687499
 21
587.12158203125
 31
0.0
  0
LINE
  5
130
330
70
100
AcDbEntity
  8
Camada 1
 62
    18
420
        0
370
     5
100
AcDbLine
 10
440.8393554687499
 20
588.1591796875
 30
0.0
 11
440.8393554687499
 21
587.92822265625
 31
0.0
  0
LINE
  5
131
330
70
100
AcDbEntity
  8
Camada 1
 62
    18
420
        0
370
     5
100
AcDbLine
 10
440.72412109375
 20
588.1591796875
 30
0.0
 11
440.72412109375
 21
588.62060546875
 31
0.0
  0
LINE
  5
132
330
70
100
AcDbEntity
  8
Camada 1
 62
    18
420
        0
370
     5
100
AcDbLine
 10
440.72412109375
 20
586.6611328124999
 30
0.0
 11
440.72412109375
 21
587.12158203125
 31
0.0
  0
LINE
  5
133
330
70
100
AcDbEntity
  8
Camada 1
 62
    18
420
        0
370
     5
100
AcDbLine
 10
440.72412109375
 20
585.85302734375
 30
0.0
 11
440.72412109375
 21
586.43017578125
 31
0.0
  0
LINE
  5
134
330
70
100
AcDbEntity
  8
Camada 1
 62
    18
420
        0
370
     5
100
AcDbLine
 10
440.72412109375
 20
587.92822265625
 30
0.0
 11
440.72412109375
 21
588.1591796875
 31
0.0
  0
LINE
  5
135
330
70
100
AcDbEntity
  8
Camada 1
 62
    18
420
        0
370
     5
100
AcDbLine
 10
440.72412109375
 20
587.12158203125
 30
0.0
 11
440.72412109375
 21
587.4677734375
 31
0.0
  0
LINE
  5
136
330
70
100
AcDbEntity
  8
Camada 1
 62
    18
420
        0
370
     5
100
AcDbLine
 10
440.72412109375
 20
585.6230468749999
 30
0.0
 11
440.72412109375
 21
585.85302734375
 31
0.0
  0
LINE
  5
137
330
70
100
AcDbEntity
  8
Camada 1
 62
    18
420
        0
370
     5
100
AcDbLine
 10
440.72412109375
 20
586.43017578125
 30
0.0
 11
440.72412109375
 21
586.6611328124999
 31
0.0
  0
LINE
  5
138
330
70
100
AcDbEntity
  8
Camada 1
 62
    18
420
        0
370
     5
100
AcDbLine
 10
440.60693359375
 20
585.85302734375
 30
0.0
 11
440.60693359375
 21
585.6230468749999
 31
0.0
  0
LINE
  5
139
330
70
100
AcDbEntity
  8
Camada 1
 62
    18
420
        0
370
     5
100
AcDbLine
 10
440.14697265625
 20
586.3149414062499
 30
0.0
 11
440.14697265625
 21
585.9687499999999
 31
0.0
  0
LINE
  5
13A
330
70
100
AcDbEntity
  8
Camada 1
 62
    18
420
        0
370
     5
100
AcDbLine
 10
440.14697265625
 20
587.0063476562499
 30
0.0
 11
440.14697265625
 21
586.7763671875
 31
0.0
  0
LINE
  5
13B
330
70
100
AcDbEntity
  8
Camada 1
 62
    18
420
        0
370
     5
100
AcDbLine
 10
440.14697265625
 20
588.62060546875
 30
0.0
 11
440.14697265625
 21
588.3896484374999
 31
0.0
  0
LINE
  5
13C
330
70
100
AcDbEntity
  8
Camada 1
 62
    18
420
        0
370
     5
100
AcDbLine
 10
440.14697265625
 20
587.8129882812499
 30
0.0
 11
440.14697265625
 21
588.2744140625
 31
0.0
  0
LINE
  5
13D
330
70
100
AcDbEntity
  8
Camada 1
 62
    18
420
        0
370
     5
100
AcDbLine
 10
440.14697265625
 20
587.0063476562499
 30
0.0
 11
440.14697265625
 21
587.5830078125
 31
0.0
  0
LINE
  5
13E
330
70
100
AcDbEntity
  8
Camada 1
 62
    18
420
        0
370
     5
100
AcDbLine
 10
440.14697265625
 20
586.3149414062499
 30
0.0
 11
440.14697265625
 21
586.7763671875
 31
0.0
  0
LINE
  5
13F
330
70
100
AcDbEntity
  8
Camada 1
 62
    18
420
        0
370
     5
100
AcDbLine
 10
440.03271484375
 20
588.3896484374999
 30
0.0
 11
440.03271484375
 21
588.62060546875
 31
0.0
  0
LINE
  5
140
330
70
100
AcDbEntity
  8
Camada 1
 62
    18
420
        0
370
     5
100
AcDbLine
 10
440.03271484375
 20
586.7763671875
 30
0.0
 11
440.03271484375
 21
587.0063476562499
 31
0.0
  0
LINE
  5
141
330
70
100
AcDbEntity
  8
Camada 1
 62
    18
420
        0
370
     5
100
AcDbLine
 10
440.03271484375
 20
587.5830078125
 30
0.0
 11
440.03271484375
 21
587.8129882812499
 31
0.0
  0
LINE
  5
142
330
70
100
AcDbEntity
  8
Camada 1
 62
    18
420
        0
370
     5
100
AcDbLine
 10
440.03271484375
 20
585.9687499999999
 30
0.0
 11
440.03271484375
 21
586.3149414062499
 31
0.0
  0
LINE
  5
143
330
70
100
AcDbEntity
  8
Camada 1
 62
    18
420
        0
370
     5
100
AcDbLine
 10
439.45556640625
 20
585.85302734375
 30
0.0
 11
439.45556640625
 21
585.9687499999999
 31
0.0
  0
LINE
  5
144
330
70
100
AcDbEntity
  8
Camada 1
 62
    18
420
        0
370
     5
100
AcDbLine
 10
439.45556640625
 20
586.6611328124999
 30
0.0
 11
439.45556640625
 21
586.43017578125
 31
0.0
  0
LINE
  5
145
330
70
100
AcDbEntity
  8
Camada 1
 62
    18
420
        0
370
     5
100
AcDbLine
 10
439.45556640625
 20
587.4677734375
 30
0.0
 11
439.45556640625
 21
587.12158203125
 31
0.0
  0
LINE
  5
146
330
70
100
AcDbEntity
  8
Camada 1
 62
    18
420
        0
370
     5
100
AcDbLine
 10
445.33447265625
 20
589.0815429687499
 30
0.0
 11
445.33447265625
 21
588.3896484374999
 31
0.0
  0
LINE
  5
147
330
70
100
AcDbEntity
  8
Camada 1
 62
    18
420
        0
370
     5
100
AcDbLine
 10
445.33447265625
 20
587.0063476562499
 30
0.0
 11
445.33447265625
 21
586.7763671875
 31
0.0
  0
LINE
  5
148
330
70
100
AcDbEntity
  8
Camada 1
 62
    18
420
        0
370
     5
100
AcDbLine
 10
445.33447265625
 20
587.8129882812499
 30
0.0
 11
445.33447265625
 21
587.5830078125
 31
0.0
  0
LINE
  5
149
330
70
100
AcDbEntity
  8
Camada 1
 62
    18
420
        0
370
     5
100
AcDbLine
 10
445.33447265625
 20
589.31201171875
 30
0.0
 11
445.33447265625
 21
589.0815429687499
 31
0.0
  0
LINE
  5
14A
330
70
100
AcDbEntity
  8
Camada 1
 62
    18
420
        0
370
     5
100
AcDbLine
 10
445.33447265625
 20
586.3149414062499
 30
0.0
 11
445.33447265625
 21
585.5087890624999
 31
0.0
  0
LINE
  5
14B
330
70
100
AcDbEntity
  8
Camada 1
 62
    18
420
        0
370
     5
100
AcDbLine
 10
446.02587890625
 20
586.6611328124999
 30
0.0
 11
446.02587890625
 21
586.43017578125
 31
0.0
  0
LINE
  5
14C
330
70
100
AcDbEntity
  8
Camada 1
 62
    18
420
        0
370
     5
100
AcDbLine
 10
446.02587890625
 20
587.4677734375
 30
0.0
 11
446.02587890625
 21
587.12158203125
 31
0.0
  0
LINE
  5
14D
330
70
100
AcDbEntity
  8
Camada 1
 62
    18
420
        0
370
     5
100
AcDbLine
 10
446.02587890625
 20
588.1591796875
 30
0.0
 11
446.02587890625
 21
587.92822265625
 31
0.0
  0
LINE
  5
14E
330
70
100
AcDbEntity
  8
Camada 1
 62
    18
420
        0
370
     5
100
AcDbLine
 10
445.91064453125
 20
588.1591796875
 30
0.0
 11
445.91064453125
 21
588.62060546875
 31
0.0
  0
LINE
  5
14F
330
70
100
AcDbEntity
  8
Camada 1
 62
    18
420
        0
370
     5
100
AcDbLine
 10
445.91064453125
 20
586.6611328124999
 30
0.0
 11
445.91064453125
 21
587.12158203125
 31
0.0
  0
LINE
  5
150
330
70
100
AcDbEntity
  8
Camada 1
 62
    18
420
        0
370
     5
100
AcDbLine
 10
445.91064453125
 20
587.4677734375
 30
0.0
 11
445.91064453125
 21
587.92822265625
 31
0.0
  0
LINE
  5
151
330
70
100
AcDbEntity
  8
Camada 1
 62
    18
420
        0
370
     5
100
AcDbLine
 10
445.91064453125
 20
585.85302734375
 30
0.0
 11
445.91064453125
 21
586.43017578125
 31
0.0
  0
LINE
  5
152
330
70
100
AcDbEntity
  8
Camada 1
 62
    18
420
        0
370
     5
100
AcDbLine
 10
445.91064453125
 20
587.92822265625
 30
0.0
 11
445.91064453125
 21
588.1591796875
 31
0.0
  0
LINE
  5
153
330
70
100
AcDbEntity
  8
Camada 1
 62
    18
420
        0
370
     5
100
AcDbLine
 10
445.91064453125
 20
587.12158203125
 30
0.0
 11
445.91064453125
 21
587.4677734375
 31
0.0
  0
LINE
  5
154
330
70
100
AcDbEntity
  8
Camada 1
 62
    18
420
        0
370
     5
100
AcDbLine
 10
445.91064453125
 20
585.6230468749999
 30
0.0
 11
445.91064453125
 21
585.85302734375
 31
0.0
  0
LINE
  5
155
330
70
100
AcDbEntity
  8
Camada 1
 62
    18
420
        0
370
     5
100
AcDbLine
 10
445.91064453125
 20
586.43017578125
 30
0.0
 11
445.91064453125
 21
586.6611328124999
 31
0.0
  0
LINE
  5
156
330
70
100
AcDbEntity
  8
Camada 1
 62
    18
420
        0
370
     5
100
AcDbLine
 10
445.7954101562499
 20
589.1962890624999
 30
0.0
 11
445.7954101562499
 21
589.31201171875
 31
0.0
  0
LINE
  5
157
330
70
100
AcDbEntity
  8
Camada 1
 62
    18
420
        0
370
     5
100
AcDbLine
 10
445.44873046875
 20
584.7021484375
 30
0.0
 11
445.44873046875
 21
583.4335937499999
 31
0.0
  0
LINE
  5
158
330
70
100
AcDbEntity
  8
Camada 1
 62
    18
420
        0
370
     5
100
AcDbLine
 10
445.44873046875
 20
589.1962890624999
 30
0.0
 11
445.44873046875
 21
588.73486328125
 31
0.0
  0
LINE
  5
159
330
70
100
AcDbEntity
  8
Camada 1
 62
    18
420
        0
370
     5
100
AcDbLine
 10
446.02685546875
 20
585.85302734375
 30
0.0
 11
446.02685546875
 21
585.85302734375
 31
0.0
  0
LINE
  5
15A
330
70
100
AcDbEntity
  8
Camada 1
 62
    18
420
        0
370
     5
100
AcDbLine
 10
447.2934570312499
 20
586.6611328124999
 30
0.0
 11
447.2934570312499
 21
587.12158203125
 31
0.0
  0
LINE
  5
15B
330
70
100
AcDbEntity
  8
Camada 1
 62
    18
420
        0
370
     5
100
AcDbLine
 10
447.2934570312499
 20
587.4677734375
 30
0.0
 11
447.2934570312499
 21
587.92822265625
 31
0.0
  0
LINE
  5
15C
330
70
100
AcDbEntity
  8
Camada 1
 62
    18
420
        0
370
     5
100
AcDbLine
 10
447.2934570312499
 20
585.85302734375
 30
0.0
 11
447.2934570312499
 21
586.43017578125
 31
0.0
  0
LINE
  5
15D
330
70
100
AcDbEntity
  8
Camada 1
 62
    18
420
        0
370
     5
100
AcDbLine
 10
447.17724609375
 20
587.92822265625
 30
0.0
 11
447.17724609375
 21
588.1591796875
 31
0.0
  0
LINE
  5
15E
330
70
100
AcDbEntity
  8
Camada 1
 62
    18
420
        0
370
     5
100
AcDbLine
 10
447.17724609375
 20
587.12158203125
 30
0.0
 11
447.17724609375
 21
587.4677734375
 31
0.0
  0
LINE
  5
15F
330
70
100
AcDbEntity
  8
Camada 1
 62
    18
420
        0
370
     5
100
AcDbLine
 10
447.17724609375
 20
585.85302734375
 30
0.0
 11
447.17724609375
 21
585.9687499999999
 31
0.0
  0
LINE
  5
160
330
70
100
AcDbEntity
  8
Camada 1
 62
    18
420
        0
370
     5
100
AcDbLine
 10
447.17724609375
 20
586.43017578125
 30
0.0
 11
447.17724609375
 21
586.6611328124999
 31
0.0
  0
LINE
  5
161
330
70
100
AcDbEntity
  8
Camada 1
 62
    18
420
        0
370
     5
100
AcDbLine
 10
446.60302734375
 20
586.3149414062499
 30
0.0
 11
446.60302734375
 21
585.9687499999999
 31
0.0
  0
LINE
  5
162
330
70
100
AcDbEntity
  8
Camada 1
 62
    18
420
        0
370
     5
100
AcDbLine
 10
446.60302734375
 20
587.0063476562499
 30
0.0
 11
446.60302734375
 21
586.7763671875
 31
0.0
  0
LINE
  5
163
330
70
100
AcDbEntity
  8
Camada 1
 62
    18
420
        0
370
     5
100
AcDbLine
 10
446.60302734375
 20
587.8129882812499
 30
0.0
 11
446.60302734375
 21
587.5830078125
 31
0.0
  0
LINE
  5
164
330
70
100
AcDbEntity
  8
Camada 1
 62
    18
420
        0
370
     5
100
AcDbLine
 10
446.60302734375
 20
588.62060546875
 30
0.0
 11
446.60302734375
 21
588.3896484374999
 31
0.0
  0
LINE
  5
165
330
70
100
AcDbEntity
  8
Camada 1
 62
    18
420
        0
370
     5
100
AcDbLine
 10
446.60302734375
 20
587.8129882812499
 30
0.0
 11
446.60302734375
 21
588.2744140625
 31
0.0
  0
LINE
  5
166
330
70
100
AcDbEntity
  8
Camada 1
 62
    18
420
        0
370
     5
100
AcDbLine
 10
446.60302734375
 20
587.0063476562499
 30
0.0
 11
446.60302734375
 21
587.5830078125
 31
0.0
  0
LINE
  5
167
330
70
100
AcDbEntity
  8
Camada 1
 62
    18
420
        0
370
     5
100
AcDbLine
 10
446.60302734375
 20
586.3149414062499
 30
0.0
 11
446.60302734375
 21
586.7763671875
 31
0.0
  0
LINE
  5
168
330
70
100
AcDbEntity
  8
Camada 1
 62
    18
420
        0
370
     5
100
AcDbLine
 10
446.60302734375
 20
588.3896484374999
 30
0.0
 11
446.60302734375
 21
588.62060546875
 31
0.0
  0
LINE
  5
169
330
70
100
AcDbEntity
  8
Camada 1
 62
    18
420
        0
370
     5
100
AcDbLine
 10
446.60302734375
 20
586.7763671875
 30
0.0
 11
446.60302734375
 21
587.0063476562499
 31
0.0
  0
LINE
  5
16A
330
70
100
AcDbEntity
  8
Camada 1
 62
    18
420
        0
370
     5
100
AcDbLine
 10
446.60302734375
 20
587.5830078125
 30
0.0
 11
446.60302734375
 21
587.8129882812499
 31
0.0
  0
LINE
  5
16B
330
70
100
AcDbEntity
  8
Camada 1
 62
    18
420
        0
370
     5
100
AcDbLine
 10
446.60302734375
 20
585.9687499999999
 30
0.0
 11
446.60302734375
 21
586.3149414062499
 31
0.0
  0
LINE
  5
16C
330
70
100
AcDbEntity
  8
Camada 1
 62
    18
420
        0
370
     5
100
AcDbLine
 10
447.2934570312499
 20
588.5048828124999
 30
0.0
 11
447.2934570312499
 21
587.92822265625
 31
0.0
  0
LINE
  5
16D
330
70
100
AcDbEntity
  8
Camada 1
 62
    18
420
        0
370
     5
100
AcDbLine
 10
449.25244140625
 20
587.0063476562499
 30
0.0
 11
449.25244140625
 21
587.5830078125
 31
0.0
  0
LINE
  5
16E
330
70
100
AcDbEntity
  8
Camada 1
 62
    18
420
        0
370
     5
100
AcDbLine
 10
449.1372070312499
 20
586.7763671875
 30
0.0
 11
449.1372070312499
 21
587.0063476562499
 31
0.0
  0
LINE
  5
16F
330
70
100
AcDbEntity
  8
Camada 1
 62
    18
420
        0
370
     5
100
AcDbLine
 10
449.1372070312499
 20
587.5830078125
 30
0.0
 11
449.1372070312499
 21
587.8129882812499
 31
0.0
  0
LINE
  5
170
330
70
100
AcDbEntity
  8
Camada 1
 62
    18
420
        0
370
     5
100
AcDbLine
 10
449.0229492187499
 20
585.39306640625
 30
0.0
 11
449.0229492187499
 21
584.1254882812499
 31
0.0
  0
LINE
  5
171
330
70
100
AcDbEntity
  8
Camada 1
 62
    18
420
        0
370
     5
100
AcDbLine
 10
452.82470703125
 20
586.08447265625
 30
0.0
 11
452.82470703125
 21
586.19970703125
 31
0.0
  0
LINE
  5
172
330
70
100
AcDbEntity
  8
Camada 1
 62
    18
420
        0
370
     5
100
AcDbLine
 10
448.79248046875
 20
586.6611328124999
 30
0.0
 11
448.79248046875
 21
586.43017578125
 31
0.0
  0
LINE
  5
173
330
70
100
AcDbEntity
  8
Camada 1
 62
    18
420
        0
370
     5
100
AcDbLine
 10
448.56201171875
 20
586.6611328124999
 30
0.0
 11
448.56201171875
 21
586.43017578125
 31
0.0
  0
LINE
  5
174
330
70
100
AcDbEntity
  8
Camada 1
 62
    18
420
        0
370
     5
100
AcDbLine
 10
448.56201171875
 20
587.4677734375
 30
0.0
 11
448.56201171875
 21
587.12158203125
 31
0.0
  0
LINE
  5
175
330
70
100
AcDbEntity
  8
Camada 1
 62
    18
420
        0
370
     5
100
AcDbLine
 10
448.56201171875
 20
588.1591796875
 30
0.0
 11
448.56201171875
 21
587.92822265625
 31
0.0
  0
LINE
  5
176
330
70
100
AcDbEntity
  8
Camada 1
 62
    18
420
        0
370
     5
100
AcDbLine
 10
448.56201171875
 20
586.6611328124999
 30
0.0
 11
448.56201171875
 21
587.12158203125
 31
0.0
  0
LINE
  5
177
330
70
100
AcDbEntity
  8
Camada 1
 62
    18
420
        0
370
     5
100
AcDbLine
 10
448.56201171875
 20
587.4677734375
 30
0.0
 11
448.56201171875
 21
587.92822265625
 31
0.0
  0
LINE
  5
178
330
70
100
AcDbEntity
  8
Camada 1
 62
    18
420
        0
370
     5
100
AcDbLine
 10
448.4448242187499
 20
587.92822265625
 30
0.0
 11
448.4448242187499
 21
588.1591796875
 31
0.0
  0
LINE
  5
179
330
70
100
AcDbEntity
  8
Camada 1
 62
    18
420
        0
370
     5
100
AcDbLine
 10
448.4448242187499
 20
587.12158203125
 30
0.0
 11
448.4448242187499
 21
587.4677734375
 31
0.0
  0
LINE
  5
17A
330
70
100
AcDbEntity
  8
Camada 1
 62
    18
420
        0
370
     5
100
AcDbLine
 10
448.4448242187499
 20
586.43017578125
 30
0.0
 11
448.4448242187499
 21
586.6611328124999
 31
0.0
  0
LINE
  5
17B
330
70
100
AcDbEntity
  8
Camada 1
 62
    18
420
        0
370
     5
100
AcDbLine
 10
447.98583984375
 20
586.3149414062499
 30
0.0
 11
447.98583984375
 21
586.08447265625
 31
0.0
  0
LINE
  5
17C
330
70
100
AcDbEntity
  8
Camada 1
 62
    18
420
        0
370
     5
100
AcDbLine
 10
447.98583984375
 20
587.0063476562499
 30
0.0
 11
447.98583984375
 21
586.7763671875
 31
0.0
  0
LINE
  5
17D
330
70
100
AcDbEntity
  8
Camada 1
 62
    18
420
        0
370
     5
100
AcDbLine
 10
447.98583984375
 20
587.8129882812499
 30
0.0
 11
447.98583984375
 21
587.5830078125
 31
0.0
  0
LINE
  5
17E
330
70
100
AcDbEntity
  8
Camada 1
 62
    18
420
        0
370
     5
100
AcDbLine
 10
447.8706054687499
 20
587.8129882812499
 30
0.0
 11
447.8706054687499
 21
588.2744140625
 31
0.0
  0
LINE
  5
17F
330
70
100
AcDbEntity
  8
Camada 1
 62
    18
420
        0
370
     5
100
AcDbLine
 10
447.8706054687499
 20
587.0063476562499
 30
0.0
 11
447.8706054687499
 21
587.5830078125
 31
0.0
  0
LINE
  5
180
330
70
100
AcDbEntity
  8
Camada 1
 62
    18
420
        0
370
     5
100
AcDbLine
 10
447.8706054687499
 20
586.3149414062499
 30
0.0
 11
447.8706054687499
 21
586.7763671875
 31
0.0
  0
LINE
  5
181
330
70
100
AcDbEntity
  8
Camada 1
 62
    18
420
        0
370
     5
100
AcDbLine
 10
447.8706054687499
 20
588.3896484374999
 30
0.0
 11
447.8706054687499
 21
588.5048828124999
 31
0.0
  0
LINE
  5
182
330
70
100
AcDbEntity
  8
Camada 1
 62
    18
420
        0
370
     5
100
AcDbLine
 10
447.8706054687499
 20
586.7763671875
 30
0.0
 11
447.8706054687499
 21
587.0063476562499
 31
0.0
  0
LINE
  5
183
330
70
100
AcDbEntity
  8
Camada 1
 62
    18
420
        0
370
     5
100
AcDbLine
 10
447.8706054687499
 20
587.5830078125
 30
0.0
 11
447.8706054687499
 21
587.8129882812499
 31
0.0
  0
LINE
  5
184
330
70
100
AcDbEntity
  8
Camada 1
 62
    18
420
        0
370
     5
100
AcDbLine
 10
447.8706054687499
 20
586.08447265625
 30
0.0
 11
447.8706054687499
 21
586.3149414062499
 31
0.0
  0
LINE
  5
185
330
70
100
AcDbEntity
  8
Camada 1
 62
    18
420
        0
370
     5
100
AcDbLine
 10
447.75439453125
 20
586.3149414062499
 30
0.0
 11
447.75439453125
 21
585.9687499999999
 31
0.0
  0
LINE
  5
186
330
70
100
AcDbEntity
  8
Camada 1
 62
    18
420
        0
370
     5
100
AcDbLine
 10
447.2934570312499
 20
585.85302734375
 30
0.0
 11
447.2934570312499
 21
585.9687499999999
 31
0.0
  0
LINE
  5
187
330
70
100
AcDbEntity
  8
Camada 1
 62
    18
420
        0
370
     5
100
AcDbLine
 10
447.2934570312499
 20
586.6611328124999
 30
0.0
 11
447.2934570312499
 21
586.43017578125
 31
0.0
  0
LINE
  5
188
330
70
100
AcDbEntity
  8
Camada 1
 62
    18
420
        0
370
     5
100
AcDbLine
 10
447.2934570312499
 20
587.4677734375
 30
0.0
 11
447.2934570312499
 21
587.12158203125
 31
0.0
  0
LINE
  5
189
330
70
100
AcDbEntity
  8
Camada 1
 62
    18
420
        0
370
     5
100
AcDbLine
 10
449.25244140625
 20
588.04345703125
 30
0.0
 11
449.25244140625
 21
587.5830078125
 31
0.0
  0
LINE
  5
18A
330
70
100
AcDbEntity
  8
Camada 1
 62
    18
420
        0
370
     5
100
AcDbLine
 10
449.8286132812499
 20
587.92822265625
 30
0.0
 11
449.8286132812499
 21
588.04345703125
 31
0.0
  0
LINE
  5
18B
330
70
100
AcDbEntity
  8
Camada 1
 62
    18
420
        0
370
     5
100
AcDbLine
 10
449.8286132812499
 20
587.4677734375
 30
0.0
 11
449.8286132812499
 21
587.12158203125
 31
0.0
  0
LINE
  5
18C
330
70
100
AcDbEntity
  8
Camada 1
 62
    18
420
        0
370
     5
100
AcDbLine
 10
449.36669921875
 20
587.0063476562499
 30
0.0
 11
449.36669921875
 21
586.7763671875
 31
0.0
  0
LINE
  5
18D
330
70
100
AcDbEntity
  8
Camada 1
 62
    18
420
        0
370
     5
100
AcDbLine
 10
449.25244140625
 20
587.0063476562499
 30
0.0
 11
449.25244140625
 21
586.7763671875
 31
0.0
  0
LINE
  5
18E
330
70
100
AcDbEntity
  8
Camada 1
 62
    18
420
        0
370
     5
100
AcDbLine
 10
449.8286132812499
 20
587.236328125
 30
0.0
 11
449.8286132812499
 21
587.92822265625
 31
0.0
  0
LINE
  5
18F
330
70
100
AcDbEntity
  8
Camada 1
 62
    18
420
        0
370
     5
100
AcDbLine
 10
449.94384765625
 20
585.046875
 30
0.0
 11
449.94384765625
 21
583.89501953125
 31
0.0
  0
LINE
  5
190
330
70
100
AcDbEntity
  8
Camada 1
 62
    18
420
        0
370
     5
100
AcDbLine
 10
449.94384765625
 20
588.3896484374999
 30
0.0
 11
449.94384765625
 21
588.2744140625
 31
0.0
  0
LINE
  5
191
330
70
100
AcDbEntity
  8
Camada 1
 62
    18
420
        0
370
     5
100
AcDbLine
 10
449.94384765625
 20
587.3525390624999
 30
0.0
 11
449.94384765625
 21
587.6982421874999
 31
0.0
  0
LINE
  5
192
330
70
100
AcDbEntity
  8
Camada 1
 62
    18
420
        0
370
     5
100
AcDbLine
 10
440.8393554687499
 20
585.6230468749999
 30
0.0
 11
440.72412109375
 21
585.6230468749999
 31
0.0
  0
LINE
  5
193
330
70
100
AcDbEntity
  8
Camada 1
 62
    18
420
        0
370
     5
100
AcDbLine
 10
434.38525390625
 20
586.89111328125
 30
0.0
 11
435.65380859375
 21
586.7763671875
 31
0.0
  0
LINE
  5
194
330
70
100
AcDbEntity
  8
Camada 1
 62
    18
420
        0
370
     5
100
AcDbLine
 10
452.24853515625
 20
585.2778320312499
 30
0.0
 11
451.09521484375
 21
585.39306640625
 31
0.0
  0
LINE
  5
195
330
70
100
AcDbEntity
  8
Camada 1
 62
    18
420
        0
370
     5
100
AcDbLine
 10
445.7954101562499
 20
583.08740234375
 30
0.0
 11
445.44873046875
 21
583.4335937499999
 31
0.0
  0
LINE
  5
196
330
70
100
AcDbEntity
  8
Camada 1
 62
    18
420
        0
370
     5
100
AcDbLine
 10
440.95458984375
 20
589.1962890624999
 30
0.0
 11
441.3002929687499
 21
588.73486328125
 31
0.0
  0
LINE
  5
197
330
70
100
AcDbEntity
  8
Camada 1
 62
    18
420
        0
370
     5
100
AcDbLine
 10
500.07763671875
 20
326.1923828125
 30
0.0
 11
500.07763671875
 21
299.22216796875
 31
0.0
  0
LINE
  5
198
330
70
100
AcDbEntity
  8
Camada 1
 62
    18
420
        0
370
     5
100
AcDbLine
 10
499.61767578125
 20
326.76806640625
 30
0.0
 11
499.61767578125
 21
298.76123046875
 31
0.0
  0
LINE
  5
199
330
70
100
AcDbEntity
  8
Camada 1
 62
    18
420
        0
370
     5
100
AcDbLine
 10
494.0864257812499
 20
326.6533203125
 30
0.0
 11
494.0864257812499
 21
379.66845703125
 31
0.0
  0
LINE
  5
19A
330
70
100
AcDbEntity
  8
Camada 1
 62
    18
420
        0
370
     5
100
AcDbLine
 10
486.13330078125
 20
326.6533203125
 30
0.0
 11
486.13330078125
 21
379.66845703125
 31
0.0
  0
LINE
  5
19B
330
70
100
AcDbEntity
  8
Camada 1
 62
    18
420
        0
370
     5
100
AcDbLine
 10
472.0737304687499
 20
326.76806640625
 30
0.0
 11
472.0737304687499
 21
298.76123046875
 31
0.0
  0
LINE
  5
19C
330
70
100
AcDbEntity
  8
Camada 1
 62
    18
420
        0
370
     5
100
AcDbLine
 10
471.3813476562499
 20
326.76806640625
 30
0.0
 11
471.3813476562499
 21
298.64697265625
 31
0.0
  0
LINE
  5
19D
330
70
100
AcDbEntity
  8
Camada 1
 62
    18
420
        0
370
     5
100
AcDbLine
 10
466.31005859375
 20
298.76123046875
 30
0.0
 11
466.31005859375
 21
298.64697265625
 31
0.0
  0
LINE
  5
19E
330
70
100
AcDbEntity
  8
Camada 1
 62
    18
420
        0
370
     5
100
AcDbLine
 10
466.31005859375
 20
326.76806640625
 30
0.0
 11
466.31005859375
 21
326.88330078125
 31
0.0
  0
LINE
  5
19F
330
70
100
AcDbEntity
  8
Camada 1
 62
    18
420
        0
370
     5
100
AcDbLine
 10
465.84912109375
 20
271.79345703125
 30
0.0
 11
465.84912109375
 21
278.59228515625
 31
0.0
  0
LINE
  5
1A0
330
70
100
AcDbEntity
  8
Camada 1
 62
    18
420
        0
370
     5
100
AcDbLine
 10
458.35791015625
 20
298.64697265625
 30
0.0
 11
458.35791015625
 21
278.70751953125
 31
0.0
  0
LINE
  5
1A1
330
70
100
AcDbEntity
  8
Camada 1
 62
    18
420
        0
370
     5
100
AcDbLine
 10
458.35791015625
 20
356.73388671875
 30
0.0
 11
458.35791015625
 21
326.76806640625
 31
0.0
  0
LINE
  5
1A2
330
70
100
AcDbEntity
  8
Camada 1
 62
    18
420
        0
370
     5
100
AcDbLine
 10
453.40185546875
 20
356.84912109375
 30
0.0
 11
453.40185546875
 21
677.1328125
 31
0.0
  0
LINE
  5
1A3
330
70
100
AcDbEntity
  8
Camada 1
 62
    18
420
        0
370
     5
100
AcDbLine
 10
452.59423828125
 20
586.7763671875
 30
0.0
 11
452.59423828125
 21
586.08447265625
 31
0.0
  0
LINE
  5
1A4
330
70
100
AcDbEntity
  8
Camada 1
 62
    18
420
        0
370
     5
100
AcDbLine
 10
452.24853515625
 20
587.236328125
 30
0.0
 11
452.24853515625
 21
586.89111328125
 31
0.0
  0
LINE
  5
1A5
330
70
100
AcDbEntity
  8
Camada 1
 62
    18
420
        0
370
     5
100
AcDbLine
 10
452.13427734375
 20
356.73388671875
 30
0.0
 11
452.13427734375
 21
356.84912109375
 31
0.0
  0
LINE
  5
1A6
330
70
100
AcDbEntity
  8
Camada 1
 62
    18
420
        0
370
     5
100
AcDbLine
 10
451.09521484375
 20
586.5458984375
 30
0.0
 11
451.09521484375
 21
585.39306640625
 31
0.0
  0
LINE
  5
1A7
330
70
100
AcDbEntity
  8
Camada 1
 62
    18
420
        0
370
     5
100
AcDbLine
 10
451.09521484375
 20
587.92822265625
 30
0.0
 11
451.09521484375
 21
586.7763671875
 31
0.0
  0
LINE
  5
1A8
330
70
100
AcDbEntity
  8
Camada 1
 62
    18
420
        0
370
     5
100
AcDbLine
 10
450.8657226562499
 20
588.04345703125
 30
0.0
 11
450.8657226562499
 21
588.1591796875
 31
0.0
  0
LWPOLYLINE
  5
1A9
330
70
100
AcDbEntity
  8
Camada 1
 62
    18
420
        0
370
     5
100
AcDbPolyline
 90
        3
 70
     0
 43
0.0
 10
439.34033203125
 20
585.85302734375
 10
439.45556640625
 20
585.85302734375
 10
438.87939453125
 20
585.9687499999999
  0
LINE
  5
1AA
330
70
100
AcDbEntity
  8
Camada 1
 62
    18
420
        0
370
     5
100
AcDbLine
 10
440.72412109375
 20
585.85302734375
 30
0.0
 11
440.14697265625
 21
585.9687499999999
 31
0.0
  0
LINE
  5
1AB
330
70
100
AcDbEntity
  8
Camada 1
 62
    18
420
        0
370
     5
100
AcDbLine
 10
442.68408203125
 20
585.5087890624999
 30
0.0
 11
442.10693359375
 21
585.6230468749999
 31
0.0
  0
LINE
  5
1AC
330
70
100
AcDbEntity
  8
Camada 1
 62
    18
420
        0
370
     5
100
AcDbLine
 10
440.8393554687499
 20
585.6230468749999
 30
0.0
 11
441.3002929687499
 21
585.5087890624999
 31
0.0
  0
LINE
  5
1AD
330
70
100
AcDbEntity
  8
Camada 1
 62
    18
420
        0
370
     5
100
AcDbLine
 10
438.7641601562499
 20
586.3149414062499
 30
0.0
 11
438.7641601562499
 21
586.3149414062499
 31
0.0
  0
LINE
  5
1AE
330
70
100
AcDbEntity
  8
Camada 1
 62
    18
420
        0
370
     5
100
AcDbLine
 10
439.45556640625
 20
586.6611328124999
 30
0.0
 11
438.76318359375
 21
586.7763671875
 31
0.0
  0
LINE
  5
1AF
330
70
100
AcDbEntity
  8
Camada 1
 62
    18
420
        0
370
     5
100
AcDbLine
 10
441.4135742187499
 20
586.3149414062499
 30
0.0
 11
440.72412109375
 21
586.43017578125
 31
0.0
  0
LINE
  5
1B0
330
70
100
AcDbEntity
  8
Camada 1
 62
    18
420
        0
370
     5
100
AcDbLine
 10
443.25927734375
 20
585.85302734375
 30
0.0
 11
442.68408203125
 21
585.9687499999999
 31
0.0
  0
LINE
  5
1B1
330
70
100
AcDbEntity
  8
Camada 1
 62
    18
420
        0
370
     5
100
AcDbLine
 10
445.10498046875
 20
585.5087890624999
 30
0.0
 11
444.64306640625
 21
585.6230468749999
 31
0.0
  0
LINE
  5
1B2
330
70
100
AcDbEntity
  8
Camada 1
 62
    18
420
        0
370
     5
100
AcDbLine
 10
443.37353515625
 20
585.6230468749999
 30
0.0
 11
443.95166015625
 21
585.5087890624999
 31
0.0
  0
LINE
  5
1B3
330
70
100
AcDbEntity
  8
Camada 1
 62
    18
420
        0
370
     5
100
AcDbLine
 10
441.4135742187499
 20
585.9687499999999
 30
0.0
 11
442.10693359375
 21
585.85302734375
 31
0.0
  0
LINE
  5
1B4
330
70
100
AcDbEntity
  8
Camada 1
 62
    18
420
        0
370
     5
100
AcDbLine
 10
439.45556640625
 20
586.43017578125
 30
0.0
 11
440.14697265625
 21
586.3149414062499
 31
0.0
  0
LINE
  5
1B5
330
70
100
AcDbEntity
  8
Camada 1
 62
    18
420
        0
370
     5
100
AcDbLine
 10
437.61181640625
 20
586.7763671875
 30
0.0
 11
438.18798828125
 21
586.6611328124999
 31
0.0
  0
LINE
  5
1B6
330
70
100
AcDbEntity
  8
Camada 1
 62
    18
420
        0
370
     5
100
AcDbLine
 10
438.0727539062499
 20
586.6611328124999
 30
0.0
 11
437.49658203125
 21
586.7763671875
 31
0.0
  0
LINE
  5
1B7
330
70
100
AcDbEntity
  8
Camada 1
 62
    18
420
        0
370
     5
100
AcDbLine
 10
440.03271484375
 20
586.3149414062499
 30
0.0
 11
439.45556640625
 21
586.43017578125
 31
0.0
  0
LINE
  5
1B8
330
70
100
AcDbEntity
  8
Camada 1
 62
    18
420
        0
370
     5
100
AcDbLine
 10
441.9916992187499
 20
585.85302734375
 30
0.0
 11
441.4135742187499
 21
585.9687499999999
 31
0.0
  0
LINE
  5
1B9
330
70
100
AcDbEntity
  8
Camada 1
 62
    18
420
        0
370
     5
100
AcDbLine
 10
443.95166015625
 20
585.5087890624999
 30
0.0
 11
443.37353515625
 21
585.6230468749999
 31
0.0
  0
LINE
  5
1BA
330
70
100
AcDbEntity
  8
Camada 1
 62
    18
420
        0
370
     5
100
AcDbLine
 10
442.10693359375
 20
585.6230468749999
 30
0.0
 11
442.68408203125
 21
585.5087890624999
 31
0.0
  0
LINE
  5
1BB
330
70
100
AcDbEntity
  8
Camada 1
 62
    18
420
        0
370
     5
100
AcDbLine
 10
440.14697265625
 20
585.9687499999999
 30
0.0
 11
440.72412109375
 21
585.85302734375
 31
0.0
  0
LINE
  5
1BC
330
70
100
AcDbEntity
  8
Camada 1
 62
    18
420
        0
370
     5
100
AcDbLine
 10
437.49658203125
 20
587.0063476562499
 30
0.0
 11
437.49658203125
 21
587.0063476562499
 31
0.0
  0
LINE
  5
1BD
330
70
100
AcDbEntity
  8
Camada 1
 62
    18
420
        0
370
     5
100
AcDbLine
 10
438.76318359375
 20
587.0063476562499
 30
0.0
 11
438.18798828125
 21
587.12158203125
 31
0.0
  0
LINE
  5
1BE
330
70
100
AcDbEntity
  8
Camada 1
 62
    18
420
        0
370
     5
100
AcDbLine
 10
440.72412109375
 20
586.6611328124999
 30
0.0
 11
440.14697265625
 21
586.7763671875
 31
0.0
  0
LINE
  5
1BF
330
70
100
AcDbEntity
  8
Camada 1
 62
    18
420
        0
370
     5
100
AcDbLine
 10
442.68408203125
 20
586.3149414062499
 30
0.0
 11
442.10693359375
 21
586.43017578125
 31
0.0
  0
LINE
  5
1C0
330
70
100
AcDbEntity
  8
Camada 1
 62
    18
420
        0
370
     5
100
AcDbLine
 10
444.64306640625
 20
585.85302734375
 30
0.0
 11
443.95166015625
 21
585.9687499999999
 31
0.0
  0
LINE
  5
1C1
330
70
100
AcDbEntity
  8
Camada 1
 62
    18
420
        0
370
     5
100
AcDbLine
 10
445.91064453125
 20
585.6230468749999
 30
0.0
 11
445.91064453125
 21
585.7392578125
 31
0.0
  0
LINE
  5
1C2
330
70
100
AcDbEntity
  8
Camada 1
 62
    18
420
        0
370
     5
100
AcDbLine
 10
444.7583007812499
 20
585.6230468749999
 30
0.0
 11
445.33447265625
 21
585.5087890624999
 31
0.0
  0
LINE
  5
1C3
330
70
100
AcDbEntity
  8
Camada 1
 62
    18
420
        0
370
     5
100
AcDbLine
 10
442.79833984375
 20
585.9687499999999
 30
0.0
 11
443.37353515625
 21
585.85302734375
 31
0.0
  0
LINE
  5
1C4
330
70
100
AcDbEntity
  8
Camada 1
 62
    18
420
        0
370
     5
100
AcDbLine
 10
440.8393554687499
 20
586.43017578125
 30
0.0
 11
441.4135742187499
 21
586.3149414062499
 31
0.0
  0
LINE
  5
1C5
330
70
100
AcDbEntity
  8
Camada 1
 62
    18
420
        0
370
     5
100
AcDbLine
 10
438.87939453125
 20
586.7763671875
 30
0.0
 11
439.45556640625
 21
586.6611328124999
 31
0.0
  0
LINE
  5
1C6
330
70
100
AcDbEntity
  8
Camada 1
 62
    18
420
        0
370
     5
100
AcDbLine
 10
436.80517578125
 20
587.4677734375
 30
0.0
 11
436.9213867187499
 21
587.4677734375
 31
0.0
  0
LINE
  5
1C7
330
70
100
AcDbEntity
  8
Camada 1
 62
    18
420
        0
370
     5
100
AcDbLine
 10
439.45556640625
 20
587.4677734375
 30
0.0
 11
438.76318359375
 21
587.5830078125
 31
0.0
  0
LINE
  5
1C8
330
70
100
AcDbEntity
  8
Camada 1
 62
    18
420
        0
370
     5
100
AcDbLine
 10
441.4135742187499
 20
587.0063476562499
 30
0.0
 11
440.72412109375
 21
587.12158203125
 31
0.0
  0
LINE
  5
1C9
330
70
100
AcDbEntity
  8
Camada 1
 62
    18
420
        0
370
     5
100
AcDbLine
 10
443.25927734375
 20
586.6611328124999
 30
0.0
 11
442.68408203125
 21
586.7763671875
 31
0.0
  0
LINE
  5
1CA
330
70
100
AcDbEntity
  8
Camada 1
 62
    18
420
        0
370
     5
100
AcDbLine
 10
445.21923828125
 20
586.3149414062499
 30
0.0
 11
444.64306640625
 21
586.43017578125
 31
0.0
  0
LINE
  5
1CB
330
70
100
AcDbEntity
  8
Camada 1
 62
    18
420
        0
370
     5
100
AcDbLine
 10
447.17724609375
 20
585.85302734375
 30
0.0
 11
446.60302734375
 21
585.9687499999999
 31
0.0
  0
LINE
  5
1CC
330
70
100
AcDbEntity
  8
Camada 1
 62
    18
420
        0
370
     5
100
AcDbLine
 10
445.33447265625
 20
585.9687499999999
 30
0.0
 11
445.91064453125
 21
585.85302734375
 31
0.0
  0
LINE
  5
1CD
330
70
100
AcDbEntity
  8
Camada 1
 62
    18
420
        0
370
     5
100
AcDbLine
 10
443.37353515625
 20
586.43017578125
 30
0.0
 11
443.95166015625
 21
586.3149414062499
 31
0.0
  0
LINE
  5
1CE
330
70
100
AcDbEntity
  8
Camada 1
 62
    18
420
        0
370
     5
100
AcDbLine
 10
441.4135742187499
 20
586.7763671875
 30
0.0
 11
442.10693359375
 21
586.6611328124999
 31
0.0
  0
LINE
  5
1CF
330
70
100
AcDbEntity
  8
Camada 1
 62
    18
420
        0
370
     5
100
AcDbLine
 10
439.45556640625
 20
587.12158203125
 30
0.0
 11
440.14697265625
 21
587.0063476562499
 31
0.0
  0
LINE
  5
1D0
330
70
100
AcDbEntity
  8
Camada 1
 62
    18
420
        0
370
     5
100
AcDbLine
 10
437.61181640625
 20
587.5830078125
 30
0.0
 11
438.18798828125
 21
587.4677734375
 31
0.0
  0
LINE
  5
1D1
330
70
100
AcDbEntity
  8
Camada 1
 62
    18
420
        0
370
     5
100
AcDbLine
 10
438.0727539062499
 20
587.4677734375
 30
0.0
 11
437.49658203125
 21
587.5830078125
 31
0.0
  0
LINE
  5
1D2
330
70
100
AcDbEntity
  8
Camada 1
 62
    18
420
        0
370
     5
100
AcDbLine
 10
440.03271484375
 20
587.0063476562499
 30
0.0
 11
439.45556640625
 21
587.12158203125
 31
0.0
  0
LINE
  5
1D3
330
70
100
AcDbEntity
  8
Camada 1
 62
    18
420
        0
370
     5
100
AcDbLine
 10
441.9916992187499
 20
586.6611328124999
 30
0.0
 11
441.4135742187499
 21
586.7763671875
 31
0.0
  0
LINE
  5
1D4
330
70
100
AcDbEntity
  8
Camada 1
 62
    18
420
        0
370
     5
100
AcDbLine
 10
443.95166015625
 20
586.3149414062499
 30
0.0
 11
443.37353515625
 21
586.43017578125
 31
0.0
  0
LINE
  5
1D5
330
70
100
AcDbEntity
  8
Camada 1
 62
    18
420
        0
370
     5
100
AcDbLine
 10
445.91064453125
 20
585.85302734375
 30
0.0
 11
445.33447265625
 21
585.9687499999999
 31
0.0
  0
LINE
  5
1D6
330
70
100
AcDbEntity
  8
Camada 1
 62
    18
420
        0
370
     5
100
AcDbLine
 10
446.02587890625
 20
585.6230468749999
 30
0.0
 11
446.02587890625
 21
585.7392578125
 31
0.0
  0
LINE
  5
1D7
330
70
100
AcDbEntity
  8
Camada 1
 62
    18
420
        0
370
     5
100
AcDbLine
 10
444.0659179687499
 20
585.9687499999999
 30
0.0
 11
444.64306640625
 21
585.85302734375
 31
0.0
  0
LINE
  5
1D8
330
70
100
AcDbEntity
  8
Camada 1
 62
    18
420
        0
370
     5
100
AcDbLine
 10
442.10693359375
 20
586.43017578125
 30
0.0
 11
442.68408203125
 21
586.3149414062499
 31
0.0
  0
LINE
  5
1D9
330
70
100
AcDbEntity
  8
Camada 1
 62
    18
420
        0
370
     5
100
AcDbLine
 10
440.14697265625
 20
586.7763671875
 30
0.0
 11
440.72412109375
 21
586.6611328124999
 31
0.0
  0
LINE
  5
1DA
330
70
100
AcDbEntity
  8
Camada 1
 62
    18
420
        0
370
     5
100
AcDbLine
 10
438.18798828125
 20
587.12158203125
 30
0.0
 11
438.76318359375
 21
587.0063476562499
 31
0.0
  0
LINE
  5
1DB
330
70
100
AcDbEntity
  8
Camada 1
 62
    18
420
        0
370
     5
100
AcDbLine
 10
437.49658203125
 20
587.8129882812499
 30
0.0
 11
437.49658203125
 21
587.8129882812499
 31
0.0
  0
LINE
  5
1DC
330
70
100
AcDbEntity
  8
Camada 1
 62
    18
420
        0
370
     5
100
AcDbLine
 10
440.72412109375
 20
587.4677734375
 30
0.0
 11
440.14697265625
 21
587.5830078125
 31
0.0
  0
LINE
  5
1DD
330
70
100
AcDbEntity
  8
Camada 1
 62
    18
420
        0
370
     5
100
AcDbLine
 10
442.68408203125
 20
587.0063476562499
 30
0.0
 11
442.10693359375
 21
587.12158203125
 31
0.0
  0
LINE
  5
1DE
330
70
100
AcDbEntity
  8
Camada 1
 62
    18
420
        0
370
     5
100
AcDbLine
 10
444.64306640625
 20
586.6611328124999
 30
0.0
 11
443.95166015625
 21
586.7763671875
 31
0.0
  0
LINE
  5
1DF
330
70
100
AcDbEntity
  8
Camada 1
 62
    18
420
        0
370
     5
100
AcDbLine
 10
446.60302734375
 20
586.3149414062499
 30
0.0
 11
445.91064453125
 21
586.43017578125
 31
0.0
  0
LINE
  5
1E0
330
70
100
AcDbEntity
  8
Camada 1
 62
    18
420
        0
370
     5
100
AcDbLine
 10
446.60302734375
 20
585.9687499999999
 30
0.0
 11
447.2934570312499
 21
585.85302734375
 31
0.0
  0
LINE
  5
1E1
330
70
100
AcDbEntity
  8
Camada 1
 62
    18
420
        0
370
     5
100
AcDbLine
 10
444.7583007812499
 20
586.43017578125
 30
0.0
 11
445.33447265625
 21
586.3149414062499
 31
0.0
  0
LINE
  5
1E2
330
70
100
AcDbEntity
  8
Camada 1
 62
    18
420
        0
370
     5
100
AcDbLine
 10
442.79833984375
 20
586.7763671875
 30
0.0
 11
443.37353515625
 21
586.6611328124999
 31
0.0
  0
LINE
  5
1E3
330
70
100
AcDbEntity
  8
Camada 1
 62
    18
420
        0
370
     5
100
AcDbLine
 10
440.8393554687499
 20
587.12158203125
 30
0.0
 11
441.4135742187499
 21
587.0063476562499
 31
0.0
  0
LINE
  5
1E4
330
70
100
AcDbEntity
  8
Camada 1
 62
    18
420
        0
370
     5
100
AcDbLine
 10
438.87939453125
 20
587.5830078125
 30
0.0
 11
439.45556640625
 21
587.4677734375
 31
0.0
  0
LINE
  5
1E5
330
70
100
AcDbEntity
  8
Camada 1
 62
    18
420
        0
370
     5
100
AcDbLine
 10
438.7641601562499
 20
587.8129882812499
 30
0.0
 11
438.7641601562499
 21
587.8129882812499
 31
0.0
  0
LINE
  5
1E6
330
70
100
AcDbEntity
  8
Camada 1
 62
    18
420
        0
370
     5
100
AcDbLine
 10
441.9916992187499
 20
587.4677734375
 30
0.0
 11
441.4135742187499
 21
587.5830078125
 31
0.0
  0
LINE
  5
1E7
330
70
100
AcDbEntity
  8
Camada 1
 62
    18
420
        0
370
     5
100
AcDbLine
 10
443.95166015625
 20
587.0063476562499
 30
0.0
 11
443.37353515625
 21
587.12158203125
 31
0.0
  0
LINE
  5
1E8
330
70
100
AcDbEntity
  8
Camada 1
 62
    18
420
        0
370
     5
100
AcDbLine
 10
445.91064453125
 20
586.6611328124999
 30
0.0
 11
445.33447265625
 21
586.7763671875
 31
0.0
  0
LINE
  5
1E9
330
70
100
AcDbEntity
  8
Camada 1
 62
    18
420
        0
370
     5
100
AcDbLine
 10
447.8706054687499
 20
586.3149414062499
 30
0.0
 11
447.2934570312499
 21
586.43017578125
 31
0.0
  0
LINE
  5
1EA
330
70
100
AcDbEntity
  8
Camada 1
 62
    18
420
        0
370
     5
100
AcDbLine
 10
446.02587890625
 20
586.43017578125
 30
0.0
 11
446.60302734375
 21
586.3149414062499
 31
0.0
  0
LINE
  5
1EB
330
70
100
AcDbEntity
  8
Camada 1
 62
    18
420
        0
370
     5
100
AcDbLine
 10
442.10693359375
 20
587.12158203125
 30
0.0
 11
442.68408203125
 21
587.0063476562499
 31
0.0
  0
LWPOLYLINE
  5
1EC
330
70
100
AcDbEntity
  8
Camada 1
 62
    18
420
        0
370
     5
100
AcDbPolyline
 90
        3
 70
     0
 43
0.0
 10
440.03271484375
 20
587.8129882812499
 10
439.45556640625
 20
587.92822265625
 10
440.14697265625
 20
587.8129882812499
  0
LINE
  5
1ED
330
70
100
AcDbEntity
  8
Camada 1
 62
    18
420
        0
370
     5
100
AcDbLine
 10
443.25927734375
 20
587.4677734375
 30
0.0
 11
442.68408203125
 21
587.5830078125
 31
0.0
  0
LINE
  5
1EE
330
70
100
AcDbEntity
  8
Camada 1
 62
    18
420
        0
370
     5
100
AcDbLine
 10
447.17724609375
 20
586.6611328124999
 30
0.0
 11
446.60302734375
 21
586.7763671875
 31
0.0
  0
LINE
  5
1EF
330
70
100
AcDbEntity
  8
Camada 1
 62
    18
420
        0
370
     5
100
AcDbLine
 10
448.6762695312499
 20
586.3149414062499
 30
0.0
 11
448.56201171875
 21
586.43017578125
 31
0.0
  0
LINE
  5
1F0
330
70
100
AcDbEntity
  8
Camada 1
 62
    18
420
        0
370
     5
100
AcDbLine
 10
447.2934570312499
 20
586.43017578125
 30
0.0
 11
447.8706054687499
 21
586.3149414062499
 31
0.0
  0
LINE
  5
1F1
330
70
100
AcDbEntity
  8
Camada 1
 62
    18
420
        0
370
     5
100
AcDbLine
 10
445.33447265625
 20
586.7763671875
 30
0.0
 11
445.91064453125
 21
586.6611328124999
 31
0.0
  0
LINE
  5
1F2
330
70
100
AcDbEntity
  8
Camada 1
 62
    18
420
        0
370
     5
100
AcDbLine
 10
443.37353515625
 20
587.12158203125
 30
0.0
 11
443.95166015625
 21
587.0063476562499
 31
0.0
  0
LINE
  5
1F3
330
70
100
AcDbEntity
  8
Camada 1
 62
    18
420
        0
370
     5
100
AcDbLine
 10
441.4135742187499
 20
587.5830078125
 30
0.0
 11
442.10693359375
 21
587.4677734375
 31
0.0
  0
LWPOLYLINE
  5
1F4
330
70
100
AcDbEntity
  8
Camada 1
 62
    18
420
        0
370
     5
100
AcDbPolyline
 90
        3
 70
     0
 43
0.0
 10
438.76318359375
 20
588.2744140625
 10
439.45556640625
 20
588.1591796875
 10
438.87939453125
 20
588.3896484374999
  0
LINE
  5
1F5
330
70
100
AcDbEntity
  8
Camada 1
 62
    18
420
        0
370
     5
100
AcDbLine
 10
442.68408203125
 20
587.8129882812499
 30
0.0
 11
442.10693359375
 21
587.92822265625
 31
0.0
  0
LINE
  5
1F6
330
70
100
AcDbEntity
  8
Camada 1
 62
    18
420
        0
370
     5
100
AcDbLine
 10
444.64306640625
 20
587.4677734375
 30
0.0
 11
443.95166015625
 21
587.5830078125
 31
0.0
  0
LINE
  5
1F7
330
70
100
AcDbEntity
  8
Camada 1
 62
    18
420
        0
370
     5
100
AcDbLine
 10
446.60302734375
 20
587.0063476562499
 30
0.0
 11
445.91064453125
 21
587.12158203125
 31
0.0
  0
LINE
  5
1F8
330
70
100
AcDbEntity
  8
Camada 1
 62
    18
420
        0
370
     5
100
AcDbLine
 10
448.4448242187499
 20
586.6611328124999
 30
0.0
 11
447.8706054687499
 21
586.7763671875
 31
0.0
  0
LINE
  5
1F9
330
70
100
AcDbEntity
  8
Camada 1
 62
    18
420
        0
370
     5
100
AcDbLine
 10
448.56201171875
 20
586.43017578125
 30
0.0
 11
448.79248046875
 21
586.43017578125
 31
0.0
  0
LINE
  5
1FA
330
70
100
AcDbEntity
  8
Camada 1
 62
    18
420
        0
370
     5
100
AcDbLine
 10
446.60302734375
 20
586.7763671875
 30
0.0
 11
447.2934570312499
 21
586.6611328124999
 31
0.0
  0
LINE
  5
1FB
330
70
100
AcDbEntity
  8
Camada 1
 62
    18
420
        0
370
     5
100
AcDbLine
 10
444.7583007812499
 20
587.12158203125
 30
0.0
 11
445.33447265625
 21
587.0063476562499
 31
0.0
  0
LINE
  5
1FC
330
70
100
AcDbEntity
  8
Camada 1
 62
    18
420
        0
370
     5
100
AcDbLine
 10
440.8393554687499
 20
587.92822265625
 30
0.0
 11
441.4135742187499
 21
587.8129882812499
 31
0.0
  0
LWPOLYLINE
  5
1FD
330
70
100
AcDbEntity
  8
Camada 1
 62
    18
420
        0
370
     5
100
AcDbPolyline
 90
        3
 70
     0
 43
0.0
 10
440.14697265625
 20
588.2744140625
 10
440.72412109375
 20
588.1591796875
 10
440.14697265625
 20
588.3896484374999
  0
LINE
  5
1FE
330
70
100
AcDbEntity
  8
Camada 1
 62
    18
420
        0
370
     5
100
AcDbLine
 10
443.25927734375
 20
588.1591796875
 30
0.0
 11
442.68408203125
 21
588.2744140625
 31
0.0
  0
LINE
  5
1FF
330
70
100
AcDbEntity
  8
Camada 1
 62
    18
420
        0
370
     5
100
AcDbLine
 10
445.21923828125
 20
587.8129882812499
 30
0.0
 11
444.64306640625
 21
587.92822265625
 31
0.0
  0
LINE
  5
200
330
70
100
AcDbEntity
  8
Camada 1
 62
    18
420
        0
370
     5
100
AcDbLine
 10
447.17724609375
 20
587.4677734375
 30
0.0
 11
446.60302734375
 21
587.5830078125
 31
0.0
  0
LINE
  5
201
330
70
100
AcDbEntity
  8
Camada 1
 62
    18
420
        0
370
     5
100
AcDbLine
 10
449.1372070312499
 20
587.0063476562499
 30
0.0
 11
448.56201171875
 21
587.12158203125
 31
0.0
  0
LINE
  5
202
330
70
100
AcDbEntity
  8
Camada 1
 62
    18
420
        0
370
     5
100
AcDbLine
 10
449.25244140625
 20
586.7763671875
 30
0.0
 11
449.36669921875
 21
586.7763671875
 31
0.0
  0
LINE
  5
203
330
70
100
AcDbEntity
  8
Camada 1
 62
    18
420
        0
370
     5
100
AcDbLine
 10
447.2934570312499
 20
587.12158203125
 30
0.0
 11
447.8706054687499
 21
587.0063476562499
 31
0.0
  0
LINE
  5
204
330
70
100
AcDbEntity
  8
Camada 1
 62
    18
420
        0
370
     5
100
AcDbLine
 10
445.33447265625
 20
587.5830078125
 30
0.0
 11
445.91064453125
 21
587.4677734375
 31
0.0
  0
LINE
  5
205
330
70
100
AcDbEntity
  8
Camada 1
 62
    18
420
        0
370
     5
100
AcDbLine
 10
443.37353515625
 20
587.92822265625
 30
0.0
 11
443.95166015625
 21
587.8129882812499
 31
0.0
  0
LINE
  5
206
330
70
100
AcDbEntity
  8
Camada 1
 62
    18
420
        0
370
     5
100
AcDbLine
 10
441.4135742187499
 20
588.3896484374999
 30
0.0
 11
442.10693359375
 21
588.1591796875
 31
0.0
  0
LINE
  5
207
330
70
100
AcDbEntity
  8
Camada 1
 62
    18
420
        0
370
     5
100
AcDbLine
 10
440.03271484375
 20
588.62060546875
 30
0.0
 11
440.03271484375
 21
588.73486328125
 31
0.0
  0
LINE
  5
208
330
70
100
AcDbEntity
  8
Camada 1
 62
    18
420
        0
370
     5
100
AcDbLine
 10
441.9916992187499
 20
588.1591796875
 30
0.0
 11
441.4135742187499
 21
588.2744140625
 31
0.0
  0
LINE
  5
209
330
70
100
AcDbEntity
  8
Camada 1
 62
    18
420
        0
370
     5
100
AcDbLine
 10
445.91064453125
 20
587.4677734375
 30
0.0
 11
445.33447265625
 21
587.5830078125
 31
0.0
  0
LINE
  5
20A
330
70
100
AcDbEntity
  8
Camada 1
 62
    18
420
        0
370
     5
100
AcDbLine
 10
447.8706054687499
 20
587.0063476562499
 30
0.0
 11
447.2934570312499
 21
587.12158203125
 31
0.0
  0
LINE
  5
20B
330
70
100
AcDbEntity
  8
Camada 1
 62
    18
420
        0
370
     5
100
AcDbLine
 10
449.36669921875
 20
586.7763671875
 30
0.0
 11
449.25244140625
 21
586.7763671875
 31
0.0
  0
LINE
  5
20C
330
70
100
AcDbEntity
  8
Camada 1
 62
    18
420
        0
370
     5
100
AcDbLine
 10
447.98583984375
 20
586.7763671875
 30
0.0
 11
448.56201171875
 21
586.6611328124999
 31
0.0
  0
LINE
  5
20D
330
70
100
AcDbEntity
  8
Camada 1
 62
    18
420
        0
370
     5
100
AcDbLine
 10
446.02587890625
 20
587.12158203125
 30
0.0
 11
446.60302734375
 21
587.0063476562499
 31
0.0
  0
LINE
  5
20E
330
70
100
AcDbEntity
  8
Camada 1
 62
    18
420
        0
370
     5
100
AcDbLine
 10
444.0659179687499
 20
587.5830078125
 30
0.0
 11
444.64306640625
 21
587.4677734375
 31
0.0
  0
LINE
  5
20F
330
70
100
AcDbEntity
  8
Camada 1
 62
    18
420
        0
370
     5
100
AcDbLine
 10
442.10693359375
 20
587.92822265625
 30
0.0
 11
442.68408203125
 21
587.8129882812499
 31
0.0
  0
LWPOLYLINE
  5
210
330
70
100
AcDbEntity
  8
Camada 1
 62
    18
420
        0
370
     5
100
AcDbPolyline
 90
        3
 70
     0
 43
0.0
 10
440.8393554687499
 20
588.62060546875
 10
441.4135742187499
 20
588.62060546875
 10
440.95458984375
 20
588.73486328125
  0
LINE
  5
211
330
70
100
AcDbEntity
  8
Camada 1
 62
    18
420
        0
370
     5
100
AcDbLine
 10
444.64306640625
 20
588.1591796875
 30
0.0
 11
443.95166015625
 21
588.2744140625
 31
0.0
  0
LINE
  5
212
330
70
100
AcDbEntity
  8
Camada 1
 62
    18
420
        0
370
     5
100
AcDbLine
 10
446.60302734375
 20
587.8129882812499
 30
0.0
 11
445.91064453125
 21
587.92822265625
 31
0.0
  0
LINE
  5
213
330
70
100
AcDbEntity
  8
Camada 1
 62
    18
420
        0
370
     5
100
AcDbLine
 10
448.4448242187499
 20
587.4677734375
 30
0.0
 11
447.8706054687499
 21
587.5830078125
 31
0.0
  0
LINE
  5
214
330
70
100
AcDbEntity
  8
Camada 1
 62
    18
420
        0
370
     5
100
AcDbLine
 10
448.56201171875
 20
587.12158203125
 30
0.0
 11
449.25244140625
 21
587.0063476562499
 31
0.0
  0
LINE
  5
215
330
70
100
AcDbEntity
  8
Camada 1
 62
    18
420
        0
370
     5
100
AcDbLine
 10
446.60302734375
 20
587.5830078125
 30
0.0
 11
447.2934570312499
 21
587.4677734375
 31
0.0
  0
LINE
  5
216
330
70
100
AcDbEntity
  8
Camada 1
 62
    18
420
        0
370
     5
100
AcDbLine
 10
444.7583007812499
 20
587.92822265625
 30
0.0
 11
445.33447265625
 21
587.8129882812499
 31
0.0
  0
LINE
  5
217
330
70
100
AcDbEntity
  8
Camada 1
 62
    18
420
        0
370
     5
100
AcDbLine
 10
442.79833984375
 20
588.3896484374999
 30
0.0
 11
443.37353515625
 21
588.1591796875
 31
0.0
  0
LINE
  5
218
330
70
100
AcDbEntity
  8
Camada 1
 62
    18
420
        0
370
     5
100
AcDbLine
 10
442.68505859375
 20
588.62060546875
 30
0.0
 11
442.68505859375
 21
588.62060546875
 31
0.0
  0
LINE
  5
219
330
70
100
AcDbEntity
  8
Camada 1
 62
    18
420
        0
370
     5
100
AcDbLine
 10
443.95166015625
 20
588.62060546875
 30
0.0
 11
443.37353515625
 21
588.73486328125
 31
0.0
  0
LINE
  5
21A
330
70
100
AcDbEntity
  8
Camada 1
 62
    18
420
        0
370
     5
100
AcDbLine
 10
445.91064453125
 20
588.1591796875
 30
0.0
 11
445.33447265625
 21
588.2744140625
 31
0.0
  0
LINE
  5
21B
330
70
100
AcDbEntity
  8
Camada 1
 62
    18
420
        0
370
     5
100
AcDbLine
 10
447.8706054687499
 20
587.8129882812499
 30
0.0
 11
447.2934570312499
 21
587.92822265625
 31
0.0
  0
LINE
  5
21C
330
70
100
AcDbEntity
  8
Camada 1
 62
    18
420
        0
370
     5
100
AcDbLine
 10
449.8286132812499
 20
587.4677734375
 30
0.0
 11
449.25244140625
 21
587.5830078125
 31
0.0
  0
LINE
  5
21D
330
70
100
AcDbEntity
  8
Camada 1
 62
    18
420
        0
370
     5
100
AcDbLine
 10
447.98583984375
 20
587.5830078125
 30
0.0
 11
448.56201171875
 21
587.4677734375
 31
0.0
  0
LINE
  5
21E
330
70
100
AcDbEntity
  8
Camada 1
 62
    18
420
        0
370
     5
100
AcDbLine
 10
446.02587890625
 20
587.92822265625
 30
0.0
 11
446.60302734375
 21
587.8129882812499
 31
0.0
  0
LWPOLYLINE
  5
21F
330
70
100
AcDbEntity
  8
Camada 1
 62
    18
420
        0
370
     5
100
AcDbPolyline
 90
        3
 70
     0
 43
0.0
 10
441.9916992187499
 20
588.9658203125
 10
441.4135742187499
 20
589.0815429687499
 10
442.10693359375
 20
588.9658203125
  0
LINE
  5
220
330
70
100
AcDbEntity
  8
Camada 1
 62
    18
420
        0
370
     5
100
AcDbLine
 10
446.60302734375
 20
588.62060546875
 30
0.0
 11
446.1411132812499
 21
588.62060546875
 31
0.0
  0
LINE
  5
221
330
70
100
AcDbEntity
  8
Camada 1
 62
    18
420
        0
370
     5
100
AcDbLine
 10
448.4448242187499
 20
588.1591796875
 30
0.0
 11
447.8706054687499
 21
588.2744140625
 31
0.0
  0
LINE
  5
222
330
70
100
AcDbEntity
  8
Camada 1
 62
    18
420
        0
370
     5
100
AcDbLine
 10
448.56201171875
 20
587.92822265625
 30
0.0
 11
449.25244140625
 21
587.8129882812499
 31
0.0
  0
LINE
  5
223
330
70
100
AcDbEntity
  8
Camada 1
 62
    18
420
        0
370
     5
100
AcDbLine
 10
446.60302734375
 20
588.3896484374999
 30
0.0
 11
447.2934570312499
 21
588.1591796875
 31
0.0
  0
LINE
  5
224
330
70
100
AcDbEntity
  8
Camada 1
 62
    18
420
        0
370
     5
100
AcDbLine
 10
444.7583007812499
 20
588.73486328125
 30
0.0
 11
445.33447265625
 21
588.62060546875
 31
0.0
  0
LINE
  5
225
330
70
100
AcDbEntity
  8
Camada 1
 62
    18
420
        0
370
     5
100
AcDbLine
 10
442.79833984375
 20
589.0815429687499
 30
0.0
 11
443.37353515625
 21
588.9658203125
 31
0.0
  0
LINE
  5
226
330
70
100
AcDbEntity
  8
Camada 1
 62
    18
420
        0
370
     5
100
AcDbLine
 10
443.25927734375
 20
588.9658203125
 30
0.0
 11
442.68408203125
 21
589.0815429687499
 31
0.0
  0
LINE
  5
227
330
70
100
AcDbEntity
  8
Camada 1
 62
    18
420
        0
370
     5
100
AcDbLine
 10
447.17724609375
 20
588.1591796875
 30
0.0
 11
446.60302734375
 21
588.2744140625
 31
0.0
  0
LINE
  5
228
330
70
100
AcDbEntity
  8
Camada 1
 62
    18
420
        0
370
     5
100
AcDbLine
 10
449.1372070312499
 20
587.8129882812499
 30
0.0
 11
448.56201171875
 21
587.92822265625
 31
0.0
  0
LINE
  5
229
330
70
100
AcDbEntity
  8
Camada 1
 62
    18
420
        0
370
     5
100
AcDbLine
 10
449.25244140625
 20
587.5830078125
 30
0.0
 11
449.8286132812499
 21
587.4677734375
 31
0.0
  0
LINE
  5
22A
330
70
100
AcDbEntity
  8
Camada 1
 62
    18
420
        0
370
     5
100
AcDbLine
 10
447.2934570312499
 20
587.92822265625
 30
0.0
 11
447.8706054687499
 21
587.8129882812499
 31
0.0
  0
LINE
  5
22B
330
70
100
AcDbEntity
  8
Camada 1
 62
    18
420
        0
370
     5
100
AcDbLine
 10
445.33447265625
 20
588.3896484374999
 30
0.0
 11
445.91064453125
 21
588.1591796875
 31
0.0
  0
LINE
  5
22C
330
70
100
AcDbEntity
  8
Camada 1
 62
    18
420
        0
370
     5
100
AcDbLine
 10
443.37353515625
 20
588.73486328125
 30
0.0
 11
443.95166015625
 21
588.62060546875
 31
0.0
  0
LWPOLYLINE
  5
22D
330
70
100
AcDbEntity
  8
Camada 1
 62
    18
420
        0
370
     5
100
AcDbPolyline
 90
        3
 70
     0
 43
0.0
 10
443.95166015625
 20
589.0815429687499
 10
444.64306640625
 20
588.9658203125
 10
444.0659179687499
 20
589.0815429687499
  0
LINE
  5
22E
330
70
100
AcDbEntity
  8
Camada 1
 62
    18
420
        0
370
     5
100
AcDbLine
 10
445.4497070312499
 20
589.0815429687499
 30
0.0
 11
445.4497070312499
 21
589.0815429687499
 31
0.0
  0
LINE
  5
22F
330
70
100
AcDbEntity
  8
Camada 1
 62
    18
420
        0
370
     5
100
AcDbLine
 10
447.2934570312499
 20
585.85302734375
 30
0.0
 11
447.2934570312499
 21
585.9687499999999
 31
0.0
  0
LINE
  5
230
330
70
100
AcDbEntity
  8
Camada 1
 62
    18
420
        0
370
     5
100
AcDbLine
 10
449.0229492187499
 20
585.39306640625
 30
0.0
 11
449.94384765625
 21
585.046875
 31
0.0
  0
LINE
  5
231
330
70
100
AcDbEntity
  8
Camada 1
 62
    18
420
        0
370
     5
100
AcDbLine
 10
449.0229492187499
 20
584.1254882812499
 30
0.0
 11
449.94384765625
 21
583.89501953125
 31
0.0
  0
LINE
  5
232
330
70
100
AcDbEntity
  8
Camada 1
 62
    18
420
        0
370
     5
100
AcDbLine
 10
437.72607421875
 20
588.04345703125
 30
0.0
 11
436.80517578125
 21
588.2744140625
 31
0.0
  0
LINE
  5
233
330
70
100
AcDbEntity
  8
Camada 1
 62
    18
420
        0
370
     5
100
AcDbLine
 10
445.91064453125
 20
585.6230468749999
 30
0.0
 11
445.33447265625
 21
585.5087890624999
 31
0.0
  0
LINE
  5
234
330
70
100
AcDbEntity
  8
Camada 1
 62
    18
420
        0
370
     5
100
AcDbLine
 10
446.60302734375
 20
585.9687499999999
 30
0.0
 11
446.02587890625
 21
585.85302734375
 31
0.0
  0
LINE
  5
235
330
70
100
AcDbEntity
  8
Camada 1
 62
    18
420
        0
370
     5
100
AcDbLine
 10
448.56201171875
 20
586.43017578125
 30
0.0
 11
447.98583984375
 21
586.3149414062499
 31
0.0
  0
LINE
  5
236
330
70
100
AcDbEntity
  8
Camada 1
 62
    18
420
        0
370
     5
100
AcDbLine
 10
447.2934570312499
 20
585.85302734375
 30
0.0
 11
447.75439453125
 21
585.9687499999999
 31
0.0
  0
LWPOLYLINE
  5
237
330
70
100
AcDbEntity
  8
Camada 1
 62
    18
420
        0
370
     5
100
AcDbPolyline
 90
        3
 70
     0
 43
0.0
 10
444.0659179687499
 20
585.5087890624999
 10
444.64306640625
 20
585.6230468749999
 10
443.95166015625
 20
585.5087890624999
  0
LINE
  5
238
330
70
100
AcDbEntity
  8
Camada 1
 62
    18
420
        0
370
     5
100
AcDbLine
 10
442.68408203125
 20
585.9687499999999
 30
0.0
 11
442.10693359375
 21
585.85302734375
 31
0.0
  0
LINE
  5
239
330
70
100
AcDbEntity
  8
Camada 1
 62
    18
420
        0
370
     5
100
AcDbLine
 10
444.64306640625
 20
586.43017578125
 30
0.0
 11
444.0659179687499
 21
586.3149414062499
 31
0.0
  0
LINE
  5
23A
330
70
100
AcDbEntity
  8
Camada 1
 62
    18
420
        0
370
     5
100
AcDbLine
 10
446.60302734375
 20
586.7763671875
 30
0.0
 11
446.02587890625
 21
586.6611328124999
 31
0.0
  0
LINE
  5
23B
330
70
100
AcDbEntity
  8
Camada 1
 62
    18
420
        0
370
     5
100
AcDbLine
 10
448.56201171875
 20
587.12158203125
 30
0.0
 11
447.98583984375
 21
587.0063476562499
 31
0.0
  0
LINE
  5
23C
330
70
100
AcDbEntity
  8
Camada 1
 62
    18
420
        0
370
     5
100
AcDbLine
 10
449.94384765625
 20
587.4677734375
 30
0.0
 11
449.94384765625
 21
587.5830078125
 31
0.0
  0
LINE
  5
23D
330
70
100
AcDbEntity
  8
Camada 1
 62
    18
420
        0
370
     5
100
AcDbLine
 10
449.25244140625
 20
587.0063476562499
 30
0.0
 11
449.8286132812499
 21
587.12158203125
 31
0.0
  0
LINE
  5
23E
330
70
100
AcDbEntity
  8
Camada 1
 62
    18
420
        0
370
     5
100
AcDbLine
 10
447.2934570312499
 20
586.6611328124999
 30
0.0
 11
447.8706054687499
 21
586.7763671875
 31
0.0
  0
LINE
  5
23F
330
70
100
AcDbEntity
  8
Camada 1
 62
    18
420
        0
370
     5
100
AcDbLine
 10
445.33447265625
 20
586.3149414062499
 30
0.0
 11
445.91064453125
 21
586.43017578125
 31
0.0
  0
LINE
  5
240
330
70
100
AcDbEntity
  8
Camada 1
 62
    18
420
        0
370
     5
100
AcDbLine
 10
443.37353515625
 20
585.85302734375
 30
0.0
 11
443.95166015625
 21
585.9687499999999
 31
0.0
  0
LINE
  5
241
330
70
100
AcDbEntity
  8
Camada 1
 62
    18
420
        0
370
     5
100
AcDbLine
 10
441.4135742187499
 20
585.5087890624999
 30
0.0
 11
441.9916992187499
 21
585.6230468749999
 31
0.0
  0
LINE
  5
242
330
70
100
AcDbEntity
  8
Camada 1
 62
    18
420
        0
370
     5
100
AcDbLine
 10
442.10693359375
 20
585.6230468749999
 30
0.0
 11
441.53076171875
 21
585.5087890624999
 31
0.0
  0
LINE
  5
243
330
70
100
AcDbEntity
  8
Camada 1
 62
    18
420
        0
370
     5
100
AcDbLine
 10
443.95166015625
 20
585.9687499999999
 30
0.0
 11
443.37353515625
 21
585.85302734375
 31
0.0
  0
LINE
  5
244
330
70
100
AcDbEntity
  8
Camada 1
 62
    18
420
        0
370
     5
100
AcDbLine
 10
445.91064453125
 20
586.43017578125
 30
0.0
 11
445.33447265625
 21
586.3149414062499
 31
0.0
  0
LINE
  5
245
330
70
100
AcDbEntity
  8
Camada 1
 62
    18
420
        0
370
     5
100
AcDbLine
 10
447.8706054687499
 20
586.7763671875
 30
0.0
 11
447.2934570312499
 21
586.6611328124999
 31
0.0
  0
LINE
  5
246
330
70
100
AcDbEntity
  8
Camada 1
 62
    18
420
        0
370
     5
100
AcDbLine
 10
449.7143554687499
 20
587.12158203125
 30
0.0
 11
449.25244140625
 21
587.0063476562499
 31
0.0
  0
LINE
  5
247
330
70
100
AcDbEntity
  8
Camada 1
 62
    18
420
        0
370
     5
100
AcDbLine
 10
448.56201171875
 20
586.6611328124999
 30
0.0
 11
449.1372070312499
 21
586.7763671875
 31
0.0
  0
LINE
  5
248
330
70
100
AcDbEntity
  8
Camada 1
 62
    18
420
        0
370
     5
100
AcDbLine
 10
446.60302734375
 20
586.3149414062499
 30
0.0
 11
447.17724609375
 21
586.43017578125
 31
0.0
  0
LINE
  5
249
330
70
100
AcDbEntity
  8
Camada 1
 62
    18
420
        0
370
     5
100
AcDbLine
 10
444.64306640625
 20
585.85302734375
 30
0.0
 11
445.21923828125
 21
585.9687499999999
 31
0.0
  0
LINE
  5
24A
330
70
100
AcDbEntity
  8
Camada 1
 62
    18
420
        0
370
     5
100
AcDbLine
 10
442.68408203125
 20
585.5087890624999
 30
0.0
 11
443.25927734375
 21
585.6230468749999
 31
0.0
  0
LINE
  5
24B
330
70
100
AcDbEntity
  8
Camada 1
 62
    18
420
        0
370
     5
100
AcDbLine
 10
443.37353515625
 20
585.6230468749999
 30
0.0
 11
442.79833984375
 21
585.5087890624999
 31
0.0
  0
LINE
  5
24C
330
70
100
AcDbEntity
  8
Camada 1
 62
    18
420
        0
370
     5
100
AcDbLine
 10
445.33447265625
 20
585.9687499999999
 30
0.0
 11
444.7583007812499
 21
585.85302734375
 31
0.0
  0
LINE
  5
24D
330
70
100
AcDbEntity
  8
Camada 1
 62
    18
420
        0
370
     5
100
AcDbLine
 10
447.2934570312499
 20
586.43017578125
 30
0.0
 11
446.60302734375
 21
586.3149414062499
 31
0.0
  0
LINE
  5
24E
330
70
100
AcDbEntity
  8
Camada 1
 62
    18
420
        0
370
     5
100
AcDbLine
 10
449.25244140625
 20
586.7763671875
 30
0.0
 11
448.56201171875
 21
586.6611328124999
 31
0.0
  0
LINE
  5
24F
330
70
100
AcDbEntity
  8
Camada 1
 62
    18
420
        0
370
     5
100
AcDbLine
 10
447.8706054687499
 20
586.3149414062499
 30
0.0
 11
448.4448242187499
 21
586.43017578125
 31
0.0
  0
LINE
  5
250
330
70
100
AcDbEntity
  8
Camada 1
 62
    18
420
        0
370
     5
100
AcDbLine
 10
445.91064453125
 20
585.85302734375
 30
0.0
 11
446.60302734375
 21
585.9687499999999
 31
0.0
  0
LINE
  5
251
330
70
100
AcDbEntity
  8
Camada 1
 62
    18
420
        0
370
     5
100
AcDbLine
 10
440.72412109375
 20
585.6230468749999
 30
0.0
 11
440.60693359375
 21
585.6230468749999
 31
0.0
  0
LINE
  5
252
330
70
100
AcDbEntity
  8
Camada 1
 62
    18
420
        0
370
     5
100
AcDbLine
 10
443.37353515625
 20
586.43017578125
 30
0.0
 11
442.79833984375
 21
586.3149414062499
 31
0.0
  0
LINE
  5
253
330
70
100
AcDbEntity
  8
Camada 1
 62
    18
420
        0
370
     5
100
AcDbLine
 10
445.33447265625
 20
586.7763671875
 30
0.0
 11
444.7583007812499
 21
586.6611328124999
 31
0.0
  0
LINE
  5
254
330
70
100
AcDbEntity
  8
Camada 1
 62
    18
420
        0
370
     5
100
AcDbLine
 10
447.2934570312499
 20
587.12158203125
 30
0.0
 11
446.60302734375
 21
587.0063476562499
 31
0.0
  0
LINE
  5
255
330
70
100
AcDbEntity
  8
Camada 1
 62
    18
420
        0
370
     5
100
AcDbLine
 10
449.25244140625
 20
587.5830078125
 30
0.0
 11
448.56201171875
 21
587.4677734375
 31
0.0
  0
LINE
  5
256
330
70
100
AcDbEntity
  8
Camada 1
 62
    18
420
        0
370
     5
100
AcDbLine
 10
449.8286132812499
 20
587.4677734375
 30
0.0
 11
449.94384765625
 21
587.4677734375
 31
0.0
  0
LINE
  5
257
330
70
100
AcDbEntity
  8
Camada 1
 62
    18
420
        0
370
     5
100
AcDbLine
 10
447.8706054687499
 20
587.0063476562499
 30
0.0
 11
448.4448242187499
 21
587.12158203125
 31
0.0
  0
LINE
  5
258
330
70
100
AcDbEntity
  8
Camada 1
 62
    18
420
        0
370
     5
100
AcDbLine
 10
445.91064453125
 20
586.6611328124999
 30
0.0
 11
446.60302734375
 21
586.7763671875
 31
0.0
  0
LINE
  5
259
330
70
100
AcDbEntity
  8
Camada 1
 62
    18
420
        0
370
     5
100
AcDbLine
 10
443.95166015625
 20
586.3149414062499
 30
0.0
 11
444.64306640625
 21
586.43017578125
 31
0.0
  0
LINE
  5
25A
330
70
100
AcDbEntity
  8
Camada 1
 62
    18
420
        0
370
     5
100
AcDbLine
 10
442.10693359375
 20
585.85302734375
 30
0.0
 11
442.68408203125
 21
585.9687499999999
 31
0.0
  0
LWPOLYLINE
  5
25B
330
70
100
AcDbEntity
  8
Camada 1
 62
    18
420
        0
370
     5
100
AcDbPolyline
 90
        3
 70
     0
 43
0.0
 10
440.8393554687499
 20
585.85302734375
 10
441.4135742187499
 20
585.9687499999999
 10
440.72412109375
 20
585.85302734375
  0
LINE
  5
25C
330
70
100
AcDbEntity
  8
Camada 1
 62
    18
420
        0
370
     5
100
AcDbLine
 10
442.10693359375
 20
586.43017578125
 30
0.0
 11
441.4135742187499
 21
586.3149414062499
 31
0.0
  0
LINE
  5
25D
330
70
100
AcDbEntity
  8
Camada 1
 62
    18
420
        0
370
     5
100
AcDbLine
 10
443.95166015625
 20
586.7763671875
 30
0.0
 11
443.37353515625
 21
586.6611328124999
 31
0.0
  0
LINE
  5
25E
330
70
100
AcDbEntity
  8
Camada 1
 62
    18
420
        0
370
     5
100
AcDbLine
 10
445.91064453125
 20
587.12158203125
 30
0.0
 11
445.33447265625
 21
587.0063476562499
 31
0.0
  0
LINE
  5
25F
330
70
100
AcDbEntity
  8
Camada 1
 62
    18
420
        0
370
     5
100
AcDbLine
 10
447.8706054687499
 20
587.5830078125
 30
0.0
 11
447.2934570312499
 21
587.4677734375
 31
0.0
  0
LINE
  5
260
330
70
100
AcDbEntity
  8
Camada 1
 62
    18
420
        0
370
     5
100
AcDbLine
 10
449.8286132812499
 20
587.92822265625
 30
0.0
 11
449.25244140625
 21
587.8129882812499
 31
0.0
  0
LINE
  5
261
330
70
100
AcDbEntity
  8
Camada 1
 62
    18
420
        0
370
     5
100
AcDbLine
 10
448.56201171875
 20
587.4677734375
 30
0.0
 11
449.1372070312499
 21
587.5830078125
 31
0.0
  0
LINE
  5
262
330
70
100
AcDbEntity
  8
Camada 1
 62
    18
420
        0
370
     5
100
AcDbLine
 10
446.60302734375
 20
587.0063476562499
 30
0.0
 11
447.17724609375
 21
587.12158203125
 31
0.0
  0
LINE
  5
263
330
70
100
AcDbEntity
  8
Camada 1
 62
    18
420
        0
370
     5
100
AcDbLine
 10
442.68408203125
 20
586.3149414062499
 30
0.0
 11
443.25927734375
 21
586.43017578125
 31
0.0
  0
LWPOLYLINE
  5
264
330
70
100
AcDbEntity
  8
Camada 1
 62
    18
420
        0
370
     5
100
AcDbPolyline
 90
        3
 70
     0
 43
0.0
 10
440.14697265625
 20
585.9687499999999
 10
439.45556640625
 20
585.85302734375
 10
440.03271484375
 20
585.9687499999999
  0
LINE
  5
265
330
70
100
AcDbEntity
  8
Camada 1
 62
    18
420
        0
370
     5
100
AcDbLine
 10
442.68408203125
 20
586.7763671875
 30
0.0
 11
442.10693359375
 21
586.6611328124999
 31
0.0
  0
LINE
  5
266
330
70
100
AcDbEntity
  8
Camada 1
 62
    18
420
        0
370
     5
100
AcDbLine
 10
446.60302734375
 20
587.5830078125
 30
0.0
 11
446.02587890625
 21
587.4677734375
 31
0.0
  0
LINE
  5
267
330
70
100
AcDbEntity
  8
Camada 1
 62
    18
420
        0
370
     5
100
AcDbLine
 10
448.56201171875
 20
587.92822265625
 30
0.0
 11
447.98583984375
 21
587.8129882812499
 31
0.0
  0
LINE
  5
268
330
70
100
AcDbEntity
  8
Camada 1
 62
    18
420
        0
370
     5
100
AcDbLine
 10
449.25244140625
 20
587.8129882812499
 30
0.0
 11
449.8286132812499
 21
587.92822265625
 31
0.0
  0
LINE
  5
269
330
70
100
AcDbEntity
  8
Camada 1
 62
    18
420
        0
370
     5
100
AcDbLine
 10
447.2934570312499
 20
587.4677734375
 30
0.0
 11
447.8706054687499
 21
587.5830078125
 31
0.0
  0
LINE
  5
26A
330
70
100
AcDbEntity
  8
Camada 1
 62
    18
420
        0
370
     5
100
AcDbLine
 10
445.33447265625
 20
587.0063476562499
 30
0.0
 11
445.91064453125
 21
587.12158203125
 31
0.0
  0
LINE
  5
26B
330
70
100
AcDbEntity
  8
Camada 1
 62
    18
420
        0
370
     5
100
AcDbLine
 10
443.37353515625
 20
586.6611328124999
 30
0.0
 11
443.95166015625
 21
586.7763671875
 31
0.0
  0
LINE
  5
26C
330
70
100
AcDbEntity
  8
Camada 1
 62
    18
420
        0
370
     5
100
AcDbLine
 10
441.4135742187499
 20
586.3149414062499
 30
0.0
 11
441.9916992187499
 21
586.43017578125
 31
0.0
  0
LINE
  5
26D
330
70
100
AcDbEntity
  8
Camada 1
 62
    18
420
        0
370
     5
100
AcDbLine
 10
440.72509765625
 20
586.43017578125
 30
0.0
 11
440.72509765625
 21
586.43017578125
 31
0.0
  0
LINE
  5
26E
330
70
100
AcDbEntity
  8
Camada 1
 62
    18
420
        0
370
     5
100
AcDbLine
 10
441.4135742187499
 20
586.7763671875
 30
0.0
 11
440.8393554687499
 21
586.6611328124999
 31
0.0
  0
LINE
  5
26F
330
70
100
AcDbEntity
  8
Camada 1
 62
    18
420
        0
370
     5
100
AcDbLine
 10
443.37353515625
 20
587.12158203125
 30
0.0
 11
442.79833984375
 21
587.0063476562499
 31
0.0
  0
LINE
  5
270
330
70
100
AcDbEntity
  8
Camada 1
 62
    18
420
        0
370
     5
100
AcDbLine
 10
445.33447265625
 20
587.5830078125
 30
0.0
 11
444.7583007812499
 21
587.4677734375
 31
0.0
  0
LINE
  5
271
330
70
100
AcDbEntity
  8
Camada 1
 62
    18
420
        0
370
     5
100
AcDbLine
 10
447.2934570312499
 20
587.92822265625
 30
0.0
 11
446.60302734375
 21
587.8129882812499
 31
0.0
  0
LINE
  5
272
330
70
100
AcDbEntity
  8
Camada 1
 62
    18
420
        0
370
     5
100
AcDbLine
 10
447.8706054687499
 20
587.8129882812499
 30
0.0
 11
448.4448242187499
 21
587.92822265625
 31
0.0
  0
LINE
  5
273
330
70
100
AcDbEntity
  8
Camada 1
 62
    18
420
        0
370
     5
100
AcDbLine
 10
445.91064453125
 20
587.4677734375
 30
0.0
 11
446.60302734375
 21
587.5830078125
 31
0.0
  0
LINE
  5
274
330
70
100
AcDbEntity
  8
Camada 1
 62
    18
420
        0
370
     5
100
AcDbLine
 10
443.95166015625
 20
587.0063476562499
 30
0.0
 11
444.64306640625
 21
587.12158203125
 31
0.0
  0
LINE
  5
275
330
70
100
AcDbEntity
  8
Camada 1
 62
    18
420
        0
370
     5
100
AcDbLine
 10
442.10693359375
 20
586.6611328124999
 30
0.0
 11
442.68408203125
 21
586.7763671875
 31
0.0
  0
LWPOLYLINE
  5
276
330
70
100
AcDbEntity
  8
Camada 1
 62
    18
420
        0
370
     5
100
AcDbPolyline
 90
        3
 70
     0
 43
0.0
 10
438.87939453125
 20
586.3149414062499
 10
439.45556640625
 20
586.43017578125
 10
438.76318359375
 20
586.3149414062499
  0
LINE
  5
277
330
70
100
AcDbEntity
  8
Camada 1
 62
    18
420
        0
370
     5
100
AcDbLine
 10
440.72412109375
 20
587.12158203125
 30
0.0
 11
440.14697265625
 21
587.0063476562499
 31
0.0
  0
LINE
  5
278
330
70
100
AcDbEntity
  8
Camada 1
 62
    18
420
        0
370
     5
100
AcDbLine
 10
442.68408203125
 20
587.5830078125
 30
0.0
 11
442.10693359375
 21
587.4677734375
 31
0.0
  0
LINE
  5
279
330
70
100
AcDbEntity
  8
Camada 1
 62
    18
420
        0
370
     5
100
AcDbLine
 10
444.64306640625
 20
587.92822265625
 30
0.0
 11
444.0659179687499
 21
587.8129882812499
 31
0.0
  0
LINE
  5
27A
330
70
100
AcDbEntity
  8
Camada 1
 62
    18
420
        0
370
     5
100
AcDbLine
 10
446.60302734375
 20
588.2744140625
 30
0.0
 11
446.02587890625
 21
588.1591796875
 31
0.0
  0
LINE
  5
27B
330
70
100
AcDbEntity
  8
Camada 1
 62
    18
420
        0
370
     5
100
AcDbLine
 10
447.2934570312499
 20
588.1591796875
 30
0.0
 11
447.8706054687499
 21
588.3896484374999
 31
0.0
  0
LINE
  5
27C
330
70
100
AcDbEntity
  8
Camada 1
 62
    18
420
        0
370
     5
100
AcDbLine
 10
445.33447265625
 20
587.8129882812499
 30
0.0
 11
445.91064453125
 21
587.92822265625
 31
0.0
  0
LINE
  5
27D
330
70
100
AcDbEntity
  8
Camada 1
 62
    18
420
        0
370
     5
100
AcDbLine
 10
441.4135742187499
 20
587.0063476562499
 30
0.0
 11
441.9916992187499
 21
587.12158203125
 31
0.0
  0
LINE
  5
27E
330
70
100
AcDbEntity
  8
Camada 1
 62
    18
420
        0
370
     5
100
AcDbLine
 10
439.45556640625
 20
586.6611328124999
 30
0.0
 11
440.03271484375
 21
586.7763671875
 31
0.0
  0
LINE
  5
27F
330
70
100
AcDbEntity
  8
Camada 1
 62
    18
420
        0
370
     5
100
AcDbLine
 10
437.95751953125
 20
586.43017578125
 30
0.0
 11
438.0727539062499
 21
586.43017578125
 31
0.0
  0
LINE
  5
280
330
70
100
AcDbEntity
  8
Camada 1
 62
    18
420
        0
370
     5
100
AcDbLine
 10
438.18798828125
 20
586.43017578125
 30
0.0
 11
438.0727539062499
 21
586.3149414062499
 31
0.0
  0
LINE
  5
281
330
70
100
AcDbEntity
  8
Camada 1
 62
    18
420
        0
370
     5
100
AcDbLine
 10
440.14697265625
 20
586.7763671875
 30
0.0
 11
439.45556640625
 21
586.6611328124999
 31
0.0
  0
LINE
  5
282
330
70
100
AcDbEntity
  8
Camada 1
 62
    18
420
        0
370
     5
100
AcDbLine
 10
442.10693359375
 20
587.12158203125
 30
0.0
 11
441.4135742187499
 21
587.0063476562499
 31
0.0
  0
LINE
  5
283
330
70
100
AcDbEntity
  8
Camada 1
 62
    18
420
        0
370
     5
100
AcDbLine
 10
443.95166015625
 20
587.5830078125
 30
0.0
 11
443.37353515625
 21
587.4677734375
 31
0.0
  0
LINE
  5
284
330
70
100
AcDbEntity
  8
Camada 1
 62
    18
420
        0
370
     5
100
AcDbLine
 10
445.91064453125
 20
587.92822265625
 30
0.0
 11
445.33447265625
 21
587.8129882812499
 31
0.0
  0
LINE
  5
285
330
70
100
AcDbEntity
  8
Camada 1
 62
    18
420
        0
370
     5
100
AcDbLine
 10
447.8706054687499
 20
588.2744140625
 30
0.0
 11
447.2934570312499
 21
588.1591796875
 31
0.0
  0
LINE
  5
286
330
70
100
AcDbEntity
  8
Camada 1
 62
    18
420
        0
370
     5
100
AcDbLine
 10
446.60302734375
 20
587.8129882812499
 30
0.0
 11
447.17724609375
 21
587.92822265625
 31
0.0
  0
LINE
  5
287
330
70
100
AcDbEntity
  8
Camada 1
 62
    18
420
        0
370
     5
100
AcDbLine
 10
444.64306640625
 20
587.4677734375
 30
0.0
 11
445.21923828125
 21
587.5830078125
 31
0.0
  0
LINE
  5
288
330
70
100
AcDbEntity
  8
Camada 1
 62
    18
420
        0
370
     5
100
AcDbLine
 10
442.68408203125
 20
587.0063476562499
 30
0.0
 11
443.25927734375
 21
587.12158203125
 31
0.0
  0
LINE
  5
289
330
70
100
AcDbEntity
  8
Camada 1
 62
    18
420
        0
370
     5
100
AcDbLine
 10
440.72412109375
 20
586.6611328124999
 30
0.0
 11
441.4135742187499
 21
586.7763671875
 31
0.0
  0
LINE
  5
28A
330
70
100
AcDbEntity
  8
Camada 1
 62
    18
420
        0
370
     5
100
AcDbLine
 10
438.7641601562499
 20
586.7763671875
 30
0.0
 11
438.7641601562499
 21
586.7763671875
 31
0.0
  0
LINE
  5
28B
330
70
100
AcDbEntity
  8
Camada 1
 62
    18
420
        0
370
     5
100
AcDbLine
 10
439.45556640625
 20
587.12158203125
 30
0.0
 11
438.87939453125
 21
587.0063476562499
 31
0.0
  0
LINE
  5
28C
330
70
100
AcDbEntity
  8
Camada 1
 62
    18
420
        0
370
     5
100
AcDbLine
 10
441.4135742187499
 20
587.5830078125
 30
0.0
 11
440.8393554687499
 21
587.4677734375
 31
0.0
  0
LINE
  5
28D
330
70
100
AcDbEntity
  8
Camada 1
 62
    18
420
        0
370
     5
100
AcDbLine
 10
445.33447265625
 20
588.2744140625
 30
0.0
 11
444.7583007812499
 21
588.1591796875
 31
0.0
  0
LINE
  5
28E
330
70
100
AcDbEntity
  8
Camada 1
 62
    18
420
        0
370
     5
100
AcDbLine
 10
446.71630859375
 20
588.62060546875
 30
0.0
 11
446.60302734375
 21
588.62060546875
 31
0.0
  0
LINE
  5
28F
330
70
100
AcDbEntity
  8
Camada 1
 62
    18
420
        0
370
     5
100
AcDbLine
 10
445.91064453125
 20
588.1591796875
 30
0.0
 11
446.60302734375
 21
588.3896484374999
 31
0.0
  0
LINE
  5
290
330
70
100
AcDbEntity
  8
Camada 1
 62
    18
420
        0
370
     5
100
AcDbLine
 10
443.95166015625
 20
587.8129882812499
 30
0.0
 11
444.64306640625
 21
587.92822265625
 31
0.0
  0
LINE
  5
291
330
70
100
AcDbEntity
  8
Camada 1
 62
    18
420
        0
370
     5
100
AcDbLine
 10
442.10693359375
 20
587.4677734375
 30
0.0
 11
442.68408203125
 21
587.5830078125
 31
0.0
  0
LINE
  5
292
330
70
100
AcDbEntity
  8
Camada 1
 62
    18
420
        0
370
     5
100
AcDbLine
 10
440.14697265625
 20
587.0063476562499
 30
0.0
 11
440.72412109375
 21
587.12158203125
 31
0.0
  0
LINE
  5
293
330
70
100
AcDbEntity
  8
Camada 1
 62
    18
420
        0
370
     5
100
AcDbLine
 10
437.49658203125
 20
586.7763671875
 30
0.0
 11
437.49658203125
 21
586.7763671875
 31
0.0
  0
LINE
  5
294
330
70
100
AcDbEntity
  8
Camada 1
 62
    18
420
        0
370
     5
100
AcDbLine
 10
442.68408203125
 20
588.2744140625
 30
0.0
 11
442.10693359375
 21
588.1591796875
 31
0.0
  0
LINE
  5
295
330
70
100
AcDbEntity
  8
Camada 1
 62
    18
420
        0
370
     5
100
AcDbLine
 10
445.33447265625
 20
588.62060546875
 30
0.0
 11
445.7954101562499
 21
588.73486328125
 31
0.0
  0
LINE
  5
296
330
70
100
AcDbEntity
  8
Camada 1
 62
    18
420
        0
370
     5
100
AcDbLine
 10
443.37353515625
 20
588.1591796875
 30
0.0
 11
443.95166015625
 21
588.3896484374999
 31
0.0
  0
LINE
  5
297
330
70
100
AcDbEntity
  8
Camada 1
 62
    18
420
        0
370
     5
100
AcDbLine
 10
441.4135742187499
 20
587.8129882812499
 30
0.0
 11
441.9916992187499
 21
587.92822265625
 31
0.0
  0
LINE
  5
298
330
70
100
AcDbEntity
  8
Camada 1
 62
    18
420
        0
370
     5
100
AcDbLine
 10
439.45556640625
 20
587.4677734375
 30
0.0
 11
440.03271484375
 21
587.5830078125
 31
0.0
  0
LINE
  5
299
330
70
100
AcDbEntity
  8
Camada 1
 62
    18
420
        0
370
     5
100
AcDbLine
 10
437.49658203125
 20
587.0063476562499
 30
0.0
 11
438.0727539062499
 21
587.12158203125
 31
0.0
  0
LINE
  5
29A
330
70
100
AcDbEntity
  8
Camada 1
 62
    18
420
        0
370
     5
100
AcDbLine
 10
438.18798828125
 20
587.12158203125
 30
0.0
 11
437.61181640625
 21
587.0063476562499
 31
0.0
  0
LINE
  5
29B
330
70
100
AcDbEntity
  8
Camada 1
 62
    18
420
        0
370
     5
100
AcDbLine
 10
440.14697265625
 20
587.5830078125
 30
0.0
 11
439.45556640625
 21
587.4677734375
 31
0.0
  0
LINE
  5
29C
330
70
100
AcDbEntity
  8
Camada 1
 62
    18
420
        0
370
     5
100
AcDbLine
 10
442.10693359375
 20
587.92822265625
 30
0.0
 11
441.4135742187499
 21
587.8129882812499
 31
0.0
  0
LINE
  5
29D
330
70
100
AcDbEntity
  8
Camada 1
 62
    18
420
        0
370
     5
100
AcDbLine
 10
443.95166015625
 20
588.2744140625
 30
0.0
 11
443.37353515625
 21
588.1591796875
 31
0.0
  0
LINE
  5
29E
330
70
100
AcDbEntity
  8
Camada 1
 62
    18
420
        0
370
     5
100
AcDbLine
 10
445.91064453125
 20
588.62060546875
 30
0.0
 11
445.33447265625
 21
588.62060546875
 31
0.0
  0
LINE
  5
29F
330
70
100
AcDbEntity
  8
Camada 1
 62
    18
420
        0
370
     5
100
AcDbLine
 10
442.68408203125
 20
587.8129882812499
 30
0.0
 11
443.25927734375
 21
587.92822265625
 31
0.0
  0
LINE
  5
2A0
330
70
100
AcDbEntity
  8
Camada 1
 62
    18
420
        0
370
     5
100
AcDbLine
 10
438.76318359375
 20
587.0063476562499
 30
0.0
 11
439.45556640625
 21
587.12158203125
 31
0.0
  0
LINE
  5
2A1
330
70
100
AcDbEntity
  8
Camada 1
 62
    18
420
        0
370
     5
100
AcDbLine
 10
438.7641601562499
 20
587.5830078125
 30
0.0
 11
438.7641601562499
 21
587.5830078125
 31
0.0
  0
LINE
  5
2A2
330
70
100
AcDbEntity
  8
Camada 1
 62
    18
420
        0
370
     5
100
AcDbLine
 10
439.45556640625
 20
587.92822265625
 30
0.0
 11
438.87939453125
 21
587.8129882812499
 31
0.0
  0
LINE
  5
2A3
330
70
100
AcDbEntity
  8
Camada 1
 62
    18
420
        0
370
     5
100
AcDbLine
 10
441.4135742187499
 20
588.2744140625
 30
0.0
 11
440.8393554687499
 21
588.1591796875
 31
0.0
  0
LINE
  5
2A4
330
70
100
AcDbEntity
  8
Camada 1
 62
    18
420
        0
370
     5
100
AcDbLine
 10
443.37353515625
 20
588.73486328125
 30
0.0
 11
442.79833984375
 21
588.62060546875
 31
0.0
  0
LINE
  5
2A5
330
70
100
AcDbEntity
  8
Camada 1
 62
    18
420
        0
370
     5
100
AcDbLine
 10
445.33447265625
 20
589.0815429687499
 30
0.0
 11
444.7583007812499
 21
588.9658203125
 31
0.0
  0
LINE
  5
2A6
330
70
100
AcDbEntity
  8
Camada 1
 62
    18
420
        0
370
     5
100
AcDbLine
 10
443.95166015625
 20
588.62060546875
 30
0.0
 11
444.64306640625
 21
588.73486328125
 31
0.0
  0
LINE
  5
2A7
330
70
100
AcDbEntity
  8
Camada 1
 62
    18
420
        0
370
     5
100
AcDbLine
 10
442.10693359375
 20
588.1591796875
 30
0.0
 11
442.68408203125
 21
588.3896484374999
 31
0.0
  0
LINE
  5
2A8
330
70
100
AcDbEntity
  8
Camada 1
 62
    18
420
        0
370
     5
100
AcDbLine
 10
440.14697265625
 20
587.8129882812499
 30
0.0
 11
440.72412109375
 21
587.92822265625
 31
0.0
  0
LINE
  5
2A9
330
70
100
AcDbEntity
  8
Camada 1
 62
    18
420
        0
370
     5
100
AcDbLine
 10
437.49658203125
 20
587.5830078125
 30
0.0
 11
437.49658203125
 21
587.5830078125
 31
0.0
  0
LINE
  5
2AA
330
70
100
AcDbEntity
  8
Camada 1
 62
    18
420
        0
370
     5
100
AcDbLine
 10
442.10693359375
 20
588.9658203125
 30
0.0
 11
442.68408203125
 21
589.0815429687499
 31
0.0
  0
LINE
  5
2AB
330
70
100
AcDbEntity
  8
Camada 1
 62
    18
420
        0
370
     5
100
AcDbLine
 10
438.76318359375
 20
588.2744140625
 30
0.0
 11
438.3041992187499
 21
588.1591796875
 31
0.0
  0
LINE
  5
2AC
330
70
100
AcDbEntity
  8
Camada 1
 62
    18
420
        0
370
     5
100
AcDbLine
 10
440.4936523437499
 20
588.62060546875
 30
0.0
 11
440.14697265625
 21
588.62060546875
 31
0.0
  0
LINE
  5
2AD
330
70
100
AcDbEntity
  8
Camada 1
 62
    18
420
        0
370
     5
100
AcDbLine
 10
442.68408203125
 20
589.0815429687499
 30
0.0
 11
442.10693359375
 21
588.9658203125
 31
0.0
  0
LINE
  5
2AE
330
70
100
AcDbEntity
  8
Camada 1
 62
    18
420
        0
370
     5
100
AcDbLine
 10
443.37353515625
 20
588.9658203125
 30
0.0
 11
443.95166015625
 21
589.0815429687499
 31
0.0
  0
LINE
  5
2AF
330
70
100
AcDbEntity
  8
Camada 1
 62
    18
420
        0
370
     5
100
AcDbLine
 10
441.4135742187499
 20
588.62060546875
 30
0.0
 11
441.9916992187499
 21
588.73486328125
 31
0.0
  0
LINE
  5
2B0
330
70
100
AcDbEntity
  8
Camada 1
 62
    18
420
        0
370
     5
100
AcDbLine
 10
439.45556640625
 20
588.1591796875
 30
0.0
 11
440.03271484375
 21
588.3896484374999
 31
0.0
  0
LINE
  5
2B1
330
70
100
AcDbEntity
  8
Camada 1
 62
    18
420
        0
370
     5
100
AcDbLine
 10
437.49658203125
 20
587.8129882812499
 30
0.0
 11
438.0727539062499
 21
587.92822265625
 31
0.0
  0
LINE
  5
2B2
330
70
100
AcDbEntity
  8
Camada 1
 62
    18
420
        0
370
     5
100
AcDbLine
 10
438.18798828125
 20
587.92822265625
 30
0.0
 11
437.61181640625
 21
587.8129882812499
 31
0.0
  0
LINE
  5
2B3
330
70
100
AcDbEntity
  8
Camada 1
 62
    18
420
        0
370
     5
100
AcDbLine
 10
440.14697265625
 20
588.2744140625
 30
0.0
 11
439.45556640625
 21
588.1591796875
 31
0.0
  0
LINE
  5
2B4
330
70
100
AcDbEntity
  8
Camada 1
 62
    18
420
        0
370
     5
100
AcDbLine
 10
442.10693359375
 20
588.73486328125
 30
0.0
 11
441.4135742187499
 21
588.62060546875
 31
0.0
  0
LINE
  5
2B5
330
70
100
AcDbEntity
  8
Camada 1
 62
    18
420
        0
370
     5
100
AcDbLine
 10
443.95166015625
 20
589.0815429687499
 30
0.0
 11
443.37353515625
 21
588.9658203125
 31
0.0
  0
LINE
  5
2B6
330
70
100
AcDbEntity
  8
Camada 1
 62
    18
420
        0
370
     5
100
AcDbLine
 10
444.64306640625
 20
588.9658203125
 30
0.0
 11
445.21923828125
 21
589.0815429687499
 31
0.0
  0
LINE
  5
2B7
330
70
100
AcDbEntity
  8
Camada 1
 62
    18
420
        0
370
     5
100
AcDbLine
 10
442.68408203125
 20
588.62060546875
 30
0.0
 11
443.25927734375
 21
588.73486328125
 31
0.0
  0
LINE
  5
2B8
330
70
100
AcDbEntity
  8
Camada 1
 62
    18
420
        0
370
     5
100
AcDbLine
 10
440.72412109375
 20
588.1591796875
 30
0.0
 11
441.4135742187499
 21
588.3896484374999
 31
0.0
  0
LINE
  5
2B9
330
70
100
AcDbEntity
  8
Camada 1
 62
    18
420
        0
370
     5
100
AcDbLine
 10
438.76318359375
 20
587.8129882812499
 30
0.0
 11
439.45556640625
 21
587.92822265625
 31
0.0
  0
LINE
  5
2BA
330
70
100
AcDbEntity
  8
Camada 1
 62
    18
420
        0
370
     5
100
AcDbLine
 10
441.41552734375
 20
589.0815429687499
 30
0.0
 11
441.41552734375
 21
589.0815429687499
 31
0.0
  0
LINE
  5
2BB
330
70
100
AcDbEntity
  8
Camada 1
 62
    18
420
        0
370
     5
100
AcDbLine
 10
124.35791015625
 20
641.52099609375
 30
0.0
 11
117.55908203125
 21
622.734375
 31
0.0
  0
LINE
  5
2BC
330
70
100
AcDbEntity
  8
Camada 1
 62
    18
420
        0
370
     5
100
AcDbLine
 10
259.54736328125
 20
298.76123046875
 30
0.0
 11
254.93994140625
 21
298.76123046875
 31
0.0
  0
LINE
  5
2BD
330
70
100
AcDbEntity
  8
Camada 1
 62
    18
420
        0
370
     5
100
AcDbLine
 10
110.7587890625
 20
625.1552734375
 30
0.0
 11
117.55908203125
 21
643.9409179687499
 31
0.0
  0
LINE
  5
2BE
330
70
100
AcDbEntity
  8
Camada 1
 62
    18
420
        0
370
     5
100
AcDbLine
 10
235.00048828125
 20
278.70751953125
 30
0.0
 11
279.48681640625
 21
278.70751953125
 31
0.0
  0
LINE
  5
2BF
330
70
100
AcDbEntity
  8
Camada 1
 62
    18
420
        0
370
     5
100
AcDbLine
 10
234.76953125
 20
278.59228515625
 30
0.0
 11
279.71826171875
 21
278.59228515625
 31
0.0
  0
LINE
  5
2C0
330
70
100
AcDbEntity
  8
Camada 1
 62
    18
420
        0
370
     5
100
AcDbLine
 10
105.34228515625
 20
648.31982421875
 30
0.0
 11
115.71435546875
 21
676.5571289062499
 31
0.0
  0
LINE
  5
2C1
330
70
100
AcDbEntity
  8
Camada 1
 62
    18
420
        0
370
     5
100
AcDbLine
 10
81.484375
 20
582.626953125
 30
0.0
 11
98.5419921875
 21
629.6494140625
 31
0.0
  0
LINE
  5
2C2
330
70
100
AcDbEntity
  8
Camada 1
 62
    18
420
        0
370
     5
100
AcDbLine
 10
94.50732421875001
 20
638.75439453125
 30
0.0
 11
96.35205078125
 21
644.056640625
 31
0.0
  0
LINE
  5
2C3
330
70
100
AcDbEntity
  8
Camada 1
 62
    18
420
        0
370
     5
100
AcDbLine
 10
234.76953125
 20
271.79345703125
 30
0.0
 11
279.71826171875
 21
271.79345703125
 31
0.0
  0
LINE
  5
2C4
330
70
100
AcDbEntity
  8
Camada 1
 62
    18
420
        0
370
     5
100
AcDbLine
 10
62.69873046875
 20
589.5424804687499
 30
0.0
 11
96.92773437500001
 21
683.3574218749999
 31
0.0
  0
LINE
  5
2C5
330
70
100
AcDbEntity
  8
Camada 1
 62
    18
420
        0
370
     5
100
AcDbLine
 10
451.09521484375
 20
586.7763671875
 30
0.0
 11
452.24853515625
 21
586.89111328125
 31
0.0
  0
LINE
  5
2C6
330
70
100
AcDbEntity
  8
Camada 1
 62
    18
420
        0
370
     5
100
AcDbLine
 10
435.65380859375
 20
585.39306640625
 30
0.0
 11
434.38525390625
 21
585.2778320312499
 31
0.0
  0
LINE
  5
2C7
330
70
100
AcDbEntity
  8
Camada 1
 62
    18
420
        0
370
     5
100
AcDbLine
 10
96.92773437500001
 20
683.3574218749999
 30
0.0
 11
115.71435546875
 21
676.5571289062499
 31
0.0
  0
LINE
  5
2C8
330
70
100
AcDbEntity
  8
Camada 1
 62
    18
420
        0
370
     5
100
AcDbLine
 10
117.55908203125
 20
643.9409179687499
 30
0.0
 11
105.45751953125
 21
648.31982421875
 31
0.0
  0
LINE
  5
2C9
330
70
100
AcDbEntity
  8
Camada 1
 62
    18
420
        0
370
     5
100
AcDbLine
 10
234.42333984375
 20
601.4130859375
 30
0.0
 11
124.35791015625
 21
641.52099609375
 31
0.0
  0
LINE
  5
2CA
330
70
100
AcDbEntity
  8
Camada 1
 62
    18
420
        0
370
     5
100
AcDbLine
 10
122.859375
 20
637.2568359375
 30
0.0
 11
116.0595703125
 21
639.6762695312499
 31
0.0
  0
LINE
  5
2CB
330
70
100
AcDbEntity
  8
Camada 1
 62
    18
420
        0
370
     5
100
AcDbLine
 10
119.05615234375
 20
626.8837890624999
 30
0.0
 11
112.37109375
 21
629.4189453125
 31
0.0
  0
LINE
  5
2CC
330
70
100
AcDbEntity
  8
Camada 1
 62
    18
420
        0
370
     5
100
AcDbLine
 10
272.22607421875
 20
349.12744140625
 30
0.0
 11
272.22607421875
 21
349.24267578125
 31
0.0
  0
LINE
  5
2CD
330
70
100
AcDbEntity
  8
Camada 1
 62
    18
420
        0
370
     5
100
AcDbLine
 10
279.71826171875
 20
271.79345703125
 30
0.0
 11
279.71826171875
 21
278.59228515625
 31
0.0
  0
LINE
  5
2CE
330
70
100
AcDbEntity
  8
Camada 1
 62
    18
420
        0
370
     5
100
AcDbLine
 10
117.55908203125
 20
622.734375
 30
0.0
 11
227.50830078125
 21
582.626953125
 31
0.0
  0
LINE
  5
2CF
330
70
100
AcDbEntity
  8
Camada 1
 62
    18
420
        0
370
     5
100
AcDbLine
 10
110.7587890625
 20
625.1552734375
 30
0.0
 11
98.65771484375001
 21
629.53466796875
 31
0.0
  0
LINE
  5
2D0
330
70
100
AcDbEntity
  8
Camada 1
 62
    18
420
        0
370
     5
100
AcDbLine
 10
272.22607421875
 20
353.275390625
 30
0.0
 11
272.22607421875
 21
356.73388671875
 31
0.0
  0
LINE
  5
2D1
330
70
100
AcDbEntity
  8
Camada 1
 62
    18
420
        0
370
     5
100
AcDbLine
 10
272.22607421875
 20
278.70751953125
 30
0.0
 11
272.22607421875
 21
348.78076171875
 31
0.0
  0
LINE
  5
2D2
330
70
100
AcDbEntity
  8
Camada 1
 62
    18
420
        0
370
     5
100
AcDbLine
 10
272.22607421875
 20
352.8154296875
 30
0.0
 11
272.22607421875
 21
349.12744140625
 31
0.0
  0
LINE
  5
2D3
330
70
100
AcDbEntity
  8
Camada 1
 62
    18
420
        0
370
     5
100
AcDbLine
 10
270.95751953125
 20
315.35791015625
 30
0.0
 11
270.95751953125
 21
315.5888671875
 31
0.0
  0
LINE
  5
2D4
330
70
100
AcDbEntity
  8
Camada 1
 62
    18
420
        0
370
     5
100
AcDbLine
 10
270.95751953125
 20
309.82666015625
 30
0.0
 11
270.95751953125
 21
310.05615234375
 31
0.0
  0
LINE
  5
2D5
330
70
100
AcDbEntity
  8
Camada 1
 62
    18
420
        0
370
     5
100
AcDbLine
 10
267.27001953125
 20
356.84912109375
 30
0.0
 11
267.27001953125
 21
554.505859375
 31
0.0
  0
LINE
  5
2D6
330
70
100
AcDbEntity
  8
Camada 1
 62
    18
420
        0
370
     5
100
AcDbLine
 10
266.00244140625
 20
356.73388671875
 30
0.0
 11
266.00244140625
 21
356.84912109375
 31
0.0
  0
LINE
  5
2D7
330
70
100
AcDbEntity
  8
Camada 1
 62
    18
420
        0
370
     5
100
AcDbLine
 10
262.19775390625
 20
325.84619140625
 30
0.0
 11
262.19775390625
 21
325.96142578125
 31
0.0
  0
LINE
  5
2D8
330
70
100
AcDbEntity
  8
Camada 1
 62
    18
420
        0
370
     5
100
AcDbLine
 10
261.27685546875
 20
326.07666015625
 30
0.0
 11
261.27685546875
 21
379.66845703125
 31
0.0
  0
LINE
  5
2D9
330
70
100
AcDbEntity
  8
Camada 1
 62
    18
420
        0
370
     5
100
AcDbLine
 10
259.54736328125
 20
298.99267578125
 30
0.0
 11
259.54736328125
 21
298.76123046875
 31
0.0
  0
LINE
  5
2DA
330
70
100
AcDbEntity
  8
Camada 1
 62
    18
420
        0
370
     5
100
AcDbLine
 10
254.93994140625
 20
298.99267578125
 30
0.0
 11
254.93994140625
 21
298.76123046875
 31
0.0
  0
LINE
  5
2DB
330
70
100
AcDbEntity
  8
Camada 1
 62
    18
420
        0
370
     5
100
AcDbLine
 10
253.20947265625
 20
326.07666015625
 30
0.0
 11
253.20947265625
 21
379.66845703125
 31
0.0
  0
LINE
  5
2DC
330
70
100
AcDbEntity
  8
Camada 1
 62
    18
420
        0
370
     5
100
AcDbLine
 10
252.40380859375
 20
325.84619140625
 30
0.0
 11
252.40380859375
 21
325.96142578125
 31
0.0
  0
LINE
  5
2DD
330
70
100
AcDbEntity
  8
Camada 1
 62
    18
420
        0
370
     5
100
AcDbLine
 10
248.48388671875
 20
356.73388671875
 30
0.0
 11
248.48388671875
 21
356.84912109375
 31
0.0
  0
LINE
  5
2DE
330
70
100
AcDbEntity
  8
Camada 1
 62
    18
420
        0
370
     5
100
AcDbLine
 10
247.21630859375
 20
356.84912109375
 30
0.0
 11
247.21630859375
 21
554.505859375
 31
0.0
  0
LINE
  5
2DF
330
70
100
AcDbEntity
  8
Camada 1
 62
    18
420
        0
370
     5
100
AcDbLine
 10
243.52880859375
 20
315.35791015625
 30
0.0
 11
243.52880859375
 21
315.5888671875
 31
0.0
  0
LINE
  5
2E0
330
70
100
AcDbEntity
  8
Camada 1
 62
    18
420
        0
370
     5
100
AcDbLine
 10
243.52880859375
 20
309.82666015625
 30
0.0
 11
243.52880859375
 21
310.05615234375
 31
0.0
  0
LINE
  5
2E1
330
70
100
AcDbEntity
  8
Camada 1
 62
    18
420
        0
370
     5
100
AcDbLine
 10
242.26025390625
 20
278.70751953125
 30
0.0
 11
242.26025390625
 21
356.73388671875
 31
0.0
  0
LINE
  5
2E2
330
70
100
AcDbEntity
  8
Camada 1
 62
    18
420
        0
370
     5
100
AcDbLine
 10
234.76953125
 20
271.79345703125
 30
0.0
 11
234.76953125
 21
278.59228515625
 31
0.0
  0
LINE
  5
2E3
330
70
100
AcDbEntity
  8
Camada 1
 62
    18
420
        0
370
     5
100
AcDbLine
 10
62.69873046875
 20
589.5424804687499
 30
0.0
 11
81.484375
 21
582.626953125
 31
0.0
  0
LINE
  5
2E4
330
70
100
AcDbEntity
  8
Camada 1
 62
    18
420
        0
370
     5
100
AcDbLine
 10
272.22607421875
 20
352.8154296875
 30
0.0
 11
272.22607421875
 21
352.93017578125
 31
0.0
  0
LINE
  5
2E5
330
70
100
AcDbEntity
  8
Camada 1
 62
    18
420
        0
370
     5
100
AcDbLine
 10
253.78564453125
 20
380.12939453125
 30
0.0
 11
260.70068359375
 21
380.12939453125
 31
0.0
  0
LINE
  5
2E6
330
70
100
AcDbEntity
  8
Camada 1
 62
    18
420
        0
370
     5
100
AcDbLine
 10
253.20947265625
 20
379.66845703125
 30
0.0
 11
261.27685546875
 21
379.66845703125
 31
0.0
  0
LINE
  5
2E7
330
70
100
AcDbEntity
  8
Camada 1
 62
    18
420
        0
370
     5
100
AcDbLine
 10
253.20947265625
 20
356.84912109375
 30
0.0
 11
247.21630859375
 21
356.84912109375
 31
0.0
  0
LINE
  5
2E8
330
70
100
AcDbEntity
  8
Camada 1
 62
    18
420
        0
370
     5
100
AcDbLine
 10
267.27001953125
 20
356.84912109375
 30
0.0
 11
261.27685546875
 21
356.84912109375
 31
0.0
  0
LINE
  5
2E9
330
70
100
AcDbEntity
  8
Camada 1
 62
    18
420
        0
370
     5
100
AcDbLine
 10
242.26025390625
 20
356.73388671875
 30
0.0
 11
253.20947265625
 21
356.73388671875
 31
0.0
  0
LINE
  5
2EA
330
70
100
AcDbEntity
  8
Camada 1
 62
    18
420
        0
370
     5
100
AcDbLine
 10
272.22607421875
 20
356.73388671875
 30
0.0
 11
261.27685546875
 21
356.73388671875
 31
0.0
  0
LINE
  5
2EB
330
70
100
AcDbEntity
  8
Camada 1
 62
    18
420
        0
370
     5
100
AcDbLine
 10
137.49658203125
 20
636.68017578125
 30
0.0
 11
130.697265625
 21
617.8935546875
 31
0.0
  0
LWPOLYLINE
  5
2EC
330
70
100
AcDbEntity
  8
Camada 1
 62
    18
420
        0
370
     5
100
AcDbPolyline
 90
        3
 70
     0
 43
0.0
 10
421.13232421875
 20
278.70751953125
 10
420.9008789062499
 20
278.70751953125
 10
420.9008789062499
 20
278.59228515625
  0
LINE
  5
2ED
330
70
100
AcDbEntity
  8
Camada 1
 62
    18
420
        0
370
     5
100
AcDbLine
 10
442.79833984375
 20
589.31201171875
 30
0.0
 11
441.4135742187499
 21
589.31201171875
 31
0.0
  0
LINE
  5
2EE
330
70
100
AcDbEntity
  8
Camada 1
 62
    18
420
        0
370
     5
100
AcDbLine
 10
436.9213867187499
 20
587.12158203125
 30
0.0
 11
436.9213867187499
 21
587.236328125
 31
0.0
  0
LINE
  5
2EF
330
70
100
AcDbEntity
  8
Camada 1
 62
    18
420
        0
370
     5
100
AcDbLine
 10
436.9213867187499
 20
588.2744140625
 30
0.0
 11
436.80517578125
 21
588.2744140625
 31
0.0
  0
LINE
  5
2F0
330
70
100
AcDbEntity
  8
Camada 1
 62
    18
420
        0
370
     5
100
AcDbLine
 10
437.38232421875
 20
586.7763671875
 30
0.0
 11
437.38232421875
 21
586.89111328125
 31
0.0
  0
LINE
  5
2F1
330
70
100
AcDbEntity
  8
Camada 1
 62
    18
420
        0
370
     5
100
AcDbLine
 10
437.95751953125
 20
586.43017578125
 30
0.0
 11
438.0727539062499
 21
586.3149414062499
 31
0.0
  0
LINE
  5
2F2
330
70
100
AcDbEntity
  8
Camada 1
 62
    18
420
        0
370
     5
100
AcDbLine
 10
435.65380859375
 20
587.92822265625
 30
0.0
 11
435.65380859375
 21
588.04345703125
 31
0.0
  0
LINE
  5
2F3
330
70
100
AcDbEntity
  8
Camada 1
 62
    18
420
        0
370
     5
100
AcDbLine
 10
436.80517578125
 20
588.3896484374999
 30
0.0
 11
436.80517578125
 21
588.5048828124999
 31
0.0
  0
LWPOLYLINE
  5
2F4
330
70
100
AcDbEntity
  8
Camada 1
 62
    18
420
        0
370
     5
100
AcDbPolyline
 90
        3
 70
     0
 43
0.0
 10
436.9213867187499
 20
588.04345703125
 10
436.9213867187499
 20
587.92822265625
 10
436.80517578125
 20
587.92822265625
  0
LINE
  5
2F5
330
70
100
AcDbEntity
  8
Camada 1
 62
    18
420
        0
370
     5
100
AcDbLine
 10
433.3481445312499
 20
677.3637695312499
 30
0.0
 11
433.3481445312499
 21
677.1328125
 31
0.0
  0
LINE
  5
2F6
330
70
100
AcDbEntity
  8
Camada 1
 62
    18
420
        0
370
     5
100
AcDbLine
 10
438.76318359375
 20
586.08447265625
 30
0.0
 11
438.87939453125
 21
586.08447265625
 31
0.0
  0
LINE
  5
2F7
330
70
100
AcDbEntity
  8
Camada 1
 62
    18
420
        0
370
     5
100
AcDbLine
 10
438.87939453125
 20
585.9687499999999
 30
0.0
 11
439.34033203125
 21
585.85302734375
 31
0.0
  0
LINE
  5
2F8
330
70
100
AcDbEntity
  8
Camada 1
 62
    18
420
        0
370
     5
100
AcDbLine
 10
439.45556640625
 20
585.85302734375
 30
0.0
 11
439.45556640625
 21
585.9687499999999
 31
0.0
  0
LINE
  5
2F9
330
70
100
AcDbEntity
  8
Camada 1
 62
    18
420
        0
370
     5
100
AcDbLine
 10
440.60693359375
 20
585.6230468749999
 30
0.0
 11
440.72412109375
 21
585.6230468749999
 31
0.0
  0
LINE
  5
2FA
330
70
100
AcDbEntity
  8
Camada 1
 62
    18
420
        0
370
     5
100
AcDbLine
 10
440.8393554687499
 20
585.6230468749999
 30
0.0
 11
441.3002929687499
 21
585.5087890624999
 31
0.0
  0
LINE
  5
2FB
330
70
100
AcDbEntity
  8
Camada 1
 62
    18
420
        0
370
     5
100
AcDbLine
 10
441.4135742187499
 20
585.5087890624999
 30
0.0
 11
441.53076171875
 21
585.5087890624999
 31
0.0
  0
LINE
  5
2FC
330
70
100
AcDbEntity
  8
Camada 1
 62
    18
420
        0
370
     5
100
AcDbLine
 10
442.68408203125
 20
585.39306640625
 30
0.0
 11
442.79833984375
 21
585.39306640625
 31
0.0
  0
LINE
  5
2FD
330
70
100
AcDbEntity
  8
Camada 1
 62
    18
420
        0
370
     5
100
AcDbLine
 10
441.3002929687499
 20
584.7021484375
 30
0.0
 11
443.37353515625
 21
584.5869140625
 31
0.0
  0
LINE
  5
2FE
330
70
100
AcDbEntity
  8
Camada 1
 62
    18
420
        0
370
     5
100
AcDbLine
 10
441.3002929687499
 20
584.24072265625
 30
0.0
 11
443.37353515625
 21
584.1254882812499
 31
0.0
  0
LINE
  5
2FF
330
70
100
AcDbEntity
  8
Camada 1
 62
    18
420
        0
370
     5
100
AcDbLine
 10
435.8833007812499
 20
588.04345703125
 30
0.0
 11
435.8833007812499
 21
588.1591796875
 31
0.0
  0
LINE
  5
300
330
70
100
AcDbEntity
  8
Camada 1
 62
    18
420
        0
370
     5
100
AcDbLine
 10
436.80517578125
 20
587.4677734375
 30
0.0
 11
436.80517578125
 21
587.5830078125
 31
0.0
  0
LINE
  5
301
330
70
100
AcDbEntity
  8
Camada 1
 62
    18
420
        0
370
     5
100
AcDbLine
 10
442.79833984375
 20
589.31201171875
 30
0.0
 11
445.33447265625
 21
589.31201171875
 31
0.0
  0
LINE
  5
302
330
70
100
AcDbEntity
  8
Camada 1
 62
    18
420
        0
370
     5
100
AcDbLine
 10
449.7143554687499
 20
587.12158203125
 30
0.0
 11
449.8286132812499
 21
587.12158203125
 31
0.0
  0
LINE
  5
303
330
70
100
AcDbEntity
  8
Camada 1
 62
    18
420
        0
370
     5
100
AcDbLine
 10
449.8286132812499
 20
588.2744140625
 30
0.0
 11
449.8286132812499
 21
588.3896484374999
 31
0.0
  0
LINE
  5
304
330
70
100
AcDbEntity
  8
Camada 1
 62
    18
420
        0
370
     5
100
AcDbLine
 10
449.36669921875
 20
586.7763671875
 30
0.0
 11
449.36669921875
 21
586.89111328125
 31
0.0
  0
LINE
  5
305
330
70
100
AcDbEntity
  8
Camada 1
 62
    18
420
        0
370
     5
100
AcDbLine
 10
448.6762695312499
 20
586.3149414062499
 30
0.0
 11
448.79248046875
 21
586.43017578125
 31
0.0
  0
LINE
  5
306
330
70
100
AcDbEntity
  8
Camada 1
 62
    18
420
        0
370
     5
100
AcDbLine
 10
451.09521484375
 20
587.92822265625
 30
0.0
 11
451.09521484375
 21
588.04345703125
 31
0.0
  0
LINE
  5
307
330
70
100
AcDbEntity
  8
Camada 1
 62
    18
420
        0
370
     5
100
AcDbLine
 10
449.94384765625
 20
588.3896484374999
 30
0.0
 11
449.94384765625
 21
588.5048828124999
 31
0.0
  0
LINE
  5
308
330
70
100
AcDbEntity
  8
Camada 1
 62
    18
420
        0
370
     5
100
AcDbLine
 10
449.8286132812499
 20
588.04345703125
 30
0.0
 11
449.8286132812499
 21
587.92822265625
 31
0.0
  0
LINE
  5
309
330
70
100
AcDbEntity
  8
Camada 1
 62
    18
420
        0
370
     5
100
AcDbLine
 10
443.95166015625
 20
585.39306640625
 30
0.0
 11
444.0659179687499
 21
585.39306640625
 31
0.0
  0
LINE
  5
30A
330
70
100
AcDbEntity
  8
Camada 1
 62
    18
420
        0
370
     5
100
AcDbLine
 10
443.37353515625
 20
584.5869140625
 30
0.0
 11
445.44873046875
 21
584.7021484375
 31
0.0
  0
LINE
  5
30B
330
70
100
AcDbEntity
  8
Camada 1
 62
    18
420
        0
370
     5
100
AcDbLine
 10
443.37353515625
 20
584.1254882812499
 30
0.0
 11
445.44873046875
 21
584.24072265625
 31
0.0
  0
LINE
  5
30C
330
70
100
AcDbEntity
  8
Camada 1
 62
    18
420
        0
370
     5
100
AcDbLine
 10
450.8657226562499
 20
588.04345703125
 30
0.0
 11
450.8657226562499
 21
588.1591796875
 31
0.0
  0
LINE
  5
30D
330
70
100
AcDbEntity
  8
Camada 1
 62
    18
420
        0
370
     5
100
AcDbLine
 10
449.94384765625
 20
587.4677734375
 30
0.0
 11
449.94384765625
 21
587.5830078125
 31
0.0
  0
LWPOLYLINE
  5
30E
330
70
100
AcDbEntity
  8
Camada 1
 62
    18
420
        0
370
     5
100
AcDbPolyline
 90
        4
 70
     0
 43
0.0
 10
445.10498046875
 20
585.5087890624999
 10
445.33447265625
 20
585.5087890624999
 10
445.91064453125
 20
585.6230468749999
 10
446.02587890625
 20
585.6230468749999
  0
LWPOLYLINE
  5
30F
330
70
100
AcDbEntity
  8
Camada 1
 62
    18
420
        0
370
     5
100
AcDbPolyline
 90
        3
 70
     0
 43
0.0
 10
447.17724609375
 20
585.85302734375
 10
447.2934570312499
 20
585.85302734375
 10
447.75439453125
 20
585.9687499999999
  0
LINE
  5
310
330
70
100
AcDbEntity
  8
Camada 1
 62
    18
420
        0
370
     5
100
AcDbLine
 10
453.40185546875
 20
677.1328125
 30
0.0
 11
453.28564453125
 21
677.3637695312499
 31
0.0
  0
LINE
  5
311
330
70
100
AcDbEntity
  8
Camada 1
 62
    18
420
        0
370
     5
100
AcDbLine
 10
447.8706054687499
 20
586.08447265625
 30
0.0
 11
447.98583984375
 21
586.08447265625
 31
0.0
  0
LWPOLYLINE
  5
312
330
70
100
AcDbEntity
  8
Camada 1
 62
    18
420
        0
370
     5
100
AcDbPolyline
 90
        3
 70
     0
 43
0.0
 10
486.59326171875
 20
380.12939453125
 10
486.24755859375
 20
380.0146484375
 10
486.13330078125
 20
379.66845703125
  0
LWPOLYLINE
  5
313
330
70
100
AcDbEntity
  8
Camada 1
 62
    18
420
        0
370
     5
100
AcDbPolyline
 90
        3
 70
     0
 43
0.0
 10
494.0864257812499
 20
379.66845703125
 10
493.97021484375
 20
380.0146484375
 10
493.62451171875
 20
380.12939453125
  0
LWPOLYLINE
  5
314
330
70
100
AcDbEntity
  8
Camada 1
 62
    18
420
        0
370
     5
100
AcDbPolyline
 90
        3
 70
     0
 43
0.0
 10
500.07763671875
 20
326.1923828125
 10
499.96337890625
 20
326.537109375
 10
499.61767578125
 20
326.76806640625
  0
LWPOLYLINE
  5
315
330
70
100
AcDbEntity
  8
Camada 1
 62
    18
420
        0
370
     5
100
AcDbPolyline
 90
        3
 70
     0
 43
0.0
 10
499.61767578125
 20
298.76123046875
 10
499.96337890625
 20
298.87744140625
 10
500.07763671875
 20
299.22216796875
  0
LWPOLYLINE
  5
316
330
70
100
AcDbEntity
  8
Camada 1
 62
    18
420
        0
370
     5
100
AcDbPolyline
 90
        3
 70
     0
 43
0.0
 10
465.84912109375
 20
278.59228515625
 10
465.73291015625
 20
278.70751953125
 10
465.61767578125
 20
278.70751953125
  0
LWPOLYLINE
  5
317
330
70
100
AcDbEntity
  8
Camada 1
 62
    18
420
        0
370
     5
100
AcDbPolyline
 90
       14
 70
     0
 43
0.0
 10
267.27001953125
 20
554.505859375
 10
267.03857421875
 20
559.2314453124999
 10
266.34912109375
 20
563.8408203125
 10
265.31103515625
 20
568.451171875
 10
263.69873046875
 20
572.8310546874999
 10
261.85302734375
 20
577.095703125
 10
259.54736328125
 20
581.24365234375
 10
256.78271484375
 20
585.046875
 10
253.78564453125
 20
588.62060546875
 10
250.44384765625
 20
591.8466796875
 10
246.75439453125
 20
594.8437499999999
 10
242.83740234375
 20
597.3789062499999
 10
238.68798828125
 20
599.68408203125
 10
234.42333984375
 20
601.4130859375
  0
LWPOLYLINE
  5
318
330
70
100
AcDbEntity
  8
Camada 1
 62
    18
420
        0
370
     5
100
AcDbPolyline
 90
       11
 70
     0
 43
0.0
 10
247.21630859375
 20
554.505859375
 10
246.98583984375
 20
558.193359375
 10
246.40966796875
 20
561.7666015624999
 10
245.25830078125
 20
565.2236328125
 10
243.75927734375
 20
568.5659179687499
 10
241.80029296875
 20
571.677734375
 10
239.61083984375
 20
574.5590820312499
 10
236.95947265625
 20
577.095703125
 10
234.078125
 20
579.39990234375
 10
230.85107421875
 20
581.24365234375
 10
227.50830078125
 20
582.626953125
  0
LWPOLYLINE
  5
319
330
70
100
AcDbEntity
  8
Camada 1
 62
    18
420
        0
370
     5
100
AcDbPolyline
 90
        3
 70
     0
 43
0.0
 10
235.00048828125
 20
278.70751953125
 10
234.88525390625
 20
278.70751953125
 10
234.76953125
 20
278.59228515625
  0
LWPOLYLINE
  5
31A
330
70
100
AcDbEntity
  8
Camada 1
 62
    18
420
        0
370
     5
100
AcDbPolyline
 90
        3
 70
     0
 43
0.0
 10
279.71826171875
 20
278.59228515625
 10
279.71826171875
 20
278.70751953125
 10
279.48681640625
 20
278.70751953125
  0
LWPOLYLINE
  5
31B
330
70
100
AcDbEntity
  8
Camada 1
 62
    18
420
        0
370
     5
100
AcDbPolyline
 90
        8
 70
     0
 43
0.0
 10
243.52880859375
 20
309.82666015625
 10
244.21923828125
 20
307.52099609375
 10
245.25830078125
 20
305.44580078125
 10
246.75439453125
 20
303.48681640625
 10
248.36865234375
 20
301.87353515625
 10
250.44384765625
 20
300.48974609375
 10
252.63330078125
 20
299.45361328125
 10
254.93994140625
 20
298.87744140625
  0
LWPOLYLINE
  5
31C
330
70
100
AcDbEntity
  8
Camada 1
 62
    18
420
        0
370
     5
100
AcDbPolyline
 90
        7
 70
     0
 43
0.0
 10
253.20947265625
 20
326.1923828125
 10
250.90380859375
 20
325.27001953125
 10
248.82958984375
 20
323.88623046875
 10
246.98583984375
 20
322.2734375
 10
245.37255859375
 20
320.19873046875
 10
244.21923828125
 20
318.00830078125
 10
243.52880859375
 20
315.5888671875
  0
LWPOLYLINE
  5
31D
330
70
100
AcDbEntity
  8
Camada 1
 62
    18
420
        0
370
     5
100
AcDbPolyline
 90
        7
 70
     0
 43
0.0
 10
270.95751953125
 20
315.5888671875
 10
270.26708984375
 20
318.00830078125
 10
269.11474609375
 20
320.19873046875
 10
267.61669921875
 20
322.2734375
 10
265.65673828125
 20
323.88623046875
 10
263.58251953125
 20
325.27001953125
 10
261.27685546875
 20
326.1923828125
  0
LWPOLYLINE
  5
31E
330
70
100
AcDbEntity
  8
Camada 1
 62
    18
420
        0
370
     5
100
AcDbPolyline
 90
        8
 70
     0
 43
0.0
 10
259.54736328125
 20
298.87744140625
 10
261.97021484375
 20
299.45361328125
 10
264.04248046875
 20
300.48974609375
 10
266.11767578125
 20
301.87353515625
 10
267.84716796875
 20
303.48681640625
 10
269.22900390625
 20
305.44580078125
 10
270.26708984375
 20
307.52099609375
 10
270.95751953125
 20
309.82666015625
  0
LINE
  5
31F
330
70
100
AcDbEntity
  8
Camada 1
 62
    18
420
        0
370
     5
100
AcDbLine
 10
256.09130859375
 20
298.76123046875
 30
0.0
 11
258.39501953125
 21
298.76123046875
 31
0.0
  0
LWPOLYLINE
  5
320
330
70
100
AcDbEntity
  8
Camada 1
 62
    18
420
        0
370
     5
100
AcDbPolyline
 90
       37
 70
     0
 43
0.0
 10
271.18994140625
 20
312.7080078125
 10
271.07470703125
 20
315.12744140625
 10
270.38330078125
 20
317.5478515625
 10
269.34619140625
 20
319.7373046875
 10
267.96240234375
 20
321.69677734375
 10
266.23388671875
 20
323.42529296875
 10
264.27392578125
 20
324.80810546875
 10
262.08447265625
 20
325.84619140625
 10
259.66455078125
 20
326.537109375
 10
257.24462890625
 20
326.76806640625
 10
254.82373046875
 20
326.537109375
 10
252.51806640625
 20
325.84619140625
 10
250.21435546875
 20
324.80810546875
 10
248.25537109375
 20
323.42529296875
 10
246.52685546875
 20
321.69677734375
 10
245.14306640625
 20
319.7373046875
 10
244.10595703125
 20
317.5478515625
 10
243.52978515625
 20
315.12744140625
 10
243.29833984375
 20
312.7080078125
 10
243.52978515625
 20
310.287109375
 10
244.10595703125
 20
307.98291015625
 10
245.14306640625
 20
305.79248046875
 10
246.52685546875
 20
303.71826171875
 10
248.25537109375
 20
301.98974609375
 10
250.21435546875
 20
300.60498046875
 10
252.51806640625
 20
299.56884765625
 10
254.82373046875
 20
298.99267578125
 10
257.24462890625
 20
298.76123046875
 10
259.66455078125
 20
298.99267578125
 10
262.08447265625
 20
299.56884765625
 10
264.27392578125
 20
300.60498046875
 10
266.23388671875
 20
301.98974609375
 10
267.96240234375
 20
303.71826171875
 10
269.34619140625
 20
305.79248046875
 10
270.38330078125
 20
307.98291015625
 10
271.07470703125
 20
310.287109375
 10
271.18994140625
 20
312.7080078125
  0
LWPOLYLINE
  5
321
330
70
100
AcDbEntity
  8
Camada 1
 62
    18
420
        0
370
     5
100
AcDbPolyline
 90
       37
 70
     0
 43
0.0
 10
270.72900390625
 20
312.7080078125
 10
270.49755859375
 20
315.12744140625
 10
269.92236328125
 20
317.3173828125
 10
268.88427734375
 20
319.50732421875
 10
267.61767578125
 20
321.35205078125
 10
265.88916015625
 20
323.07958984375
 10
264.04345703125
 20
324.46240234375
 10
261.85400390625
 20
325.384765625
 10
259.54833984375
 20
325.96142578125
 10
257.24462890625
 20
326.1923828125
 10
254.93994140625
 20
325.96142578125
 10
252.63427734375
 20
325.384765625
 10
250.55908203125
 20
324.46240234375
 10
248.60009765625
 20
323.07958984375
 10
246.87060546875
 20
321.35205078125
 10
245.60498046875
 20
319.50732421875
 10
244.56689453125
 20
317.3173828125
 10
243.99072265625
 20
315.12744140625
 10
243.76025390625
 20
312.7080078125
 10
243.99072265625
 20
310.40283203125
 10
244.56689453125
 20
308.0966796875
 10
245.60498046875
 20
306.02294921875
 10
246.87060546875
 20
304.06396484375
 10
248.60009765625
 20
302.44921875
 10
250.55908203125
 20
301.06689453125
 10
252.63427734375
 20
300.03076171875
 10
254.93994140625
 20
299.45361328125
 10
257.24462890625
 20
299.22216796875
 10
259.54833984375
 20
299.45361328125
 10
261.85400390625
 20
300.03076171875
 10
264.04345703125
 20
301.06689453125
 10
265.88916015625
 20
302.44921875
 10
267.61767578125
 20
304.06396484375
 10
268.88427734375
 20
306.02294921875
 10
269.92236328125
 20
308.0966796875
 10
270.49755859375
 20
310.40283203125
 10
270.72900390625
 20
312.7080078125
  0
LINE
  5
322
330
70
100
AcDbEntity
  8
Camada 1
 62
    18
420
        0
370
     5
100
AcDbLine
 10
272.22607421875
 20
353.275390625
 30
0.0
 11
272.22607421875
 21
352.93017578125
 31
0.0
  0
LINE
  5
323
330
70
100
AcDbEntity
  8
Camada 1
 62
    18
420
        0
370
     5
100
AcDbLine
 10
272.22607421875
 20
348.78076171875
 30
0.0
 11
272.22607421875
 21
352.93017578125
 31
0.0
  0
LWPOLYLINE
  5
324
330
70
100
AcDbEntity
  8
Camada 1
 62
    18
420
        0
370
     5
100
AcDbPolyline
 90
        3
 70
     0
 43
0.0
 10
253.78564453125
 20
380.12939453125
 10
253.43896484375
 20
380.0146484375
 10
253.20947265625
 20
379.66845703125
  0
LWPOLYLINE
  5
325
330
70
100
AcDbEntity
  8
Camada 1
 62
    18
420
        0
370
     5
100
AcDbPolyline
 90
        3
 70
     0
 43
0.0
 10
261.27685546875
 20
379.66845703125
 10
261.04736328125
 20
380.0146484375
 10
260.70068359375
 20
380.12939453125
  0
LWPOLYLINE
  5
326
330
70
100
AcDbEntity
  8
Camada 1
 62
    18
420
        0
370
     5
100
AcDbPolyline
 90
       13
 70
     0
 43
0.0
 10
453.40185546875
 20
680.0146484375
 10
453.17041015625
 20
680.59130859375
 10
452.71044921875
 20
681.1669921875
 10
451.55615234375
 20
681.9736328124999
 10
448.90673828125
 20
682.78076171875
 10
446.1411132812499
 20
683.2412109375
 10
443.37353515625
 20
683.3574218749999
 10
440.60693359375
 20
683.2412109375
 10
437.84228515625
 20
682.78076171875
 10
435.19287109375
 20
681.9736328124999
 10
434.03955078125
 20
681.1669921875
 10
433.57763671875
 20
680.59130859375
 10
433.3481445312499
 20
680.0146484375
  0
LINE
  5
327
330
70
100
AcDbEntity
  8
Camada 1
 62
    18
420
        0
370
     5
100
AcDbLine
 10
435.65380859375
 20
586.7763671875
 30
0.0
 11
435.4233398437499
 21
586.08447265625
 31
0.0
  0
LINE
  5
328
330
70
100
AcDbEntity
  8
Camada 1
 62
    18
420
        0
370
     5
100
AcDbLine
 10
441.3002929687499
 20
588.73486328125
 30
0.0
 11
437.72607421875
 21
588.04345703125
 31
0.0
  0
LINE
  5
329
330
70
100
AcDbEntity
  8
Camada 1
 62
    18
420
        0
370
     5
100
AcDbLine
 10
435.65380859375
 20
585.6230468749999
 30
0.0
 11
436.80517578125
 21
585.046875
 31
0.0
  0
LWPOLYLINE
  5
32A
330
70
100
AcDbEntity
  8
Camada 1
 62
    18
420
        0
370
     5
100
AcDbPolyline
 90
        3
 70
     0
 43
0.0
 10
436.80517578125
 20
583.89501953125
 10
438.87939453125
 20
583.318359375
 10
440.95458984375
 20
583.08740234375
  0
LWPOLYLINE
  5
32B
330
70
100
AcDbEntity
  8
Camada 1
 62
    18
420
        0
370
     5
100
AcDbPolyline
 90
        3
 70
     0
 43
0.0
 10
449.94384765625
 20
583.89501953125
 10
447.8706054687499
 20
583.318359375
 10
445.7954101562499
 20
583.08740234375
  0
LINE
  5
32C
330
70
100
AcDbEntity
  8
Camada 1
 62
    18
420
        0
370
     5
100
AcDbLine
 10
449.94384765625
 20
585.046875
 30
0.0
 11
451.09521484375
 21
585.6230468749999
 31
0.0
  0
LINE
  5
32D
330
70
100
AcDbEntity
  8
Camada 1
 62
    18
420
        0
370
     5
100
AcDbLine
 10
449.0229492187499
 20
588.04345703125
 30
0.0
 11
445.44873046875
 21
588.73486328125
 31
0.0
  0
LWPOLYLINE
  5
32E
330
70
100
AcDbEntity
  8
Camada 1
 62
    18
420
        0
370
     5
100
AcDbPolyline
 90
       11
 70
     0
 43
0.0
 10
435.8833007812499
 20
588.04345703125
 10
436.2290039062499
 20
587.0063476562499
 10
437.0356445312499
 20
586.43017578125
 10
439.1108398437499
 20
585.6230468749999
 10
441.1850585937499
 20
585.16259765625
 10
443.37353515625
 20
585.046875
 10
445.56494140625
 20
585.16259765625
 10
447.6391601562499
 20
585.6230468749999
 10
449.59912109375
 20
586.43017578125
 10
450.52099609375
 20
587.0063476562499
 10
450.8657226562499
 20
588.04345703125
  0
LINE
  5
32F
330
70
100
AcDbEntity
  8
Camada 1
 62
    18
420
        0
370
     5
100
AcDbLine
 10
449.94384765625
 20
587.4677734375
 30
0.0
 11
449.8286132812499
 21
587.92822265625
 31
0.0
  0
LINE
  5
330
330
70
100
AcDbEntity
  8
Camada 1
 62
    18
420
        0
370
     5
100
AcDbLine
 10
451.09521484375
 20
585.39306640625
 30
0.0
 11
451.32666015625
 21
586.08447265625
 31
0.0
  0
LINE
  5
331
330
70
100
AcDbEntity
  8
Camada 1
 62
    18
420
        0
370
     5
100
AcDbLine
 10
436.80517578125
 20
587.92822265625
 30
0.0
 11
436.80517578125
 21
587.4677734375
 31
0.0
  0
LINE
  5
332
330
70
100
AcDbEntity
  8
Camada 1
 62
    18
420
        0
370
     5
100
AcDbLine
 10
436.9213867187499
 20
587.92822265625
 30
0.0
 11
436.9213867187499
 21
588.04345703125
 31
0.0
  0
LINE
  5
333
330
70
100
AcDbEntity
  8
Camada 1
 62
    18
420
        0
370
     5
100
AcDbLine
 10
437.15185546875
 20
588.2744140625
 30
0.0
 11
436.9213867187499
 21
588.04345703125
 31
0.0
  0
LINE
  5
334
330
70
100
AcDbEntity
  8
Camada 1
 62
    18
420
        0
370
     5
100
AcDbLine
 10
434.1547851562499
 20
586.08447265625
 30
0.0
 11
434.38525390625
 21
585.2778320312499
 31
0.0
  0
LINE
  5
335
330
70
100
AcDbEntity
  8
Camada 1
 62
    18
420
        0
370
     5
100
AcDbLine
 10
452.59423828125
 20
586.08447265625
 30
0.0
 11
452.24853515625
 21
585.2778320312499
 31
0.0
  0
LINE
  5
336
330
70
100
AcDbEntity
  8
Camada 1
 62
    18
420
        0
370
     5
100
AcDbLine
 10
451.32666015625
 20
586.08447265625
 30
0.0
 11
451.09521484375
 21
586.7763671875
 31
0.0
  0
LINE
  5
337
330
70
100
AcDbEntity
  8
Camada 1
 62
    18
420
        0
370
     5
100
AcDbLine
 10
449.8286132812499
 20
588.04345703125
 30
0.0
 11
449.59912109375
 21
588.2744140625
 31
0.0
  0
LWPOLYLINE
  5
338
330
70
100
AcDbEntity
  8
Camada 1
 62
    18
420
        0
370
     5
100
AcDbPolyline
 90
        3
 70
     0
 43
0.0
 10
440.95458984375
 20
589.1962890624999
 10
438.87939453125
 20
588.8505859374999
 10
436.80517578125
 20
588.2744140625
  0
LWPOLYLINE
  5
339
330
70
100
AcDbEntity
  8
Camada 1
 62
    18
420
        0
370
     5
100
AcDbPolyline
 90
        3
 70
     0
 43
0.0
 10
449.0229492187499
 20
585.39306640625
 10
450.17529296875
 20
585.85302734375
 10
451.09521484375
 20
586.5458984375
  0
LWPOLYLINE
  5
33A
330
70
100
AcDbEntity
  8
Camada 1
 62
    18
420
        0
370
     5
100
AcDbPolyline
 90
        3
 70
     0
 43
0.0
 10
445.7954101562499
 20
589.1962890624999
 10
447.8706054687499
 20
588.8505859374999
 10
449.94384765625
 20
588.2744140625
  0
LINE
  5
33B
330
70
100
AcDbEntity
  8
Camada 1
 62
    18
420
        0
370
     5
100
AcDbLine
 10
434.38525390625
 20
586.89111328125
 30
0.0
 11
434.1547851562499
 21
586.08447265625
 31
0.0
  0
LWPOLYLINE
  5
33C
330
70
100
AcDbEntity
  8
Camada 1
 62
    18
420
        0
370
     5
100
AcDbPolyline
 90
        5
 70
     0
 43
0.0
 10
436.80517578125
 20
587.4677734375
 10
437.15185546875
 20
586.6611328124999
 10
437.95751953125
 20
586.19970703125
 10
439.68505859375
 20
585.6230468749999
 10
443.37353515625
 20
585.2778320312499
  0
LINE
  5
33D
330
70
100
AcDbEntity
  8
Camada 1
 62
    18
420
        0
370
     5
100
AcDbLine
 10
452.24853515625
 20
586.89111328125
 30
0.0
 11
452.59423828125
 21
586.08447265625
 31
0.0
  0
LINE
  5
33E
330
70
100
AcDbEntity
  8
Camada 1
 62
    18
420
        0
370
     5
100
AcDbLine
 10
449.8286132812499
 20
587.236328125
 30
0.0
 11
449.94384765625
 21
587.3525390624999
 31
0.0
  0
LINE
  5
33F
330
70
100
AcDbEntity
  8
Camada 1
 62
    18
420
        0
370
     5
100
AcDbLine
 10
445.44873046875
 20
583.4335937499999
 30
0.0
 11
449.0229492187499
 21
584.1254882812499
 31
0.0
  0
LINE
  5
340
330
70
100
AcDbEntity
  8
Camada 1
 62
    18
420
        0
370
     5
100
AcDbLine
 10
436.80517578125
 20
587.3525390624999
 30
0.0
 11
436.9213867187499
 21
587.236328125
 31
0.0
  0
LINE
  5
341
330
70
100
AcDbEntity
  8
Camada 1
 62
    18
420
        0
370
     5
100
AcDbLine
 10
435.4233398437499
 20
586.08447265625
 30
0.0
 11
435.65380859375
 21
585.39306640625
 31
0.0
  0
LINE
  5
342
330
70
100
AcDbEntity
  8
Camada 1
 62
    18
420
        0
370
     5
100
AcDbLine
 10
437.72607421875
 20
584.1254882812499
 30
0.0
 11
441.3002929687499
 21
583.4335937499999
 31
0.0
  0
LWPOLYLINE
  5
343
330
70
100
AcDbEntity
  8
Camada 1
 62
    18
420
        0
370
     5
100
AcDbPolyline
 90
        5
 70
     0
 43
0.0
 10
443.37353515625
 20
585.2778320312499
 10
447.06396484375
 20
585.6230468749999
 10
448.79248046875
 20
586.19970703125
 10
449.48388671875
 20
586.6611328124999
 10
449.94384765625
 20
587.4677734375
  0
LWPOLYLINE
  5
344
330
70
100
AcDbEntity
  8
Camada 1
 62
    18
420
        0
370
     5
100
AcDbPolyline
 90
       10
 70
     0
 43
0.0
 10
436.46044921875
 20
587.4677734375
 10
436.9213867187499
 20
586.6611328124999
 10
437.72607421875
 20
586.19970703125
 10
439.57177734375
 20
585.5087890624999
 10
443.37353515625
 20
585.16259765625
 10
447.17724609375
 20
585.5087890624999
 10
449.0229492187499
 20
586.19970703125
 10
449.8286132812499
 20
586.6611328124999
 10
450.2885742187499
 20
587.4677734375
 10
449.8286132812499
 20
588.2744140625
  0
LINE
  5
345
330
70
100
AcDbEntity
  8
Camada 1
 62
    18
420
        0
370
     5
100
AcDbLine
 10
436.80517578125
 20
588.2744140625
 30
0.0
 11
436.46044921875
 21
587.4677734375
 31
0.0
  0
LWPOLYLINE
  5
346
330
70
100
AcDbEntity
  8
Camada 1
 62
    18
420
        0
370
     5
100
AcDbPolyline
 90
        3
 70
     0
 43
0.0
 10
435.65380859375
 20
586.5458984375
 10
436.57470703125
 20
585.85302734375
 10
437.72607421875
 20
585.39306640625
  0
LINE
  5
347
330
70
100
AcDbEntity
  8
Camada 1
 62
    18
420
        0
370
     5
100
AcDbLine
 10
436.1157226562499
 20
587.3525390624999
 30
0.0
 11
435.65380859375
 21
587.6982421874999
 31
0.0
  0
LINE
  5
348
330
70
100
AcDbEntity
  8
Camada 1
 62
    18
420
        0
370
     5
100
AcDbLine
 10
451.09521484375
 20
587.6982421874999
 30
0.0
 11
450.6342773437499
 21
587.3525390624999
 31
0.0
  0
LWPOLYLINE
  5
349
330
70
100
AcDbEntity
  8
Camada 1
 62
    18
420
        0
370
     5
100
AcDbPolyline
 90
        5
 70
     0
 43
0.0
 10
494.20166015625
 20
326.76806640625
 10
492.1254882812499
 20
326.306640625
 10
490.05224609375
 20
326.07666015625
 10
488.09228515625
 20
326.306640625
 10
486.01708984375
 20
326.76806640625
  0
LWPOLYLINE
  5
34A
330
70
100
AcDbEntity
  8
Camada 1
 62
    18
420
        0
370
     5
100
AcDbPolyline
 90
        4
 70
     0
 43
0.0
 10
449.36669921875
 20
315.5888671875
 10
451.32666015625
 20
318.69970703125
 10
453.51611328125
 20
321.46728515625
 10
458.35791015625
 20
326.76806640625
  0
LWPOLYLINE
  5
34B
330
70
100
AcDbEntity
  8
Camada 1
 62
    18
420
        0
370
     5
100
AcDbPolyline
 90
        4
 70
     0
 43
0.0
 10
458.35791015625
 20
298.64697265625
 10
453.51611328125
 20
304.06396484375
 10
451.32666015625
 20
306.82958984375
 10
449.36669921875
 20
309.82666015625
  0
LWPOLYLINE
  5
34C
330
70
100
AcDbEntity
  8
Camada 1
 62
    18
420
        0
370
     5
100
AcDbPolyline
 90
       13
 70
     0
 43
0.0
 10
453.40185546875
 20
586.08447265625
 10
453.17041015625
 20
585.39306640625
 10
452.71044921875
 20
584.9321289062499
 10
451.55615234375
 20
584.1254882812499
 10
448.90673828125
 20
583.203125
 10
446.1411132812499
 20
582.85791015625
 10
443.37353515625
 20
582.626953125
 10
440.60693359375
 20
582.85791015625
 10
437.84228515625
 20
583.203125
 10
435.19287109375
 20
584.1254882812499
 10
434.03955078125
 20
584.9321289062499
 10
433.57763671875
 20
585.39306640625
 10
433.3481445312499
 20
586.08447265625
  0
LWPOLYLINE
  5
34D
330
70
100
AcDbEntity
  8
Camada 1
 62
    18
420
        0
370
     5
100
AcDbPolyline
 90
        8
 70
     0
 43
0.0
 10
433.92333984375
 20
586.08447265625
 10
434.03955078125
 20
586.7763671875
 10
434.50146484375
 20
587.236328125
 10
435.65380859375
 20
587.92822265625
 10
436.80517578125
 20
588.3896484374999
 10
439.1108398437499
 20
588.9658203125
 10
441.3002929687499
 20
589.31201171875
 10
441.4135742187499
 20
589.31201171875
  0
LINE
  5
34E
330
70
100
AcDbEntity
  8
Camada 1
 62
    18
420
        0
370
     5
100
AcDbLine
 10
445.21923828125
 20
589.31201171875
 30
0.0
 11
445.21923828125
 21
589.4272460937499
 31
0.0
  0
LWPOLYLINE
  5
34F
330
70
100
AcDbEntity
  8
Camada 1
 62
    18
420
        0
370
     5
100
AcDbPolyline
 90
        7
 70
     0
 43
0.0
 10
445.33447265625
 20
589.31201171875
 10
447.6391601562499
 20
588.9658203125
 10
449.94384765625
 20
588.3896484374999
 10
451.09521484375
 20
587.92822265625
 10
452.24853515625
 20
587.236328125
 10
452.59423828125
 20
586.7763671875
 10
452.82470703125
 20
586.08447265625
  0
LWPOLYLINE
  5
350
330
70
100
AcDbEntity
  8
Camada 1
 62
    18
420
        0
370
     5
100
AcDbPolyline
 90
       13
 70
     0
 43
0.0
 10
453.40185546875
 20
586.08447265625
 10
453.17041015625
 20
586.7763671875
 10
452.71044921875
 20
587.236328125
 10
451.55615234375
 20
588.04345703125
 10
448.90673828125
 20
588.9658203125
 10
446.1411132812499
 20
589.31201171875
 10
443.37353515625
 20
589.5424804687499
 10
440.60693359375
 20
589.31201171875
 10
437.84228515625
 20
588.9658203125
 10
435.19287109375
 20
588.04345703125
 10
434.03955078125
 20
587.236328125
 10
433.57763671875
 20
586.7763671875
 10
433.3481445312499
 20
586.08447265625
  0
LWPOLYLINE
  5
351
330
70
100
AcDbEntity
  8
Camada 1
 62
    18
420
        0
370
     5
100
AcDbPolyline
 90
       11
 70
     0
 43
0.0
 10
452.82470703125
 20
586.08447265625
 10
452.47998046875
 20
585.16259765625
 10
451.21044921875
 20
584.24072265625
 10
449.94384765625
 20
583.7802734374999
 10
446.71630859375
 20
583.08740234375
 10
443.37353515625
 20
582.85791015625
 10
440.03271484375
 20
583.08740234375
 10
436.80517578125
 20
583.7802734374999
 10
435.4233398437499
 20
584.24072265625
 10
434.27001953125
 20
585.16259765625
 10
433.92333984375
 20
586.08447265625
  0
LINE
  5
352
330
70
100
AcDbEntity
  8
Camada 1
 62
    18
420
        0
370
     5
100
AcDbLine
 10
96.35205078125
 20
644.056640625
 30
0.0
 11
105.45751953125
 21
648.31982421875
 31
0.0
  0
LINE
  5
353
330
70
100
AcDbEntity
  8
Camada 1
 62
    18
420
        0
370
     5
100
AcDbLine
 10
471.3813476562499
 20
298.64697265625
 30
0.0
 11
458.35791015625
 21
298.64697265625
 31
0.0
  0
LINE
  5
354
330
70
100
AcDbEntity
  8
Camada 1
 62
    18
420
        0
370
     5
100
AcDbLine
 10
98.65771484375001
 20
629.53466796875
 30
0.0
 11
94.50732421875001
 21
638.75439453125
 31
0.0
  0
LINE
  5
355
330
70
100
AcDbEntity
  8
Camada 1
 62
    18
420
        0
370
     5
100
AcDbLine
 10
463.54345703125
 20
231.45458984375
 30
0.0
 11
455.9360351562499
 21
231.45458984375
 31
0.0
  0
LINE
  5
356
330
70
100
AcDbEntity
  8
Camada 1
 62
    18
420
        0
370
     5
100
AcDbLine
 10
423.66650390625
 20
230.53271484375
 30
0.0
 11
463.54345703125
 21
230.53271484375
 31
0.0
  0
LINE
  5
357
330
70
100
AcDbEntity
  8
Camada 1
 62
    18
420
        0
370
     5
100
AcDbLine
 10
442.79833984375
 20
231.45458984375
 30
0.0
 11
441.76123046875
 21
231.45458984375
 31
0.0
  0
LINE
  5
358
330
70
100
AcDbEntity
  8
Camada 1
 62
    18
420
        0
370
     5
100
AcDbLine
 10
423.66650390625
 20
231.45458984375
 30
0.0
 11
441.76123046875
 21
231.45458984375
 31
0.0
  0
LINE
  5
359
330
70
100
AcDbEntity
  8
Camada 1
 62
    18
420
        0
370
     5
100
AcDbLine
 10
442.79833984375
 20
231.45458984375
 30
0.0
 11
444.4125976562499
 21
231.45458984375
 31
0.0
  0
LINE
  5
35A
330
70
100
AcDbEntity
  8
Camada 1
 62
    18
420
        0
370
     5
100
AcDbLine
 10
455.9360351562499
 20
231.45458984375
 30
0.0
 11
444.4125976562499
 21
231.45458984375
 31
0.0
  0
LINE
  5
35B
330
70
100
AcDbEntity
  8
Camada 1
 62
    18
420
        0
370
     5
100
AcDbLine
 10
441.6450195312499
 20
240.09814453125
 30
0.0
 11
441.76123046875
 21
231.45458984375
 31
0.0
  0
LINE
  5
35C
330
70
100
AcDbEntity
  8
Camada 1
 62
    18
420
        0
370
     5
100
AcDbLine
 10
431.27490234375
 20
237.56298828125
 30
0.0
 11
431.27490234375
 21
231.45458984375
 31
0.0
  0
LINE
  5
35D
330
70
100
AcDbEntity
  8
Camada 1
 62
    18
420
        0
370
     5
100
AcDbLine
 10
433.3481445312499
 20
246.09130859375
 30
0.0
 11
433.3481445312499
 21
267.75732421875
 31
0.0
  0
LINE
  5
35E
330
70
100
AcDbEntity
  8
Camada 1
 62
    18
420
        0
370
     5
100
AcDbLine
 10
424.35791015625
 20
244.13232421875
 30
0.0
 11
424.35791015625
 21
246.09130859375
 31
0.0
  0
LINE
  5
35F
330
70
100
AcDbEntity
  8
Camada 1
 62
    18
420
        0
370
     5
100
AcDbLine
 10
423.66650390625
 20
230.53271484375
 30
0.0
 11
423.66650390625
 21
240.09814453125
 31
0.0
  0
LINE
  5
360
330
70
100
AcDbEntity
  8
Camada 1
 62
    18
420
        0
370
     5
100
AcDbLine
 10
422.6303710937499
 20
231.45458984375
 30
0.0
 11
422.6303710937499
 21
240.09814453125
 31
0.0
  0
LINE
  5
361
330
70
100
AcDbEntity
  8
Camada 1
 62
    18
420
        0
370
     5
100
AcDbLine
 10
421.9389648437499
 20
244.13232421875
 30
0.0
 11
421.9389648437499
 21
240.09814453125
 31
0.0
  0
LINE
  5
362
330
70
100
AcDbEntity
  8
Camada 1
 62
    18
420
        0
370
     5
100
AcDbLine
 10
424.35791015625
 20
246.09130859375
 30
0.0
 11
462.85205078125
 21
246.09130859375
 31
0.0
  0
LINE
  5
363
330
70
100
AcDbEntity
  8
Camada 1
 62
    18
420
        0
370
     5
100
AcDbLine
 10
465.38720703125
 20
244.13232421875
 30
0.0
 11
421.9389648437499
 21
244.13232421875
 31
0.0
  0
LINE
  5
364
330
70
100
AcDbEntity
  8
Camada 1
 62
    18
420
        0
370
     5
100
AcDbLine
 10
465.38720703125
 20
240.09814453125
 30
0.0
 11
421.9389648437499
 21
240.09814453125
 31
0.0
  0
LINE
  5
365
330
70
100
AcDbEntity
  8
Camada 1
 62
    18
420
        0
370
     5
100
AcDbLine
 10
441.6450195312499
 20
237.56298828125
 30
0.0
 11
426.89306640625
 21
237.56298828125
 31
0.0
  0
LINE
  5
366
330
70
100
AcDbEntity
  8
Camada 1
 62
    18
420
        0
370
     5
100
AcDbLine
 10
460.31689453125
 20
237.56298828125
 30
0.0
 11
445.56494140625
 21
237.56298828125
 31
0.0
  0
LWPOLYLINE
  5
367
330
70
100
AcDbEntity
  8
Camada 1
 62
    18
420
        0
370
     5
100
AcDbPolyline
 90
        3
 70
     0
 43
0.0
 10
442.56689453125
 20
240.09814453125
 10
442.79833984375
 20
231.45458984375
 10
442.79833984375
 20
230.53271484375
  0
LWPOLYLINE
  5
368
330
70
100
AcDbEntity
  8
Camada 1
 62
    18
420
        0
370
     5
100
AcDbPolyline
 90
        3
 70
     0
 43
0.0
 10
444.4125976562499
 20
230.53271484375
 10
444.4125976562499
 20
231.45458984375
 10
444.64306640625
 20
240.09814453125
  0
LINE
  5
369
330
70
100
AcDbEntity
  8
Camada 1
 62
    18
420
        0
370
     5
100
AcDbLine
 10
465.38720703125
 20
244.13232421875
 30
0.0
 11
465.38720703125
 21
240.09814453125
 31
0.0
  0
LINE
  5
36A
330
70
100
AcDbEntity
  8
Camada 1
 62
    18
420
        0
370
     5
100
AcDbLine
 10
464.58056640625
 20
231.45458984375
 30
0.0
 11
464.58056640625
 21
240.09814453125
 31
0.0
  0
LINE
  5
36B
330
70
100
AcDbEntity
  8
Camada 1
 62
    18
420
        0
370
     5
100
AcDbLine
 10
463.54345703125
 20
230.53271484375
 30
0.0
 11
463.54345703125
 21
240.09814453125
 31
0.0
  0
LINE
  5
36C
330
70
100
AcDbEntity
  8
Camada 1
 62
    18
420
        0
370
     5
100
AcDbLine
 10
462.85205078125
 20
244.13232421875
 30
0.0
 11
462.85205078125
 21
246.09130859375
 31
0.0
  0
LINE
  5
36D
330
70
100
AcDbEntity
  8
Camada 1
 62
    18
420
        0
370
     5
100
AcDbLine
 10
453.86279296875
 20
246.09130859375
 30
0.0
 11
453.86279296875
 21
267.75732421875
 31
0.0
  0
LINE
  5
36E
330
70
100
AcDbEntity
  8
Camada 1
 62
    18
420
        0
370
     5
100
AcDbLine
 10
455.9360351562499
 20
237.56298828125
 30
0.0
 11
455.9360351562499
 21
231.45458984375
 31
0.0
  0
LINE
  5
36F
330
70
100
AcDbEntity
  8
Camada 1
 62
    18
420
        0
370
     5
100
AcDbLine
 10
445.44873046875
 20
231.45458984375
 30
0.0
 11
445.56494140625
 21
240.09814453125
 31
0.0
  0
LWPOLYLINE
  5
370
330
70
100
AcDbEntity
  8
Camada 1
 62
    18
420
        0
370
     5
100
AcDbPolyline
 90
        4
 70
     0
 43
0.0
 10
441.76123046875
 20
231.45458984375
 10
441.87646484375
 20
230.99462890625
 10
442.22216796875
 20
230.64697265625
 10
442.79833984375
 20
230.53271484375
  0
LWPOLYLINE
  5
371
330
70
100
AcDbEntity
  8
Camada 1
 62
    18
420
        0
370
     5
100
AcDbPolyline
 90
        4
 70
     0
 43
0.0
 10
422.6303710937499
 20
231.45458984375
 10
422.7446289062499
 20
230.99462890625
 10
423.0913085937499
 20
230.64697265625
 10
423.66650390625
 20
230.53271484375
  0
LINE
  5
372
330
70
100
AcDbEntity
  8
Camada 1
 62
    18
420
        0
370
     5
100
AcDbLine
 10
431.27490234375
 20
231.45458984375
 30
0.0
 11
431.27490234375
 21
231.56884765625
 31
0.0
  0
LWPOLYLINE
  5
373
330
70
100
AcDbEntity
  8
Camada 1
 62
    18
420
        0
370
     5
100
AcDbPolyline
 90
        4
 70
     0
 43
0.0
 10
444.4125976562499
 20
230.53271484375
 10
444.98779296875
 20
230.64697265625
 10
445.33447265625
 20
230.99462890625
 10
445.44873046875
 20
231.45458984375
  0
LWPOLYLINE
  5
374
330
70
100
AcDbEntity
  8
Camada 1
 62
    18
420
        0
370
     5
100
AcDbPolyline
 90
        4
 70
     0
 43
0.0
 10
463.54345703125
 20
230.53271484375
 10
464.11962890625
 20
230.64697265625
 10
464.4643554687499
 20
230.99462890625
 10
464.58056640625
 20
231.45458984375
  0
LINE
  5
375
330
70
100
AcDbEntity
  8
Camada 1
 62
    18
420
        0
370
     5
100
AcDbLine
 10
463.54345703125
 20
231.45458984375
 30
0.0
 11
464.58056640625
 21
231.45458984375
 31
0.0
  0
LINE
  5
376
330
70
100
AcDbEntity
  8
Camada 1
 62
    18
420
        0
370
     5
100
AcDbLine
 10
422.6303710937499
 20
231.45458984375
 30
0.0
 11
423.66650390625
 21
231.45458984375
 31
0.0
  0
LINE
  5
377
330
70
100
AcDbEntity
  8
Camada 1
 62
    18
420
        0
370
     5
100
AcDbLine
 10
455.9360351562499
 20
231.45458984375
 30
0.0
 11
455.9360351562499
 21
231.56884765625
 31
0.0
  0
LWPOLYLINE
  5
378
330
70
100
AcDbEntity
  8
Camada 1
 62
    18
420
        0
370
     5
100
AcDbPolyline
 90
        5
 70
     0
 43
0.0
 10
462.73681640625
 20
240.09814453125
 10
462.6206054687499
 20
239.17724609375
 10
462.04541015625
 20
238.37060546875
 10
461.23876953125
 20
237.79443359375
 10
460.31689453125
 20
237.56298828125
  0
LWPOLYLINE
  5
379
330
70
100
AcDbEntity
  8
Camada 1
 62
    18
420
        0
370
     5
100
AcDbPolyline
 90
        5
 70
     0
 43
0.0
 10
426.89306640625
 20
237.56298828125
 10
425.9721679687499
 20
237.79443359375
 10
425.16455078125
 20
238.37060546875
 10
424.58935546875
 20
239.17724609375
 10
424.4741210937499
 20
240.09814453125
  0
LWPOLYLINE
  5
37A
330
70
100
AcDbEntity
  8
Camada 1
 62
    18
420
        0
370
     5
100
AcDbPolyline
 90
        3
 70
     0
 43
0.0
 10
455.9360351562499
 20
231.45458984375
 10
455.70654296875
 20
230.76220703125
 10
455.01513671875
 20
230.53271484375
  0
LWPOLYLINE
  5
37B
330
70
100
AcDbEntity
  8
Camada 1
 62
    18
420
        0
370
     5
100
AcDbPolyline
 90
        3
 70
     0
 43
0.0
 10
432.19482421875
 20
230.53271484375
 10
431.50439453125
 20
230.76220703125
 10
431.27490234375
 20
231.45458984375
  0
LINE
  5
37C
330
70
100
AcDbEntity
  8
Camada 1
 62
    18
420
        0
370
     5
100
AcDbLine
 10
277.52685546875
 20
231.45458984375
 30
0.0
 11
269.80712890625
 21
231.45458984375
 31
0.0
  0
LINE
  5
37D
330
70
100
AcDbEntity
  8
Camada 1
 62
    18
420
        0
370
     5
100
AcDbLine
 10
237.53466796875
 20
230.53271484375
 30
0.0
 11
277.52685546875
 21
230.53271484375
 31
0.0
  0
LINE
  5
37E
330
70
100
AcDbEntity
  8
Camada 1
 62
    18
420
        0
370
     5
100
AcDbLine
 10
256.66748046875
 20
231.45458984375
 30
0.0
 11
255.62939453125
 21
231.45458984375
 31
0.0
  0
LINE
  5
37F
330
70
100
AcDbEntity
  8
Camada 1
 62
    18
420
        0
370
     5
100
AcDbLine
 10
237.53466796875
 20
231.45458984375
 30
0.0
 11
255.62939453125
 21
231.45458984375
 31
0.0
  0
LINE
  5
380
330
70
100
AcDbEntity
  8
Camada 1
 62
    18
420
        0
370
     5
100
AcDbLine
 10
256.66748046875
 20
231.45458984375
 30
0.0
 11
258.39501953125
 21
231.45458984375
 31
0.0
  0
LINE
  5
381
330
70
100
AcDbEntity
  8
Camada 1
 62
    18
420
        0
370
     5
100
AcDbLine
 10
269.80712890625
 20
231.45458984375
 30
0.0
 11
258.39501953125
 21
231.45458984375
 31
0.0
  0
LINE
  5
382
330
70
100
AcDbEntity
  8
Camada 1
 62
    18
420
        0
370
     5
100
AcDbLine
 10
255.51416015625
 20
240.09814453125
 30
0.0
 11
255.62939453125
 21
231.45458984375
 31
0.0
  0
LINE
  5
383
330
70
100
AcDbEntity
  8
Camada 1
 62
    18
420
        0
370
     5
100
AcDbLine
 10
245.14208984375
 20
237.56298828125
 30
0.0
 11
245.14208984375
 21
231.45458984375
 31
0.0
  0
LINE
  5
384
330
70
100
AcDbEntity
  8
Camada 1
 62
    18
420
        0
370
     5
100
AcDbLine
 10
247.21630859375
 20
246.09130859375
 30
0.0
 11
247.21630859375
 21
267.75732421875
 31
0.0
  0
LINE
  5
385
330
70
100
AcDbEntity
  8
Camada 1
 62
    18
420
        0
370
     5
100
AcDbLine
 10
238.22705078125
 20
244.13232421875
 30
0.0
 11
238.22705078125
 21
246.09130859375
 31
0.0
  0
LINE
  5
386
330
70
100
AcDbEntity
  8
Camada 1
 62
    18
420
        0
370
     5
100
AcDbLine
 10
237.53466796875
 20
230.53271484375
 30
0.0
 11
237.53466796875
 21
240.09814453125
 31
0.0
  0
LINE
  5
387
330
70
100
AcDbEntity
  8
Camada 1
 62
    18
420
        0
370
     5
100
AcDbLine
 10
236.49755859375
 20
231.45458984375
 30
0.0
 11
236.49755859375
 21
240.09814453125
 31
0.0
  0
LINE
  5
388
330
70
100
AcDbEntity
  8
Camada 1
 62
    18
420
        0
370
     5
100
AcDbLine
 10
235.806640625
 20
244.13232421875
 30
0.0
 11
235.806640625
 21
240.09814453125
 31
0.0
  0
LINE
  5
389
330
70
100
AcDbEntity
  8
Camada 1
 62
    18
420
        0
370
     5
100
AcDbLine
 10
238.22705078125
 20
246.09130859375
 30
0.0
 11
276.72021484375
 21
246.09130859375
 31
0.0
  0
LINE
  5
38A
330
70
100
AcDbEntity
  8
Camada 1
 62
    18
420
        0
370
     5
100
AcDbLine
 10
279.25732421875
 20
244.13232421875
 30
0.0
 11
235.806640625
 21
244.13232421875
 31
0.0
  0
LINE
  5
38B
330
70
100
AcDbEntity
  8
Camada 1
 62
    18
420
        0
370
     5
100
AcDbLine
 10
279.25732421875
 20
240.09814453125
 30
0.0
 11
235.806640625
 21
240.09814453125
 31
0.0
  0
LINE
  5
38C
330
70
100
AcDbEntity
  8
Camada 1
 62
    18
420
        0
370
     5
100
AcDbLine
 10
255.51416015625
 20
237.56298828125
 30
0.0
 11
240.87939453125
 21
237.56298828125
 31
0.0
  0
LINE
  5
38D
330
70
100
AcDbEntity
  8
Camada 1
 62
    18
420
        0
370
     5
100
AcDbLine
 10
274.18603515625
 20
237.56298828125
 30
0.0
 11
259.43310546875
 21
237.56298828125
 31
0.0
  0
LWPOLYLINE
  5
38E
330
70
100
AcDbEntity
  8
Camada 1
 62
    18
420
        0
370
     5
100
AcDbPolyline
 90
        3
 70
     0
 43
0.0
 10
256.55224609375
 20
240.09814453125
 10
256.66748046875
 20
231.45458984375
 10
256.66748046875
 20
230.53271484375
  0
LWPOLYLINE
  5
38F
330
70
100
AcDbEntity
  8
Camada 1
 62
    18
420
        0
370
     5
100
AcDbPolyline
 90
        3
 70
     0
 43
0.0
 10
258.39501953125
 20
230.53271484375
 10
258.39501953125
 20
231.45458984375
 10
258.51220703125
 20
240.09814453125
  0
LINE
  5
390
330
70
100
AcDbEntity
  8
Camada 1
 62
    18
420
        0
370
     5
100
AcDbLine
 10
279.25732421875
 20
244.13232421875
 30
0.0
 11
279.25732421875
 21
240.09814453125
 31
0.0
  0
LINE
  5
391
330
70
100
AcDbEntity
  8
Camada 1
 62
    18
420
        0
370
     5
100
AcDbLine
 10
278.44970703125
 20
231.45458984375
 30
0.0
 11
278.44970703125
 21
240.09814453125
 31
0.0
  0
LINE
  5
392
330
70
100
AcDbEntity
  8
Camada 1
 62
    18
420
        0
370
     5
100
AcDbLine
 10
277.52685546875
 20
230.53271484375
 30
0.0
 11
277.52685546875
 21
240.09814453125
 31
0.0
  0
LINE
  5
393
330
70
100
AcDbEntity
  8
Camada 1
 62
    18
420
        0
370
     5
100
AcDbLine
 10
276.72021484375
 20
244.13232421875
 30
0.0
 11
276.72021484375
 21
246.09130859375
 31
0.0
  0
LINE
  5
394
330
70
100
AcDbEntity
  8
Camada 1
 62
    18
420
        0
370
     5
100
AcDbLine
 10
267.73193359375
 20
246.09130859375
 30
0.0
 11
267.73193359375
 21
267.75732421875
 31
0.0
  0
LINE
  5
395
330
70
100
AcDbEntity
  8
Camada 1
 62
    18
420
        0
370
     5
100
AcDbLine
 10
269.80712890625
 20
237.56298828125
 30
0.0
 11
269.80712890625
 21
231.45458984375
 31
0.0
  0
LINE
  5
396
330
70
100
AcDbEntity
  8
Camada 1
 62
    18
420
        0
370
     5
100
AcDbLine
 10
259.31787109375
 20
231.45458984375
 30
0.0
 11
259.54736328125
 21
240.09814453125
 31
0.0
  0
LWPOLYLINE
  5
397
330
70
100
AcDbEntity
  8
Camada 1
 62
    18
420
        0
370
     5
100
AcDbPolyline
 90
        4
 70
     0
 43
0.0
 10
255.62939453125
 20
231.45458984375
 10
255.74560546875
 20
230.99462890625
 10
256.20751953125
 20
230.64697265625
 10
256.66748046875
 20
230.53271484375
  0
LWPOLYLINE
  5
398
330
70
100
AcDbEntity
  8
Camada 1
 62
    18
420
        0
370
     5
100
AcDbPolyline
 90
        4
 70
     0
 43
0.0
 10
236.49755859375
 20
231.45458984375
 10
236.61279296875
 20
230.99462890625
 10
237.07275390625
 20
230.64697265625
 10
237.53466796875
 20
230.53271484375
  0
LINE
  5
399
330
70
100
AcDbEntity
  8
Camada 1
 62
    18
420
        0
370
     5
100
AcDbLine
 10
245.14208984375
 20
231.45458984375
 30
0.0
 11
245.14208984375
 21
231.56884765625
 31
0.0
  0
LWPOLYLINE
  5
39A
330
70
100
AcDbEntity
  8
Camada 1
 62
    18
420
        0
370
     5
100
AcDbPolyline
 90
        4
 70
     0
 43
0.0
 10
258.39501953125
 20
230.53271484375
 10
258.85791015625
 20
230.64697265625
 10
259.20263671875
 20
230.99462890625
 10
259.31787109375
 20
231.45458984375
  0
LWPOLYLINE
  5
39B
330
70
100
AcDbEntity
  8
Camada 1
 62
    18
420
        0
370
     5
100
AcDbPolyline
 90
        4
 70
     0
 43
0.0
 10
277.52685546875
 20
230.53271484375
 10
277.98876953125
 20
230.64697265625
 10
278.33544921875
 20
230.99462890625
 10
278.44970703125
 20
231.45458984375
  0
LINE
  5
39C
330
70
100
AcDbEntity
  8
Camada 1
 62
    18
420
        0
370
     5
100
AcDbLine
 10
277.52685546875
 20
231.45458984375
 30
0.0
 11
278.44970703125
 21
231.45458984375
 31
0.0
  0
LINE
  5
39D
330
70
100
AcDbEntity
  8
Camada 1
 62
    18
420
        0
370
     5
100
AcDbLine
 10
236.49755859375
 20
231.45458984375
 30
0.0
 11
237.53466796875
 21
231.45458984375
 31
0.0
  0
LINE
  5
39E
330
70
100
AcDbEntity
  8
Camada 1
 62
    18
420
        0
370
     5
100
AcDbLine
 10
269.80712890625
 20
231.45458984375
 30
0.0
 11
269.80712890625
 21
231.56884765625
 31
0.0
  0
LWPOLYLINE
  5
39F
330
70
100
AcDbEntity
  8
Camada 1
 62
    18
420
        0
370
     5
100
AcDbPolyline
 90
        5
 70
     0
 43
0.0
 10
276.72021484375
 20
240.09814453125
 10
276.49072265625
 20
239.17724609375
 10
275.91357421875
 20
238.37060546875
 10
275.10791015625
 20
237.79443359375
 10
274.18603515625
 20
237.56298828125
  0
LWPOLYLINE
  5
3A0
330
70
100
AcDbEntity
  8
Camada 1
 62
    18
420
        0
370
     5
100
AcDbPolyline
 90
        5
 70
     0
 43
0.0
 10
240.87939453125
 20
237.56298828125
 10
239.84033203125
 20
237.79443359375
 10
239.03271484375
 20
238.37060546875
 10
238.57275390625
 20
239.17724609375
 10
238.34130859375
 20
240.09814453125
  0
LWPOLYLINE
  5
3A1
330
70
100
AcDbEntity
  8
Camada 1
 62
    18
420
        0
370
     5
100
AcDbPolyline
 90
        3
 70
     0
 43
0.0
 10
269.80712890625
 20
231.45458984375
 10
269.57568359375
 20
230.76220703125
 10
268.99951171875
 20
230.53271484375
  0
LWPOLYLINE
  5
3A2
330
70
100
AcDbEntity
  8
Camada 1
 62
    18
420
        0
370
     5
100
AcDbPolyline
 90
        3
 70
     0
 43
0.0
 10
246.06396484375
 20
230.53271484375
 10
245.37255859375
 20
230.76220703125
 10
245.14208984375
 20
231.45458984375
  0
LINE
  5
3A3
330
70
100
AcDbEntity
  8
Camada 1
 62
    18
420
        0
370
     5
100
AcDbLine
 10
240.53173828125
 20
267.75732421875
 30
0.0
 11
240.53173828125
 21
271.79345703125
 31
0.0
  0
LWPOLYLINE
  5
3A4
330
70
100
AcDbEntity
  8
Camada 1
 62
    18
420
        0
370
     5
100
AcDbPolyline
 90
        3
 70
     0
 43
0.0
 10
274.53076171875
 20
271.79345703125
 10
274.53076171875
 20
267.75732421875
 10
240.53173828125
 20
267.75732421875
  0
LINE
  5
3A5
330
70
100
AcDbEntity
  8
Camada 1
 62
    18
420
        0
370
     5
100
AcDbLine
 10
426.6635742187499
 20
267.75732421875
 30
0.0
 11
426.6635742187499
 21
271.79345703125
 31
0.0
  0
LWPOLYLINE
  5
3A6
330
70
100
AcDbEntity
  8
Camada 1
 62
    18
420
        0
370
     5
100
AcDbPolyline
 90
        3
 70
     0
 43
0.0
 10
460.6635742187499
 20
271.79345703125
 10
460.6635742187499
 20
267.75732421875
 10
426.6635742187499
 20
267.75732421875
  0
LINE
  5
3A7
330
70
100
AcDbEntity
  8
Camada 1
 62
    18
420
        0
370
    35
100
AcDbLine
 10
72.14892578125
 20
297.06494140625
 30
0.0
 11
72.14892578125
 21
297.06494140625
 31
0.0
  0
LINE
  5
3A8
330
70
100
AcDbEntity
  8
Camada 1
 62
    18
420
        0
370
    35
100
AcDbLine
 10
257.24365234375
 20
297.06494140625
 30
0.0
 11
257.24365234375
 21
297.06494140625
 31
0.0
  0
ENDSEC
  0
SECTION
  2
OBJECTS
  0
DICTIONARY
  5
C
330
0
100
AcDbDictionary
281
     1
  3
ACAD_COLOR
350
63
  3
ACAD_DETAILVIEWSTYLE
350
6A
  3
ACAD_GROUP
350
D
  3
ACAD_LAYOUT
350
62
  3
ACAD_MATERIAL
350
10
  3
ACAD_MLEADERSTYLE
350
66
  3
ACAD_MLINESTYLE
350
5F
  3
ACAD_PLOTSETTINGS
350
61
  3
ACAD_PLOTSTYLENAME
350
E
  3
ACAD_SCALELIST
350
42
  3
ACAD_SECTIONVIEWSTYLE
350
68
  3
ACAD_TABLESTYLE
350
64
  3
ACAD_VISUALSTYLE
350
29
  3
ACDB_RECOMPOSE_DATA
350
3B1
  3
AcDbVariableDictionary
350
3A9
  0
DICTIONARY
  5
63
102
{ACAD_REACTORS
330
C
102
}
330
C
100
AcDbDictionary
281
     1
  0
DICTIONARY
  5
6A
102
{ACAD_REACTORS
330
C
102
}
330
C
100
AcDbDictionary
281
     1
  3
Imperial24
350
6B
  0
DICTIONARY
  5
D
102
{ACAD_REACTORS
330
C
102
}
330
C
100
AcDbDictionary
281
     1
  0
DICTIONARY
  5
62
102
{ACAD_REACTORS
330
C
102
}
330
C
100
AcDbDictionary
281
     1
  3
Layout1
350
6F
  3
Layout2
350
77
  3
Model
350
73
  0
DICTIONARY
  5
10
102
{ACAD_REACTORS
330
C
102
}
330
C
100
AcDbDictionary
281
     1
  3
ByBlock
350
19
  3
ByLayer
350
11
  3
Global
350
21
  0
DICTIONARY
  5
66
102
{ACAD_REACTORS
330
C
102
}
330
C
100
AcDbDictionary
281
     1
  3
Standard
350
67
  0
DICTIONARY
  5
5F
102
{ACAD_REACTORS
330
C
102
}
330
C
100
AcDbDictionary
281
     1
  3
Standard
350
60
  0
DICTIONARY
  5
61
102
{ACAD_REACTORS
330
C
102
}
330
C
100
AcDbDictionary
281
     1
  0
ACDBDICTIONARYWDFLT
  5
E
102
{ACAD_REACTORS
330
C
102
}
330
C
100
AcDbDictionary
281
     1
  3
Normal
350
F
100
AcDbDictionaryWithDefault
340
F
  0
DICTIONARY
  5
42
102
{ACAD_REACTORS
330
C
102
}
330
C
100
AcDbDictionary
281
     1
  3
A0
350
43
  3
A1
350
44
  3
A2
350
45
  3
A3
350
46
  3
A4
350
47
  3
A5
350
48
  3
A6
350
49
  3
A7
350
4A
  3
A8
350
4B
  3
A9
350
4C
  3
B0
350
4D
  3
B1
350
4E
  3
B2
350
4F
  3
B3
350
50
  3
B4
350
51
  3
B5
350
52
  3
B6
350
53
  0
DICTIONARY
  5
68
102
{ACAD_REACTORS
330
C
102
}
330
C
100
AcDbDictionary
281
     1
  3
Imperial24
350
69
  0
DICTIONARY
  5
64
102
{ACAD_REACTORS
330
C
102
}
330
C
100
AcDbDictionary
281
     1
  3
Standard
350
65
  0
DICTIONARY
  5
29
102
{ACAD_REACTORS
330
C
102
}
330
C
100
AcDbDictionary
281
     1
  3
2dWireframe
350
2F
  3
Basic
350
2E
  3
Brighten
350
35
  3
ColorChange
350
39
  3
Conceptual
350
32
  3
Dim
350
34
  3
EdgeColorOff
350
41
  3
Facepattern
350
38
  3
Flat
350
2A
  3
FlatWithEdges
350
2B
  3
Gouraud
350
2C
  3
GouraudWithEdges
350
2D
  3
Hidden
350
31
  3
JitterOff
350
3F
  3
Linepattern
350
37
  3
OverhangOff
350
40
  3
Realistic
350
33
  3
Shaded
350
3E
  3
Shaded with edges
350
3D
  3
Shades of Gray
350
3A
  3
Sketchy
350
3B
  3
Thicken
350
36
  3
Wireframe
350
30
  3
X-Ray
350
3C
  0
XRECORD
  5
3B1
102
{ACAD_REACTORS
330
C
102
}
330
C
100
AcDbXrecord
280
     1
 90
        1
330
65
  0
DICTIONARY
  5
3A9
102
{ACAD_REACTORS
330
C
102
}
330
C
100
AcDbDictionary
281
     1
  3
CANNOSCALE
350
3AE
  3
CMLEADERSTYLE
350
3AB
  3
CTABLESTYLE
350
3AA
  3
CVIEWDETAILSTYLE
350
3AC
  3
CVIEWSECTIONSTYLE
350
3AD
  0
ACDBDETAILVIEWSTYLE
  5
6B
102
{ACAD_REACTORS
330
6A
102
}
330
6A
100
AcDbModelDocViewStyle
 70
     0
  3
Imperial24
290
     1
300
Imperial24
 90
        0
100
AcDbDetailViewStyle
 70
     0
 71
     0
 90
        3
 71
     1
340
55
 62
   256
 40
0.24
340
0
 62
   256
 40
0.24
300

 40
0.36
280
     3
 71
     2
340
5D
 90
       25
 62
   256
 71
     3
340
55
 62
   256
 40
0.24
 90
        1
 40
0.75
 90
        1
300
%<\AcVar ViewType \f "%tc1">% %<\AcVar ViewDetailId>%\PSCALE %<\AcVar ViewScale \f "%sn">%
 71
     4
340
5D
 90
       25
 62
   256
340
5D
 90
       25
 62
   256
280
     0
  0
LAYOUT
  5
6F
102
{ACAD_REACTORS
330
62
102
}
330
62
100
AcDbPlotSettings
  1

  2

  4

  6

 40
0.0
 41
0.0
 42
0.0
 43
0.0
 44
0.0
 45
0.0
 46
0.0
 47
0.0
 48
0.0
 49
0.0
140
0.0
141
0.0
142
1.0
143
1.0
 70
   688
 72
     0
 73
     0
 74
     5
  7

 75
    16
147
1.0
 76
     0
 77
     2
 78
   300
148
0.0
149
0.0
100
AcDbLayout
  1
Layout1
 70
     1
 71
     1
 10
0.0
 20
0.0
 11
12.0
 21
9.0
 12
0.0
 22
0.0
 32
0.0
 14
0.0
 24
0.0
 34
0.0
 15
0.0
 25
0.0
 35
0.0
146
0.0
 13
0.0
 23
0.0
 33
0.0
 16
1.0
 26
0.0
 36
0.0
 17
0.0
 27
1.0
 37
0.0
 76
     0
330
6C
  0
LAYOUT
  5
77
102
{ACAD_REACTORS
330
62
102
}
330
62
100
AcDbPlotSettings
  1

  2

  4

  6

 40
0.0
 41
0.0
 42
0.0
 43
0.0
 44
0.0
 45
0.0
 46
0.0
 47
0.0
 48
0.0
 49
0.0
140
0.0
141
0.0
142
1.0
143
1.0
 70
   688
 72
     0
 73
     0
 74
     5
  7

 75
    16
147
1.0
 76
     0
 77
     2
 78
   300
148
0.0
149
0.0
100
AcDbLayout
  1
Layout2
 70
     1
 71
     2
 10
0.0
 20
0.0
 11
12.0
 21
9.0
 12
0.0
 22
0.0
 32
0.0
 14
0.0
 24
0.0
 34
0.0
 15
0.0
 25
0.0
 35
0.0
146
0.0
 13
0.0
 23
0.0
 33
0.0
 16
1.0
 26
0.0
 36
0.0
 17
0.0
 27
1.0
 37
0.0
 76
     0
330
74
  0
LAYOUT
  5
73
102
{ACAD_REACTORS
330
62
102
}
330
62
100
AcDbPlotSettings
  1

  2

  4

  6

 40
0.0
 41
0.0
 42
0.0
 43
0.0
 44
0.0
 45
0.0
 46
0.0
 47
0.0
 48
0.0
 49
0.0
140
0.0
141
0.0
142
1.0
143
1.0
 70
  1712
 72
     0
 73
     0
 74
     0
  7

 75
     0
147
1.0
 76
     0
 77
     2
 78
   300
148
0.0
149
0.0
100
AcDbLayout
  1
Model
 70
     1
 71
     0
 10
0.0
 20
0.0
 11
12.0
 21
9.0
 12
0.0
 22
0.0
 32
0.0
 14
0.0
 24
0.0
 34
0.0
 15
0.0
 25
0.0
 35
0.0
146
0.0
 13
0.0
 23
0.0
 33
0.0
 16
1.0
 26
0.0
 36
0.0
 17
0.0
 27
1.0
 37
0.0
 76
     0
330
70
  0
MATERIAL
  5
19
102
{ACAD_XDICTIONARY
360
1A
102
}
102
{ACAD_REACTORS
330
10
102
}
330
10
100
AcDbMaterial
  1
ByBlock
 72
     0
 43
0.0208333333333333
 43
0.0
 43
0.0
 43
0.0
 43
0.0
 43
0.0208333333333333
 43
0.0
 43
0.0
 43
0.0
 43
0.0
 43
1.0
 43
0.0
 43
0.0
 43
0.0
 43
0.0
 43
1.0
 77
     0
 47
0.0208333333333333
 47
0.0
 47
0.0
 47
0.0
 47
0.0
 47
0.0208333333333333
 47
0.0
 47
0.0
 47
0.0
 47
0.0
 47
1.0
 47
0.0
 47
0.0
 47
0.0
 47
0.0
 47
1.0
171
     0
 49
0.0208333333333333
 49
0.0
 49
0.0
 49
0.0
 49
0.0
 49
0.0208333333333333
 49
0.0
 49
0.0
 49
0.0
 49
0.0
 49
1.0
 49
0.0
 49
0.0
 49
0.0
 49
0.0
 49
1.0
175
     0
142
0.0208333333333333
142
0.0
142
0.0
142
0.0
142
0.0
142
0.0208333333333333
142
0.0
142
0.0
142
0.0
142
0.0
142
1.0
142
0.0
142
0.0
142
0.0
142
0.0
142
1.0
179
     0
144
0.0208333333333333
144
0.0
144
0.0
144
0.0
144
0.0
144
0.0208333333333333
144
0.0
144
0.0
144
0.0
144
0.0
144
1.0
144
0.0
144
0.0
144
0.0
144
0.0
144
1.0
147
0.0208333333333333
147
0.0
147
0.0
147
0.0
147
0.0
147
0.0208333333333333
147
0.0
147
0.0
147
0.0
147
0.0
147
1.0
147
0.0
147
0.0
147
0.0
147
0.0
147
1.0
  0
MATERIAL
  5
11
102
{ACAD_XDICTIONARY
360
12
102
}
102
{ACAD_REACTORS
330
10
102
}
330
10
100
AcDbMaterial
  1
ByLayer
 72
     0
 43
0.0208333333333333
 43
0.0
 43
0.0
 43
0.0
 43
0.0
 43
0.0208333333333333
 43
0.0
 43
0.0
 43
0.0
 43
0.0
 43
1.0
 43
0.0
 43
0.0
 43
0.0
 43
0.0
 43
1.0
 77
     0
 47
0.0208333333333333
 47
0.0
 47
0.0
 47
0.0
 47
0.0
 47
0.0208333333333333
 47
0.0
 47
0.0
 47
0.0
 47
0.0
 47
1.0
 47
0.0
 47
0.0
 47
0.0
 47
0.0
 47
1.0
171
     0
 49
0.0208333333333333
 49
0.0
 49
0.0
 49
0.0
 49
0.0
 49
0.0208333333333333
 49
0.0
 49
0.0
 49
0.0
 49
0.0
 49
1.0
 49
0.0
 49
0.0
 49
0.0
 49
0.0
 49
1.0
175
     0
142
0.0208333333333333
142
0.0
142
0.0
142
0.0
142
0.0
142
0.0208333333333333
142
0.0
142
0.0
142
0.0
142
0.0
142
1.0
142
0.0
142
0.0
142
0.0
142
0.0
142
1.0
179
     0
144
0.0208333333333333
144
0.0
144
0.0
144
0.0
144
0.0
144
0.0208333333333333
144
0.0
144
0.0
144
0.0
144
0.0
144
1.0
144
0.0
144
0.0
144
0.0
144
0.0
144
1.0
147
0.0208333333333333
147
0.0
147
0.0
147
0.0
147
0.0
147
0.0208333333333333
147
0.0
147
0.0
147
0.0
147
0.0
147
1.0
147
0.0
147
0.0
147
0.0
147
0.0
147
1.0
  0
MATERIAL
  5
21
102
{ACAD_XDICTIONARY
360
22
102
}
102
{ACAD_REACTORS
330
10
102
}
330
10
100
AcDbMaterial
  1
Global
 72
     0
 43
0.0208333333333333
 43
0.0
 43
0.0
 43
0.0
 43
0.0
 43
0.0208333333333333
 43
0.0
 43
0.0
 43
0.0
 43
0.0
 43
1.0
 43
0.0
 43
0.0
 43
0.0
 43
0.0
 43
1.0
 77
     0
 47
0.0208333333333333
 47
0.0
 47
0.0
 47
0.0
 47
0.0
 47
0.0208333333333333
 47
0.0
 47
0.0
 47
0.0
 47
0.0
 47
1.0
 47
0.0
 47
0.0
 47
0.0
 47
0.0
 47
1.0
171
     0
 49
0.0208333333333333
 49
0.0
 49
0.0
 49
0.0
 49
0.0
 49
0.0208333333333333
 49
0.0
 49
0.0
 49
0.0
 49
0.0
 49
1.0
 49
0.0
 49
0.0
 49
0.0
 49
0.0
 49
1.0
175
     0
142
0.0208333333333333
142
0.0
142
0.0
142
0.0
142
0.0
142
0.0208333333333333
142
0.0
142
0.0
142
0.0
142
0.0
142
1.0
142
0.0
142
0.0
142
0.0
142
0.0
142
1.0
179
     0
144
0.0208333333333333
144
0.0
144
0.0
144
0.0
144
0.0
144
0.0208333333333333
144
0.0
144
0.0
144
0.0
144
0.0
144
1.0
144
0.0
144
0.0
144
0.0
144
0.0
144
1.0
147
0.0208333333333333
147
0.0
147
0.0
147
0.0
147
0.0
147
0.0208333333333333
147
0.0
147
0.0
147
0.0
147
0.0
147
1.0
147
0.0
147
0.0
147
0.0
147
0.0
147
1.0
  0
MLEADERSTYLE
  5
67
102
{ACAD_REACTORS
330
66
102
}
330
66
100
AcDbMLeaderStyle
179
     2
170
     2
171
     1
172
     0
 90
        2
 40
0.0
 41
0.0
173
     1
 91
-1056964608
340
5B
 92
       -2
290
     1
 42
0.09
291
     1
 43
0.36
  3
Standard
 44
0.18
300

342
55
174
     1
178
     6
175
     1
176
     0
 93
-1056964608
 45
0.18
292
     0
297
     0
 46
0.18
 94
-1056964608
 47
1.0
 49
1.0
140
1.0
293
     1
141
0.0
294
     1
177
     0
142
1.0
295
     1
296
     0
143
0.125
271
     0
272
     9
273
     9
298
     1
  0
MLINESTYLE
  5
60
102
{ACAD_REACTORS
330
5F
102
}
330
5F
100
AcDbMlineStyle
  2
STANDARD
 70
     0
  3

 62
   256
 51
90.0
 52
90.0
 71
     2
 49
0.5
 62
   256
  6
BYLAYER
 49
-0.5
 62
   256
  6
BYLAYER
  0
ACDBPLACEHOLDER
  5
F
102
{ACAD_REACTORS
330
E
102
}
330
E
  0
SCALE
  5
43
102
{ACAD_REACTORS
330
42
102
}
330
42
100
AcDbScale
 70
     0
300
1:1
140
1.0
141
1.0
290
     1
  0
SCALE
  5
44
102
{ACAD_REACTORS
330
42
102
}
330
42
100
AcDbScale
 70
     0
300
1/128" = 1'-0"
140
0.0078125
141
12.0
290
     0
  0
SCALE
  5
45
102
{ACAD_REACTORS
330
42
102
}
330
42
100
AcDbScale
 70
     0
300
1/64" = 1'-0"
140
0.015625
141
12.0
290
     0
  0
SCALE
  5
46
102
{ACAD_REACTORS
330
42
102
}
330
42
100
AcDbScale
 70
     0
300
1/32" = 1'-0"
140
0.03125
141
12.0
290
     0
  0
SCALE
  5
47
102
{ACAD_REACTORS
330
42
102
}
330
42
100
AcDbScale
 70
     0
300
1/16" = 1'-0"
140
0.0625
141
12.0
290
     0
  0
SCALE
  5
48
102
{ACAD_REACTORS
330
42
102
}
330
42
100
AcDbScale
 70
     0
300
3/32" = 1'-0"
140
0.09375
141
12.0
290
     0
  0
SCALE
  5
49
102
{ACAD_REACTORS
330
42
102
}
330
42
100
AcDbScale
 70
     0
300
1/8" = 1'-0"
140
0.125
141
12.0
290
     0
  0
SCALE
  5
4A
102
{ACAD_REACTORS
330
42
102
}
330
42
100
AcDbScale
 70
     0
300
3/16" = 1'-0"
140
0.1875
141
12.0
290
     0
  0
SCALE
  5
4B
102
{ACAD_REACTORS
330
42
102
}
330
42
100
AcDbScale
 70
     0
300
1/4" = 1'-0"
140
0.25
141
12.0
290
     0
  0
SCALE
  5
4C
102
{ACAD_REACTORS
330
42
102
}
330
42
100
AcDbScale
 70
     0
300
3/8" = 1'-0"
140
0.375
141
12.0
290
     0
  0
SCALE
  5
4D
102
{ACAD_REACTORS
330
42
102
}
330
42
100
AcDbScale
 70
     0
300
1/2" = 1'-0"
140
0.5
141
12.0
290
     0
  0
SCALE
  5
4E
102
{ACAD_REACTORS
330
42
102
}
330
42
100
AcDbScale
 70
     0
300
3/4" = 1'-0"
140
0.75
141
12.0
290
     0
  0
SCALE
  5
4F
102
{ACAD_REACTORS
330
42
102
}
330
42
100
AcDbScale
 70
     0
300
1" = 1'-0"
140
1.0
141
12.0
290
     0
  0
SCALE
  5
50
102
{ACAD_REACTORS
330
42
102
}
330
42
100
AcDbScale
 70
     0
300
1-1/2" = 1'-0"
140
1.5
141
12.0
290
     0
  0
SCALE
  5
51
102
{ACAD_REACTORS
330
42
102
}
330
42
100
AcDbScale
 70
     0
300
3" = 1'-0"
140
3.0
141
12.0
290
     0
  0
SCALE
  5
52
102
{ACAD_REACTORS
330
42
102
}
330
42
100
AcDbScale
 70
     0
300
6" = 1'-0"
140
6.0
141
12.0
290
     0
  0
SCALE
  5
53
102
{ACAD_REACTORS
330
42
102
}
330
42
100
AcDbScale
 70
     0
300
1'-0" = 1'-0"
140
12.0
141
12.0
290
     0
  0
ACDBSECTIONVIEWSTYLE
  5
69
102
{ACAD_REACTORS
330
68
102
}
330
68
100
AcDbModelDocViewStyle
 70
     0
  3
Imperial24
290
     1
300
Imperial24
 90
        0
100
AcDbSectionViewStyle
 70
     0
 71
     0
 90
       78
 71
     1
340
55
 62
   256
 40
0.24
340
0
340
0
 62
   256
 40
0.24
300
I, O, Q, S, X, Z
 40
0.48
 90
        3
 40
0.18
 90
        1
 71
     2
340
5D
 90
       25
 62
   256
340
5D
 90
       50
 62
   256
 40
0.24
 40
0.0
 40
0.24
 71
     3
340
55
 62
   256
 40
0.24
 90
        1
 40
0.75
 90
        1
300
%<\AcVar ViewType \f "%tc1">% %<\AcVar ViewSectionStartId>%-%<\AcVar ViewSectionEndId>%\PSCALE %<\AcVar ViewScale \f "%sn">%
 71
     4
 62
   256
 62
   257
300
ANSI31
 40
1.0
 90
        0
290
     0
290
     0
 90
        6
 40
0.0
 40
1.570796326794896
 40
0.2617993877991494
 40
1.308996938995747
 40
-0.2617993877991494
 40
1.832595714594046
  0
TABLESTYLE
  5
65
102
{ACAD_XDICTIONARY
360
3AF
102
}
102
{ACAD_REACTORS
330
64
102
}
330
64
100
AcDbTableStyle
280
     0
  3
Standard
 70
     0
 71
     0
 40
0.06
 41
0.06
280
     0
281
     0
  7
Standard
140
0.18
170
     2
 62
     0
 63
     7
283
     0
 90
      512
 91
        0
  1

274
    -2
284
     1
 64
     0
275
    -2
285
     1
 65
     0
276
    -2
286
     1
 66
     0
277
    -2
287
     1
 67
     0
278
    -2
288
     1
 68
     0
279
    -2
289
     1
 69
     0
  7
Standard
140
0.25
170
     5
 62
     0
 63
     7
283
     0
 90
      512
 91
        0
  1

274
    -2
284
     1
 64
     0
275
    -2
285
     1
 65
     0
276
    -2
286
     1
 66
     0
277
    -2
287
     1
 67
     0
278
    -2
288
     1
 68
     0
279
    -2
289
     1
 69
     0
  7
Standard
140
0.18
170
     5
 62
     0
 63
     7
283
     0
 90
      512
 91
        0
  1

274
    -2
284
     1
 64
     0
275
    -2
285
     1
 65
     0
276
    -2
286
     1
 66
     0
277
    -2
287
     1
 67
     0
278
    -2
288
     1
 68
     0
279
    -2
289
     1
 69
     0
  0
VISUALSTYLE
  5
2F
102
{ACAD_REACTORS
330
29
102
}
330
29
100
AcDbVisualStyle
  2
2dWireframe
 70
     4
177
     3
291
     0
 70
    58
 90
        0
176
     1
 90
        2
176
     1
 90
        0
176
     1
 90
        0
176
     1
 40
0.6
176
     1
 40
30.0
176
     1
 62
     7
420
 16777215
176
     1
 90
        1
176
     1
 90
        4
176
     1
 62
     7
176
     1
 62
   257
176
     1
 90
        1
176
     1
 90
        1
176
     1
 40
1.0
176
     1
 90
        0
176
     1
 62
   257
176
     1
 40
1.0
176
     1
 90
        1
176
     1
 90
        6
176
     1
 90
        2
176
     1
 62
     7
176
     1
 90
        5
176
     1
 90
        0
176
     1
 90
        0
176
     1
290
     0
176
     1
 90
        1
176
     1
 40
0.0
176
     1
 90
        0
176
     1
290
     1
176
     1
290
     1
176
     1
290
     0
176
     1
290
     0
176
     1
290
     0
176
     1
290
     0
176
     1
290
     0
176
     1
290
     0
176
     1
290
     0
176
     1
 90
       50
176
     1
 40
0.0
176
     1
 40
1.0
176
     1
 90
        0
176
     1
 62
    18
420
        0
176
     1
 90
       50
176
     1
 90
        3
176
     1
 62
     5
420
      255
176
     1
290
     0
176
     1
 90
       50
176
     1
 90
       50
176
     1
 90
       50
176
     1
290
     0
176
     1
 90
       50
176
     1
 62
   256
176
     0
 40
1.0
176
     0
 90
        2
176
     1
  1
strokes_ogs.tif
176
     1
290
     0
176
     1
 40
1.0
176
     1
 40
1.0
176
     1
  0
VISUALSTYLE
  5
2E
102
{ACAD_REACTORS
330
29
102
}
330
29
100
AcDbVisualStyle
  2
Basic
 70
     7
177
     3
291
     1
 70
    58
 90
        1
176
     1
 90
        0
176
     1
 90
        1
176
     1
 90
        0
176
     1
 40
0.6
176
     1
 40
30.0
176
     1
 62
     7
420
 16777215
176
     1
 90
        0
176
     1
 90
        4
176
     1
 62
     7
176
     1
 62
   257
176
     1
 90
        1
176
     1
 90
        1
176
     1
 40
1.0
176
     1
 90
        8
176
     1
 62
     7
176
     1
 40
1.0
176
     1
 90
        1
176
     1
 90
        6
176
     1
 90
        2
176
     1
 62
     7
176
     1
 90
        5
176
     1
 90
        0
176
     1
 90
        0
176
     1
290
     0
176
     1
 90
        1
176
     1
 40
0.0
176
     1
 90
        0
176
     1
290
     0
176
     1
290
     1
176
     1
290
     1
176
     1
290
     0
176
     1
290
     0
176
     1
290
     0
176
     1
290
     0
176
     1
290
     0
176
     1
290
     0
176
     1
 90
       50
176
     1
 40
0.0
176
     1
 40
1.0
176
     1
 90
        0
176
     1
 62
    18
420
        0
176
     1
 90
       50
176
     1
 90
        3
176
     1
 62
     5
420
      255
176
     1
290
     0
176
     1
 90
       50
176
     1
 90
       50
176
     1
 90
       50
176
     1
290
     0
176
     1
 90
       50
176
     1
 62
   256
176
     0
 40
1.0
176
     0
 90
        2
176
     1
  1
strokes_ogs.tif
176
     1
290
     0
176
     1
 40
1.0
176
     1
 40
1.0
176
     1
  0
VISUALSTYLE
  5
35
102
{ACAD_REACTORS
330
29
102
}
330
29
100
AcDbVisualStyle
  2
Brighten
 70
    12
177
     3
291
     1
 70
    58
 90
        2
176
     1
 90
        2
176
     1
 90
        0
176
     1
 90
        0
176
     1
 40
0.6
176
     1
 40
30.0
176
     1
 62
     7
420
 16777215
176
     1
 90
        1
176
     1
 90
        4
176
     1
 62
     7
176
     1
 62
   257
176
     1
 90
        1
176
     1
 90
        1
176
     1
 40
1.0
176
     1
 90
        8
176
     1
 62
     7
176
     1
 40
1.0
176
     1
 90
        1
176
     1
 90
        6
176
     1
 90
        2
176
     1
 62
     7
176
     1
 90
        5
176
     1
 90
        0
176
     1
 90
        0
176
     1
290
     0
176
     1
 90
        1
176
     1
 40
50.0
176
     1
 90
        0
176
     1
290
     0
176
     1
290
     1
176
     1
290
     1
176
     1
290
     0
176
     1
290
     0
176
     1
290
     0
176
     1
290
     0
176
     1
290
     0
176
     1
290
     0
176
     1
 90
       50
176
     1
 40
0.0
176
     1
 40
1.0
176
     1
 90
        0
176
     1
 62
    18
420
        0
176
     1
 90
       50
176
     1
 90
        3
176
     1
 62
     5
420
      255
176
     1
290
     0
176
     1
 90
       50
176
     1
 90
       50
176
     1
 90
       50
176
     1
290
     0
176
     1
 90
       50
176
     1
 62
   256
176
     0
 40
1.0
176
     0
 90
        2
176
     1
  1
strokes_ogs.tif
176
     1
290
     0
176
     1
 40
1.0
176
     1
 40
1.0
176
     1
  0
VISUALSTYLE
  5
39
102
{ACAD_REACTORS
330
29
102
}
330
29
100
AcDbVisualStyle
  2
ColorChange
 70
    16
177
     3
291
     1
 70
    58
 90
        2
176
     1
 90
        2
176
     1
 90
        3
176
     1
 90
        0
176
     1
 40
0.6
176
     1
 40
30.0
176
     1
 62
     8
420
  8421504
176
     1
 90
        1
176
     1
 90
        4
176
     1
 62
     7
176
     1
 62
   257
176
     1
 90
        1
176
     1
 90
        1
176
     1
 40
1.0
176
     1
 90
        8
176
     1
 62
     8
420
  8421504
176
     1
 40
1.0
176
     1
 90
        1
176
     1
 90
        6
176
     1
 90
        2
176
     1
 62
     7
176
     1
 90
        5
176
     1
 90
        0
176
     1
 90
        0
176
     1
290
     0
176
     1
 90
        1
176
     1
 40
0.0
176
     1
 90
        0
176
     1
290
     0
176
     1
290
     1
176
     1
290
     1
176
     1
290
     0
176
     1
290
     0
176
     1
290
     0
176
     1
290
     0
176
     1
290
     0
176
     1
290
     0
176
     1
 90
       50
176
     1
 40
0.0
176
     1
 40
1.0
176
     1
 90
        0
176
     1
 62
    18
420
        0
176
     1
 90
       50
176
     1
 90
        3
176
     1
 62
     5
420
      255
176
     1
290
     0
176
     1
 90
       50
176
     1
 90
       50
176
     1
 90
       50
176
     1
290
     0
176
     1
 90
       50
176
     1
 62
   256
176
     0
 40
1.0
176
     0
 90
        2
176
     1
  1
strokes_ogs.tif
176
     1
290
     0
176
     1
 40
1.0
176
     1
 40
1.0
176
     1
  0
VISUALSTYLE
  5
32
102
{ACAD_REACTORS
330
29
102
}
330
29
100
AcDbVisualStyle
  2
Conceptual
 70
     9
177
     3
291
     0
 70
    58
 90
        3
176
     1
 90
        2
176
     1
 90
        0
176
     1
 90
        0
176
     1
 40
0.6
176
     1
 40
30.0
176
     1
 62
     7
420
 16777215
176
     1
 90
        2
176
     1
 90
        2
176
     1
 62
     7
176
     1
 62
   257
176
     1
 90
        1
176
     1
 90
        1
176
     1
 40
179.0
176
     1
 90
        8
176
     1
 62
     7
176
     1
 40
1.0
176
     1
 90
        1
176
     1
 90
        6
176
     1
 90
        2
176
     1
 62
     7
176
     1
 90
        3
176
     1
 90
        0
176
     1
 90
        0
176
     1
290
     0
176
     1
 90
        1
176
     1
 40
0.0
176
     1
 90
        0
176
     1
290
     0
176
     1
290
     1
176
     1
290
     1
176
     1
290
     0
176
     1
290
     0
176
     1
290
     0
176
     1
290
     0
176
     1
290
     0
176
     1
290
     0
176
     1
 90
       50
176
     1
 40
0.0
176
     1
 40
1.0
176
     1
 90
        0
176
     1
 62
    18
420
        0
176
     1
 90
       50
176
     1
 90
        3
176
     1
 62
     5
420
      255
176
     1
290
     0
176
     1
 90
       50
176
     1
 90
       50
176
     1
 90
       50
176
     1
290
     0
176
     1
 90
       50
176
     1
 62
   256
176
     0
 40
1.0
176
     0
 90
        2
176
     1
  1
strokes_ogs.tif
176
     1
290
     0
176
     1
 40
1.0
176
     1
 40
1.0
176
     1
  0
VISUALSTYLE
  5
34
102
{ACAD_REACTORS
330
29
102
}
330
29
100
AcDbVisualStyle
  2
Dim
 70
    11
177
     3
291
     1
 70
    58
 90
        2
176
     1
 90
        2
176
     1
 90
        0
176
     1
 90
        0
176
     1
 40
0.6
176
     1
 40
30.0
176
     1
 62
     7
420
 16777215
176
     1
 90
        1
176
     1
 90
        4
176
     1
 62
     7
176
     1
 62
   257
176
     1
 90
        1
176
     1
 90
        1
176
     1
 40
1.0
176
     1
 90
        8
176
     1
 62
     7
176
     1
 40
1.0
176
     1
 90
        1
176
     1
 90
        6
176
     1
 90
        2
176
     1
 62
     7
176
     1
 90
        5
176
     1
 90
        0
176
     1
 90
        0
176
     1
290
     0
176
     1
 90
        1
176
     1
 40
-50.0
176
     1
 90
        0
176
     1
290
     0
176
     1
290
     1
176
     1
290
     1
176
     1
290
     0
176
     1
290
     0
176
     1
290
     0
176
     1
290
     0
176
     1
290
     0
176
     1
290
     0
176
     1
 90
       50
176
     1
 40
0.0
176
     1
 40
1.0
176
     1
 90
        0
176
     1
 62
    18
420
        0
176
     1
 90
       50
176
     1
 90
        3
176
     1
 62
     5
420
      255
176
     1
290
     0
176
     1
 90
       50
176
     1
 90
       50
176
     1
 90
       50
176
     1
290
     0
176
     1
 90
       50
176
     1
 62
   256
176
     0
 40
1.0
176
     0
 90
        2
176
     1
  1
strokes_ogs.tif
176
     1
290
     0
176
     1
 40
1.0
176
     1
 40
1.0
176
     1
  0
VISUALSTYLE
  5
41
102
{ACAD_REACTORS
330
29
102
}
330
29
100
AcDbVisualStyle
  2
EdgeColorOff
 70
    22
177
     3
291
     1
 70
    58
 90
        2
176
     0
 90
        2
176
     0
 90
        0
176
     0
 90
        0
176
     0
 40
0.6
176
     0
 40
30.0
176
     0
 62
     7
420
 16777215
176
     0
 90
        1
176
     0
 90
        4
176
     0
 62
     7
176
     0
 62
   257
176
     0
 90
        1
176
     0
 90
        1
176
     0
 40
1.0
176
     0
 90
        8
176
     2
 62
     7
176
     0
 40
1.0
176
     0
 90
        1
176
     0
 90
        6
176
     0
 90
        2
176
     0
 62
     7
176
     0
 90
        5
176
     0
 90
        0
176
     0
 90
        0
176
     0
290
     0
176
     0
 90
        1
176
     0
 40
0.0
176
     0
 90
        0
176
     0
290
     0
176
     0
290
     1
176
     0
290
     1
176
     0
290
     0
176
     0
290
     0
176
     0
290
     0
176
     0
290
     0
176
     0
290
     0
176
     0
290
     0
176
     0
 90
       50
176
     0
 40
0.0
176
     0
 40
1.0
176
     0
 90
        0
176
     0
 62
    18
420
        0
176
     0
 90
       50
176
     0
 90
        3
176
     0
 62
     5
420
      255
176
     0
290
     0
176
     0
 90
       50
176
     0
 90
       50
176
     0
 90
       50
176
     0
290
     0
176
     0
 90
       50
176
     0
 62
   256
176
     0
 40
1.0
176
     0
 90
        2
176
     0
  1
strokes_ogs.tif
176
     0
290
     0
176
     0
 40
1.0
176
     0
 40
1.0
176
     0
  0
VISUALSTYLE
  5
38
102
{ACAD_REACTORS
330
29
102
}
330
29
100
AcDbVisualStyle
  2
Facepattern
 70
    15
177
     3
291
     1
 70
    58
 90
        2
176
     1
 90
        2
176
     1
 90
        0
176
     1
 90
        0
176
     1
 40
0.6
176
     1
 40
30.0
176
     1
 62
     7
420
 16777215
176
     1
 90
        1
176
     1
 90
        4
176
     1
 62
     7
176
     1
 62
   257
176
     1
 90
        1
176
     1
 90
        1
176
     1
 40
1.0
176
     1
 90
        8
176
     1
 62
     7
176
     1
 40
1.0
176
     1
 90
        1
176
     1
 90
        6
176
     1
 90
        2
176
     1
 62
     7
176
     1
 90
        5
176
     1
 90
        0
176
     1
 90
        0
176
     1
290
     0
176
     1
 90
        1
176
     1
 40
0.0
176
     1
 90
        0
176
     1
290
     0
176
     1
290
     1
176
     1
290
     1
176
     1
290
     0
176
     1
290
     0
176
     1
290
     0
176
     1
290
     0
176
     1
290
     0
176
     1
290
     0
176
     1
 90
       50
176
     1
 40
0.0
176
     1
 40
1.0
176
     1
 90
        0
176
     1
 62
    18
420
        0
176
     1
 90
       50
176
     1
 90
        3
176
     1
 62
     5
420
      255
176
     1
290
     0
176
     1
 90
       50
176
     1
 90
       50
176
     1
 90
       50
176
     1
290
     0
176
     1
 90
       50
176
     1
 62
   256
176
     0
 40
1.0
176
     0
 90
        2
176
     1
  1
strokes_ogs.tif
176
     1
290
     0
176
     1
 40
1.0
176
     1
 40
1.0
176
     1
  0
VISUALSTYLE
  5
2A
102
{ACAD_REACTORS
330
29
102
}
330
29
100
AcDbVisualStyle
  2
Flat
 70
     0
177
     3
291
     1
 70
    58
 90
        2
176
     1
 90
        1
176
     1
 90
        1
176
     1
 90
        2
176
     1
 40
0.6
176
     1
 40
30.0
176
     1
 62
     7
420
 16777215
176
     1
 90
        0
176
     1
 90
        0
176
     1
 62
     7
176
     1
 62
   257
176
     1
 90
        1
176
     1
 90
        1
176
     1
 40
1.0
176
     1
 90
        8
176
     1
 62
     7
176
     1
 40
1.0
176
     1
 90
        1
176
     1
 90
        6
176
     1
 90
        2
176
     1
 62
     7
176
     1
 90
        5
176
     1
 90
        0
176
     1
 90
        0
176
     1
290
     0
176
     1
 90
       13
176
     1
 40
0.0
176
     1
 90
        0
176
     1
290
     0
176
     1
290
     1
176
     1
290
     1
176
     1
290
     0
176
     1
290
     0
176
     1
290
     0
176
     1
290
     0
176
     1
290
     0
176
     1
290
     0
176
     1
 90
       50
176
     1
 40
0.0
176
     1
 40
1.0
176
     1
 90
        0
176
     1
 62
    18
420
        0
176
     1
 90
       50
176
     1
 90
        3
176
     1
 62
     5
420
      255
176
     1
290
     0
176
     1
 90
       50
176
     1
 90
       50
176
     1
 90
       50
176
     1
290
     0
176
     1
 90
       50
176
     1
 62
   256
176
     0
 40
1.0
176
     0
 90
        2
176
     1
  1
strokes_ogs.tif
176
     1
290
     0
176
     1
 40
1.0
176
     1
 40
1.0
176
     1
  0
VISUALSTYLE
  5
2B
102
{ACAD_REACTORS
330
29
102
}
330
29
100
AcDbVisualStyle
  2
FlatWithEdges
 70
     1
177
     3
291
     1
 70
    58
 90
        2
176
     1
 90
        1
176
     1
 90
        1
176
     1
 90
        2
176
     1
 40
0.6
176
     1
 40
30.0
176
     1
 62
     7
420
 16777215
176
     1
 90
        1
176
     1
 90
        0
176
     1
 62
     7
176
     1
 62
   257
176
     1
 90
        1
176
     1
 90
        1
176
     1
 40
1.0
176
     1
 90
        0
176
     1
 62
   257
176
     1
 40
1.0
176
     1
 90
        1
176
     1
 90
        6
176
     1
 90
        2
176
     1
 62
     7
176
     1
 90
        5
176
     1
 90
        0
176
     1
 90
        0
176
     1
290
     0
176
     1
 90
       13
176
     1
 40
0.0
176
     1
 90
        0
176
     1
290
     0
176
     1
290
     1
176
     1
290
     1
176
     1
290
     0
176
     1
290
     0
176
     1
290
     0
176
     1
290
     0
176
     1
290
     0
176
     1
290
     0
176
     1
 90
       50
176
     1
 40
0.0
176
     1
 40
1.0
176
     1
 90
        0
176
     1
 62
    18
420
        0
176
     1
 90
       50
176
     1
 90
        3
176
     1
 62
     5
420
      255
176
     1
290
     0
176
     1
 90
       50
176
     1
 90
       50
176
     1
 90
       50
176
     1
290
     0
176
     1
 90
       50
176
     1
 62
   256
176
     0
 40
1.0
176
     0
 90
        2
176
     1
  1
strokes_ogs.tif
176
     1
290
     0
176
     1
 40
1.0
176
     1
 40
1.0
176
     1
  0
VISUALSTYLE
  5
2C
102
{ACAD_REACTORS
330
29
102
}
330
29
100
AcDbVisualStyle
  2
Gouraud
 70
     2
177
     3
291
     1
 70
    58
 90
        2
176
     1
 90
        2
176
     1
 90
        1
176
     1
 90
        2
176
     1
 40
0.6
176
     1
 40
30.0
176
     1
 62
     7
420
 16777215
176
     1
 90
        0
176
     1
 90
        0
176
     1
 62
     7
176
     1
 62
   257
176
     1
 90
        1
176
     1
 90
        1
176
     1
 40
1.0
176
     1
 90
        0
176
     1
 62
     7
176
     1
 40
1.0
176
     1
 90
        1
176
     1
 90
        6
176
     1
 90
        2
176
     1
 62
     7
176
     1
 90
        5
176
     1
 90
        0
176
     1
 90
        0
176
     1
290
     0
176
     1
 90
       13
176
     1
 40
0.0
176
     1
 90
        0
176
     1
290
     0
176
     1
290
     1
176
     1
290
     1
176
     1
290
     0
176
     1
290
     0
176
     1
290
     0
176
     1
290
     0
176
     1
290
     0
176
     1
290
     0
176
     1
 90
       50
176
     1
 40
0.0
176
     1
 40
1.0
176
     1
 90
        0
176
     1
 62
    18
420
        0
176
     1
 90
       50
176
     1
 90
        3
176
     1
 62
     5
420
      255
176
     1
290
     0
176
     1
 90
       50
176
     1
 90
       50
176
     1
 90
       50
176
     1
290
     0
176
     1
 90
       50
176
     1
 62
   256
176
     0
 40
1.0
176
     0
 90
        2
176
     1
  1
strokes_ogs.tif
176
     1
290
     0
176
     1
 40
1.0
176
     1
 40
1.0
176
     1
  0
VISUALSTYLE
  5
2D
102
{ACAD_REACTORS
330
29
102
}
330
29
100
AcDbVisualStyle
  2
GouraudWithEdges
 70
     3
177
     3
291
     1
 70
    58
 90
        2
176
     1
 90
        2
176
     1
 90
        1
176
     1
 90
        2
176
     1
 40
0.6
176
     1
 40
30.0
176
     1
 62
     7
420
 16777215
176
     1
 90
        1
176
     1
 90
        0
176
     1
 62
     7
176
     1
 62
   257
176
     1
 90
        1
176
     1
 90
        1
176
     1
 40
1.0
176
     1
 90
        0
176
     1
 62
   257
176
     1
 40
1.0
176
     1
 90
        1
176
     1
 90
        6
176
     1
 90
        2
176
     1
 62
     7
176
     1
 90
        5
176
     1
 90
        0
176
     1
 90
        0
176
     1
290
     0
176
     1
 90
       13
176
     1
 40
0.0
176
     1
 90
        0
176
     1
290
     0
176
     1
290
     1
176
     1
290
     1
176
     1
290
     0
176
     1
290
     0
176
     1
290
     0
176
     1
290
     0
176
     1
290
     0
176
     1
290
     0
176
     1
 90
       50
176
     1
 40
0.0
176
     1
 40
1.0
176
     1
 90
        0
176
     1
 62
    18
420
        0
176
     1
 90
       50
176
     1
 90
        3
176
     1
 62
     5
420
      255
176
     1
290
     0
176
     1
 90
       50
176
     1
 90
       50
176
     1
 90
       50
176
     1
290
     0
176
     1
 90
       50
176
     1
 62
   256
176
     0
 40
1.0
176
     0
 90
        2
176
     1
  1
strokes_ogs.tif
176
     1
290
     0
176
     1
 40
1.0
176
     1
 40
1.0
176
     1
  0
VISUALSTYLE
  5
31
102
{ACAD_REACTORS
330
29
102
}
330
29
100
AcDbVisualStyle
  2
Hidden
 70
     6
177
     3
291
     0
 70
    58
 90
        1
176
     1
 90
        2
176
     1
 90
        2
176
     1
 90
        0
176
     1
 40
0.6
176
     1
 40
30.0
176
     1
 62
     7
420
 16777215
176
     1
 90
        2
176
     1
 90
        2
176
     1
 62
     7
176
     1
 62
   257
176
     1
 90
        2
176
     1
 90
        1
176
     1
 40
40.0
176
     1
 90
        0
176
     1
 62
   257
176
     1
 40
1.0
176
     1
 90
        1
176
     1
 90
        6
176
     1
 90
        2
176
     1
 62
     7
176
     1
 90
        3
176
     1
 90
        0
176
     1
 90
        0
176
     1
290
     0
176
     1
 90
        1
176
     1
 40
0.0
176
     1
 90
        0
176
     1
290
     0
176
     1
290
     1
176
     1
290
     1
176
     1
290
     0
176
     1
290
     0
176
     1
290
     0
176
     1
290
     0
176
     1
290
     0
176
     1
290
     0
176
     1
 90
       50
176
     1
 40
0.0
176
     1
 40
1.0
176
     1
 90
        0
176
     1
 62
    18
420
        0
176
     1
 90
       50
176
     1
 90
        3
176
     1
 62
     5
420
      255
176
     1
290
     0
176
     1
 90
       50
176
     1
 90
       50
176
     1
 90
       50
176
     1
290
     0
176
     1
 90
       50
176
     1
 62
   256
176
     0
 40
1.0
176
     0
 90
        2
176
     1
  1
strokes_ogs.tif
176
     1
290
     0
176
     1
 40
1.0
176
     1
 40
1.0
176
     1
  0
VISUALSTYLE
  5
3F
102
{ACAD_REACTORS
330
29
102
}
330
29
100
AcDbVisualStyle
  2
JitterOff
 70
    20
177
     3
291
     1
 70
    58
 90
        2
176
     0
 90
        2
176
     0
 90
        0
176
     0
 90
        0
176
     0
 40
0.6
176
     0
 40
30.0
176
     0
 62
     7
420
 16777215
176
     0
 90
        1
176
     0
 90
        4
176
     0
 62
     7
176
     0
 62
   257
176
     0
 90
        1
176
     0
 90
        1
176
     0
 40
1.0
176
     0
 90
       10
176
     2
 62
     7
176
     0
 40
1.0
176
     0
 90
        1
176
     0
 90
        6
176
     0
 90
        2
176
     0
 62
     7
176
     0
 90
        5
176
     0
 90
        0
176
     0
 90
        0
176
     0
290
     0
176
     0
 90
        1
176
     0
 40
0.0
176
     0
 90
        0
176
     0
290
     0
176
     0
290
     1
176
     0
290
     1
176
     0
290
     0
176
     0
290
     0
176
     0
290
     0
176
     0
290
     0
176
     0
290
     0
176
     0
290
     0
176
     0
 90
       50
176
     0
 40
0.0
176
     0
 40
1.0
176
     0
 90
        0
176
     0
 62
    18
420
        0
176
     0
 90
       50
176
     0
 90
        3
176
     0
 62
     5
420
      255
176
     0
290
     0
176
     0
 90
       50
176
     0
 90
       50
176
     0
 90
       50
176
     0
290
     0
176
     0
 90
       50
176
     0
 62
   256
176
     0
 40
1.0
176
     0
 90
        2
176
     0
  1
strokes_ogs.tif
176
     0
290
     0
176
     0
 40
1.0
176
     0
 40
1.0
176
     0
  0
VISUALSTYLE
  5
37
102
{ACAD_REACTORS
330
29
102
}
330
29
100
AcDbVisualStyle
  2
Linepattern
 70
    14
177
     3
291
     1
 70
    58
 90
        2
176
     1
 90
        2
176
     1
 90
        0
176
     1
 90
        0
176
     1
 40
0.6
176
     1
 40
30.0
176
     1
 62
     7
420
 16777215
176
     1
 90
        1
176
     1
 90
        4
176
     1
 62
     7
176
     1
 62
   257
176
     1
 90
        7
176
     1
 90
        7
176
     1
 40
1.0
176
     1
 90
        8
176
     1
 62
     7
176
     1
 40
1.0
176
     1
 90
        1
176
     1
 90
        6
176
     1
 90
        2
176
     1
 62
     7
176
     1
 90
        5
176
     1
 90
        0
176
     1
 90
        0
176
     1
290
     0
176
     1
 90
        1
176
     1
 40
0.0
176
     1
 90
        0
176
     1
290
     0
176
     1
290
     1
176
     1
290
     1
176
     1
290
     0
176
     1
290
     0
176
     1
290
     0
176
     1
290
     0
176
     1
290
     0
176
     1
290
     0
176
     1
 90
       50
176
     1
 40
0.0
176
     1
 40
1.0
176
     1
 90
        0
176
     1
 62
    18
420
        0
176
     1
 90
       50
176
     1
 90
        3
176
     1
 62
     5
420
      255
176
     1
290
     0
176
     1
 90
       50
176
     1
 90
       50
176
     1
 90
       50
176
     1
290
     0
176
     1
 90
       50
176
     1
 62
   256
176
     0
 40
1.0
176
     0
 90
        2
176
     1
  1
strokes_ogs.tif
176
     1
290
     0
176
     1
 40
1.0
176
     1
 40
1.0
176
     1
  0
VISUALSTYLE
  5
40
102
{ACAD_REACTORS
330
29
102
}
330
29
100
AcDbVisualStyle
  2
OverhangOff
 70
    21
177
     3
291
     1
 70
    58
 90
        2
176
     0
 90
        2
176
     0
 90
        0
176
     0
 90
        0
176
     0
 40
0.6
176
     0
 40
30.0
176
     0
 62
     7
420
 16777215
176
     0
 90
        1
176
     0
 90
        4
176
     0
 62
     7
176
     0
 62
   257
176
     0
 90
        1
176
     0
 90
        1
176
     0
 40
1.0
176
     0
 90
        9
176
     2
 62
     7
176
     0
 40
1.0
176
     0
 90
        1
176
     0
 90
        6
176
     0
 90
        2
176
     0
 62
     7
176
     0
 90
        5
176
     0
 90
        0
176
     0
 90
        0
176
     0
290
     0
176
     0
 90
        1
176
     0
 40
0.0
176
     0
 90
        0
176
     0
290
     0
176
     0
290
     1
176
     0
290
     1
176
     0
290
     0
176
     0
290
     0
176
     0
290
     0
176
     0
290
     0
176
     0
290
     0
176
     0
290
     0
176
     0
 90
       50
176
     0
 40
0.0
176
     0
 40
1.0
176
     0
 90
        0
176
     0
 62
    18
420
        0
176
     0
 90
       50
176
     0
 90
        3
176
     0
 62
     5
420
      255
176
     0
290
     0
176
     0
 90
       50
176
     0
 90
       50
176
     0
 90
       50
176
     0
290
     0
176
     0
 90
       50
176
     0
 62
   256
176
     0
 40
1.0
176
     0
 90
        2
176
     0
  1
strokes_ogs.tif
176
     0
290
     0
176
     0
 40
1.0
176
     0
 40
1.0
176
     0
  0
VISUALSTYLE
  5
33
102
{ACAD_REACTORS
330
29
102
}
330
29
100
AcDbVisualStyle
  2
Realistic
 70
     8
177
     3
291
     0
 70
    58
 90
        2
176
     1
 90
        3
176
     1
 90
        0
176
     1
 90
        2
176
     1
 40
0.6
176
     1
 40
30.0
176
     1
 62
     7
420
 16777215
176
     1
 90
        0
176
     1
 90
        0
176
     1
 62
     7
176
     1
 62
   257
176
     1
 90
        1
176
     1
 90
        1
176
     1
 40
1.0
176
     1
 90
        8
176
     1
 62
   257
176
     1
 40
1.0
176
     1
 90
        1
176
     1
 90
        6
176
     1
 90
        2
176
     1
 62
     7
176
     1
 90
        3
176
     1
 90
        0
176
     1
 90
        0
176
     1
290
     0
176
     1
 90
       13
176
     1
 40
0.0
176
     1
 90
        0
176
     1
290
     0
176
     1
290
     1
176
     1
290
     1
176
     1
290
     0
176
     1
290
     0
176
     1
290
     0
176
     1
290
     0
176
     1
290
     0
176
     1
290
     0
176
     1
 90
       50
176
     1
 40
0.0
176
     1
 40
1.0
176
     1
 90
        0
176
     1
 62
    18
420
        0
176
     1
 90
       50
176
     1
 90
        3
176
     1
 62
     5
420
      255
176
     1
290
     0
176
     1
 90
       50
176
     1
 90
       50
176
     1
 90
       50
176
     1
290
     0
176
     1
 90
       50
176
     1
 62
   256
176
     0
 40
1.0
176
     0
 90
        2
176
     1
  1
strokes_ogs.tif
176
     1
290
     0
176
     1
 40
1.0
176
     1
 40
1.0
176
     1
  0
VISUALSTYLE
  5
3E
102
{ACAD_REACTORS
330
29
102
}
330
29
100
AcDbVisualStyle
  2
Shaded
 70
    27
177
     3
291
     0
 70
    58
 90
        2
176
     1
 90
        2
176
     1
 90
        1
176
     1
 90
        2
176
     1
 40
0.6
176
     1
 40
30.0
176
     1
 62
     7
420
 16777215
176
     1
 90
        0
176
     1
 90
        4
176
     1
 62
     7
176
     1
 62
   257
176
     1
 90
        1
176
     1
 90
        1
176
     1
 40
1.0
176
     1
 90
        8
176
     1
 62
   257
176
     1
 40
1.0
176
     1
 90
        1
176
     1
 90
        6
176
     1
 90
        2
176
     1
 62
     8
420
  7895160
176
     1
 90
        3
176
     1
 90
        0
176
     1
 90
        0
176
     1
290
     0
176
     1
 90
        5
176
     1
 40
0.0
176
     1
 90
        0
176
     1
290
     0
176
     1
290
     1
176
     1
290
     1
176
     1
290
     0
176
     1
290
     0
176
     1
290
     0
176
     1
290
     0
176
     1
290
     0
176
     1
290
     0
176
     1
 90
       50
176
     1
 40
0.0
176
     1
 40
1.0
176
     1
 90
        0
176
     1
 62
    18
420
        0
176
     1
 90
       50
176
     1
 90
        3
176
     1
 62
     5
420
      255
176
     1
290
     0
176
     1
 90
       50
176
     1
 90
       50
176
     1
 90
       50
176
     1
290
     0
176
     1
 90
       50
176
     1
 62
   256
176
     0
 40
1.0
176
     0
 90
        2
176
     1
  1
strokes_ogs.tif
176
     1
290
     0
176
     1
 40
1.0
176
     1
 40
1.0
176
     1
  0
VISUALSTYLE
  5
3D
102
{ACAD_REACTORS
330
29
102
}
330
29
100
AcDbVisualStyle
  2
Shaded with edges
 70
    26
177
     3
291
     0
 70
    58
 90
        2
176
     1
 90
        2
176
     1
 90
        1
176
     1
 90
        2
176
     1
 40
0.6
176
     1
 40
30.0
176
     1
 62
     7
420
 16777215
176
     1
 90
        1
176
     1
 90
        2
176
     1
 62
     7
176
     1
 62
   257
176
     1
 90
        2
176
     1
 90
        1
176
     1
 40
1.0
176
     1
 90
        8
176
     1
 62
   257
176
     1
 40
1.0
176
     1
 90
        1
176
     1
 90
        6
176
     1
 90
        2
176
     1
 62
     7
176
     1
 90
        3
176
     1
 90
        0
176
     1
 90
        0
176
     1
290
     0
176
     1
 90
        5
176
     1
 40
0.0
176
     1
 90
        0
176
     1
290
     0
176
     1
290
     1
176
     1
290
     1
176
     1
290
     0
176
     1
290
     0
176
     1
290
     0
176
     1
290
     0
176
     1
290
     0
176
     1
290
     0
176
     1
 90
       50
176
     1
 40
0.0
176
     1
 40
1.0
176
     1
 90
        0
176
     1
 62
    18
420
        0
176
     1
 90
       50
176
     1
 90
        3
176
     1
 62
     5
420
      255
176
     1
290
     0
176
     1
 90
       50
176
     1
 90
       50
176
     1
 90
       50
176
     1
290
     0
176
     1
 90
       50
176
     1
 62
   256
176
     0
 40
1.0
176
     0
 90
        2
176
     1
  1
strokes_ogs.tif
176
     1
290
     0
176
     1
 40
1.0
176
     1
 40
1.0
176
     1
  0
VISUALSTYLE
  5
3A
102
{ACAD_REACTORS
330
29
102
}
330
29
100
AcDbVisualStyle
  2
Shades of Gray
 70
    23
177
     3
291
     0
 70
    58
 90
        2
176
     1
 90
        2
176
     1
 90
        3
176
     1
 90
        0
176
     1
 40
0.6
176
     1
 40
30.0
176
     1
 62
     7
420
 16777215
176
     1
 90
        2
176
     1
 90
        2
176
     1
 62
     7
176
     1
 62
     7
176
     1
 90
        1
176
     1
 90
        1
176
     1
 40
40.0
176
     1
 90
        8
176
     1
 62
     7
176
     1
 40
1.0
176
     1
 90
        1
176
     1
 90
        6
176
     1
 90
        2
176
     1
 62
     7
176
     1
 90
        3
176
     1
 90
        0
176
     1
 90
        0
176
     1
290
     0
176
     1
 90
        1
176
     1
 40
0.0
176
     1
 90
        0
176
     1
290
     0
176
     1
290
     1
176
     1
290
     1
176
     1
290
     0
176
     1
290
     0
176
     1
290
     0
176
     1
290
     0
176
     1
290
     0
176
     1
290
     0
176
     1
 90
       50
176
     1
 40
0.0
176
     1
 40
1.0
176
     1
 90
        0
176
     1
 62
    18
420
        0
176
     1
 90
       50
176
     1
 90
        3
176
     1
 62
     5
420
      255
176
     1
290
     0
176
     1
 90
       50
176
     1
 90
       50
176
     1
 90
       50
176
     1
290
     0
176
     1
 90
       50
176
     1
 62
   256
176
     0
 40
1.0
176
     0
 90
        2
176
     1
  1
strokes_ogs.tif
176
     1
290
     0
176
     1
 40
1.0
176
     1
 40
1.0
176
     1
  0
VISUALSTYLE
  5
3B
102
{ACAD_REACTORS
330
29
102
}
330
29
100
AcDbVisualStyle
  2
Sketchy
 70
    24
177
     3
291
     0
 70
    58
 90
        1
176
     1
 90
        2
176
     1
 90
        2
176
     1
 90
        0
176
     1
 40
0.6
176
     1
 40
30.0
176
     1
 62
     7
420
 16777215
176
     1
 90
        2
176
     1
 90
        2
176
     1
 62
     7
176
     1
 62
     7
176
     1
 90
        1
176
     1
 90
        1
176
     1
 40
40.0
176
     1
 90
       11
176
     1
 62
     7
176
     1
 40
1.0
176
     1
 90
        1
176
     1
 90
        6
176
     1
 90
        2
176
     1
 62
     7
176
     1
 90
        6
176
     1
 90
        0
176
     1
 90
        0
176
     1
290
     0
176
     1
 90
        1
176
     1
 40
0.0
176
     1
 90
        0
176
     1
290
     0
176
     1
290
     1
176
     1
290
     1
176
     1
290
     0
176
     1
290
     0
176
     1
290
     0
176
     1
290
     0
176
     1
290
     0
176
     1
290
     0
176
     1
 90
       50
176
     1
 40
0.0
176
     1
 40
1.0
176
     1
 90
        0
176
     1
 62
    18
420
        0
176
     1
 90
       50
176
     1
 90
        3
176
     1
 62
     5
420
      255
176
     1
290
     0
176
     1
 90
       50
176
     1
 90
       50
176
     1
 90
       50
176
     1
290
     0
176
     1
 90
       50
176
     1
 62
   256
176
     0
 40
1.0
176
     0
 90
        2
176
     1
  1
strokes_ogs.tif
176
     1
290
     0
176
     1
 40
1.0
176
     1
 40
1.0
176
     1
  0
VISUALSTYLE
  5
36
102
{ACAD_REACTORS
330
29
102
}
330
29
100
AcDbVisualStyle
  2
Thicken
 70
    13
177
     3
291
     1
 70
    58
 90
        2
176
     1
 90
        2
176
     1
 90
        0
176
     1
 90
        0
176
     1
 40
0.6
176
     1
 40
30.0
176
     1
 62
     7
420
 16777215
176
     1
 90
        1
176
     1
 90
        4
176
     1
 62
     7
176
     1
 62
   257
176
     1
 90
        1
176
     1
 90
        1
176
     1
 40
1.0
176
     1
 90
       12
176
     1
 62
     7
176
     1
 40
1.0
176
     1
 90
        1
176
     1
 90
        6
176
     1
 90
        2
176
     1
 62
     7
176
     1
 90
        5
176
     1
 90
        0
176
     1
 90
        0
176
     1
290
     0
176
     1
 90
        1
176
     1
 40
0.0
176
     1
 90
        0
176
     1
290
     0
176
     1
290
     1
176
     1
290
     1
176
     1
290
     0
176
     1
290
     0
176
     1
290
     0
176
     1
290
     0
176
     1
290
     0
176
     1
290
     0
176
     1
 90
       50
176
     1
 40
0.0
176
     1
 40
1.0
176
     1
 90
        0
176
     1
 62
    18
420
        0
176
     1
 90
       50
176
     1
 90
        3
176
     1
 62
     5
420
      255
176
     1
290
     0
176
     1
 90
       50
176
     1
 90
       50
176
     1
 90
       50
176
     1
290
     0
176
     1
 90
       50
176
     1
 62
   256
176
     0
 40
1.0
176
     0
 90
        2
176
     1
  1
strokes_ogs.tif
176
     1
290
     0
176
     1
 40
1.0
176
     1
 40
1.0
176
     1
  0
VISUALSTYLE
  5
30
102
{ACAD_REACTORS
330
29
102
}
330
29
100
AcDbVisualStyle
  2
Wireframe
 70
     5
177
     3
291
     0
 70
    58
 90
        0
176
     1
 90
        2
176
     1
 90
        0
176
     1
 90
        0
176
     1
 40
0.6
176
     1
 40
30.0
176
     1
 62
     7
420
 16777215
176
     1
 90
        1
176
     1
 90
        4
176
     1
 62
     7
176
     1
 62
   257
176
     1
 90
        1
176
     1
 90
        1
176
     1
 40
1.0
176
     1
 90
        0
176
     1
 62
   257
176
     1
 40
1.0
176
     1
 90
        1
176
     1
 90
        6
176
     1
 90
        2
176
     1
 62
     7
176
     1
 90
        3
176
     1
 90
        0
176
     1
 90
        0
176
     1
290
     0
176
     1
 90
        1
176
     1
 40
0.0
176
     1
 90
        0
176
     1
290
     0
176
     1
290
     1
176
     1
290
     1
176
     1
290
     0
176
     1
290
     0
176
     1
290
     0
176
     1
290
     0
176
     1
290
     0
176
     1
290
     0
176
     1
 90
       50
176
     1
 40
0.0
176
     1
 40
1.0
176
     1
 90
        0
176
     1
 62
    18
420
        0
176
     1
 90
       50
176
     1
 90
        3
176
     1
 62
     5
420
      255
176
     1
290
     0
176
     1
 90
       50
176
     1
 90
       50
176
     1
 90
       50
176
     1
290
     0
176
     1
 90
       50
176
     1
 62
   256
176
     0
 40
1.0
176
     0
 90
        2
176
     1
  1
strokes_ogs.tif
176
     1
290
     0
176
     1
 40
1.0
176
     1
 40
1.0
176
     1
  0
VISUALSTYLE
  5
3C
102
{ACAD_REACTORS
330
29
102
}
330
29
100
AcDbVisualStyle
  2
X-Ray
 70
    25
177
     3
291
     0
 70
    58
 90
        2
176
     1
 90
        2
176
     1
 90
        1
176
     1
 90
        1
176
     1
 40
0.5
176
     1
 40
30.0
176
     1
 62
     7
420
 16777215
176
     1
 90
        1
176
     1
 90
        0
176
     1
 62
     7
176
     1
 62
   257
176
     1
 90
        1
176
     1
 90
        1
176
     1
 40
1.0
176
     1
 90
        8
176
     1
 62
     7
176
     1
 40
1.0
176
     1
 90
        1
176
     1
 90
        6
176
     1
 90
        2
176
     1
 62
     7
176
     1
 90
        3
176
     1
 90
        0
176
     1
 90
        0
176
     1
290
     0
176
     1
 90
       13
176
     1
 40
0.0
176
     1
 90
        0
176
     1
290
     0
176
     1
290
     1
176
     1
290
     1
176
     1
290
     0
176
     1
290
     0
176
     1
290
     0
176
     1
290
     0
176
     1
290
     0
176
     1
290
     0
176
     1
 90
       50
176
     1
 40
0.0
176
     1
 40
1.0
176
     1
 90
        0
176
     1
 62
    18
420
        0
176
     1
 90
       50
176
     1
 90
        3
176
     1
 62
     5
420
      255
176
     1
290
     0
176
     1
 90
       50
176
     1
 90
       50
176
     1
 90
       50
176
     1
290
     0
176
     1
 90
       50
176
     1
 62
   256
176
     0
 40
1.0
176
     0
 90
        2
176
     1
  1
strokes_ogs.tif
176
     1
290
     0
176
     1
 40
1.0
176
     1
 40
1.0
176
     1
  0
DICTIONARYVAR
  5
3AE
102
{ACAD_REACTORS
330
3A9
102
}
330
3A9
100
DictionaryVariables
280
     0
  1
1:1
  0
DICTIONARYVAR
  5
3AB
102
{ACAD_REACTORS
330
3A9
102
}
330
3A9
100
DictionaryVariables
280
     0
  1
STANDARD
  0
DICTIONARYVAR
  5
3AA
102
{ACAD_REACTORS
330
3A9
102
}
330
3A9
100
DictionaryVariables
280
     0
  1
STANDARD
  0
DICTIONARYVAR
  5
3AC
102
{ACAD_REACTORS
330
3A9
102
}
330
3A9
100
DictionaryVariables
280
     0
  1
Imperial24
  0
DICTIONARYVAR
  5
3AD
102
{ACAD_REACTORS
330
3A9
102
}
330
3A9
100
DictionaryVariables
280
     0
  1
Imperial24
  0
DICTIONARY
  5
1A
330
19
100
AcDbDictionary
280
     1
281
     1
  3
BUMPTILE
360
1C
  3
DIFFUSETILE
360
1B
  3
OPACITYTILE
360
1F
  3
REFLECTIONTILE
360
1E
  3
REFRACTIONTILE
360
20
  3
SPECULARTILE
360
1D
  0
DICTIONARY
  5
12
330
11
100
AcDbDictionary
280
     1
281
     1
  3
BUMPTILE
360
14
  3
DIFFUSETILE
360
13
  3
OPACITYTILE
360
17
  3
REFLECTIONTILE
360
16
  3
REFRACTIONTILE
360
18
  3
SPECULARTILE
360
15
  0
DICTIONARY
  5
22
330
21
100
AcDbDictionary
280
     1
281
     1
  3
BUMPTILE
360
24
  3
DIFFUSETILE
360
23
  3
OPACITYTILE
360
27
  3
REFLECTIONTILE
360
26
  3
REFRACTIONTILE
360
28
  3
SPECULARTILE
360
25
  0
DICTIONARY
  5
3AF
330
65
100
AcDbDictionary
280
     1
281
     1
  3
ACAD_ROUNDTRIP_2008_TABLESTYLE_CELLSTYLEMAP
360
3B0
  0
XRECORD
  5
1C
102
{ACAD_REACTORS
330
1A
102
}
330
1A
100
AcDbXrecord
280
     1
270
     1
271
     1
  0
XRECORD
  5
1B
102
{ACAD_REACTORS
330
1A
102
}
330
1A
100
AcDbXrecord
280
     1
270
     1
271
     1
  0
XRECORD
  5
1F
102
{ACAD_REACTORS
330
1A
102
}
330
1A
100
AcDbXrecord
280
     1
270
     1
271
     1
  0
XRECORD
  5
1E
102
{ACAD_REACTORS
330
1A
102
}
330
1A
100
AcDbXrecord
280
     1
270
     1
271
     1
  0
XRECORD
  5
20
102
{ACAD_REACTORS
330
1A
102
}
330
1A
100
AcDbXrecord
280
     1
270
     1
271
     1
  0
XRECORD
  5
1D
102
{ACAD_REACTORS
330
1A
102
}
330
1A
100
AcDbXrecord
280
     1
270
     1
271
     1
  0
XRECORD
  5
14
102
{ACAD_REACTORS
330
12
102
}
330
12
100
AcDbXrecord
280
     1
270
     1
271
     1
  0
XRECORD
  5
13
102
{ACAD_REACTORS
330
12
102
}
330
12
100
AcDbXrecord
280
     1
270
     1
271
     1
  0
XRECORD
  5
17
102
{ACAD_REACTORS
330
12
102
}
330
12
100
AcDbXrecord
280
     1
270
     1
271
     1
  0
XRECORD
  5
16
102
{ACAD_REACTORS
330
12
102
}
330
12
100
AcDbXrecord
280
     1
270
     1
271
     1
  0
XRECORD
  5
18
102
{ACAD_REACTORS
330
12
102
}
330
12
100
AcDbXrecord
280
     1
270
     1
271
     1
  0
XRECORD
  5
15
102
{ACAD_REACTORS
330
12
102
}
330
12
100
AcDbXrecord
280
     1
270
     1
271
     1
  0
XRECORD
  5
24
102
{ACAD_REACTORS
330
22
102
}
330
22
100
AcDbXrecord
280
     1
270
     1
271
     1
  0
XRECORD
  5
23
102
{ACAD_REACTORS
330
22
102
}
330
22
100
AcDbXrecord
280
     1
270
     1
271
     1
  0
XRECORD
  5
27
102
{ACAD_REACTORS
330
22
102
}
330
22
100
AcDbXrecord
280
     1
270
     1
271
     1
  0
XRECORD
  5
26
102
{ACAD_REACTORS
330
22
102
}
330
22
100
AcDbXrecord
280
     1
270
     1
271
     1
  0
XRECORD
  5
28
102
{ACAD_REACTORS
330
22
102
}
330
22
100
AcDbXrecord
280
     1
270
     1
271
     1
  0
XRECORD
  5
25
102
{ACAD_REACTORS
330
22
102
}
330
22
100
AcDbXrecord
280
     1
270
     1
271
     1
  0
CELLSTYLEMAP
  5
3B0
102
{ACAD_REACTORS
330
3AF
102
}
330
3AF
100
AcDbCellStyleMap
 90
        3
300
CELLSTYLE
  1
TABLEFORMAT_BEGIN
 90
        5
170
     1
 91
        0
 92
    32768
 62
   257
 93
        1
300
CONTENTFORMAT
  1
CONTENTFORMAT_BEGIN
 90
        0
 91
        0
 92
      512
 93
        0
300

 40
0.0
140
1.0
 94
        5
 62
     0
340
55
144
0.25
309
CONTENTFORMAT_END
171
     0
 94
        0
309
TABLEFORMAT_END
  1
CELLSTYLE_BEGIN
 90
        1
 91
        1
300
_TITLE
309
CELLSTYLE_END
300
CELLSTYLE
  1
TABLEFORMAT_BEGIN
 90
        5
170
     1
 91
        0
 92
        0
 62
   257
 93
        1
300
CONTENTFORMAT
  1
CONTENTFORMAT_BEGIN
 90
        0
 91
        0
 92
      512
 93
        0
300

 40
0.0
140
1.0
 94
        5
 62
     0
340
55
144
0.18
309
CONTENTFORMAT_END
171
     0
 94
        0
309
TABLEFORMAT_END
  1
CELLSTYLE_BEGIN
 90
        2
 91
        1
300
_HEADER
309
CELLSTYLE_END
300
CELLSTYLE
  1
TABLEFORMAT_BEGIN
 90
        5
170
     1
 91
        0
 92
        0
 62
   257
 93
        1
300
CONTENTFORMAT
  1
CONTENTFORMAT_BEGIN
 90
        0
 91
        0
 92
      512
 93
        0
300

 40
0.0
140
1.0
 94
        2
 62
     0
340
55
144
0.18
309
CONTENTFORMAT_END
171
     0
 94
        0
309
TABLEFORMAT_END
  1
CELLSTYLE_BEGIN
 90
        3
 91
        2
300
_DATA
309
CELLSTYLE_END
  0
ENDSEC
  0
EOF
