  0
SECTION
  2
HEADER
  9
$ACADVER
  1
AC1032
  9
$ACADMAINTVER
 90
      228
  9
$DWGCODEPAGE
  3
ANSI_1252
  9
$REQUIREDVERSIONS
160
                 0
  9
$INSBASE
 10
0.0
 20
0.0
 30
0.0
  9
$EXTMIN
 10
1.000000000000000E+20
 20
1.000000000000000E+20
 30
1.000000000000000E+20
  9
$EXTMAX
 10
-1.000000000000000E+20
 20
-1.000000000000000E+20
 30
-1.000000000000000E+20
  9
$LIMMIN
 10
0.0
 20
0.0
  9
$LIMMAX
 10
12.0
 20
9.0
  9
$ORTHOMODE
 70
     0
  9
$REGENMODE
 70
     1
  9
$FILLMODE
 70
     1
  9
$QTEXTMODE
 70
     0
  9
$MIRRTEXT
 70
     0
  9
$LTSCALE
 40
1.0
  9
$ATTMODE
 70
     1
  9
$TEXTSIZE
 40
0.2
  9
$TRACEWID
 40
0.05
  9
$TEXTSTYLE
  7
Standard
  9
$CLAYER
  8
0
  9
$CELTYPE
  6
ByLayer
  9
$CECOLOR
 62
   256
  9
$CELTSCALE
 40
1.0
  9
$DISPSILH
 70
     0
  9
$DIMSCALE
 40
1.0
  9
$DIMASZ
 40
0.18
  9
$DIMEXO
 40
0.0625
  9
$DIMDLI
 40
0.38
  9
$DIMRND
 40
0.0
  9
$DIMDLE
 40
0.0
  9
$DIMEXE
 40
0.18
  9
$DIMTP
 40
0.0
  9
$DIMTM
 40
0.0
  9
$DIMTXT
 40
0.18
  9
$DIMCEN
 40
0.09
  9
$DIMTSZ
 40
0.0
  9
$DIMTOL
 70
     0
  9
$DIMLIM
 70
     0
  9
$DIMTIH
 70
     1
  9
$DIMTOH
 70
     1
  9
$DIMSE1
 70
     0
  9
$DIMSE2
 70
     0
  9
$DIMTAD
 70
     0
  9
$DIMZIN
 70
     0
  9
$DIMBLK
  1

  9
$DIMASO
 70
     1
  9
$DIMSHO
 70
     1
  9
$DIMPOST
  1

  9
$DIMAPOST
  1

  9
$DIMALT
 70
     0
  9
$DIMALTD
 70
     2
  9
$DIMALTF
 40
25.4
  9
$DIMLFAC
 40
1.0
  9
$DIMTOFL
 70
     0
  9
$DIMTVP
 40
0.0
  9
$DIMTIX
 70
     0
  9
$DIMSOXD
 70
     0
  9
$DIMSAH
 70
     0
  9
$DIMBLK1
  1

  9
$DIMBLK2
  1

  9
$DIMSTYLE
  2
Standard
  9
$DIMCLRD
 70
     0
  9
$DIMCLRE
 70
     0
  9
$DIMCLRT
 70
     0
  9
$DIMTFAC
 40
1.0
  9
$DIMGAP
 40
0.09
  9
$DIMJUST
 70
     0
  9
$DIMSD1
 70
     0
  9
$DIMSD2
 70
     0
  9
$DIMTOLJ
 70
     1
  9
$DIMTZIN
 70
     0
  9
$DIMALTZ
 70
     0
  9
$DIMALTTZ
 70
     0
  9
$DIMUPT
 70
     0
  9
$DIMDEC
 70
     4
  9
$DIMTDEC
 70
     4
  9
$DIMALTU
 70
     2
  9
$DIMALTTD
 70
     2
  9
$DIMTXSTY
  7
Standard
  9
$DIMAUNIT
 70
     0
  9
$DIMADEC
 70
     0
  9
$DIMALTRND
 40
0.0
  9
$DIMAZIN
 70
     0
  9
$DIMDSEP
 70
    46
  9
$DIMATFIT
 70
     3
  9
$DIMFRAC
 70
     0
  9
$DIMLDRBLK
  1

  9
$DIMLUNIT
 70
     2
  9
$DIMLWD
 70
    -2
  9
$DIMLWE
 70
    -2
  9
$DIMTMOVE
 70
     0
  9
$DIMFXL
 40
1.0
  9
$DIMFXLON
 70
     0
  9
$DIMJOGANG
 40
0.7853981633974483
  9
$DIMTFILL
 70
     0
  9
$DIMTFILLCLR
 70
     0
  9
$DIMARCSYM
 70
     0
  9
$DIMLTYPE
  6

  9
$DIMLTEX1
  6

  9
$DIMLTEX2
  6

  9
$DIMTXTDIRECTION
 70
     0
  9
$LUNITS
 70
     2
  9
$LUPREC
 70
     4
  9
$SKETCHINC
 40
0.1
  9
$FILLETRAD
 40
0.0
  9
$AUNITS
 70
     0
  9
$AUPREC
 70
     0
  9
$MENU
  1
.
  9
$ELEVATION
 40
0.0
  9
$PELEVATION
 40
0.0
  9
$THICKNESS
 40
0.0
  9
$LIMCHECK
 70
     0
  9
$CHAMFERA
 40
0.0
  9
$CHAMFERB
 40
0.0
  9
$CHAMFERC
 40
0.0
  9
$CHAMFERD
 40
0.0
  9
$SKPOLY
 70
     0
  9
$TDCREATE
 40
2459926.446377315
  9
$TDUCREATE
 40
2459926.571377315
  9
$TDUPDATE
 40
2459926.446377315
  9
$TDUUPDATE
 40
2459926.571377315
  9
$TDINDWG
 40
0.0000000000
  9
$TDUSRTIMER
 40
0.0000000000
  9
$USRTIMER
 70
     1
  9
$ANGBASE
 50
0.0
  9
$ANGDIR
 70
     0
  9
$PDMODE
 70
     0
  9
$PDSIZE
 40
0.0
  9
$PLINEWID
 40
0.0
  9
$SPLFRAME
 70
     0
  9
$SPLINETYPE
 70
     6
  9
$SPLINESEGS
 70
     8
  9
$HANDSEED
  5
236
  9
$SURFTAB1
 70
     6
  9
$SURFTAB2
 70
     6
  9
$SURFTYPE
 70
     6
  9
$SURFU
 70
     6
  9
$SURFV
 70
     6
  9
$UCSBASE
  2

  9
$UCSNAME
  2

  9
$UCSORG
 10
0.0
 20
0.0
 30
0.0
  9
$UCSXDIR
 10
1.0
 20
0.0
 30
0.0
  9
$UCSYDIR
 10
0.0
 20
1.0
 30
0.0
  9
$UCSORTHOREF
  2

  9
$UCSORTHOVIEW
 70
     0
  9
$UCSORGTOP
 10
0.0
 20
0.0
 30
0.0
  9
$UCSORGBOTTOM
 10
0.0
 20
0.0
 30
0.0
  9
$UCSORGLEFT
 10
0.0
 20
0.0
 30
0.0
  9
$UCSORGRIGHT
 10
0.0
 20
0.0
 30
0.0
  9
$UCSORGFRONT
 10
0.0
 20
0.0
 30
0.0
  9
$UCSORGBACK
 10
0.0
 20
0.0
 30
0.0
  9
$PUCSBASE
  2

  9
$PUCSNAME
  2

  9
$PUCSORG
 10
0.0
 20
0.0
 30
0.0
  9
$PUCSXDIR
 10
1.0
 20
0.0
 30
0.0
  9
$PUCSYDIR
 10
0.0
 20
1.0
 30
0.0
  9
$PUCSORTHOREF
  2

  9
$PUCSORTHOVIEW
 70
     0
  9
$PUCSORGTOP
 10
0.0
 20
0.0
 30
0.0
  9
$PUCSORGBOTTOM
 10
0.0
 20
0.0
 30
0.0
  9
$PUCSORGLEFT
 10
0.0
 20
0.0
 30
0.0
  9
$PUCSORGRIGHT
 10
0.0
 20
0.0
 30
0.0
  9
$PUCSORGFRONT
 10
0.0
 20
0.0
 30
0.0
  9
$PUCSORGBACK
 10
0.0
 20
0.0
 30
0.0
  9
$USERI1
 70
     0
  9
$USERI2
 70
     0
  9
$USERI3
 70
     0
  9
$USERI4
 70
     0
  9
$USERI5
 70
     0
  9
$USERR1
 40
0.0
  9
$USERR2
 40
0.0
  9
$USERR3
 40
0.0
  9
$USERR4
 40
0.0
  9
$USERR5
 40
0.0
  9
$WORLDVIEW
 70
     1
  9
$SHADEDGE
 70
     3
  9
$SHADEDIF
 70
    70
  9
$TILEMODE
 70
     1
  9
$MAXACTVP
 70
    64
  9
$PINSBASE
 10
0.0
 20
0.0
 30
0.0
  9
$PLIMCHECK
 70
     0
  9
$PEXTMIN
 10
1.000000000000000E+20
 20
1.000000000000000E+20
 30
1.000000000000000E+20
  9
$PEXTMAX
 10
-1.000000000000000E+20
 20
-1.000000000000000E+20
 30
-1.000000000000000E+20
  9
$PLIMMIN
 10
0.0
 20
0.0
  9
$PLIMMAX
 10
12.0
 20
9.0
  9
$UNITMODE
 70
     0
  9
$VISRETAIN
 70
     1
  9
$PLINEGEN
 70
     0
  9
$PSLTSCALE
 70
     1
  9
$TREEDEPTH
 70
  3020
  9
$CMLSTYLE
  2
Standard
  9
$CMLJUST
 70
     0
  9
$CMLSCALE
 40
1.0
  9
$PROXYGRAPHICS
 70
     1
  9
$MEASUREMENT
 70
     0
  9
$CELWEIGHT
370
    -1
  9
$ENDCAPS
280
     0
  9
$JOINSTYLE
280
     0
  9
$LWDISPLAY
290
     1
  9
$INSUNITS
 70
     4
  9
$HYPERLINKBASE
  1

  9
$STYLESHEET
  1

  9
$XEDIT
290
     1
  9
$CEPSNTYPE
380
     0
  9
$PSTYLEMODE
290
     1
  9
$FINGERPRINTGUID
  2
{D45C3489-6789-D34F-A8E0-514F02D9A34E}
  9
$VERSIONGUID
  2
{10C466A5-3B42-B54D-AFB9-98CE00D2180A}
  9
$EXTNAMES
290
     1
  9
$PSVPSCALE
 40
0.0
  9
$OLESTARTUP
290
     0
  9
$SORTENTS
280
   127
  9
$INDEXCTL
280
     0
  9
$HIDETEXT
280
     1
  9
$XCLIPFRAME
280
     2
  9
$HALOGAP
280
     0
  9
$OBSCOLOR
 70
   257
  9
$OBSLTYPE
280
     0
  9
$INTERSECTIONDISPLAY
280
     0
  9
$INTERSECTIONCOLOR
 70
   257
  9
$DIMASSOC
280
     2
  9
$PROJECTNAME
  1

  9
$CAMERADISPLAY
290
     0
  9
$LENSLENGTH
 40
50.0
  9
$CAMERAHEIGHT
 40
0.0
  9
$STEPSPERSEC
 40
2.0
  9
$STEPSIZE
 40
6.0
  9
$3DDWFPREC
 40
2.0
  9
$PSOLWIDTH
 40
0.25
  9
$PSOLHEIGHT
 40
4.0
  9
$LOFTANG1
 40
1.570796326794896
  9
$LOFTANG2
 40
1.570796326794896
  9
$LOFTMAG1
 40
0.0
  9
$LOFTMAG2
 40
0.0
  9
$LOFTPARAM
 70
     7
  9
$LOFTNORMALS
280
     1
  9
$LATITUDE
 40
37.795
  9
$LONGITUDE
 40
-122.394
  9
$NORTHDIRECTION
 40
0.0
  9
$TIMEZONE
 70
 -8000
  9
$LIGHTGLYPHDISPLAY
280
     1
  9
$TILEMODELIGHTSYNCH
280
     1
  9
$CMATERIAL
347
11
  9
$SOLIDHIST
280
     0
  9
$SHOWHIST
280
     1
  9
$DWFFRAME
280
     2
  9
$DGNFRAME
280
     0
  9
$REALWORLDSCALE
290
     1
  9
$INTERFERECOLOR
 62
     1
  9
$INTERFEREOBJVS
345
33
  9
$INTERFEREVPVS
346
30
  9
$CSHADOW
280
     0
  9
$SHADOWPLANELOCATION
 40
0.0
  0
ENDSEC
  0
SECTION
  2
CLASSES
  0
CLASS
  1
ACDBDICTIONARYWDFLT
  2
AcDbDictionaryWithDefault
  3
ObjectDBX Classes
 90
        0
 91
        1
280
     0
281
     0
  0
CLASS
  1
MATERIAL
  2
AcDbMaterial
  3
ObjectDBX Classes
 90
     1153
 91
        3
280
     0
281
     0
  0
CLASS
  1
VISUALSTYLE
  2
AcDbVisualStyle
  3
ObjectDBX Classes
 90
     4095
 91
       24
280
     0
281
     0
  0
CLASS
  1
SCALE
  2
AcDbScale
  3
ObjectDBX Classes
 90
     1153
 91
       17
280
     0
281
     0
  0
CLASS
  1
TABLESTYLE
  2
AcDbTableStyle
  3
ObjectDBX Classes
 90
     4095
 91
        1
280
     0
281
     0
  0
CLASS
  1
MLEADERSTYLE
  2
AcDbMLeaderStyle
  3
ACDB_MLEADERSTYLE_CLASS
 90
     4095
 91
        1
280
     0
281
     0
  0
CLASS
  1
ACDBSECTIONVIEWSTYLE
  2
AcDbSectionViewStyle
  3
ObjectDBX Classes
 90
     1025
 91
        1
280
     0
281
     0
  0
CLASS
  1
ACDBDETAILVIEWSTYLE
  2
AcDbDetailViewStyle
  3
ObjectDBX Classes
 90
     1025
 91
        1
280
     0
281
     0
  0
CLASS
  1
DICTIONARYVAR
  2
AcDbDictionaryVar
  3
ObjectDBX Classes
 90
        0
 91
        5
280
     0
281
     0
  0
CLASS
  1
CELLSTYLEMAP
  2
AcDbCellStyleMap
  3
ObjectDBX Classes
 90
     1152
 91
        1
280
     0
281
     0
  0
ENDSEC
  0
SECTION
  2
TABLES
  0
TABLE
  2
VPORT
  5
8
330
0
100
AcDbSymbolTable
 70
     1
  0
VPORT
  5
57
330
8
100
AcDbSymbolTableRecord
100
AcDbViewportTableRecord
  2
*Active
 70
     0
 10
0.0
 20
0.0
 11
1.0
 21
1.0
 12
0.0
 22
0.0
 13
0.0
 23
0.0
 14
1.0
 24
1.0
 15
0.0
 25
0.0
 16
0.0
 26
0.0
 36
1.0
 17
107.3519240472362
 27
159.632140392191
 37
0.0
 40
174.679492363737
 41
1.253712854857283
 42
50.0
 43
0.0
 44
0.0
 50
0.0
 51
0.0
 71
     0
 72
   100
 73
     1
 74
     1
 75
     0
 76
     0
 77
     0
 78
     0
281
     0
 65
     1
110
0.0
120
0.0
130
0.0
111
1.0
121
0.0
131
0.0
112
0.0
122
1.0
132
0.0
 79
     0
146
0.0
 60
     3
 61
     5
292
     1
282
     1
141
0.0
142
0.0
 63
   250
421
  3355443
  0
ENDTAB
  0
TABLE
  2
LTYPE
  5
5
330
0
100
AcDbSymbolTable
 70
     3
  0
LTYPE
  5
5B
330
5
100
AcDbSymbolTableRecord
100
AcDbLinetypeTableRecord
  2
ByBlock
 70
     0
  3

 72
    65
 73
     0
 40
0.0
  0
LTYPE
  5
5C
330
5
100
AcDbSymbolTableRecord
100
AcDbLinetypeTableRecord
  2
ByLayer
 70
     0
  3

 72
    65
 73
     0
 40
0.0
  0
LTYPE
  5
5D
330
5
100
AcDbSymbolTableRecord
100
AcDbLinetypeTableRecord
  2
Continuous
 70
     0
  3
Solid line
 72
    65
 73
     0
 40
0.0
  0
LTYPE
  5
7C
330
5
100
AcDbSymbolTableRecord
100
AcDbLinetypeTableRecord
  2
AI-Linetype-0
 70
     0
  3
Adobe Illustrator Linetype No. 0
 72
    65
 73
     4
 40
34.57971260477874
 49
16.0158667206461
 74
     0
 49
-6.187948628044213
 74
     0
 49
6.187948628044213
 74
     0
 49
-6.187948628044213
 74
     0
  0
LTYPE
  5
7E
330
5
100
AcDbSymbolTableRecord
100
AcDbLinetypeTableRecord
  2
AI-Linetype-1
 70
     0
  3
Adobe Illustrator Linetype No. 1
 72
    65
 73
     4
 40
34.57971260477874
 49
16.0158667206461
 74
     0
 49
-6.187948628044213
 74
     0
 49
6.187948628044213
 74
     0
 49
-6.187948628044213
 74
     0
  0
ENDTAB
  0
TABLE
  2
LAYER
  5
2
330
0
100
AcDbSymbolTable
 70
     7
  0
LAYER
  5
54
330
2
100
AcDbSymbolTableRecord
100
AcDbLayerTableRecord
  2
0
 70
     0
 62
     7
  6
Continuous
370
    -3
390
F
347
21
348
0
  0
LAYER
  5
78
330
2
100
AcDbSymbolTableRecord
100
AcDbLayerTableRecord
  2
2
 70
     0
 62
     7
  6
Continuous
370
     0
390
F
347
21
348
0
  0
LAYER
  5
79
330
2
100
AcDbSymbolTableRecord
100
AcDbLayerTableRecord
  2
5
 70
     0
 62
     7
  6
Continuous
370
     0
390
F
347
21
348
0
  0
LAYER
  5
7A
330
2
100
AcDbSymbolTableRecord
100
AcDbLayerTableRecord
  2
1
 70
     0
 62
     7
  6
Continuous
370
     0
390
F
347
21
348
0
  0
LAYER
  5
7F
330
2
100
AcDbSymbolTableRecord
100
AcDbLayerTableRecord
  2
Back$1
 70
     0
 62
     7
  6
Continuous
370
     0
390
F
347
21
348
0
  0
LAYER
  5
80
330
2
100
AcDbSymbolTableRecord
100
AcDbLayerTableRecord
  2
ORTHO$2
 70
     0
 62
     7
  6
Continuous
370
     0
390
F
347
21
348
0
  0
LAYER
  5
81
330
2
100
AcDbSymbolTableRecord
100
AcDbLayerTableRecord
  2
Isometric$4
 70
     0
 62
     7
  6
Continuous
370
     0
390
F
347
21
348
0
  0
ENDTAB
  0
TABLE
  2
STYLE
  5
3
330
0
100
AcDbSymbolTable
 70
     2
  0
STYLE
  5
55
330
3
100
AcDbSymbolTableRecord
100
AcDbTextStyleTableRecord
  2
Standard
 70
     0
 40
0.0
 41
1.0
 50
0.0
 71
     0
 42
0.2
  3
txt
  4

  0
STYLE
  5
5A
330
3
100
AcDbSymbolTableRecord
100
AcDbTextStyleTableRecord
  2
Annotative
 70
     0
 40
0.0
 41
1.0
 50
0.0
 71
     0
 42
0.2
  3
txt
  4

1001
AcadAnnotative
1000
AnnotativeData
1002
{
1070
     1
1070
     1
1002
}
  0
ENDTAB
  0
TABLE
  2
VIEW
  5
6
330
0
100
AcDbSymbolTable
 70
     0
  0
ENDTAB
  0
TABLE
  2
UCS
  5
7
330
0
100
AcDbSymbolTable
 70
     0
  0
ENDTAB
  0
TABLE
  2
APPID
  5
9
330
0
100
AcDbSymbolTable
 70
     2
  0
APPID
  5
56
330
9
100
AcDbSymbolTableRecord
100
AcDbRegAppTableRecord
  2
ACAD
 70
     0
  0
APPID
  5
5E
330
9
100
AcDbSymbolTableRecord
100
AcDbRegAppTableRecord
  2
AcadAnnotative
 70
     0
  0
ENDTAB
  0
TABLE
  2
DIMSTYLE
  5
A
330
0
100
AcDbSymbolTable
 70
     2
100
AcDbDimStyleTable
 71
     0
  0
DIMSTYLE
105
58
330
A
100
AcDbSymbolTableRecord
100
AcDbDimStyleTableRecord
  2
Standard
 70
     0
340
55
  0
DIMSTYLE
105
59
330
A
100
AcDbSymbolTableRecord
100
AcDbDimStyleTableRecord
  2
Annotative
 70
     0
340
55
1001
AcadAnnotative
1000
AnnotativeData
1002
{
1070
     1
1070
     1
1002
}
  0
ENDTAB
  0
TABLE
  2
BLOCK_RECORD
  5
1
330
0
100
AcDbSymbolTable
 70
     3
  0
BLOCK_RECORD
  5
70
330
1
100
AcDbSymbolTableRecord
100
AcDbBlockTableRecord
  2
*Model_Space
340
73
 70
     0
280
     1
281
     0
  0
BLOCK_RECORD
  5
6C
330
1
100
AcDbSymbolTableRecord
100
AcDbBlockTableRecord
  2
*Paper_Space
340
6F
 70
     0
280
     1
281
     0
  0
BLOCK_RECORD
  5
74
330
1
100
AcDbSymbolTableRecord
100
AcDbBlockTableRecord
  2
*Paper_Space0
340
77
 70
     0
280
     1
281
     0
  0
BLOCK_RECORD
  5
220
330
1
100
AcDbSymbolTableRecord
100
AcDbBlockTableRecord
  2
Block_0
340
0
102
{BLKREFS
331
221
102
}
 70
     0
280
     1
281
     0
  0
BLOCK_RECORD
  5
226
330
1
100
AcDbSymbolTableRecord
100
AcDbBlockTableRecord
  2
Block_1
340
0
102
{BLKREFS
331
227
102
}
 70
     0
280
     1
281
     0
  0
ENDTAB
  0
ENDSEC
  0
SECTION
  2
BLOCKS
  0
BLOCK
  5
71
330
70
100
AcDbEntity
  8
0
100
AcDbBlockBegin
  2
*Model_Space
 70
     0
 10
0.0
 20
0.0
 30
0.0
  3
*Model_Space
  1

  0
ENDBLK
  5
72
330
70
100
AcDbEntity
  8
0
100
AcDbBlockEnd
  0
BLOCK
  5
6D
330
6C
100
AcDbEntity
 67
     1
  8
0
100
AcDbBlockBegin
  2
*Paper_Space
 70
     0
 10
0.0
 20
0.0
 30
0.0
  3
*Paper_Space
  1

  0
ENDBLK
  5
6E
330
6C
100
AcDbEntity
 67
     1
  8
0
100
AcDbBlockEnd
  0
BLOCK
  5
75
330
74
100
AcDbEntity
 67
     1
  8
0
100
AcDbBlockBegin
  2
*Paper_Space0
 70
     0
 10
0.0
 20
0.0
 30
0.0
  3
*Paper_Space0
  1

  0
ENDBLK
  5
76
330
74
100
AcDbEntity
 67
     1
  8
0
100
AcDbBlockEnd
  0
BLOCK
  5
222
330
220
100
AcDbEntity
  8
0
100
AcDbBlockBegin
  2
Block_0
 70
     0
 10
0.0
 20
0.0
 30
0.0
  3
Block_0
  1

  0
SPLINE
  5
224
330
220
100
AcDbEntity
  8
Isometric$4
 62
   251
370
    35
100
AcDbSpline
210
0.0
220
0.0
230
1.0
 70
     9
 71
     3
 72
    29
 73
    25
 74
     0
 42
0.0000000001
 43
0.0000000001
 40
0.0
 40
0.0
 40
0.0
 40
0.0
 40
1.0
 40
1.0
 40
1.0
 40
2.0
 40
2.0
 40
2.0
 40
3.0
 40
3.0
 40
3.0
 40
4.0
 40
4.0
 40
4.0
 40
5.0
 40
5.0
 40
5.0
 40
6.0
 40
6.0
 40
6.0
 40
7.0
 40
7.0
 40
7.0
 40
8.0
 40
8.0
 40
8.0
 40
8.0
 10
202.0096846998064
 20
80.85949427444766
 30
0.0
 10
202.0096846998064
 20
79.91260409144273
 30
0.0
 10
201.2354420233296
 20
79.13836237223581
 30
0.0
 10
200.287883665737
 20
79.13836237223581
 30
0.0
 10
200.287883665737
 20
79.13836237223581
 30
0.0
 10
190.1685384446793
 20
79.13836237223581
 30
0.0
 10
190.1685384446793
 20
79.13836237223581
 30
0.0
 10
189.2229865253901
 20
79.13836237223581
 30
0.0
 10
188.4480750361457
 20
79.91260409144273
 30
0.0
 10
188.4480750361457
 20
80.85949427444766
 30
0.0
 10
188.4480750361457
 20
80.85949427444766
 30
0.0
 10
188.4480750361457
 20
90.98017664240613
 30
0.0
 10
188.4480750361457
 20
90.98017664240613
 30
0.0
 10
188.4480750361457
 20
91.92572983805531
 30
0.0
 10
189.2229865253901
 20
92.7006400509385
 30
0.0
 10
190.1685384446793
 20
92.7006400509385
 30
0.0
 10
190.1685384446793
 20
92.7006400509385
 30
0.0
 10
200.287883665737
 20
92.7006400509385
 30
0.0
 10
200.287883665737
 20
92.7006400509385
 30
0.0
 10
201.2354420233296
 20
92.7006400509385
 30
0.0
 10
202.0096846998064
 20
91.92572983805531
 30
0.0
 10
202.0096846998064
 20
90.98017664240613
 30
0.0
 10
202.0096846998064
 20
90.98017664240613
 30
0.0
 10
202.0096846998064
 20
80.85949427444766
 30
0.0
 10
202.0096846998064
 20
80.85949427444766
 30
0.0
  0
LWPOLYLINE
  5
225
330
220
100
AcDbEntity
  8
Isometric$4
100
AcDbPolyline
 90
        4
 70
     1
 43
0.0
 10
188.1717711233352
 20
78.86219167952707
 10
202.3416647228014
 20
78.86219167952707
 10
202.3416647228014
 20
92.97654318663276
 10
188.1717711233352
 20
92.97654318663276
  0
ENDBLK
  5
223
330
220
100
AcDbEntity
  8
0
100
AcDbBlockEnd
  0
BLOCK
  5
228
330
226
100
AcDbEntity
  8
0
100
AcDbBlockBegin
  2
Block_1
 70
     0
 10
0.0
 20
0.0
 30
0.0
  3
Block_1
  1

  0
LINE
  5
22A
330
226
100
AcDbEntity
  8
Isometric$4
 62
   253
370
    35
100
AcDbLine
 10
191.0346198153786
 20
83.57174239848836
 30
0.0
 11
199.4153111469796
 21
83.57174239848836
 31
0.0
  0
LINE
  5
22B
330
226
100
AcDbEntity
  8
Isometric$4
 62
   253
370
    35
100
AcDbLine
 10
190.9347984136094
 20
84.69760130945164
 30
0.0
 11
190.9347984136094
 21
82.44726709222735
 31
0.0
  0
LINE
  5
22C
330
226
100
AcDbEntity
  8
Isometric$4
 62
   253
370
    35
100
AcDbLine
 10
199.5175044425235
 20
84.69760130945164
 30
0.0
 11
199.5175044425235
 21
82.44726709222735
 31
0.0
  0
ENDBLK
  5
229
330
226
100
AcDbEntity
  8
0
100
AcDbBlockEnd
  0
ENDSEC
  0
SECTION
  2
ENTITIES
  0
LINE
  5
7B
330
70
100
AcDbEntity
  8
1
  6
AI-Linetype-0
 62
     7
370
    35
100
AcDbLine
 10
108.9972346996642
 20
200.7578766990508
 30
0.0
 11
140.019892419976
 21
183.2175913198814
 31
0.0
  0
LINE
  5
7D
330
70
100
AcDbEntity
  8
1
  6
AI-Linetype-1
 62
     7
370
    35
100
AcDbLine
 10
108.9972346996642
 20
200.7578766990508
 30
0.0
 11
140.019892419976
 21
183.2175913198814
 31
0.0
  0
LINE
  5
82
330
70
100
AcDbEntity
  8
Isometric$4
 62
     7
370
    35
100
AcDbLine
 10
35.47260180548479
 20
163.9778320319432
 30
0.0
 11
35.55212873418066
 21
162.1574189577625
 31
0.0
  0
LINE
  5
83
330
70
100
AcDbEntity
  8
Isometric$4
 62
     7
370
    35
100
AcDbLine
 10
148.1825925610017
 20
162.1574189577625
 30
0.0
 11
148.4847492182495
 21
169.0739526042691
 31
0.0
  0
LINE
  5
84
330
70
100
AcDbEntity
  8
Isometric$4
 62
     7
370
    35
100
AcDbLine
 10
136.1221737518743
 20
159.3016154878522
 30
0.0
 11
138.5160787335856
 21
160.6551354499629
 31
0.0
  0
LINE
  5
85
330
70
100
AcDbEntity
  8
Isometric$4
 62
     7
370
    35
100
AcDbLine
 10
138.9593643679326
 20
161.3767436809427
 30
0.0
 11
139.0664972456428
 21
163.7489248584902
 31
0.0
  0
LINE
  5
86
330
70
100
AcDbEntity
  8
Isometric$4
 62
     7
370
    35
100
AcDbLine
 10
135.4952406731108
 20
159.3262924294868
 30
0.0
 11
135.5704397047683
 21
159.2837747150654
 31
0.0
  0
LINE
  5
87
330
70
100
AcDbEntity
  8
Isometric$4
 62
     7
370
    35
100
AcDbLine
 10
135.129986450152
 20
161.5232333074947
 30
0.0
 11
135.2407429012702
 21
159.7618533093356
 31
0.0
  0
LINE
  5
88
330
70
100
AcDbEntity
  8
Isometric$4
 62
     7
370
    35
100
AcDbLine
 10
42.11957125992023
 20
160.2194429554452
 30
0.0
 11
41.9653966902939
 21
155.2254330138365
 31
0.0
  0
LINE
  5
89
330
70
100
AcDbEntity
  8
Isometric$4
 62
     7
370
    35
100
AcDbLine
 10
125.5591454163524
 20
153.6502023330853
 30
0.0
 11
125.6318057098513
 21
155.9620076708761
 31
0.0
  0
LINE
  5
8A
330
70
100
AcDbEntity
  8
Isometric$4
 62
     7
370
    35
100
AcDbLine
 10
120.1439464364576
 20
150.439773504938
 30
0.0
 11
120.5352359251221
 21
150.2185374814387
 31
0.0
  0
LINE
  5
8B
330
70
100
AcDbEntity
  8
Isometric$4
 62
     7
370
    35
100
AcDbLine
 10
100.7499383482365
 20
139.3020680180347
 30
0.0
 11
103.1438433299462
 21
140.6555876860339
 31
0.0
  0
LINE
  5
8C
330
70
100
AcDbEntity
  8
Isometric$4
 62
     7
370
    35
100
AcDbLine
 10
103.5871289642945
 20
141.3771962111235
 30
0.0
 11
103.6942615819135
 21
143.7493775357267
 31
0.0
  0
LINE
  5
8D
330
70
100
AcDbEntity
  8
Isometric$4
 62
     7
370
    35
100
AcDbLine
 10
100.1230055295613
 20
139.3267448126133
 30
0.0
 11
100.1982040410399
 21
139.2842273923031
 31
0.0
  0
LINE
  5
8E
330
70
100
AcDbEntity
  8
Isometric$4
 62
     7
370
    35
100
AcDbLine
 10
99.75775104651452
 20
141.5236855435653
 30
0.0
 11
99.86850749763142
 21
139.762305839518
 31
0.0
  0
LINE
  5
8F
330
70
100
AcDbEntity
  8
Isometric$4
 62
     7
370
    35
100
AcDbLine
 10
37.64656742925392
 20
159.0686266420491
 30
0.0
 11
41.97388964628951
 21
156.6219481918684
 31
0.0
  0
LINE
  5
90
330
70
100
AcDbEntity
  8
Isometric$4
 62
     7
370
    35
100
AcDbLine
 10
72.23989424516595
 20
139.509475972069
 30
0.0
 11
88.3641108388832
 21
130.3928049022363
 31
0.0
  0
LINE
  5
91
330
70
100
AcDbEntity
  8
Isometric$4
 62
     7
370
    35
100
AcDbLine
 10
95.37061045630082
 20
130.3928049022363
 30
0.0
 11
146.0881538659297
 21
159.0686266420491
 31
0.0
  0
LINE
  5
92
330
70
100
AcDbEntity
  8
Isometric$4
 62
     7
370
    35
100
AcDbLine
 10
132.9346422114312
 20
144.8842417100726
 30
0.0
 11
136.5759014781856
 21
142.8254646175942
 31
0.0
  0
LINE
  5
93
330
70
100
AcDbEntity
  8
Isometric$4
 62
     7
370
    35
100
AcDbLine
 10
136.7598131740093
 20
142.8254646175942
 30
0.0
 11
136.992967443042
 21
142.9572906053532
 31
0.0
  0
LINE
  5
94
330
70
100
AcDbEntity
  8
Isometric$4
 62
     7
370
    35
100
AcDbLine
 10
133.1677964804652
 20
151.2102393068864
 30
0.0
 11
132.9346422114312
 21
151.0784133191271
 31
0.0
  0
LINE
  5
95
330
70
100
AcDbEntity
  8
Isometric$4
 62
     7
370
    35
100
AcDbLine
 10
134.3908583626671
 20
149.0982269483751
 30
0.0
 11
134.303361497136
 21
149.0487560089318
 31
0.0
  0
LINE
  5
96
330
70
100
AcDbEntity
  8
Isometric$4
 62
     7
370
    35
100
AcDbLine
 10
134.8673972794636
 20
147.91188790934
 30
0.0
 11
134.9466570957652
 21
147.9567016012228
 31
0.0
  0
LINE
  5
97
330
70
100
AcDbEntity
  8
Isometric$4
 62
     7
370
    35
100
AcDbLine
 10
132.8426863635203
 20
150.9224371425204
 30
0.0
 11
132.8426863635203
 21
146.4489171884814
 31
0.0
  0
LINE
  5
98
330
70
100
AcDbEntity
  8
Isometric$4
 62
     7
370
    35
100
AcDbLine
 10
132.8426866236106
 20
145.438370201208
 30
0.0
 11
132.8426866236106
 21
145.0402174455122
 31
0.0
  0
LINE
  5
99
330
70
100
AcDbEntity
  8
Isometric$4
 62
     7
370
    35
100
AcDbLine
 10
139.0472336822959
 20
151.2447079387285
 30
0.0
 11
141.8722661327925
 21
149.6474280510016
 31
0.0
  0
LINE
  5
9A
330
70
100
AcDbEntity
  8
Isometric$4
 62
     7
370
    35
100
AcDbLine
 10
142.6029761484327
 20
149.6446623782872
 30
0.0
 11
148.3971262090856
 21
152.8624675101187
 31
0.0
  0
LINE
  5
9B
330
70
100
AcDbEntity
  8
Isometric$4
 62
     7
370
    35
100
AcDbLine
 10
151.2097518480147
 20
154.4244708431071
 30
0.0
 11
153.6106228192901
 21
155.7578043502126
 31
0.0
  0
LINE
  5
9C
330
70
100
AcDbEntity
  8
Isometric$4
 62
     7
370
    35
100
AcDbLine
 10
150.1794559043555
 20
153.8005376079165
 30
0.0
 11
154.8406790408635
 21
156.6232822670252
 31
0.0
  0
LINE
  5
9D
330
70
100
AcDbEntity
  8
Isometric$4
 62
     7
370
    35
100
AcDbLine
 10
146.4979295090322
 20
151.8623454340205
 30
0.0
 11
150.1887585421763
 21
153.8059476325633
 31
0.0
  0
LINE
  5
9E
330
70
100
AcDbEntity
  8
Isometric$4
 62
     7
370
    35
100
AcDbLine
 10
153.8566944564955
 20
162.8160246437131
 30
0.0
 11
153.8566944564955
 21
172.1109590329198
 31
0.0
  0
LINE
  5
9F
330
70
100
AcDbEntity
  8
Isometric$4
 62
     7
370
    18
100
AcDbLine
 10
174.415728324497
 20
114.6628622061489
 30
0.0
 11
174.415728324497
 21
183.8558990046136
 31
0.0
  0
LINE
  5
A0
330
70
100
AcDbEntity
  8
Isometric$4
 62
     7
370
    18
100
AcDbLine
 10
13.09598370907887
 20
123.305959278787
 30
0.0
 11
13.09598370907887
 21
176.7965499352437
 31
0.0
  0
LINE
  5
A1
330
70
100
AcDbEntity
  8
Isometric$4
 62
     7
370
    35
100
AcDbLine
 10
138.7058669021033
 20
154.8946269695803
 30
0.0
 11
138.7058669021033
 21
151.7752119644139
 31
0.0
  0
LINE
  5
A2
330
70
100
AcDbEntity
  8
Isometric$4
 62
     7
370
    35
100
AcDbLine
 10
116.6541960772653
 20
140.1782627511805
 30
0.0
 11
116.8314554520216
 21
140.0971029699382
 31
0.0
  0
LINE
  5
A3
330
70
100
AcDbEntity
  8
Isometric$4
 62
     7
370
    35
100
AcDbLine
 10
114.1756546994732
 20
138.6247729020295
 30
0.0
 11
114.2862355898639
 21
141.0878404054421
 31
0.0
  0
LINE
  5
A4
330
70
100
AcDbEntity
  8
Isometric$4
 62
     7
370
    35
100
AcDbLine
 10
121.5438122758857
 20
103.9685080994743
 30
0.0
 11
124.3516057033343
 21
146.7783564989563
 31
0.0
  0
LINE
  5
A5
330
70
100
AcDbEntity
  8
Isometric$4
 62
     7
370
    35
100
AcDbLine
 10
59.50607286328247
 20
144.9036517120588
 30
0.0
 11
62.19090901929767
 21
103.9685080994743
 31
0.0
  0
LINE
  5
A6
330
70
100
AcDbEntity
  8
Isometric$4
 62
     7
370
    35
100
AcDbLine
 10
87.20805359386451
 20
206.6700936802988
 30
0.0
 11
36.93266286669049
 21
178.2442664309141
 31
0.0
  0
LINE
  5
A7
330
70
100
AcDbEntity
  8
Isometric$4
 62
     7
370
    35
100
AcDbLine
 10
146.6199951920611
 20
177.9942719404863
 30
0.0
 11
95.90245178243115
 21
206.6700936802988
 31
0.0
  0
LINE
  5
A8
330
70
100
AcDbEntity
  8
Isometric$4
 62
     7
370
    35
100
AcDbLine
 10
123.8854742865339
 20
139.6764764580515
 30
0.0
 11
128.968270226832
 21
136.8026513370944
 31
0.0
  0
LINE
  5
A9
330
70
100
AcDbEntity
  8
Isometric$4
 62
     7
370
    35
100
AcDbLine
 10
129.746534571712
 20
136.730833697407
 30
0.0
 11
130.1150906367915
 21
136.9191239957829
 31
0.0
  0
LINE
  5
AA
330
70
100
AcDbEntity
  8
Isometric$4
 62
     7
370
    35
100
AcDbLine
 10
137.9971422913067
 20
126.4566579361047
 30
0.0
 11
146.5478152847295
 21
130.7977600040151
 31
0.0
  0
LINE
  5
AB
330
70
100
AcDbEntity
  8
Isometric$4
 62
     7
370
    35
100
AcDbLine
 10
130.1554391735182
 20
150.0601026839927
 30
0.0
 11
130.1554389134286
 21
137.2215697993946
 31
0.0
  0
LINE
  5
AC
330
70
100
AcDbEntity
  8
Isometric$4
 62
     7
370
    35
100
AcDbLine
 10
147.6040988976334
 20
172.9007996905907
 30
0.0
 11
96.88655548800385
 21
144.2249779507776
 31
0.0
  0
LINE
  5
AD
330
70
100
AcDbEntity
  8
Isometric$4
 62
     7
370
    35
100
AcDbLine
 10
86.84816580717887
 20
144.2249779507776
 30
0.0
 11
36.13062239754961
 21
172.9007996905907
 31
0.0
  0
LINE
  5
AE
330
70
100
AcDbEntity
  8
Isometric$4
 62
     7
370
    35
100
AcDbLine
 10
167.7577847815697
 20
180.4879447808047
 30
0.0
 11
167.7577847815697
 21
180.8408779714476
 31
0.0
  0
LINE
  5
AF
330
70
100
AcDbEntity
  8
Isometric$4
 62
     7
370
    35
100
AcDbLine
 10
20.34644820591672
 20
173.3998697216514
 30
0.0
 11
20.34644820591672
 21
173.0469365310075
 31
0.0
  0
LINE
  5
B0
330
70
100
AcDbEntity
  8
Isometric$4
 62
     7
370
    35
100
AcDbLine
 10
123.650354517626
 20
153.1062114066853
 30
0.0
 11
123.650354517626
 21
153.1736792918525
 31
0.0
  0
LINE
  5
B1
330
70
100
AcDbEntity
  8
Isometric$4
 62
     7
370
    35
100
AcDbLine
 10
123.650354517626
 20
153.2140845540729
 30
0.0
 11
123.650354517626
 21
153.2826780020075
 31
0.0
  0
LINE
  5
B2
330
70
100
AcDbEntity
  8
Isometric$4
 62
     7
370
    35
100
AcDbLine
 10
135.3480461379068
 20
159.6231870351759
 30
0.0
 11
135.2251856199417
 21
161.5770600307324
 31
0.0
  0
LINE
  5
B3
330
70
100
AcDbEntity
  8
Isometric$4
 62
     7
370
    35
100
AcDbLine
 10
135.3480461379068
 20
159.6231870351759
 30
0.0
 11
135.4187952903349
 21
159.5831852932372
 31
0.0
  0
LINE
  5
B4
330
70
100
AcDbEntity
  8
Isometric$4
 62
     7
370
    35
100
AcDbLine
 10
135.4187952903349
 20
159.5831852932372
 30
0.0
 11
135.3213161719005
 21
161.6313839486035
 31
0.0
  0
LINE
  5
B5
330
70
100
AcDbEntity
  8
Isometric$4
 62
     7
370
    35
100
AcDbLine
 10
135.9386186393964
 20
159.5983762730404
 30
0.0
 11
135.828220852342
 21
161.9180181982179
 31
0.0
  0
LINE
  5
B6
330
70
100
AcDbEntity
  8
Isometric$4
 62
     7
370
    35
100
AcDbLine
 10
136.1983522823458
 20
159.4665119037966
 30
0.0
 11
138.5922572640552
 21
160.8200315717961
 31
0.0
  0
LINE
  5
B7
330
70
100
AcDbEntity
  8
Isometric$4
 62
     7
370
    35
100
AcDbLine
 10
138.9623886940603
 20
163.6900842781125
 30
0.0
 11
138.8519906469157
 21
161.2456038541273
 31
0.0
  0
LINE
  5
B8
330
70
100
AcDbEntity
  8
Isometric$4
 62
     7
370
    35
100
AcDbLine
 10
119.5329633748708
 20
152.7041852092227
 30
0.0
 11
119.8392515612305
 21
152.5310091276825
 31
0.0
  0
LINE
  5
B9
330
70
100
AcDbEntity
  8
Isometric$4
 62
     7
370
    35
100
AcDbLine
 10
119.8392320544833
 20
151.0993587275475
 30
0.0
 11
119.8392320544833
 21
152.8778111335268
 31
0.0
  0
LINE
  5
BA
330
70
100
AcDbEntity
  8
Isometric$4
 62
     7
370
    35
100
AcDbLine
 10
119.8392320544833
 20
151.0993587275475
 30
0.0
 11
120.2497892679341
 21
150.8672286858413
 31
0.0
  0
LINE
  5
BB
330
70
100
AcDbEntity
  8
Isometric$4
 62
     7
370
    35
100
AcDbLine
 10
120.32155069051
 20
153.1504990810571
 30
0.0
 11
120.2497874473043
 21
150.8672297152305
 31
0.0
  0
LINE
  5
BC
330
70
100
AcDbEntity
  8
Isometric$4
 62
     7
370
    35
100
AcDbLine
 10
71.81424999304531
 20
139.268090404494
 30
0.0
 11
74.63648881721621
 21
140.8637913573579
 31
0.0
  0
LINE
  5
BD
330
70
100
AcDbEntity
  8
Isometric$4
 62
     7
370
    35
100
AcDbLine
 10
74.63648881721621
 20
140.8637913573579
 30
0.0
 11
74.62150737507279
 21
141.8428281752596
 31
0.0
  0
LINE
  5
BE
330
70
100
AcDbEntity
  8
Isometric$4
 62
     7
370
    35
100
AcDbLine
 10
42.44991152599461
 20
154.5474562956067
 30
0.0
 11
42.61634543617799
 21
159.93855622284
 31
0.0
  0
LINE
  5
BF
330
70
100
AcDbEntity
  8
Isometric$4
 62
     7
370
    35
100
AcDbLine
 10
42.44991646770447
 20
154.5474532074409
 30
0.0
 11
69.47378881777152
 21
139.268090404494
 31
0.0
  0
LINE
  5
C0
330
70
100
AcDbEntity
  8
Isometric$4
 62
     7
370
    35
100
AcDbLine
 10
69.47379271912071
 20
144.7532905554602
 30
0.0
 11
69.47379271912071
 21
139.2680881986612
 31
0.0
  0
LINE
  5
C1
330
70
100
AcDbEntity
  8
Isometric$4
 62
     7
370
    35
100
AcDbLine
 10
71.81424609169643
 20
139.2680881986612
 30
0.0
 11
71.81424609169643
 21
143.4300175560091
 31
0.0
  0
LINE
  5
C2
330
70
100
AcDbEntity
  8
Isometric$4
 62
     7
370
    35
100
AcDbLine
 10
99.9758104741781
 20
139.623639712414
 30
0.0
 11
99.85295047639315
 21
141.5775127079698
 31
0.0
  0
LINE
  5
C3
330
70
100
AcDbEntity
  8
Isometric$4
 62
     7
370
    35
100
AcDbLine
 10
99.9758104741781
 20
139.623639712414
 30
0.0
 11
100.0465598866951
 21
139.5836378234194
 31
0.0
  0
LINE
  5
C4
330
70
100
AcDbEntity
  8
Isometric$4
 62
     7
370
    35
100
AcDbLine
 10
100.0465598866951
 20
139.5836378234194
 30
0.0
 11
99.94908050817119
 21
141.63183662584
 31
0.0
  0
LINE
  5
C5
330
70
100
AcDbEntity
  8
Isometric$4
 62
     7
370
    35
100
AcDbLine
 10
100.5663834958478
 20
139.5988289502769
 30
0.0
 11
100.4559854487032
 21
141.9184707284
 31
0.0
  0
LINE
  5
C6
330
70
100
AcDbEntity
  8
Isometric$4
 62
     7
370
    35
100
AcDbLine
 10
100.8261168787074
 20
139.4669644339784
 30
0.0
 11
103.2200218604177
 21
140.8204841019782
 31
0.0
  0
LINE
  5
C7
330
70
100
AcDbEntity
  8
Isometric$4
 62
     7
370
    35
100
AcDbLine
 10
103.5901532904216
 20
143.690536808293
 30
0.0
 11
103.4797552432763
 21
141.2460563843091
 31
0.0
  0
LINE
  5
C8
330
70
100
AcDbEntity
  8
Isometric$4
 62
     7
370
    35
100
AcDbLine
 10
37.09414492400711
 20
163.0609455724706
 30
0.0
 11
37.19044635507353
 21
159.9969560778953
 31
0.0
  0
LINE
  5
C9
330
70
100
AcDbEntity
  8
Isometric$4
 62
     7
370
    35
100
AcDbLine
 10
120.842465637161
 20
153.168745727014
 30
0.0
 11
120.7698105454612
 21
150.8571065619339
 31
0.0
  0
LINE
  5
CA
330
70
100
AcDbEntity
  8
Isometric$4
 62
     7
370
    35
100
AcDbLine
 10
121.5227821814875
 20
150.4312666385991
 30
0.0
 11
124.6439595697549
 21
152.1959881787964
 31
0.0
  0
LINE
  5
CB
330
70
100
AcDbEntity
  8
Isometric$4
 62
     7
370
    35
100
AcDbLine
 10
125.451429937119
 20
153.5041054917628
 30
0.0
 11
125.5240850288182
 21
155.8157431862885
 31
0.0
  0
LINE
  5
CC
330
70
100
AcDbEntity
  8
Isometric$4
 62
     7
370
    35
100
AcDbLine
 10
146.5442749401098
 20
159.9969560778953
 30
0.0
 11
146.7996187846094
 21
168.1211419576538
 31
0.0
  0
LINE
  5
CD
330
70
100
AcDbEntity
  8
Isometric$4
 62
     7
370
    35
100
AcDbLine
 10
37.19044635507353
 20
159.9969560778953
 30
0.0
 11
42.02842455189409
 21
157.2615515013646
 31
0.0
  0
LINE
  5
CE
330
70
100
AcDbEntity
  8
Isometric$4
 62
     7
370
    35
100
AcDbLine
 10
72.83299248031717
 20
139.844574272146
 30
0.0
 11
87.90798976470279
 21
131.3211343380829
 31
0.0
  0
LINE
  5
CF
330
70
100
AcDbEntity
  8
Isometric$4
 62
     7
370
    35
100
AcDbLine
 10
95.82673153048089
 20
131.3211343380829
 30
0.0
 11
146.5442749401098
 21
159.9969560778953
 31
0.0
  0
LINE
  5
D0
330
70
100
AcDbEntity
  8
Isometric$4
 62
     7
370
    35
100
AcDbLine
 10
96.08207563507066
 20
139.4453203648963
 30
0.0
 11
95.82673153048089
 21
131.3211343380829
 31
0.0
  0
LINE
  5
D1
330
70
100
AcDbEntity
  8
Isometric$4
 62
     7
370
    35
100
AcDbLine
 10
87.90798976470279
 20
131.3211343380829
 30
0.0
 11
87.78899756480456
 21
135.1070610267813
 31
0.0
  0
LINE
  5
D2
330
70
100
AcDbEntity
  8
Isometric$4
 62
     7
370
    35
100
AcDbLine
 10
138.7058572787738
 20
152.2217828892569
 30
0.0
 11
138.0983521402157
 21
151.8782980142372
 31
0.0
  0
LINE
  5
D3
330
70
100
AcDbEntity
  8
Isometric$4
 62
     7
370
    35
100
AcDbLine
 10
134.162628376964
 20
146.6825092559285
 30
0.0
 11
134.2463830680612
 21
146.7298643608948
 31
0.0
  0
LINE
  5
D4
330
70
100
AcDbEntity
  8
Isometric$4
 62
     7
370
    35
100
AcDbLine
 10
137.8549887305853
 20
151.8931615186652
 30
0.0
 11
138.7911017651975
 21
151.3638809442489
 31
0.0
  0
LINE
  5
D5
330
70
100
AcDbEntity
  8
Isometric$4
 62
     7
370
    35
100
AcDbLine
 10
134.6242243449324
 20
148.1346456631135
 30
0.0
 11
134.5449559456624
 21
148.0898271184004
 31
0.0
  0
LINE
  5
D6
330
70
100
AcDbEntity
  8
Isometric$4
 62
     7
370
    35
100
AcDbLine
 10
134.7109794338798
 20
149.0660307651144
 30
0.0
 11
134.6328707757687
 21
149.0218679408576
 31
0.0
  0
LINE
  5
D7
330
70
100
AcDbEntity
  8
Isometric$4
 62
     7
370
    35
100
AcDbLine
 10
134.3764277910728
 20
146.6563364657881
 30
0.0
 11
134.2463830680612
 21
146.7298643608948
 31
0.0
  0
LINE
  5
D8
330
70
100
AcDbEntity
  8
Isometric$4
 62
     7
370
    35
100
AcDbLine
 10
133.0265977992531
 20
151.0694927856782
 30
0.0
 11
136.6678573260978
 21
149.0107158402555
 31
0.0
  0
LINE
  5
D9
330
70
100
AcDbEntity
  8
Isometric$4
 62
     7
370
    35
100
AcDbLine
 10
134.2926733600651
 20
146.608981507878
 30
0.0
 11
134.3764277910728
 21
146.6563364657881
 31
0.0
  0
LINE
  5
DA
330
70
100
AcDbEntity
  8
Isometric$4
 62
     7
370
    35
100
AcDbLine
 10
134.162628376964
 20
146.6825092559285
 30
0.0
 11
134.2926733600651
 21
146.608981507878
 31
0.0
  0
LINE
  5
DB
330
70
100
AcDbEntity
  8
Isometric$4
 62
     7
370
    35
100
AcDbLine
 10
133.8726686386822
 20
145.400943548061
 30
0.0
 11
133.9631984133077
 21
145.4521293016444
 31
0.0
  0
LINE
  5
DC
330
70
100
AcDbEntity
  8
Isometric$4
 62
     7
370
    35
100
AcDbLine
 10
133.8726686386822
 20
145.400943548061
 30
0.0
 11
133.7426236555798
 21
145.4744712961115
 31
0.0
  0
LINE
  5
DD
330
70
100
AcDbEntity
  8
Isometric$4
 62
     7
370
    35
100
AcDbLine
 10
134.8472275626751
 20
144.3049399650047
 30
0.0
 11
132.5064178668459
 21
145.6284394299187
 31
0.0
  0
LINE
  5
DE
330
70
100
AcDbEntity
  8
Isometric$4
 62
     7
370
    35
100
AcDbLine
 10
135.8875874274876
 20
144.3049399650047
 30
0.0
 11
134.8472275626751
 21
144.3049399650047
 31
0.0
  0
LINE
  5
DF
330
70
100
AcDbEntity
  8
Isometric$4
 62
     7
370
    35
100
AcDbLine
 10
133.5467777316583
 20
150.0401043129671
 30
0.0
 11
135.8875874274876
 21
148.7166048480522
 31
0.0
  0
LINE
  5
E0
330
70
100
AcDbEntity
  8
Isometric$4
 62
     7
370
    35
100
AcDbLine
 10
135.8875874274876
 20
148.7166048480522
 30
0.0
 11
135.8875874274876
 21
144.3049399650047
 31
0.0
  0
LINE
  5
E1
330
70
100
AcDbEntity
  8
Isometric$4
 62
     7
370
    35
100
AcDbLine
 10
132.8965528161506
 20
150.8489095415251
 30
0.0
 11
132.8965528161506
 21
146.5966160523775
 31
0.0
  0
LINE
  5
E2
330
70
100
AcDbEntity
  8
Isometric$4
 62
     7
370
    35
100
AcDbLine
 10
132.8965528161506
 20
145.4079482425068
 30
0.0
 11
132.8965528161506
 21
144.9666896974624
 31
0.0
  0
LINE
  5
E3
330
70
100
AcDbEntity
  8
Isometric$4
 62
     7
370
    35
100
AcDbLine
 10
132.8965528161506
 20
144.9666896974624
 30
0.0
 11
136.5378123429953
 21
142.907912752039
 31
0.0
  0
LINE
  5
E4
330
70
100
AcDbEntity
  8
Isometric$4
 62
     7
370
    35
100
AcDbLine
 10
136.7979023091983
 20
148.7901325961037
 30
0.0
 11
136.7979023091983
 21
142.907912752039
 31
0.0
  0
LINE
  5
E5
330
70
100
AcDbEntity
  8
Isometric$4
 62
     7
370
    35
100
AcDbLine
 10
148.3474396623018
 20
165.9307821072072
 30
0.0
 11
154.4665396244791
 21
162.4710281852496
 31
0.0
  0
LINE
  5
E6
330
70
100
AcDbEntity
  8
Isometric$4
 62
     7
370
    35
100
AcDbLine
 10
154.4665414451102
 20
162.4710274499719
 30
0.0
 11
149.8181004299905
 21
159.8427873603923
 31
0.0
  0
LINE
  5
E7
330
70
100
AcDbEntity
  8
Isometric$4
 62
     7
370
    35
100
AcDbLine
 10
144.2656004771166
 20
158.0381614289955
 30
0.0
 11
144.602729611489
 21
157.8475478008368
 31
0.0
  0
LINE
  5
E8
330
70
100
AcDbEntity
  8
Isometric$4
 62
     7
370
    35
100
AcDbLine
 10
149.8179810486965
 20
159.8428542706434
 30
0.0
 11
146.1495717706381
 21
157.8398928269881
 31
0.0
  0
LINE
  5
E9
330
70
100
AcDbEntity
  8
Isometric$4
 62
     7
370
    35
100
AcDbLine
 10
147.8794756516008
 20
160.938888735354
 30
0.0
 11
149.8180294254304
 21
159.8428257418768
 31
0.0
  0
LINE
  5
EA
330
70
100
AcDbEntity
  8
Isometric$4
 62
     7
370
    35
100
AcDbLine
 10
150.338199994597
 20
158.9605659989043
 30
0.0
 11
154.9866420500757
 21
161.5888060884839
 31
0.0
  0
LINE
  5
EB
330
70
100
AcDbEntity
  8
Isometric$4
 62
     7
370
    35
100
AcDbLine
 10
154.9866420500757
 20
156.9493195956541
 30
0.0
 11
154.9866420500757
 21
161.5888193234791
 31
0.0
  0
LINE
  5
EC
330
70
100
AcDbEntity
  8
Isometric$4
 62
     7
370
    35
100
AcDbLine
 10
138.8135995472737
 20
154.9555322091233
 30
0.0
 11
138.8135995472737
 21
151.6281566153682
 31
0.0
  0
LINE
  5
ED
330
70
100
AcDbEntity
  8
Isometric$4
 62
     7
370
    35
100
AcDbLine
 10
154.9866420500757
 20
156.9493175368772
 30
0.0
 11
150.3381994744179
 21
154.1343122614728
 31
0.0
  0
LINE
  5
EE
330
70
100
AcDbEntity
  8
Isometric$4
 62
     7
370
    35
100
AcDbLine
 10
138.8136890182227
 20
151.6204044378359
 30
0.0
 11
141.7199088117606
 21
149.9772207358347
 31
0.0
  0
LINE
  5
EF
330
70
100
AcDbEntity
  8
Isometric$4
 62
     7
370
    35
100
AcDbLine
 10
141.7199088117606
 20
149.9772207358347
 30
0.0
 11
141.7199088117606
 21
153.5512666305296
 31
0.0
  0
LINE
  5
F0
330
70
100
AcDbEntity
  8
Isometric$4
 62
     7
370
    35
100
AcDbLine
 10
144.0825496790824
 20
156.9652148242273
 30
0.0
 11
143.2252400921236
 21
157.4499397386993
 31
0.0
  0
LINE
  5
F1
330
70
100
AcDbEntity
  8
Isometric$4
 62
     7
370
    35
100
AcDbLine
 10
139.0437201269407
 20
155.0857297043186
 30
0.0
 11
139.0437201269407
 21
155.0744729002032
 31
0.0
  0
LINE
  5
F2
330
70
100
AcDbEntity
  8
Isometric$4
 62
     7
370
    35
100
AcDbLine
 10
150.3381994744179
 20
158.9605318820293
 30
0.0
 11
150.3381994744179
 21
154.1343122614728
 31
0.0
  0
LINE
  5
F3
330
70
100
AcDbEntity
  8
Isometric$4
 62
     7
370
    35
100
AcDbLine
 10
150.3381994744179
 20
158.9604983533758
 30
0.0
 11
146.6605554420203
 21
156.9524943767595
 31
0.0
  0
LINE
  5
F4
330
70
100
AcDbEntity
  8
Isometric$4
 62
     7
370
    35
100
AcDbLine
 10
142.7692677894045
 20
152.957926232525
 30
0.0
 11
142.7692677894045
 21
149.9823982657415
 31
0.0
  0
LINE
  5
F5
330
70
100
AcDbEntity
  8
Isometric$4
 62
     7
370
    35
100
AcDbLine
 10
147.8443086271806
 20
152.800843316256
 30
0.0
 11
142.7692677894045
 21
149.9823982657415
 31
0.0
  0
LINE
  5
F6
330
70
100
AcDbEntity
  8
Isometric$4
 62
     7
370
    35
100
AcDbLine
 10
153.7534611076494
 20
162.874325089253
 30
0.0
 11
153.753461367739
 21
172.0527157919671
 31
0.0
  0
LINE
  5
F7
330
70
100
AcDbEntity
  8
Isometric$4
 62
     7
370
    35
100
AcDbLine
 10
139.0437201269407
 20
155.0744729002032
 30
0.0
 11
144.0825496790824
 21
152.2255061873615
 31
0.0
  0
LINE
  5
F8
330
70
100
AcDbEntity
  8
Isometric$4
 62
     7
370
    35
100
AcDbLine
 10
150.3381994744179
 20
154.1343122614728
 30
0.0
 11
146.6605551819307
 21
152.1976535822898
 31
0.0
  0
LINE
  5
F9
330
70
100
AcDbEntity
  8
Isometric$4
 62
     7
370
    35
100
AcDbLine
 10
146.1404657608323
 20
151.9035931771781
 30
0.0
 11
149.8180988694504
 21
153.8402461211961
 31
0.0
  0
LINE
  5
FA
330
70
100
AcDbEntity
  8
Isometric$4
 62
     7
370
    35
100
AcDbLine
 10
144.5936631353569
 20
151.9263451623676
 30
0.0
 11
139.5548080943993
 21
154.7753259925356
 31
0.0
  0
LINE
  5
FB
330
70
100
AcDbEntity
  8
Isometric$4
 62
     7
370
    35
100
AcDbLine
 10
146.6605551819307
 20
156.9525001119244
 30
0.0
 11
146.6605551819307
 21
152.1976535822898
 31
0.0
  0
LINE
  5
FC
330
70
100
AcDbEntity
  8
Isometric$4
 62
     7
370
    35
100
AcDbLine
 10
144.0825496790824
 20
152.2255061873615
 30
0.0
 11
144.0825496790824
 21
156.9652148242273
 31
0.0
  0
LINE
  5
FD
330
70
100
AcDbEntity
  8
Isometric$4
 62
     7
370
    35
100
AcDbLine
 10
116.6199032152216
 20
142.4072423160131
 30
0.0
 11
116.5242049327854
 21
140.4984565355611
 31
0.0
  0
LINE
  5
FE
330
70
100
AcDbEntity
  8
Isometric$4
 62
     7
370
    35
100
AcDbLine
 10
116.5242002511667
 20
140.498460947226
 30
0.0
 11
116.6531832869369
 21
140.4394024306028
 31
0.0
  0
LINE
  5
FF
330
70
100
AcDbEntity
  8
Isometric$4
 62
     7
370
    35
100
AcDbLine
 10
116.6531832869369
 20
140.4394024306028
 30
0.0
 11
116.7557180341327
 21
142.4840470487393
 31
0.0
  0
LINE
  5
100
330
70
100
AcDbEntity
  8
Isometric$4
 62
     7
370
    35
100
AcDbLine
 10
112.8503409406305
 20
92.05131220650224
 30
0.0
 11
115.2084926097013
 21
141.5999399946245
 31
0.0
  0
LINE
  5
101
330
70
100
AcDbEntity
  8
Isometric$4
 62
     7
370
    35
100
AcDbLine
 10
146.772352513093
 20
172.4305241550543
 30
0.0
 11
146.772352513093
 21
172.5763590905376
 31
0.0
  0
LINE
  5
102
330
70
100
AcDbEntity
  8
Isometric$4
 62
     7
370
    35
100
AcDbLine
 10
36.78030580574813
 20
172.8263534339107
 30
0.0
 11
36.78030580574813
 21
172.533463296436
 31
0.0
  0
LINE
  5
103
330
70
100
AcDbEntity
  8
Isometric$4
 62
     7
370
    35
100
AcDbLine
 10
146.772352513093
 20
172.5763590905376
 30
0.0
 11
96.49696204600893
 21
144.1505316940975
 31
0.0
  0
LINE
  5
104
330
70
100
AcDbEntity
  8
Isometric$4
 62
     7
370
    35
100
AcDbLine
 10
87.49784921537772
 20
144.1505316940975
 30
0.0
 11
36.78030580574813
 21
172.8263534339107
 31
0.0
  0
LINE
  5
105
330
70
100
AcDbEntity
  8
Isometric$4
 62
     7
370
    35
100
AcDbLine
 10
95.97678211360333
 20
145.0328646707073
 30
0.0
 11
146.2521725806865
 21
173.4586920671473
 31
0.0
  0
LINE
  5
106
330
70
100
AcDbEntity
  8
Isometric$4
 62
     7
370
    35
100
AcDbLine
 10
146.2521725806865
 20
177.9585902478568
 30
0.0
 11
95.53462917105752
 21
206.6344119876696
 31
0.0
  0
LINE
  5
107
330
70
100
AcDbEntity
  8
Isometric$4
 62
     7
370
    35
100
AcDbLine
 10
87.57587620523816
 20
206.6344119876696
 30
0.0
 11
37.30048573815469
 21
178.2085845912292
 31
0.0
  0
LINE
  5
108
330
70
100
AcDbEntity
  8
Isometric$4
 62
     7
370
    35
100
AcDbLine
 10
37.30048573815469
 20
173.7086864105204
 30
0.0
 11
88.01802914778397
 21
145.0328646707073
 31
0.0
  0
LINE
  5
109
330
70
100
AcDbEntity
  8
Isometric$4
 62
     7
370
    35
100
AcDbLine
 10
96.49696204600893
 20
144.1505316940975
 30
0.0
 11
96.49696204600893
 21
144.0257015774546
 31
0.0
  0
LINE
  5
10A
330
70
100
AcDbEntity
  8
Isometric$4
 62
     7
370
    35
100
AcDbLine
 10
87.49784921537772
 20
143.9053640062176
 30
0.0
 11
87.49784921537772
 21
144.1505316940975
 31
0.0
  0
LINE
  5
10B
330
70
100
AcDbEntity
  8
Isometric$4
 62
     7
370
    35
100
AcDbLine
 10
130.0577420996925
 20
150.0049692256167
 30
0.0
 11
130.0577418396035
 21
137.3756595480961
 31
0.0
  0
LINE
  5
10C
330
70
100
AcDbEntity
  8
Isometric$4
 62
     7
370
    35
100
AcDbLine
 10
123.8893407839707
 20
139.7352027763089
 30
0.0
 11
128.9301808315521
 21
136.8850996185941
 31
0.0
  0
LINE
  5
10D
330
70
100
AcDbEntity
  8
Isometric$4
 62
     7
370
    35
100
AcDbLine
 10
129.80226977075
 20
137.3781808145769
 30
0.0
 11
129.80226977075
 21
149.8605454346732
 31
0.0
  0
LINE
  5
10E
330
70
100
AcDbEntity
  8
Isometric$4
 62
     7
370
    35
100
AcDbLine
 10
130.0577418396035
 20
137.3756595480961
 30
0.0
 11
130.1554417744181
 21
137.42717147077
 31
0.0
  0
LINE
  5
10F
330
70
100
AcDbEntity
  8
Isometric$4
 62
     7
370
    35
100
AcDbLine
 10
123.8789426472125
 20
139.571015167855
 30
0.0
 11
129.0568214970847
 21
136.6434299397999
 31
0.0
  0
LINE
  5
110
330
70
100
AcDbEntity
  8
Isometric$4
 62
     7
370
    35
100
AcDbLine
 10
129.0568214970847
 20
136.6434299397999
 30
0.0
 11
129.1785308568607
 21
136.7158487423548
 31
0.0
  0
LINE
  5
111
330
70
100
AcDbEntity
  8
Isometric$4
 62
     7
370
    35
100
AcDbLine
 10
144.4835514472653
 20
135.077212878626
 30
0.0
 11
144.6456553796915
 21
134.9855589230708
 31
0.0
  0
LINE
  5
112
330
70
100
AcDbEntity
  8
Isometric$4
 62
     7
370
    35
100
AcDbLine
 10
136.7867387276695
 20
142.8406969199921
 30
0.0
 11
136.9929697838516
 21
142.7240933819127
 31
0.0
  0
LINE
  5
113
330
70
100
AcDbEntity
  8
Isometric$4
 62
     7
370
    35
100
AcDbLine
 10
131.4010355104825
 20
144.1211205948772
 30
0.0
 11
132.8673088205304
 21
144.9501550715914
 31
0.0
  0
LINE
  5
114
330
70
100
AcDbEntity
  8
Isometric$4
 62
     7
370
    35
100
AcDbLine
 10
132.9615753077022
 20
151.3268399038559
 30
0.0
 11
132.9615753077022
 21
151.093566064501
 31
0.0
  0
LINE
  5
115
330
70
100
AcDbEntity
  8
Isometric$4
 62
     7
370
    35
100
AcDbLine
 10
147.3679530738087
 20
152.2904114834545
 30
0.0
 11
147.3679528137185
 21
132.7719923918399
 31
0.0
  0
LINE
  5
116
330
70
100
AcDbEntity
  8
Isometric$4
 62
     7
370
    35
100
AcDbLine
 10
141.6029879683539
 20
136.1176684538629
 30
0.0
 11
144.6456553796915
 21
137.7502022497807
 31
0.0
  0
LINE
  5
117
330
70
100
AcDbEntity
  8
Isometric$4
 62
     7
370
    35
100
AcDbLine
 10
144.6456553796915
 20
137.7502022497807
 30
0.0
 11
144.6456553796915
 21
134.9855589230708
 31
0.0
  0
LINE
  5
118
330
70
100
AcDbEntity
  8
Isometric$4
 62
     7
370
    35
100
AcDbLine
 10
144.6456553796915
 20
134.9855589230708
 30
0.0
 11
141.6029877082642
 21
133.3530252742085
 31
0.0
  0
LINE
  5
119
330
70
100
AcDbEntity
  8
Isometric$4
 62
     7
370
    35
100
AcDbLine
 10
141.6029877082642
 20
133.3530252742085
 30
0.0
 11
141.6029879683539
 21
136.1176684538629
 31
0.0
  0
LINE
  5
11A
330
70
100
AcDbEntity
  8
Isometric$4
 62
     7
370
    35
100
AcDbLine
 10
147.3610554879049
 20
132.4740404571339
 30
0.0
 11
147.3610554879049
 21
152.2868750928838
 31
0.0
  0
LINE
  5
11B
330
70
100
AcDbEntity
  8
Isometric$4
 62
     7
370
    35
100
AcDbLine
 10
136.2132393118319
 20
126.664341472139
 30
0.0
 11
123.5033152561321
 21
133.8505632811115
 31
0.0
  0
LINE
  5
11C
330
70
100
AcDbEntity
  8
Isometric$4
 62
     7
370
    35
100
AcDbLine
 10
138.8132476455492
 20
151.4524792668943
 30
0.0
 11
138.8132476455492
 21
128.1343924739702
 31
0.0
  0
LINE
  5
11D
330
70
100
AcDbEntity
  8
Isometric$4
 62
     7
370
    35
100
AcDbLine
 10
130.2093053660589
 20
150.0905431716857
 30
0.0
 11
130.2093053660589
 21
137.1480419042872
 31
0.0
  0
LINE
  5
11E
330
70
100
AcDbEntity
  8
Isometric$4
 62
     7
370
    35
100
AcDbLine
 10
128.9301808315521
 20
136.4248217980159
 30
0.0
 11
123.8605745736193
 21
139.2911894406544
 31
0.0
  0
LINE
  5
11F
330
70
100
AcDbEntity
  8
Isometric$4
 62
     7
370
    35
100
AcDbLine
 10
131.4010355104825
 20
144.1211205948772
 30
0.0
 11
136.9929697838516
 21
140.9594274286932
 31
0.0
  0
LINE
  5
120
330
70
100
AcDbEntity
  8
Isometric$4
 62
     7
370
    35
100
AcDbLine
 10
131.4010355104825
 20
150.7644443938965
 30
0.0
 11
131.4010355104825
 21
144.1211205948772
 31
0.0
  0
LINE
  5
121
330
70
100
AcDbEntity
  8
Isometric$4
 62
     7
370
    35
100
AcDbLine
 10
136.9929697838516
 20
149.0474797142813
 30
0.0
 11
132.6786177114896
 21
151.4868248132854
 31
0.0
  0
LINE
  5
122
330
70
100
AcDbEntity
  8
Isometric$4
 62
     7
370
    35
100
AcDbLine
 10
136.9929697838516
 20
140.9594274286932
 30
0.0
 11
136.9929697838516
 21
149.0474797142813
 31
0.0
  0
LINE
  5
123
330
70
100
AcDbEntity
  8
Isometric$4
 62
     7
370
    35
100
AcDbLine
 10
123.5043800644538
 20
133.8651576567671
 30
0.0
 11
135.7066430980906
 21
126.9659686178037
 31
0.0
  0
LINE
  5
124
330
70
100
AcDbEntity
  8
Isometric$4
 62
     7
370
    35
100
AcDbLine
 10
137.7866829525437
 20
128.1420281835495
 30
0.0
 11
137.7866826924547
 21
154.3749444637417
 31
0.0
  0
LINE
  5
125
330
70
100
AcDbEntity
  8
Isometric$4
 62
     7
370
    35
100
AcDbLine
 10
147.3610552278153
 20
132.4740403100789
 30
0.0
 11
138.8132476455492
 21
128.1343924739702
 31
0.0
  0
LINE
  5
126
330
70
100
AcDbEntity
  8
Isometric$4
 62
     7
370
    35
100
AcDbLine
 10
74.629872128476
 20
141.2923404840982
 30
0.0
 11
75.1124690607665
 21
141.5652019571141
 31
0.0
  0
LINE
  5
127
330
70
100
AcDbEntity
  8
Isometric$4
 62
     7
370
    35
100
AcDbLine
 10
74.6218353485206
 20
141.8171962552334
 30
0.0
 11
74.64430712160065
 21
141.829901850097
 31
0.0
  0
LINE
  5
128
330
70
100
AcDbEntity
  8
Isometric$4
 62
     7
370
    35
100
AcDbLine
 10
144.4835608105039
 20
135.0772075846288
 30
0.0
 11
144.4835608105039
 21
137.6632014242332
 31
0.0
  0
LINE
  5
129
330
70
100
AcDbEntity
  8
Isometric$4
 62
     7
370
    35
100
AcDbLine
 10
142.370451817298
 20
136.5294495776598
 30
0.0
 11
141.6225711822693
 21
136.1065960573396
 31
0.0
  0
LINE
  5
12A
330
70
100
AcDbEntity
  8
Isometric$4
 62
     7
370
    35
100
AcDbLine
 10
141.6225711822693
 20
133.459597127511
 30
0.0
 11
141.6225711822693
 21
136.1065960573396
 31
0.0
  0
LINE
  5
12B
330
70
100
AcDbEntity
  8
Isometric$4
 62
     7
370
    35
100
AcDbLine
 10
141.6225711822693
 20
136.1065960573396
 30
0.0
 11
141.6029741835849
 21
136.1176762478046
 31
0.0
  0
LINE
  5
12C
330
70
100
AcDbEntity
  8
Isometric$4
 62
     7
370
    35
100
AcDbLine
 10
144.4835608105039
 20
135.0772075846288
 30
0.0
 11
141.6225711822693
 21
133.459597127511
 31
0.0
  0
LINE
  5
12D
330
70
100
AcDbEntity
  8
Isometric$4
 62
     7
370
    35
100
AcDbLine
 10
141.6029741835849
 20
133.4706773179754
 30
0.0
 11
141.6225711822693
 21
133.459597127511
 31
0.0
  0
LINE
  5
12E
330
70
100
AcDbEntity
  8
Isometric$4
 62
     7
370
    35
100
AcDbLine
 10
123.5983365243846
 20
152.2091728804653
 30
0.0
 11
121.2575268285567
 21
150.8856734155513
 31
0.0
  0
LINE
  5
12F
330
70
100
AcDbEntity
  8
Isometric$4
 62
     7
370
    35
100
AcDbLine
 10
124.3786064229954
 20
153.5326723453803
 30
0.0
 11
124.3786064229954
 21
155.4444399701265
 31
0.0
  0
LINE
  5
130
330
70
100
AcDbEntity
  8
Isometric$4
 62
     7
370
    35
100
AcDbLine
 10
86.97766928297083
 20
206.5398282454654
 30
0.0
 11
86.97766928297083
 21
206.8255841326013
 31
0.0
  0
LINE
  5
131
330
70
100
AcDbEntity
  8
Isometric$4
 62
     7
370
    35
100
AcDbLine
 10
147.4745954218408
 20
178.1497623927882
 30
0.0
 11
96.75705201221255
 21
206.825584132602
 31
0.0
  0
LINE
  5
132
330
70
100
AcDbEntity
  8
Isometric$4
 62
     7
370
    35
100
AcDbLine
 10
86.97766928297083
 20
206.8255841326013
 30
0.0
 11
36.26012587334221
 21
178.1497623927882
 31
0.0
  0
LINE
  5
133
330
70
100
AcDbEntity
  8
Isometric$4
 62
     7
370
    35
100
AcDbLine
 10
36.26012587334221
 20
178.1497623927882
 30
0.0
 11
36.26012587334221
 21
177.7960518667923
 31
0.0
  0
LINE
  5
134
330
70
100
AcDbEntity
  8
Isometric$4
 62
     7
370
    35
100
AcDbLine
 10
86.53551634042534
 20
144.1946483429277
 30
0.0
 11
35.81797293079608
 21
172.8704700827409
 31
0.0
  0
LINE
  5
135
330
70
100
AcDbEntity
  8
Isometric$4
 62
     7
370
    35
100
AcDbLine
 10
35.81797293079608
 20
178.8997454229065
 30
0.0
 11
86.53551634042534
 21
207.57556716272
 31
0.0
  0
LINE
  5
136
330
70
100
AcDbEntity
  8
Isometric$4
 62
     7
370
    35
100
AcDbLine
 10
97.19920495475738
 20
207.57556716272
 30
0.0
 11
147.916748364387
 21
178.8997454229065
 31
0.0
  0
LINE
  5
137
330
70
100
AcDbEntity
  8
Isometric$4
 62
     7
370
    35
100
AcDbLine
 10
147.916748364387
 20
172.8704700827409
 30
0.0
 11
97.19920495475738
 21
144.1946483429277
 31
0.0
  0
LINE
  5
138
330
70
100
AcDbEntity
  8
Isometric$4
 62
     7
370
    35
100
AcDbLine
 10
102.1929323058598
 20
218.4282627750183
 30
0.0
 11
167.111387870184
 21
181.723210948058
 31
0.0
  0
LINE
  5
139
330
70
100
AcDbEntity
  8
Isometric$4
 62
     7
370
    18
100
AcDbLine
 10
149.1661156166425
 20
128.8843079528031
 30
0.0
 11
175.5781501227889
 21
113.9508797469595
 31
0.0
  0
LINE
  5
13A
330
70
100
AcDbEntity
  8
Isometric$4
 62
     7
370
    18
100
AcDbLine
 10
92.65235292744256
 20
223.8822012938077
 30
0.0
 11
98.65995982589437
 21
220.4854858198051
 31
0.0
  0
LINE
  5
13B
330
70
100
AcDbEntity
  8
Isometric$4
 62
     7
370
    18
100
AcDbLine
 10
12.0326102458976
 20
177.434494619121
 30
0.0
 11
17.43104364668658
 21
174.3822073144118
 31
0.0
  0
LINE
  5
13C
330
70
100
AcDbEntity
  8
Isometric$4
 62
     7
370
    18
100
AcDbLine
 10
11.64572251884163
 20
123.9519390624456
 30
0.0
 11
59.58381111784435
 21
96.84762779662767
 31
0.0
  0
LINE
  5
13D
330
70
100
AcDbEntity
  8
Isometric$4
 62
     7
370
    18
100
AcDbLine
 10
106.0544156680552
 20
222.5580516504727
 30
0.0
 11
174.4055540769001
 21
183.9121526388659
 31
0.0
  0
LINE
  5
13E
330
70
100
AcDbEntity
  8
Isometric$4
 62
     7
370
    35
100
AcDbLine
 10
20.99284485721248
 20
174.2822028453168
 30
0.0
 11
99.07185271142139
 21
218.4282627750183
 31
0.0
  0
LINE
  5
13F
330
70
100
AcDbEntity
  8
Isometric$4
 62
     7
370
    18
100
AcDbLine
 10
13.14943382934883
 20
176.8818680058985
 30
0.0
 11
94.41437714485282
 21
222.8292635528396
 31
0.0
  0
LINE
  5
140
330
70
100
AcDbEntity
  8
Isometric$4
 62
     7
370
    18
100
AcDbLine
 10
102.4466069600468
 20
220.6705209039926
 30
0.0
 11
107.6658579408687
 21
223.621498034974
 31
0.0
  0
LINE
  5
141
330
70
100
AcDbEntity
  8
Isometric$4
 62
     7
370
    18
100
AcDbLine
 10
170.4676331700429
 20
181.6397684436506
 30
0.0
 11
176.0572443995003
 21
184.8001481551881
 31
0.0
  0
LINE
  5
142
330
70
100
AcDbEntity
  8
Isometric$4
 62
     7
370
    18
100
AcDbLine
 10
100.4192047994445
 20
220.5395543257604
 30
0.0
 11
98.22556684695191
 21
234.0821947886065
 31
0.0
  0
LINE
  5
143
330
70
100
AcDbEntity
  8
Isometric$4
 62
     7
370
    35
100
AcDbLine
 10
85.91130042153766
 20
135.812485065137
 30
0.0
 11
20.99284485721248
 21
172.5175368920973
 31
0.0
  0
LINE
  5
144
330
70
100
AcDbEntity
  8
Isometric$4
 62
     7
370
    35
100
AcDbLine
 10
20.99284485721248
 20
172.5175368920973
 30
0.0
 11
20.99284485721248
 21
172.164603701453
 31
0.0
  0
LINE
  5
145
330
70
100
AcDbEntity
  8
Isometric$4
 62
     7
370
    35
100
AcDbLine
 10
167.111387870184
 20
179.9585449948386
 30
0.0
 11
89.03238001597641
 21
135.812485065137
 31
0.0
  0
LINE
  5
146
330
70
100
AcDbEntity
  8
Isometric$4
 62
     7
370
    35
100
AcDbLine
 10
167.111387870184
 20
179.6056118041943
 30
0.0
 11
167.111387870184
 21
179.9585449948386
 31
0.0
  0
LINE
  5
147
330
70
100
AcDbEntity
  8
Isometric$4
 62
     7
370
    35
100
AcDbLine
 10
85.91130042153766
 20
135.4595518744924
 30
0.0
 11
20.99284485721248
 21
172.164603701453
 31
0.0
  0
LINE
  5
148
330
70
100
AcDbEntity
  8
Isometric$4
 62
     7
370
    35
100
AcDbLine
 10
167.111387870184
 20
179.6056118041943
 30
0.0
 11
89.03238001597641
 21
135.4595518744924
 31
0.0
  0
LINE
  5
149
330
70
100
AcDbEntity
  8
Isometric$4
 62
     7
370
    35
100
AcDbLine
 10
89.03238001597641
 20
135.812485065137
 30
0.0
 11
89.03238001597641
 21
135.4595518744924
 31
0.0
  0
LINE
  5
14A
330
70
100
AcDbEntity
  8
Isometric$4
 62
     7
370
    35
100
AcDbLine
 10
85.91130042153766
 20
135.4595518744924
 30
0.0
 11
85.91130042153766
 21
135.812485065137
 31
0.0
  0
LINE
  5
14B
330
70
100
AcDbEntity
  8
Isometric$4
 62
     7
370
    35
100
AcDbLine
 10
123.1998087319609
 20
152.4397163404244
 30
0.0
 11
123.286228564941
 21
152.4885783230587
 31
0.0
  0
LINE
  5
14C
330
70
100
AcDbEntity
  8
Isometric$4
 62
     7
370
    35
100
AcDbLine
 10
123.1462504859405
 20
153.5495209347351
 30
0.0
 11
123.286228564941
 21
153.3120891012272
 31
0.0
  0
LINE
  5
14D
330
70
100
AcDbEntity
  8
Isometric$4
 62
     7
370
    35
100
AcDbLine
 10
65.25468351166292
 20
155.0295436227012
 30
0.0
 11
54.20085994802548
 21
161.2794022070194
 31
0.0
  0
LINE
  5
14E
330
70
100
AcDbEntity
  8
Isometric$4
 62
     7
370
    35
100
AcDbLine
 10
51.35081750646785
 20
159.6679813157324
 30
0.0
 11
62.40464107010528
 21
153.4181227314133
 31
0.0
  0
SPLINE
  5
14F
330
70
100
AcDbEntity
  8
Isometric$4
 62
     7
370
    35
100
AcDbSpline
210
0.0
220
0.0
230
1.0
 70
     8
 71
     3
 72
     8
 73
     4
 74
     0
 42
0.0000000001
 43
0.0000000001
 40
0.0
 40
0.0
 40
0.0
 40
0.0
 40
1.0
 40
1.0
 40
1.0
 40
1.0
 10
132.8426862967034
 20
145.0402175797242
 30
0.0
 10
132.8426862967034
 20
144.975872094647
 30
0.0
 10
132.8777396074799
 20
144.9164144145055
 30
0.0
 10
132.9346419861146
 20
144.8842416719672
 30
0.0
  0
SPLINE
  5
150
330
70
100
AcDbEntity
  8
Isometric$4
 62
     7
370
    35
100
AcDbSpline
210
0.0
220
0.0
230
1.0
 70
     8
 71
     3
 72
     8
 73
     4
 74
     0
 42
0.0000000001
 43
0.0000000001
 40
0.0
 40
0.0
 40
0.0
 40
0.0
 40
1.0
 40
1.0
 40
1.0
 40
1.0
 10
136.5759015034352
 20
142.8254646947951
 30
0.0
 10
136.6328038820712
 20
142.7932919522556
 30
0.0
 10
136.7029105036215
 20
142.7932919522556
 30
0.0
 10
136.7598128822563
 20
142.8254646947951
 30
0.0
  0
SPLINE
  5
151
330
70
100
AcDbEntity
  8
Isometric$4
 62
     7
370
    35
100
AcDbSpline
210
0.0
220
0.0
230
1.0
 70
     8
 71
     3
 72
     8
 73
     4
 74
     0
 42
0.0000000001
 43
0.0000000001
 40
0.0
 40
0.0
 40
0.0
 40
0.0
 40
1.0
 40
1.0
 40
1.0
 40
1.0
 10
132.9346421615795
 20
151.078413171321
 30
0.0
 10
132.8777397829435
 20
151.0462404287808
 30
0.0
 10
132.8426864721683
 20
150.9867827486422
 30
0.0
 10
132.8426864721683
 20
150.9224372635643
 30
0.0
  0
SPLINE
  5
152
330
70
100
AcDbEntity
  8
Isometric$4
 62
     7
370
    35
100
AcDbSpline
210
0.0
220
0.0
230
1.0
 70
     8
 71
     3
 72
     8
 73
     4
 74
     0
 42
0.0000000001
 43
0.0000000001
 40
0.0
 40
0.0
 40
0.0
 40
0.0
 40
1.0
 40
1.0
 40
1.0
 40
1.0
 10
141.8722660836788
 20
149.6474279463857
 30
0.0
 10
142.0981171619542
 20
149.5197312003506
 30
0.0
 10
142.3761239553795
 20
149.5186789808174
 30
0.0
 10
142.6029761872658
 20
149.6446623037423
 30
0.0
  0
SPLINE
  5
153
330
70
100
AcDbEntity
  8
Isometric$4
 62
     7
370
    35
100
AcDbSpline
210
0.0
220
0.0
230
1.0
 70
     8
 71
     3
 72
     8
 73
     4
 74
     0
 42
0.0000000001
 43
0.0000000001
 40
0.0
 40
0.0
 40
0.0
 40
0.0
 40
1.0
 40
1.0
 40
1.0
 40
1.0
 10
116.831468059464
 20
140.0970973041194
 30
0.0
 10
117.0659551115655
 20
139.9897355165344
 30
0.0
 10
117.3408046497007
 20
140.0109616332998
 30
0.0
 10
117.5552091409205
 20
140.1529904768277
 30
0.0
  0
SPLINE
  5
154
330
70
100
AcDbEntity
  8
Isometric$4
 62
     7
370
    35
100
AcDbSpline
210
0.0
220
0.0
230
1.0
 70
     8
 71
     3
 72
     8
 73
     4
 74
     0
 42
0.0000000001
 43
0.0000000001
 40
0.0
 40
0.0
 40
0.0
 40
0.0
 40
1.0
 40
1.0
 40
1.0
 40
1.0
 10
113.7658935255072
 20
138.0101955450532
 30
0.0
 10
114.0067923229347
 20
138.1264493820958
 30
0.0
 10
114.1638582460348
 20
138.3620231408805
 30
0.0
 10
114.1756545459107
 20
138.6247715261113
 30
0.0
  0
SPLINE
  5
155
330
70
100
AcDbEntity
  8
Isometric$4
 62
     7
370
    35
100
AcDbSpline
210
0.0
220
0.0
230
1.0
 70
     8
 71
     3
 72
     8
 73
     4
 74
     0
 42
0.0000000001
 43
0.0000000001
 40
0.0
 40
0.0
 40
0.0
 40
0.0
 40
1.0
 40
1.0
 40
1.0
 40
1.0
 10
35.55212807673016
 20
162.1574325428007
 30
0.0
 10
35.58761036236795
 20
161.3450830825224
 30
0.0
 10
36.17419111317018
 20
160.5715501113894
 30
0.0
 10
37.19044644043169
 20
159.9969571610185
 30
0.0
  0
SPLINE
  5
156
330
70
100
AcDbEntity
  8
Isometric$4
 62
     7
370
    35
100
AcDbSpline
210
0.0
220
0.0
230
1.0
 70
     8
 71
     3
 72
     8
 73
     4
 74
     0
 42
0.0000000001
 43
0.0000000001
 40
0.0
 40
0.0
 40
0.0
 40
0.0
 40
1.0
 40
1.0
 40
1.0
 40
1.0
 10
138.5160786766733
 20
160.6551352523863
 30
0.0
 10
138.5648549842638
 20
160.6827134946971
 30
0.0
 10
138.592257219504
 20
160.7420284616312
 30
0.0
 10
138.592257203423
 20
160.8200315375146
 30
0.0
  0
SPLINE
  5
157
330
70
100
AcDbEntity
  8
Isometric$4
 62
     7
370
    35
100
AcDbSpline
210
0.0
220
0.0
230
1.0
 70
     8
 71
     3
 72
     8
 73
     4
 74
     0
 42
0.0000000001
 43
0.0000000001
 40
0.0
 40
0.0
 40
0.0
 40
0.0
 40
1.0
 40
1.0
 40
1.0
 40
1.0
 10
138.8519909057553
 20
161.2456039647469
 30
0.0
 10
138.9186437247575
 20
161.2793395955868
 30
0.0
 10
138.957086546537
 20
161.3262918372262
 30
0.0
 10
138.9593645358537
 20
161.3767450306873
 30
0.0
  0
SPLINE
  5
158
330
70
100
AcDbEntity
  8
Isometric$4
 62
     7
370
    35
100
AcDbSpline
210
0.0
220
0.0
230
1.0
 70
     8
 71
     3
 72
     8
 73
     4
 74
     0
 42
0.0000000001
 43
0.0000000001
 40
0.0
 40
0.0
 40
0.0
 40
0.0
 40
1.0
 40
1.0
 40
1.0
 40
1.0
 10
136.1221240357767
 20
159.3015875221204
 30
0.0
 10
136.1709307208093
 20
159.3291531470276
 30
0.0
 10
136.1983522377985
 20
159.3884812779356
 30
0.0
 10
136.1983522217117
 20
159.4665118695148
 30
0.0
  0
SPLINE
  5
159
330
70
100
AcDbEntity
  8
Isometric$4
 62
     7
370
    35
100
AcDbSpline
210
0.0
220
0.0
230
1.0
 70
     8
 71
     3
 72
     8
 73
     4
 74
     0
 42
0.0000000001
 43
0.0000000001
 40
0.0
 40
0.0
 40
0.0
 40
0.0
 40
1.0
 40
1.0
 40
1.0
 40
1.0
 10
135.4187953871576
 20
159.5831852407604
 30
0.0
 10
135.4255555636532
 20
159.441142218964
 30
0.0
 10
135.4800664367127
 20
159.3341592313407
 30
0.0
 10
135.5717198019203
 20
159.2830559297901
 30
0.0
  0
SPLINE
  5
15A
330
70
100
AcDbEntity
  8
Isometric$4
 62
     7
370
    35
100
AcDbSpline
210
0.0
220
0.0
230
1.0
 70
     8
 71
     3
 72
     8
 73
     4
 74
     0
 42
0.0000000001
 43
0.0000000001
 40
0.0
 40
0.0
 40
0.0
 40
0.0
 40
1.0
 40
1.0
 40
1.0
 40
1.0
 10
135.4187954088785
 20
159.5831854262464
 30
0.0
 10
135.5624391291881
 20
159.501968948656
 30
0.0
 10
135.7951720318252
 20
159.5087702126111
 30
0.0
 10
135.938618896445
 20
159.5983764744797
 30
0.0
  0
SPLINE
  5
15B
330
70
100
AcDbEntity
  8
Isometric$4
 62
     7
370
    35
100
AcDbSpline
210
0.0
220
0.0
230
1.0
 70
     8
 71
     3
 72
     8
 73
     4
 74
     0
 42
0.0000000001
 43
0.0000000001
 40
0.0
 40
0.0
 40
0.0
 40
0.0
 40
1.0
 40
1.0
 40
1.0
 40
1.0
 10
135.9386188177797
 20
159.5983763218846
 30
0.0
 10
135.9458596640378
 20
159.4462335792314
 30
0.0
 10
136.0599984208619
 20
159.3882863278998
 30
0.0
 10
136.1983522217117
 20
159.4665119380791
 30
0.0
  0
SPLINE
  5
15C
330
70
100
AcDbEntity
  8
Isometric$4
 62
     7
370
    35
100
AcDbSpline
210
0.0
220
0.0
230
1.0
 70
     8
 71
     3
 72
     8
 73
     4
 74
     0
 42
0.0000000001
 43
0.0000000001
 40
0.0
 40
0.0
 40
0.0
 40
0.0
 40
1.0
 40
1.0
 40
1.0
 40
1.0
 10
138.592257203423
 20
160.8200316060789
 30
0.0
 10
138.7306110042734
 20
160.8982572162591
 30
0.0
 10
138.8447498115992
 20
161.0852732147881
 30
0.0
 10
138.8519907222749
 20
161.2456039816653
 30
0.0
  0
SPLINE
  5
15D
330
70
100
AcDbEntity
  8
Isometric$4
 62
     7
370
    35
100
AcDbSpline
210
0.0
220
0.0
230
1.0
 70
     8
 71
     3
 72
     8
 73
     4
 74
     0
 42
0.0000000001
 43
0.0000000001
 40
0.0
 40
0.0
 40
0.0
 40
0.0
 40
1.0
 40
1.0
 40
1.0
 40
1.0
 10
124.5680707506556
 20
152.041364831922
 30
0.0
 10
124.6145001713899
 20
152.0677218269155
 30
0.0
 10
124.641581341946
 20
152.1229515320777
 30
0.0
 10
124.6438659599529
 20
152.1959426059348
 30
0.0
  0
SPLINE
  5
15E
330
70
100
AcDbEntity
  8
Isometric$4
 62
     7
370
    35
100
AcDbSpline
210
0.0
220
0.0
230
1.0
 70
     8
 71
     3
 72
     8
 73
     4
 74
     0
 42
0.0000000001
 43
0.0000000001
 40
0.0
 40
0.0
 40
0.0
 40
0.0
 40
1.0
 40
1.0
 40
1.0
 40
1.0
 10
125.4514206790235
 20
153.5040498192635
 30
0.0
 10
125.5187795807062
 20
153.5421324800099
 30
0.0
 10
125.5573971401841
 20
153.5945272984368
 30
0.0
 10
125.5591453198652
 20
153.6502064659695
 30
0.0
  0
SPLINE
  5
15F
330
70
100
AcDbEntity
  8
Isometric$4
 62
     7
370
    35
100
AcDbSpline
210
0.0
220
0.0
230
1.0
 70
     8
 71
     3
 72
     8
 73
     4
 74
     0
 42
0.0000000001
 43
0.0000000001
 40
0.0
 40
0.0
 40
0.0
 40
0.0
 40
1.0
 40
1.0
 40
1.0
 40
1.0
 10
119.8392322970179
 20
151.099358591181
 30
0.0
 10
119.839232232515
 20
150.787346287383
 30
0.0
 10
119.9488411734152
 20
150.5500864193897
 30
0.0
 10
120.1439464038336
 20
150.4397734500051
 30
0.0
  0
SPLINE
  5
160
330
70
100
AcDbEntity
  8
Isometric$4
 62
     7
370
    35
100
AcDbSpline
210
0.0
220
0.0
230
1.0
 70
     8
 71
     3
 72
     8
 73
     4
 74
     0
 42
0.0000000001
 43
0.0000000001
 40
0.0
 40
0.0
 40
0.0
 40
0.0
 40
1.0
 40
1.0
 40
1.0
 40
1.0
 10
121.4470251928778
 20
150.276717954982
 30
0.0
 10
121.4934542474483
 20
150.3030958263592
 30
0.0
 10
121.5205491687717
 20
150.3583285926754
 30
0.0
 10
121.5228620894717
 20
150.4313108226889
 30
0.0
  0
SPLINE
  5
161
330
70
100
AcDbEntity
  8
Isometric$4
 62
     7
370
    35
100
AcDbSpline
210
0.0
220
0.0
230
1.0
 70
     8
 71
     3
 72
     8
 73
     4
 74
     0
 42
0.0000000001
 43
0.0000000001
 40
0.0
 40
0.0
 40
0.0
 40
0.0
 40
1.0
 40
1.0
 40
1.0
 40
1.0
 10
120.2497891470502
 20
150.867228623153
 30
0.0
 10
120.3933456820356
 20
150.7803938079278
 30
0.0
 10
120.6261657215339
 20
150.7758389645411
 30
0.0
 10
120.7698086779431
 20
150.8570550679634
 30
0.0
  0
SPLINE
  5
162
330
70
100
AcDbEntity
  8
Isometric$4
 62
     7
370
    35
100
AcDbSpline
210
0.0
220
0.0
230
1.0
 70
     8
 71
     3
 72
     8
 73
     4
 74
     0
 42
0.0000000001
 43
0.0000000001
 40
0.0
 40
0.0
 40
0.0
 40
0.0
 40
1.0
 40
1.0
 40
1.0
 40
1.0
 10
37.19044697590002
 20
159.9969560379496
 30
0.0
 10
37.20423359565974
 20
159.5583095385393
 30
0.0
 10
37.36723721065307
 20
159.2265566727154
 30
0.0
 10
37.64657473283367
 20
159.0686226966848
 30
0.0
  0
SPLINE
  5
163
330
70
100
AcDbEntity
  8
Isometric$4
 62
     7
370
    35
100
AcDbSpline
210
0.0
220
0.0
230
1.0
 70
     8
 71
     3
 72
     8
 73
     4
 74
     0
 42
0.0000000001
 43
0.0000000001
 40
0.0
 40
0.0
 40
0.0
 40
0.0
 40
1.0
 40
1.0
 40
1.0
 40
1.0
 10
103.1438432730358
 20
140.6555877825678
 30
0.0
 10
103.192619580626
 20
140.6831660248795
 30
0.0
 10
103.2200218158642
 20
140.742480991813
 30
0.0
 10
103.2200217997836
 20
140.8204840676968
 30
0.0
  0
SPLINE
  5
164
330
70
100
AcDbEntity
  8
Isometric$4
 62
     7
370
    35
100
AcDbSpline
210
0.0
220
0.0
230
1.0
 70
     8
 71
     3
 72
     8
 73
     4
 74
     0
 42
0.0000000001
 43
0.0000000001
 40
0.0
 40
0.0
 40
0.0
 40
0.0
 40
1.0
 40
1.0
 40
1.0
 40
1.0
 10
103.4797552420262
 20
141.2460563478734
 30
0.0
 10
103.5464080610282
 20
141.2797919787136
 30
0.0
 10
103.5848508828086
 20
141.3267442203527
 30
0.0
 10
103.5871288721244
 20
141.3771974138138
 30
0.0
  0
SPLINE
  5
165
330
70
100
AcDbEntity
  8
Isometric$4
 62
     7
370
    35
100
AcDbSpline
210
0.0
220
0.0
230
1.0
 70
     8
 71
     3
 72
     8
 73
     4
 74
     0
 42
0.0000000001
 43
0.0000000001
 40
0.0
 40
0.0
 40
0.0
 40
0.0
 40
1.0
 40
1.0
 40
1.0
 40
1.0
 10
100.7498886321372
 20
139.3020400523016
 30
0.0
 10
100.7986953171705
 20
139.3296056772098
 30
0.0
 10
100.8261168341613
 20
139.3889338081178
 30
0.0
 10
100.8261168180745
 20
139.4669643996969
 30
0.0
  0
SPLINE
  5
166
330
70
100
AcDbEntity
  8
Isometric$4
 62
     7
370
    35
100
AcDbSpline
210
0.0
220
0.0
230
1.0
 70
     8
 71
     3
 72
     8
 73
     4
 74
     0
 42
0.0000000001
 43
0.0000000001
 40
0.0
 40
0.0
 40
0.0
 40
0.0
 40
1.0
 40
1.0
 40
1.0
 40
1.0
 10
100.0465599835195
 20
139.5836377709412
 30
0.0
 10
100.0533201600135
 20
139.4415947491462
 30
0.0
 10
100.1078310330733
 20
139.3346117615228
 30
0.0
 10
100.1994843982819
 20
139.2835084599716
 30
0.0
  0
SPLINE
  5
167
330
70
100
AcDbEntity
  8
Isometric$4
 62
     7
370
    35
100
AcDbSpline
210
0.0
220
0.0
230
1.0
 70
     8
 71
     3
 72
     8
 73
     4
 74
     0
 42
0.0000000001
 43
0.0000000001
 40
0.0
 40
0.0
 40
0.0
 40
0.0
 40
1.0
 40
1.0
 40
1.0
 40
1.0
 10
100.0465597451498
 20
139.5836378093732
 30
0.0
 10
100.1902034654597
 20
139.5024213317813
 30
0.0
 10
100.4229363680965
 20
139.5092225957377
 30
0.0
 10
100.5663832327163
 20
139.5988288576053
 30
0.0
  0
SPLINE
  5
168
330
70
100
AcDbEntity
  8
Isometric$4
 62
     7
370
    35
100
AcDbSpline
210
0.0
220
0.0
230
1.0
 70
     8
 71
     3
 72
     8
 73
     4
 74
     0
 42
0.0000000001
 43
0.0000000001
 40
0.0
 40
0.0
 40
0.0
 40
0.0
 40
1.0
 40
1.0
 40
1.0
 40
1.0
 10
100.5663834141413
 20
139.5988288520668
 30
0.0
 10
100.5736242603997
 20
139.4466861094125
 30
0.0
 10
100.6877630172222
 20
139.3887388580822
 30
0.0
 10
100.8261168180745
 20
139.4669644682612
 30
0.0
  0
SPLINE
  5
169
330
70
100
AcDbEntity
  8
Isometric$4
 62
     7
370
    35
100
AcDbSpline
210
0.0
220
0.0
230
1.0
 70
     8
 71
     3
 72
     8
 73
     4
 74
     0
 42
0.0000000001
 43
0.0000000001
 40
0.0
 40
0.0
 40
0.0
 40
0.0
 40
1.0
 40
1.0
 40
1.0
 40
1.0
 10
103.2200217997836
 20
140.8204841362604
 30
0.0
 10
103.3583756006352
 20
140.89870974644
 30
0.0
 10
103.4725144079598
 20
141.0857257449699
 30
0.0
 10
103.4797553186377
 20
141.2460565118474
 30
0.0
  0
SPLINE
  5
16A
330
70
100
AcDbEntity
  8
Isometric$4
 62
     7
370
    35
100
AcDbSpline
210
0.0
220
0.0
230
1.0
 70
     8
 71
     3
 72
    11
 73
     7
 74
     0
 42
0.0000000001
 43
0.0000000001
 40
0.0
 40
0.0
 40
0.0
 40
0.0
 40
1.0
 40
1.0
 40
1.0
 40
2.0
 40
2.0
 40
2.0
 40
2.0
 10
120.7698387038606
 20
150.8571272072667
 30
0.0
 10
120.7546251828681
 20
150.3784099323923
 30
0.0
 10
121.0916853862724
 20
150.1877319912239
 30
0.0
 10
121.5226837393568
 20
150.4312361055099
 30
0.0
 10
121.522714546179
 20
150.4312535106537
 30
0.0
 10
121.5227453530667
 20
150.431270917824
 30
0.0
 10
121.5227761600186
 20
150.4312883270191
 30
0.0
  0
SPLINE
  5
16B
330
70
100
AcDbEntity
  8
Isometric$4
 62
     7
370
    35
100
AcDbSpline
210
0.0
220
0.0
230
1.0
 70
     8
 71
     3
 72
    11
 73
     7
 74
     0
 42
0.0000000001
 43
0.0000000001
 40
0.0
 40
0.0
 40
0.0
 40
0.0
 40
1.0
 40
1.0
 40
1.0
 40
2.0
 40
2.0
 40
2.0
 40
2.0
 10
124.6439536408773
 20
152.1960095522167
 30
0.0
 10
125.0749997432506
 20
152.4398519452953
 30
0.0
 10
125.4365015129415
 20
153.02545382475
 30
0.0
 10
125.4513904426287
 20
153.5039879586538
 30
0.0
 10
125.4513915037756
 20
153.5040220642015
 30
0.0
 10
125.4513925631097
 20
153.5040561687225
 30
0.0
 10
125.4513936206278
 20
153.5040902722171
 30
0.0
  0
SPLINE
  5
16C
330
70
100
AcDbEntity
  8
Isometric$4
 62
     7
370
    35
100
AcDbSpline
210
0.0
220
0.0
230
1.0
 70
     8
 71
     3
 72
     8
 73
     4
 74
     0
 42
0.0000000001
 43
0.0000000001
 40
0.0
 40
0.0
 40
0.0
 40
0.0
 40
1.0
 40
1.0
 40
1.0
 40
1.0
 10
146.544274890366
 20
159.9969571811544
 30
0.0
 10
147.5605301956701
 20
160.5715501294478
 30
0.0
 10
148.1471109326832
 20
161.3450830916088
 30
0.0
 10
148.1825932184019
 20
162.157432541634
 30
0.0
  0
SPLINE
  5
16D
330
70
100
AcDbEntity
  8
Isometric$4
 62
     7
370
    35
100
AcDbSpline
210
0.0
220
0.0
230
1.0
 70
     8
 71
     3
 72
     8
 73
     4
 74
     0
 42
0.0000000001
 43
0.0000000001
 40
0.0
 40
0.0
 40
0.0
 40
0.0
 40
1.0
 40
1.0
 40
1.0
 40
1.0
 10
146.08814656235
 20
159.0686226966848
 30
0.0
 10
146.3674840845293
 20
159.2265566727135
 30
0.0
 10
146.5304876995214
 20
159.5583095385354
 30
0.0
 10
146.544274319284
 20
159.9969560379431
 30
0.0
  0
SPLINE
  5
16E
330
70
100
AcDbEntity
  8
Isometric$4
 62
     7
370
    35
100
AcDbSpline
210
0.0
220
0.0
230
1.0
 70
     8
 71
     3
 72
     8
 73
     4
 74
     0
 42
0.0000000001
 43
0.0000000001
 40
0.0
 40
0.0
 40
0.0
 40
0.0
 40
1.0
 40
1.0
 40
1.0
 40
1.0
 10
95.3664111536551
 20
130.3904487923444
 30
0.0
 10
95.64825651891398
 20
130.5473928812592
 30
0.0
 10
95.81287296121004
 20
130.8802183463052
 30
0.0
 10
95.82673090965343
 20
131.3211342981371
 30
0.0
  0
SPLINE
  5
16F
330
70
100
AcDbEntity
  8
Isometric$4
 62
     7
370
    35
100
AcDbSpline
210
0.0
220
0.0
230
1.0
 70
     8
 71
     3
 72
    11
 73
     7
 74
     0
 42
0.0000000001
 43
0.0000000001
 40
0.0
 40
0.0
 40
0.0
 40
0.0
 40
1.0
 40
1.0
 40
1.0
 40
2.0
 40
2.0
 40
2.0
 40
2.0
 10
87.90798985016779
 20
131.321135421145
 30
0.0
 10
90.09468996932744
 20
130.0847704651414
 30
0.0
 10
93.64003135063642
 20
130.0847704691835
 30
0.0
 10
95.82673146097944
 20
131.3211354301706
 30
0.0
 10
95.82673146097944
 20
131.3211354301706
 30
0.0
 10
95.82673147718747
 20
131.3211354393347
 30
0.0
 10
95.82673147718747
 20
131.3211354393347
 30
0.0
  0
SPLINE
  5
170
330
70
100
AcDbEntity
  8
Isometric$4
 62
     7
370
    35
100
AcDbSpline
210
0.0
220
0.0
230
1.0
 70
     8
 71
     3
 72
     8
 73
     4
 74
     0
 42
0.0000000001
 43
0.0000000001
 40
0.0
 40
0.0
 40
0.0
 40
0.0
 40
1.0
 40
1.0
 40
1.0
 40
1.0
 10
87.90799038552959
 20
131.3211342981294
 30
0.0
 10
87.92178603281666
 20
130.8822005715044
 30
0.0
 10
88.08499333989633
 20
130.5503115372024
 30
0.0
 10
88.3646478995174
 20
130.3925017262446
 30
0.0
  0
SPLINE
  5
171
330
70
100
AcDbEntity
  8
Isometric$4
 62
     7
370
    35
100
AcDbSpline
210
0.0
220
0.0
230
1.0
 70
     8
 71
     3
 72
     8
 73
     4
 74
     0
 42
0.0000000001
 43
0.0000000001
 40
0.0
 40
0.0
 40
0.0
 40
0.0
 40
1.0
 40
1.0
 40
1.0
 40
1.0
 10
133.0265977690368
 20
151.06949276848
 30
0.0
 10
132.9921077031149
 20
151.0889935443127
 30
0.0
 10
132.9590302636866
 20
151.0922023185006
 30
0.0
 10
132.9346421098676
 20
151.0784131973477
 30
0.0
  0
SPLINE
  5
172
330
70
100
AcDbEntity
  8
Isometric$4
 62
     7
370
    35
100
AcDbSpline
210
0.0
220
0.0
230
1.0
 70
     8
 71
     3
 72
     8
 73
     4
 74
     0
 42
0.0000000001
 43
0.0000000001
 40
0.0
 40
0.0
 40
0.0
 40
0.0
 40
1.0
 40
1.0
 40
1.0
 40
1.0
 10
133.0265978295689
 20
151.0694927685372
 30
0.0
 10
132.9547759853539
 20
151.0288845051317
 30
0.0
 10
132.8965528632103
 20
150.9301260227937
 30
0.0
 10
132.8965528464677
 20
150.8489095243841
 30
0.0
  0
SPLINE
  5
173
330
70
100
AcDbEntity
  8
Isometric$4
 62
     7
370
    35
100
AcDbSpline
210
0.0
220
0.0
230
1.0
 70
     8
 71
     3
 72
    11
 73
     7
 74
     0
 42
0.0000000001
 43
0.0000000001
 40
0.0
 40
0.0
 40
0.0
 40
0.0
 40
1.0
 40
1.0
 40
1.0
 40
2.0
 40
2.0
 40
2.0
 40
2.0
 10
136.7979022788819
 20
148.790132578848
 30
0.0
 10
136.7979022621945
 20
148.8713490772265
 30
0.0
 10
136.7396791400977
 20
148.9701075595896
 30
0.0
 10
136.6678572958808
 20
149.0107158230573
 30
0.0
 10
136.6678572958808
 20
149.0107158230573
 30
0.0
 10
136.6678572957884
 20
149.0107158231105
 30
0.0
 10
136.6678572957884
 20
149.0107158231105
 30
0.0
  0
SPLINE
  5
174
330
70
100
AcDbEntity
  8
Isometric$4
 62
     7
370
    35
100
AcDbSpline
210
0.0
220
0.0
230
1.0
 70
     8
 71
     3
 72
     8
 73
     4
 74
     0
 42
0.0000000001
 43
0.0000000001
 40
0.0
 40
0.0
 40
0.0
 40
0.0
 40
1.0
 40
1.0
 40
1.0
 40
1.0
 10
132.8426864204313
 20
150.9224372895766
 30
0.0
 10
132.8426864204313
 20
150.8948590472649
 30
0.0
 10
132.8620627422113
 20
150.8684103379598
 30
0.0
 10
132.8965528161506
 20
150.8489095758076
 30
0.0
  0
SPLINE
  5
175
330
70
100
AcDbEntity
  8
Isometric$4
 62
     7
370
    35
100
AcDbSpline
210
0.0
220
0.0
230
1.0
 70
     8
 71
     3
 72
     8
 73
     4
 74
     0
 42
0.0000000001
 43
0.0000000001
 40
0.0
 40
0.0
 40
0.0
 40
0.0
 40
1.0
 40
1.0
 40
1.0
 40
1.0
 10
132.8426864204313
 20
145.0402174455122
 30
0.0
 10
132.8426864204313
 20
145.0126392032018
 30
0.0
 10
132.8620627422113
 20
144.9861904938961
 30
0.0
 10
132.8965528161506
 20
144.9666897317439
 30
0.0
  0
SPLINE
  5
176
330
70
100
AcDbEntity
  8
Isometric$4
 62
     7
370
    35
100
AcDbSpline
210
0.0
220
0.0
230
1.0
 70
     8
 71
     3
 72
     8
 73
     4
 74
     0
 42
0.0000000001
 43
0.0000000001
 40
0.0
 40
0.0
 40
0.0
 40
0.0
 40
1.0
 40
1.0
 40
1.0
 40
1.0
 10
133.8726668468179
 20
145.4009446795009
 30
0.0
 10
134.0355037040979
 20
145.8032476362037
 30
0.0
 10
134.1759601541017
 20
146.2072352507901
 30
0.0
 10
134.2926715730411
 20
146.608982526513
 30
0.0
  0
SPLINE
  5
177
330
70
100
AcDbEntity
  8
Isometric$4
 62
     7
370
    35
100
AcDbSpline
210
0.0
220
0.0
230
1.0
 70
     8
 71
     3
 72
     8
 73
     4
 74
     0
 42
0.0000000001
 43
0.0000000001
 40
0.0
 40
0.0
 40
0.0
 40
0.0
 40
1.0
 40
1.0
 40
1.0
 40
1.0
 10
133.7426218637154
 20
145.4744724275514
 30
0.0
 10
133.9054587209954
 20
145.8767753842535
 30
0.0
 10
134.0459151710005
 20
146.2807629988406
 30
0.0
 10
134.1626265899406
 20
146.6825102745641
 30
0.0
  0
SPLINE
  5
178
330
70
100
AcDbEntity
  8
Isometric$4
 62
     7
370
    35
100
AcDbSpline
210
0.0
220
0.0
230
1.0
 70
     8
 71
     3
 72
     8
 73
     4
 74
     0
 42
0.0000000001
 43
0.0000000001
 40
0.0
 40
0.0
 40
0.0
 40
0.0
 40
1.0
 40
1.0
 40
1.0
 40
1.0
 10
133.9631964440719
 20
145.4521303566637
 30
0.0
 10
134.1234149157711
 20
145.8533773964799
 30
0.0
 10
134.261591402776
 20
146.2560423812202
 30
0.0
 10
134.3764261246119
 20
146.6563375746697
 30
0.0
  0
SPLINE
  5
179
330
70
100
AcDbEntity
  8
Isometric$4
 62
     7
370
    35
100
AcDbSpline
210
0.0
220
0.0
230
1.0
 70
     8
 71
     3
 72
     8
 73
     4
 74
     0
 42
0.0000000001
 43
0.0000000001
 40
0.0
 40
0.0
 40
0.0
 40
0.0
 40
1.0
 40
1.0
 40
1.0
 40
1.0
 10
132.5064159189947
 20
145.6284405312386
 30
0.0
 10
133.18430725204
 20
147.1394535333709
 30
0.0
 10
133.5467760483919
 20
148.6765081272133
 30
0.0
 10
133.5467763295087
 20
150.0401051057456
 30
0.0
  0
SPLINE
  5
17A
330
70
100
AcDbEntity
  8
Isometric$4
 62
     7
370
    35
100
AcDbSpline
210
0.0
220
0.0
230
1.0
 70
     8
 71
     3
 72
     8
 73
     4
 74
     0
 42
0.0000000001
 43
0.0000000001
 40
0.0
 40
0.0
 40
0.0
 40
0.0
 40
1.0
 40
1.0
 40
1.0
 40
1.0
 10
134.847225614824
 20
144.3049410663233
 30
0.0
 10
135.5251169478692
 20
145.815954068457
 30
0.0
 10
135.8875857442212
 20
147.3530086622983
 30
0.0
 10
135.8875860253386
 20
148.7166056408316
 30
0.0
  0
SPLINE
  5
17B
330
70
100
AcDbEntity
  8
Isometric$4
 62
     7
370
    35
100
AcDbSpline
210
0.0
220
0.0
230
1.0
 70
     8
 71
     3
 72
     8
 73
     4
 74
     0
 42
0.0000000001
 43
0.0000000001
 40
0.0
 40
0.0
 40
0.0
 40
0.0
 40
1.0
 40
1.0
 40
1.0
 40
1.0
 10
132.8965528464677
 20
144.9666896803207
 30
0.0
 10
132.8965528384272
 20
144.9276881423782
 30
0.0
 10
132.9102539560473
 20
144.8980306589108
 30
0.0
 10
132.9346421098426
 20
144.8842415377552
 30
0.0
  0
SPLINE
  5
17C
330
70
100
AcDbEntity
  8
Isometric$4
 62
     7
370
    35
100
AcDbSpline
210
0.0
220
0.0
230
1.0
 70
     8
 71
     3
 72
     8
 73
     4
 74
     0
 42
0.0000000001
 43
0.0000000001
 40
0.0
 40
0.0
 40
0.0
 40
0.0
 40
1.0
 40
1.0
 40
1.0
 40
1.0
 10
136.5378123430261
 20
142.9079127863051
 30
0.0
 10
136.6096342039888
 20
142.867304551316
 30
0.0
 10
136.7260804482516
 20
142.8673045513237
 30
0.0
 10
136.7979023091983
 20
142.9079127863211
 30
0.0
  0
SPLINE
  5
17D
330
70
100
AcDbEntity
  8
Isometric$4
 62
     7
370
    35
100
AcDbSpline
210
0.0
220
0.0
230
1.0
 70
     8
 71
     3
 72
     8
 73
     4
 74
     0
 42
0.0000000001
 43
0.0000000001
 40
0.0
 40
0.0
 40
0.0
 40
0.0
 40
1.0
 40
1.0
 40
1.0
 40
1.0
 10
136.5378123733137
 20
142.9079127348973
 30
0.0
 10
136.5378123652726
 20
142.8689111969349
 30
0.0
 10
136.5515134829067
 20
142.8392537134578
 30
0.0
 10
136.5759016367257
 20
142.8254645923113
 30
0.0
  0
SPLINE
  5
17E
330
70
100
AcDbEntity
  8
Isometric$4
 62
     7
370
    35
100
AcDbSpline
210
0.0
220
0.0
230
1.0
 70
     8
 71
     3
 72
     8
 73
     4
 74
     0
 42
0.0000000001
 43
0.0000000001
 40
0.0
 40
0.0
 40
0.0
 40
0.0
 40
1.0
 40
1.0
 40
1.0
 40
1.0
 10
136.7598130155064
 20
142.8254645923325
 30
0.0
 10
136.7842011693094
 20
142.8392537134912
 30
0.0
 10
136.7979022869294
 20
142.8689111969702
 30
0.0
 10
136.7979022788819
 20
142.9079127349281
 30
0.0
  0
SPLINE
  5
17F
330
70
100
AcDbEntity
  8
Isometric$4
 62
     7
370
    35
100
AcDbSpline
210
0.0
220
0.0
230
1.0
 70
     8
 71
     3
 72
     8
 73
     4
 74
     0
 42
0.0000000001
 43
0.0000000001
 40
0.0
 40
0.0
 40
0.0
 40
0.0
 40
1.0
 40
1.0
 40
1.0
 40
1.0
 10
144.6027296115564
 20
157.8475480064933
 30
0.0
 10
145.0283520696513
 20
157.606900151263
 30
0.0
 10
145.7165472126689
 20
157.6035044657946
 30
0.0
 10
146.1495329824685
 20
157.8399157850479
 30
0.0
  0
SPLINE
  5
180
330
70
100
AcDbEntity
  8
Isometric$4
 62
     7
370
    35
100
AcDbSpline
210
0.0
220
0.0
230
1.0
 70
     8
 71
     3
 72
     8
 73
     4
 74
     0
 42
0.0000000001
 43
0.0000000001
 40
0.0
 40
0.0
 40
0.0
 40
0.0
 40
1.0
 40
1.0
 40
1.0
 40
1.0
 10
146.6605552476009
 20
156.9525000471314
 30
0.0
 10
146.6605525152374
 20
157.2773596091852
 30
0.0
 10
146.4317687245269
 20
157.6746606642671
 30
0.0
 10
146.1495459050435
 20
157.8399079807205
 30
0.0
  0
SPLINE
  5
181
330
70
100
AcDbEntity
  8
Isometric$4
 62
     7
370
    35
100
AcDbSpline
210
0.0
220
0.0
230
1.0
 70
     8
 71
     3
 72
     8
 73
     4
 74
     0
 42
0.0000000001
 43
0.0000000001
 40
0.0
 40
0.0
 40
0.0
 40
0.0
 40
1.0
 40
1.0
 40
1.0
 40
1.0
 10
144.6027297327566
 20
157.8475477322725
 30
0.0
 10
144.3154423558934
 20
157.6851146786546
 30
0.0
 10
144.0825498673242
 20
157.2900807492992
 30
0.0
 10
144.0825498003501
 20
156.9652147556634
 30
0.0
  0
SPLINE
  5
182
330
70
100
AcDbEntity
  8
Isometric$4
 62
     7
370
    35
100
AcDbSpline
210
0.0
220
0.0
230
1.0
 70
     8
 71
     3
 72
     8
 73
     4
 74
     0
 42
0.0000000001
 43
0.0000000001
 40
0.0
 40
0.0
 40
0.0
 40
0.0
 40
1.0
 40
1.0
 40
1.0
 40
1.0
 10
141.7199089330282
 20
149.9772203723007
 30
0.0
 10
141.7199089010671
 20
149.8212160552332
 30
0.0
 10
141.7747120863769
 20
149.7025869994774
 30
0.0
 10
141.8722626764969
 20
149.6474296744343
 30
0.0
  0
SPLINE
  5
183
330
70
100
AcDbEntity
  8
Isometric$4
 62
     7
370
    35
100
AcDbSpline
210
0.0
220
0.0
230
1.0
 70
     8
 71
     3
 72
     8
 73
     4
 74
     0
 42
0.0000000001
 43
0.0000000001
 40
0.0
 40
0.0
 40
0.0
 40
0.0
 40
1.0
 40
1.0
 40
1.0
 40
1.0
 10
142.6029830924679
 20
149.6446660491821
 30
0.0
 10
142.7058291511678
 20
149.7017860472525
 30
0.0
 10
142.7656983818195
 20
149.8233833252606
 30
0.0
 10
142.7692677283834
 20
149.9823981175899
 30
0.0
  0
SPLINE
  5
184
330
70
100
AcDbEntity
  8
Isometric$4
 62
     7
370
    35
100
AcDbSpline
210
0.0
220
0.0
230
1.0
 70
     8
 71
     3
 72
     8
 73
     4
 74
     0
 42
0.0000000001
 43
0.0000000001
 40
0.0
 40
0.0
 40
0.0
 40
0.0
 40
1.0
 40
1.0
 40
1.0
 40
1.0
 10
141.7290664292915
 20
149.9721324311769
 30
0.0
 10
142.0213239750185
 20
149.8125590762162
 30
0.0
 10
142.4870380107034
 20
149.8171552691531
 30
0.0
 10
142.7692678420669
 20
149.9823983154344
 30
0.0
  0
SPLINE
  5
185
330
70
100
AcDbEntity
  8
Isometric$4
 62
     7
370
    35
100
AcDbSpline
210
0.0
220
0.0
230
1.0
 70
     8
 71
     3
 72
     8
 73
     4
 74
     0
 42
0.0000000001
 43
0.0000000001
 40
0.0
 40
0.0
 40
0.0
 40
0.0
 40
1.0
 40
1.0
 40
1.0
 40
1.0
 10
141.7199088115816
 20
149.9772205789541
 30
0.0
 10
141.722935114904
 20
149.975509500532
 30
0.0
 10
141.7259877702514
 20
149.973813386757
 30
0.0
 10
141.7290664289283
 20
149.9721324313761
 30
0.0
  0
SPLINE
  5
186
330
70
100
AcDbEntity
  8
Isometric$4
 62
     7
370
    35
100
AcDbSpline
210
0.0
220
0.0
230
1.0
 70
     8
 71
     3
 72
     8
 73
     4
 74
     0
 42
0.0000000001
 43
0.0000000001
 40
0.0
 40
0.0
 40
0.0
 40
0.0
 40
1.0
 40
1.0
 40
1.0
 40
1.0
 10
139.0437184451682
 20
155.0744859326846
 30
0.0
 10
139.0437223186792
 20
154.7536259127708
 30
0.0
 10
139.2711247479929
 20
154.6205193594965
 30
0.0
 10
139.5548370562566
 20
154.7753104276502
 30
0.0
  0
SPLINE
  5
187
330
70
100
AcDbEntity
  8
Isometric$4
 62
     7
370
    35
100
AcDbSpline
210
0.0
220
0.0
230
1.0
 70
     8
 71
     3
 72
     8
 73
     4
 74
     0
 42
0.0000000001
 43
0.0000000001
 40
0.0
 40
0.0
 40
0.0
 40
0.0
 40
1.0
 40
1.0
 40
1.0
 40
1.0
 10
144.0825496787167
 20
156.9652151672581
 30
0.0
 10
144.7919204422481
 20
156.5641354082234
 30
0.0
 10
145.9389123478699
 20
156.5584759323938
 30
0.0
 10
146.660555297683
 20
156.9524947980766
 30
0.0
  0
SPLINE
  5
188
330
70
100
AcDbEntity
  8
Isometric$4
 62
     7
370
    35
100
AcDbSpline
210
0.0
220
0.0
230
1.0
 70
     8
 71
     3
 72
     8
 73
     4
 74
     0
 42
0.0000000001
 43
0.0000000001
 40
0.0
 40
0.0
 40
0.0
 40
0.0
 40
1.0
 40
1.0
 40
1.0
 40
1.0
 10
146.4990373958065
 20
151.8629466065378
 30
0.0
 10
146.5998009748637
 20
151.9166686660501
 30
0.0
 10
146.6580627423739
 20
152.0374066049211
 30
0.0
 10
146.6605581794782
 20
152.1976718876023
 30
0.0
  0
SPLINE
  5
189
330
70
100
AcDbEntity
  8
Isometric$4
 62
     7
370
    35
100
AcDbSpline
210
0.0
220
0.0
230
1.0
 70
     8
 71
     3
 72
     8
 73
     4
 74
     0
 42
0.0000000001
 43
0.0000000001
 40
0.0
 40
0.0
 40
0.0
 40
0.0
 40
1.0
 40
1.0
 40
1.0
 40
1.0
 10
144.0825652975301
 20
152.2255113726831
 30
0.0
 10
144.0825658472692
 20
152.069450314167
 30
0.0
 10
144.1374071639286
 20
151.9507946129838
 30
0.0
 10
144.2350169593895
 20
151.8956640981019
 30
0.0
  0
SPLINE
  5
18A
330
70
100
AcDbEntity
  8
Isometric$4
 62
     7
370
    35
100
AcDbSpline
210
0.0
220
0.0
230
1.0
 70
     8
 71
     3
 72
     8
 73
     4
 74
     0
 42
0.0000000001
 43
0.0000000001
 40
0.0
 40
0.0
 40
0.0
 40
0.0
 40
1.0
 40
1.0
 40
1.0
 40
1.0
 10
117.7007844145677
 20
140.4485975478108
 30
0.0
 10
120.4058677556217
 20
142.2403669242108
 30
0.0
 10
122.5047848108963
 20
144.2982557215201
 30
0.0
 10
123.8927108690555
 20
146.5194882733077
 30
0.0
  0
SPLINE
  5
18B
330
70
100
AcDbEntity
  8
Isometric$4
 62
     7
370
    35
100
AcDbSpline
210
0.0
220
0.0
230
1.0
 70
     8
 71
     3
 72
    11
 73
     7
 74
     0
 42
0.0000000001
 43
0.0000000001
 40
0.0
 40
0.0
 40
0.0
 40
0.0
 40
1.0
 40
1.0
 40
1.0
 40
2.0
 40
2.0
 40
2.0
 40
2.0
 10
116.6531834208653
 20
140.4394023428691
 30
0.0
 10
116.9558804366911
 20
140.269642934327
 30
0.0
 10
117.4205792987236
 20
140.2709571742636
 30
0.0
 10
117.6911173796862
 20
140.4423377799263
 30
0.0
 10
117.6943758934009
 20
140.4444019849063
 30
0.0
 10
117.6975979475126
 20
140.4464865403985
 30
0.0
 10
117.7007830608549
 20
140.4485911351089
 30
0.0
  0
SPLINE
  5
18C
330
70
100
AcDbEntity
  8
Isometric$4
 62
     7
370
    35
100
AcDbSpline
210
0.0
220
0.0
230
1.0
 70
     8
 71
     3
 72
     8
 73
     4
 74
     0
 42
0.0000000001
 43
0.0000000001
 40
0.0
 40
0.0
 40
0.0
 40
0.0
 40
1.0
 40
1.0
 40
1.0
 40
1.0
 10
116.6531832570877
 20
140.4394023657719
 30
0.0
 10
116.6599314084115
 20
140.2703047149965
 30
0.0
 10
116.7246714191093
 20
140.1459998614918
 30
0.0
 10
116.8314593969511
 20
140.0971010715653
 30
0.0
  0
SPLINE
  5
18D
330
70
100
AcDbEntity
  8
Isometric$4
 62
     7
370
    35
100
AcDbSpline
210
0.0
220
0.0
230
1.0
 70
     8
 71
     3
 72
     8
 73
     4
 74
     0
 42
0.0000000001
 43
0.0000000001
 40
0.0
 40
0.0
 40
0.0
 40
0.0
 40
1.0
 40
1.0
 40
1.0
 40
1.0
 10
117.5552009858664
 20
140.1529853003128
 30
0.0
 10
117.6431643864785
 20
140.2112510890608
 30
0.0
 10
117.6950053468295
 20
140.3160167564463
 30
0.0
 10
117.7018122845739
 20
140.4492728391899
 30
0.0
  0
SPLINE
  5
18E
330
70
100
AcDbEntity
  8
Isometric$4
 62
     7
370
    35
100
AcDbSpline
210
0.0
220
0.0
230
1.0
 70
     8
 71
     3
 72
     8
 73
     4
 74
     0
 42
0.0000000001
 43
0.0000000001
 40
0.0
 40
0.0
 40
0.0
 40
0.0
 40
1.0
 40
1.0
 40
1.0
 40
1.0
 10
113.918850975686
 20
138.3102775383011
 30
0.0
 10
114.0767869260914
 20
138.3866629107773
 30
0.0
 10
114.1700894006305
 20
138.5009219847371
 30
0.0
 10
114.1756542310489
 20
138.6247611818753
 30
0.0
  0
SPLINE
  5
18F
330
70
100
AcDbEntity
  8
Isometric$4
 62
     7
370
    35
100
AcDbSpline
210
0.0
220
0.0
230
1.0
 70
     8
 71
     3
 72
     8
 73
     4
 74
     0
 42
0.0000000001
 43
0.0000000001
 40
0.0
 40
0.0
 40
0.0
 40
0.0
 40
1.0
 40
1.0
 40
1.0
 40
1.0
 10
113.7656437384245
 20
138.010075395274
 30
0.0
 10
113.856630301751
 20
138.0538350033156
 30
0.0
 10
113.9111501107501
 20
138.1613014279028
 30
0.0
 10
113.9176475860185
 20
138.3096969516262
 30
0.0
  0
SPLINE
  5
190
330
70
100
AcDbEntity
  8
Isometric$4
 62
     7
370
    35
100
AcDbSpline
210
0.0
220
0.0
230
1.0
 70
     8
 71
     3
 72
     8
 73
     4
 74
     0
 42
0.0000000001
 43
0.0000000001
 40
0.0
 40
0.0
 40
0.0
 40
0.0
 40
1.0
 40
1.0
 40
1.0
 40
1.0
 10
103.1815553469406
 20
134.8093562964875
 30
0.0
 10
107.1101441042654
 20
135.5940926815617
 30
0.0
 10
110.7498345033779
 20
136.7808249090071
 30
0.0
 10
113.9188520932671
 20
138.3102848610753
 30
0.0
  0
SPLINE
  5
191
330
70
100
AcDbEntity
  8
Isometric$4
 62
     7
370
    35
100
AcDbSpline
210
0.0
220
0.0
230
1.0
 70
     8
 71
     3
 72
     8
 73
     4
 74
     0
 42
0.0000000001
 43
0.0000000001
 40
0.0
 40
0.0
 40
0.0
 40
0.0
 40
1.0
 40
1.0
 40
1.0
 40
1.0
 10
62.64376742583564
 20
143.1297808941157
 30
0.0
 10
66.70312302915411
 20
139.254832537882
 30
0.0
 10
73.04205703875348
 20
136.3098011512347
 30
0.0
 10
80.5524998072549
 20
134.8094893626886
 30
0.0
  0
SPLINE
  5
192
330
70
100
AcDbEntity
  8
Isometric$4
 62
     7
370
    35
100
AcDbSpline
210
0.0
220
0.0
230
1.0
 70
     8
 71
     3
 72
     8
 73
     4
 74
     0
 42
0.0000000001
 43
0.0000000001
 40
0.0
 40
0.0
 40
0.0
 40
0.0
 40
1.0
 40
1.0
 40
1.0
 40
1.0
 10
111.0993817811947
 20
91.00993920772262
 30
0.0
 10
111.1191454138581
 20
91.01990287287046
 30
0.0
 10
111.1388848163233
 20
91.02988189193581
 30
0.0
 10
111.1585999326545
 20
91.03987623663837
 30
0.0
  0
SPLINE
  5
193
330
70
100
AcDbEntity
  8
Isometric$4
 62
     7
370
    35
100
AcDbSpline
210
0.0
220
0.0
230
1.0
 70
     8
 71
     3
 72
     8
 73
     4
 74
     0
 42
0.0000000001
 43
0.0000000001
 40
0.0
 40
0.0
 40
0.0
 40
0.0
 40
1.0
 40
1.0
 40
1.0
 40
1.0
 10
76.95664482239471
 20
89.1994074481644
 30
0.0
 10
85.82144191539397
 20
85.94877513559152
 30
0.0
 10
97.20188594846028
 20
85.86933378482187
 30
0.0
 10
106.2059207821345
 20
88.99523246302974
 30
0.0
  0
SPLINE
  5
194
330
70
100
AcDbEntity
  8
Isometric$4
 62
     7
370
    35
100
AcDbSpline
210
0.0
220
0.0
230
1.0
 70
     8
 71
     3
 72
     8
 73
     4
 74
     0
 42
0.0000000001
 43
0.0000000001
 40
0.0
 40
0.0
 40
0.0
 40
0.0
 40
1.0
 40
1.0
 40
1.0
 40
1.0
 10
74.5941556425863
 20
90.10619601239337
 30
0.0
 10
85.5980081604947
 20
85.4674811155529
 30
0.0
 10
100.8547269462674
 20
85.84518472799759
 30
0.0
 10
111.0993817811947
 20
91.00993920772262
 30
0.0
  0
SPLINE
  5
195
330
70
100
AcDbEntity
  8
Isometric$4
 62
     7
370
    35
100
AcDbSpline
210
0.0
220
0.0
230
1.0
 70
     8
 71
     3
 72
     8
 73
     4
 74
     0
 42
0.0000000001
 43
0.0000000001
 40
0.0
 40
0.0
 40
0.0
 40
0.0
 40
1.0
 40
1.0
 40
1.0
 40
1.0
 10
71.29688258894766
 20
91.7294145449366
 30
0.0
 10
72.32190299149955
 20
91.14204257908175
 30
0.0
 10
73.42414762618196
 20
90.59941723707602
 30
0.0
 10
74.5941556425863
 20
90.10619601239337
 30
0.0
  0
SPLINE
  5
196
330
70
100
AcDbEntity
  8
Isometric$4
 62
     7
370
    35
100
AcDbSpline
210
0.0
220
0.0
230
1.0
 70
     8
 71
     3
 72
     8
 73
     4
 74
     0
 42
0.0000000001
 43
0.0000000001
 40
0.0
 40
0.0
 40
0.0
 40
0.0
 40
1.0
 40
1.0
 40
1.0
 40
1.0
 10
87.57587608397148
 20
206.6344119191053
 30
0.0
 10
87.43791582037564
 20
206.7124150222645
 30
0.0
 10
87.30560606277759
 20
206.7252501189114
 30
0.0
 10
87.20805344759659
 20
206.6700936342884
 30
0.0
  0
SPLINE
  5
197
330
70
100
AcDbEntity
  8
Isometric$4
 62
     7
370
    35
100
AcDbSpline
210
0.0
220
0.0
230
1.0
 70
     8
 71
     3
 72
     8
 73
     4
 74
     0
 42
0.0000000001
 43
0.0000000001
 40
0.0
 40
0.0
 40
0.0
 40
0.0
 40
1.0
 40
1.0
 40
1.0
 40
1.0
 10
95.90245192869875
 20
206.6700936342884
 30
0.0
 10
95.80489931351809
 20
206.7252501189114
 30
0.0
 10
95.67258955592036
 20
206.7124150222645
 30
0.0
 10
95.53462929232356
 20
206.6344119191053
 30
0.0
  0
SPLINE
  5
198
330
70
100
AcDbEntity
  8
Isometric$4
 62
     7
370
    35
100
AcDbSpline
210
0.0
220
0.0
230
1.0
 70
     8
 71
     3
 72
     8
 73
     4
 74
     0
 42
0.0000000001
 43
0.0000000001
 40
0.0
 40
0.0
 40
0.0
 40
0.0
 40
1.0
 40
1.0
 40
1.0
 40
1.0
 10
37.30048561688801
 20
178.2085845226646
 30
0.0
 10
37.16255632167947
 20
178.2865701162155
 30
0.0
 10
37.03027365215795
 20
178.2994176391228
 30
0.0
 10
36.93272618001252
 20
178.2443019587207
 30
0.0
  0
SPLINE
  5
199
330
70
100
AcDbEntity
  8
Isometric$4
 62
     7
370
    35
100
AcDbSpline
210
0.0
220
0.0
230
1.0
 70
     8
 71
     3
 72
     8
 73
     4
 74
     0
 42
0.0000000001
 43
0.0000000001
 40
0.0
 40
0.0
 40
0.0
 40
0.0
 40
1.0
 40
1.0
 40
1.0
 40
1.0
 10
34.91653222442552
 20
175.3665281258744
 30
0.0
 10
34.9183521958272
 20
174.4136677991731
 30
0.0
 10
35.58863296719913
 20
173.50012901192
 30
0.0
 10
36.78030580516451
 20
172.826354620409
 30
0.0
  0
SPLINE
  5
19A
330
70
100
AcDbEntity
  8
Isometric$4
 62
     7
370
    35
100
AcDbSpline
210
0.0
220
0.0
230
1.0
 70
     8
 71
     3
 72
     8
 73
     4
 74
     0
 42
0.0000000001
 43
0.0000000001
 40
0.0
 40
0.0
 40
0.0
 40
0.0
 40
1.0
 40
1.0
 40
1.0
 40
1.0
 10
146.7723525129198
 20
172.5763602766085
 30
0.0
 10
147.9673929721167
 20
173.2520387281958
 30
0.0
 10
148.6379512089373
 20
174.1687514907064
 30
0.0
 10
148.6361260944162
 20
175.1243045635838
 30
0.0
  0
SPLINE
  5
19B
330
70
100
AcDbEntity
  8
Isometric$4
 62
     7
370
    35
100
AcDbSpline
210
0.0
220
0.0
230
1.0
 70
     8
 71
     3
 72
     8
 73
     4
 74
     0
 42
0.0000000001
 43
0.0000000001
 40
0.0
 40
0.0
 40
0.0
 40
0.0
 40
1.0
 40
1.0
 40
1.0
 40
1.0
 10
146.6200585269708
 20
177.9942361551862
 30
0.0
 10
146.522500778784
 20
178.0494334553763
 30
0.0
 10
146.390163934466
 20
178.0366107923602
 30
0.0
 10
146.2521727019534
 20
177.9585901792919
 30
0.0
  0
SPLINE
  5
19C
330
70
100
AcDbEntity
  8
Isometric$4
 62
     7
370
    35
100
AcDbSpline
210
0.0
220
0.0
230
1.0
 70
     8
 71
     3
 72
     8
 73
     4
 74
     0
 42
0.0000000001
 43
0.0000000001
 40
0.0
 40
0.0
 40
0.0
 40
0.0
 40
1.0
 40
1.0
 40
1.0
 40
1.0
 10
146.2521725806865
 20
173.458693116186
 30
0.0
 10
148.4499215260331
 20
174.7013051073163
 30
0.0
 10
148.4499215260331
 20
176.7159772076874
 30
0.0
 10
146.2521725806865
 20
177.9585891988177
 30
0.0
  0
SPLINE
  5
19D
330
70
100
AcDbEntity
  8
Isometric$4
 62
     7
370
    35
100
AcDbSpline
210
0.0
220
0.0
230
1.0
 70
     8
 71
     3
 72
     8
 73
     4
 74
     0
 42
0.0000000001
 43
0.0000000001
 40
0.0
 40
0.0
 40
0.0
 40
0.0
 40
1.0
 40
1.0
 40
1.0
 40
1.0
 10
95.53462917105752
 20
206.6344109386306
 30
0.0
 10
93.33688022571122
 20
207.8770229297609
 30
0.0
 10
89.77362515058478
 20
207.8770229297609
 30
0.0
 10
87.57587620523816
 20
206.6344109386306
 30
0.0
  0
SPLINE
  5
19E
330
70
100
AcDbEntity
  8
Isometric$4
 62
     7
370
    35
100
AcDbSpline
210
0.0
220
0.0
230
1.0
 70
     8
 71
     3
 72
     8
 73
     4
 74
     0
 42
0.0000000001
 43
0.0000000001
 40
0.0
 40
0.0
 40
0.0
 40
0.0
 40
1.0
 40
1.0
 40
1.0
 40
1.0
 10
37.30048573815469
 20
178.2085835421902
 30
0.0
 10
35.10273679280903
 20
176.9659715510599
 30
0.0
 10
35.10273679280903
 20
174.9512994506891
 30
0.0
 10
37.30048573815469
 20
173.7086874595591
 30
0.0
  0
SPLINE
  5
19F
330
70
100
AcDbEntity
  8
Isometric$4
 62
     7
370
    35
100
AcDbSpline
210
0.0
220
0.0
230
1.0
 70
     8
 71
     3
 72
    11
 73
     7
 74
     0
 42
0.0000000001
 43
0.0000000001
 40
0.0
 40
0.0
 40
0.0
 40
0.0
 40
1.0
 40
1.0
 40
1.0
 40
2.0
 40
2.0
 40
2.0
 40
2.0
 10
87.49784921386362
 20
144.150532881122
 30
0.0
 10
89.98288560220885
 20
142.7454879495028
 30
0.0
 10
94.01192565447638
 20
142.745487948736
 30
0.0
 10
96.49696204449517
 20
144.1505328794093
 30
0.0
 10
96.49696204449517
 20
144.1505328794093
 30
0.0
 10
96.49696204542498
 20
144.1505328799362
 30
0.0
 10
96.49696204542498
 20
144.1505328799362
 30
0.0
  0
SPLINE
  5
1A0
330
70
100
AcDbEntity
  8
Isometric$4
 62
     7
370
    35
100
AcDbSpline
210
0.0
220
0.0
230
1.0
 70
     8
 71
     3
 72
     8
 73
     4
 74
     0
 42
0.0000000001
 43
0.0000000001
 40
0.0
 40
0.0
 40
0.0
 40
0.0
 40
1.0
 40
1.0
 40
1.0
 40
1.0
 10
88.01802914778397
 20
145.0328657197466
 30
0.0
 10
90.21577809312994
 20
143.7902537286157
 30
0.0
 10
93.77903316825703
 20
143.7902537286157
 30
0.0
 10
95.97678211360333
 20
145.0328657197466
 30
0.0
  0
SPLINE
  5
1A1
330
70
100
AcDbEntity
  8
Isometric$4
 62
     7
370
    35
100
AcDbSpline
210
0.0
220
0.0
230
1.0
 70
     8
 71
     3
 72
     8
 73
     4
 74
     0
 42
0.0000000001
 43
0.0000000001
 40
0.0
 40
0.0
 40
0.0
 40
0.0
 40
1.0
 40
1.0
 40
1.0
 40
1.0
 10
119.5924221204528
 20
152.7383430803762
 30
0.0
 10
119.6558430536304
 20
152.621912069053
 30
0.0
 10
119.7390155037835
 20
152.5282093776058
 30
0.0
 10
119.8391889822775
 20
152.46033372667
 30
0.0
  0
SPLINE
  5
1A2
330
70
100
AcDbEntity
  8
Isometric$4
 62
     7
370
    35
100
AcDbSpline
210
0.0
220
0.0
230
1.0
 70
     8
 71
     3
 72
     8
 73
     4
 74
     0
 42
0.0000000001
 43
0.0000000001
 40
0.0
 40
0.0
 40
0.0
 40
0.0
 40
1.0
 40
1.0
 40
1.0
 40
1.0
 10
128.9301808618679
 20
136.8850996014524
 30
0.0
 10
128.9301808538319
 20
136.8461204088783
 30
0.0
 10
128.9438663199613
 20
136.8164736225519
 30
0.0
 10
128.968229810113
 20
136.8026742731558
 30
0.0
  0
SPLINE
  5
1A3
330
70
100
AcDbEntity
  8
Isometric$4
 62
     7
370
    35
100
AcDbSpline
210
0.0
220
0.0
230
1.0
 70
     8
 71
     3
 72
     8
 73
     4
 74
     0
 42
0.0000000001
 43
0.0000000001
 40
0.0
 40
0.0
 40
0.0
 40
0.0
 40
1.0
 40
1.0
 40
1.0
 40
1.0
 10
129.7438429566965
 20
136.7294692009679
 30
0.0
 10
129.9442023028626
 20
136.8302372091718
 30
0.0
 10
130.0577417767144
 20
137.0639689102618
 30
0.0
 10
130.0577417125047
 20
137.3756593556012
 30
0.0
  0
SPLINE
  5
1A4
330
70
100
AcDbEntity
  8
Isometric$4
 62
     7
370
    35
100
AcDbSpline
210
0.0
220
0.0
230
1.0
 70
     8
 71
     3
 72
     8
 73
     4
 74
     0
 42
0.0000000001
 43
0.0000000001
 40
0.0
 40
0.0
 40
0.0
 40
0.0
 40
1.0
 40
1.0
 40
1.0
 40
1.0
 10
129.8022697707487
 20
137.3781808488584
 30
0.0
 10
129.8723252156956
 20
137.3385713492766
 30
0.0
 10
129.9852843437613
 20
137.337456540804
 30
0.0
 10
130.0577420125966
 20
137.3756595597474
 30
0.0
  0
SPLINE
  5
1A5
330
70
100
AcDbEntity
  8
Isometric$4
 62
     7
370
    35
100
AcDbSpline
210
0.0
220
0.0
230
1.0
 70
     8
 71
     3
 72
     8
 73
     4
 74
     0
 42
0.0000000001
 43
0.0000000001
 40
0.0
 40
0.0
 40
0.0
 40
0.0
 40
1.0
 40
1.0
 40
1.0
 40
1.0
 10
128.9301810348443
 20
136.885099734732
 30
0.0
 10
129.4118223436004
 20
136.6127784465952
 30
0.0
 10
129.8022696786751
 20
136.833538314405
 30
0.0
 10
129.8022695664002
 20
137.378180700203
 30
0.0
  0
SPLINE
  5
1A6
330
70
100
AcDbEntity
  8
Isometric$4
 62
     7
370
    35
100
AcDbSpline
210
0.0
220
0.0
230
1.0
 70
     8
 71
     3
 72
     8
 73
     4
 74
     0
 42
0.0000000001
 43
0.0000000001
 40
0.0
 40
0.0
 40
0.0
 40
0.0
 40
1.0
 40
1.0
 40
1.0
 40
1.0
 10
129.0568220253397
 20
136.6434301261628
 30
0.0
 10
129.362986435804
 20
136.4703239471844
 30
0.0
 10
129.6564923453469
 20
136.4425344113511
 30
0.0
 10
129.872222065043
 20
136.5662269493771
 30
0.0
  0
SPLINE
  5
1A7
330
70
100
AcDbEntity
  8
Isometric$4
 62
     7
370
    35
100
AcDbSpline
210
0.0
220
0.0
230
1.0
 70
     8
 71
     3
 72
     8
 73
     4
 74
     0
 42
0.0000000001
 43
0.0000000001
 40
0.0
 40
0.0
 40
0.0
 40
0.0
 40
1.0
 40
1.0
 40
1.0
 40
1.0
 10
130.1554389703467
 20
137.221568716537
 30
0.0
 10
130.1554394093041
 20
137.1939907985272
 30
0.0
 10
130.1748156976311
 20
137.1675424714707
 30
0.0
 10
130.2093053659678
 20
137.1480419386206
 30
0.0
  0
SPLINE
  5
1A8
330
70
100
AcDbEntity
  8
Isometric$4
 62
     7
370
    35
100
AcDbSpline
210
0.0
220
0.0
230
1.0
 70
     8
 71
     3
 72
     8
 73
     4
 74
     0
 42
0.0000000001
 43
0.0000000001
 40
0.0
 40
0.0
 40
0.0
 40
0.0
 40
1.0
 40
1.0
 40
1.0
 40
1.0
 10
129.0568216649461
 20
136.6434299002744
 30
0.0
 10
128.9863499684865
 20
136.6014982648826
 30
0.0
 10
128.9301808783198
 20
136.504538842094
 30
0.0
 10
128.9301808618679
 20
136.4248217809082
 30
0.0
  0
SPLINE
  5
1A9
330
70
100
AcDbEntity
  8
Isometric$4
 62
     7
370
    35
100
AcDbSpline
210
0.0
220
0.0
230
1.0
 70
     8
 71
     3
 72
     8
 73
     4
 74
     0
 42
0.0000000001
 43
0.0000000001
 40
0.0
 40
0.0
 40
0.0
 40
0.0
 40
1.0
 40
1.0
 40
1.0
 40
1.0
 10
147.3610433266551
 20
132.4740588558479
 30
0.0
 10
147.4344147194554
 20
132.5134270359642
 30
0.0
 10
147.475874675038
 20
132.5681372165904
 30
0.0
 10
147.4756710494605
 20
132.6253205571997
 30
0.0
  0
SPLINE
  5
1AA
330
70
100
AcDbEntity
  8
Isometric$4
 62
     7
370
    35
100
AcDbSpline
210
0.0
220
0.0
230
1.0
 70
     8
 71
     3
 72
     8
 73
     4
 74
     0
 42
0.0000000001
 43
0.0000000001
 40
0.0
 40
0.0
 40
0.0
 40
0.0
 40
1.0
 40
1.0
 40
1.0
 40
1.0
 10
128.9301811292735
 20
136.424821954147
 30
0.0
 10
129.636621943986
 20
136.0253984219585
 30
0.0
 10
130.2093052430414
 20
136.3491949437325
 30
0.0
 10
130.2093050791264
 20
137.1480417277333
 30
0.0
  0
SPLINE
  5
1AB
330
70
100
AcDbEntity
  8
Isometric$4
 62
     7
370
    35
100
AcDbSpline
210
0.0
220
0.0
230
1.0
 70
     8
 71
     3
 72
     8
 73
     4
 74
     0
 42
0.0000000001
 43
0.0000000001
 40
0.0
 40
0.0
 40
0.0
 40
0.0
 40
1.0
 40
1.0
 40
1.0
 40
1.0
 10
135.7067146392011
 20
126.9659267128511
 30
0.0
 10
135.7067004813656
 20
126.8101502840939
 30
0.0
 10
135.7613378173359
 20
126.6916360800916
 30
0.0
 10
135.8586383777127
 20
126.6363879346673
 30
0.0
  0
SPLINE
  5
1AC
330
70
100
AcDbEntity
  8
Isometric$4
 62
     7
370
    35
100
AcDbSpline
210
0.0
220
0.0
230
1.0
 70
     8
 71
     3
 72
     8
 73
     4
 74
     0
 42
0.0000000001
 43
0.0000000001
 40
0.0
 40
0.0
 40
0.0
 40
0.0
 40
1.0
 40
1.0
 40
1.0
 40
1.0
 10
137.7866835001934
 20
128.1419484127798
 30
0.0
 10
138.068667912196
 20
127.9825576978015
 30
0.0
 10
138.5239723504503
 20
127.9792201468317
 30
0.0
 10
138.8132365649642
 20
128.1344233967911
 30
0.0
  0
SPLINE
  5
1AD
330
70
100
AcDbEntity
  8
Isometric$4
 62
     7
370
    35
100
AcDbSpline
210
0.0
220
0.0
230
1.0
 70
     8
 71
     3
 72
    11
 73
     7
 74
     0
 42
0.0000000001
 43
0.0000000001
 40
0.0
 40
0.0
 40
0.0
 40
0.0
 40
1.0
 40
1.0
 40
1.0
 40
2.0
 40
2.0
 40
2.0
 40
2.0
 10
135.7066421002108
 20
126.9659792029682
 30
0.0
 10
136.8552331177642
 20
126.3163642903078
 30
0.0
 10
137.7864937850071
 20
126.8425826976242
 30
0.0
 10
137.786671017899
 20
128.1413209120528
 30
0.0
 10
137.7866710504536
 20
128.1415594767421
 30
0.0
 10
137.7866710509041
 20
128.1417980595877
 30
0.0
 10
137.7866710192472
 20
128.1420366605831
 30
0.0
  0
SPLINE
  5
1AE
330
70
100
AcDbEntity
  8
Isometric$4
 62
     7
370
    35
100
AcDbSpline
210
0.0
220
0.0
230
1.0
 70
     8
 71
     3
 72
    11
 73
     7
 74
     0
 42
0.0000000001
 43
0.0000000001
 40
0.0
 40
0.0
 40
0.0
 40
0.0
 40
1.0
 40
1.0
 40
1.0
 40
2.0
 40
2.0
 40
2.0
 40
2.0
 10
143.2871471478697
 20
136.6065846412381
 30
0.0
 10
142.8562160825772
 20
136.36293506081
 30
0.0
 10
142.5068773497207
 20
135.7703841667772
 30
0.0
 10
142.5068772492602
 20
135.2830851763241
 30
0.0
 10
142.5068771487996
 20
134.7957861858698
 30
0.0
 10
142.8562157187755
 20
134.5982693132852
 30
0.0
 10
143.2871467840693
 20
134.8419188937126
 30
0.0
  0
SPLINE
  5
1AF
330
70
100
AcDbEntity
  8
Isometric$4
 62
     7
370
    35
100
AcDbSpline
210
0.0
220
0.0
230
1.0
 70
     8
 71
     3
 72
    11
 73
     7
 74
     0
 42
0.0000000001
 43
0.0000000001
 40
0.0
 40
0.0
 40
0.0
 40
0.0
 40
1.0
 40
1.0
 40
1.0
 40
2.0
 40
2.0
 40
2.0
 40
2.0
 10
143.2871467840693
 20
134.8419188937126
 30
0.0
 10
143.7180778493625
 20
135.0855684741414
 30
0.0
 10
144.0674165822183
 20
135.6781193681742
 30
0.0
 10
144.0674166826783
 20
136.1654183586279
 30
0.0
 10
144.0674167831394
 20
136.6527173490809
 30
0.0
 10
143.7180782131629
 20
136.8502342216662
 30
0.0
 10
143.2871471478697
 20
136.6065846412381
 30
0.0
  0
SPLINE
  5
1B0
330
70
100
AcDbEntity
  8
Isometric$4
 62
     7
370
    35
100
AcDbSpline
210
0.0
220
0.0
230
1.0
 70
     8
 71
     3
 72
     8
 73
     4
 74
     0
 42
0.0000000001
 43
0.0000000001
 40
0.0
 40
0.0
 40
0.0
 40
0.0
 40
1.0
 40
1.0
 40
1.0
 40
1.0
 10
123.5983363424854
 20
152.2091729833127
 30
0.0
 10
124.0292674077786
 20
152.4528225637405
 30
0.0
 10
124.3786061406331
 20
153.0453734577733
 30
0.0
 10
124.378606241095
 20
153.5326724482273
 30
0.0
  0
SPLINE
  5
1B1
330
70
100
AcDbEntity
  8
Isometric$4
 62
     7
370
    35
100
AcDbSpline
210
0.0
220
0.0
230
1.0
 70
     8
 71
     3
 72
     8
 73
     4
 74
     0
 42
0.0000000001
 43
0.0000000001
 40
0.0
 40
0.0
 40
0.0
 40
0.0
 40
1.0
 40
1.0
 40
1.0
 40
1.0
 10
120.7057926920934
 20
150.8321509456228
 30
0.0
 10
120.8521216148649
 20
150.7494162186891
 30
0.0
 10
121.0505862512621
 20
150.7686688636581
 30
0.0
 10
121.2575266466562
 20
150.8856735183984
 30
0.0
  0
SPLINE
  5
1B2
330
70
100
AcDbEntity
  8
Isometric$4
 62
     7
370
    35
100
AcDbSpline
210
0.0
220
0.0
230
1.0
 70
     8
 71
     3
 72
    11
 73
     7
 74
     0
 42
0.0000000001
 43
0.0000000001
 40
0.0
 40
0.0
 40
0.0
 40
0.0
 40
1.0
 40
1.0
 40
1.0
 40
2.0
 40
2.0
 40
2.0
 40
2.0
 10
96.75705201194688
 20
206.825582843736
 30
0.0
 10
94.05655003974201
 20
208.3524524798139
 30
0.0
 10
89.67817125461932
 20
208.3524524796795
 30
0.0
 10
86.97766928270644
 20
206.8255828434367
 30
0.0
 10
86.97766928270644
 20
206.8255828434367
 30
0.0
 10
86.97766928226785
 20
206.825582843189
 30
0.0
 10
86.97766928226785
 20
206.825582843189
 30
0.0
  0
SPLINE
  5
1B3
330
70
100
AcDbEntity
  8
Isometric$4
 62
     7
370
    35
100
AcDbSpline
210
0.0
220
0.0
230
1.0
 70
     8
 71
     3
 72
     8
 73
     4
 74
     0
 42
0.0000000001
 43
0.0000000001
 40
0.0
 40
0.0
 40
0.0
 40
0.0
 40
1.0
 40
1.0
 40
1.0
 40
1.0
 10
36.26012587307686
 20
178.1497611036235
 30
0.0
 10
34.96329909313476
 20
177.4165324467462
 30
0.0
 10
34.23474939431819
 20
176.422060976943
 30
0.0
 10
34.23474939429733
 20
175.3851190661229
 30
0.0
  0
SPLINE
  5
1B4
330
70
100
AcDbEntity
  8
Isometric$4
 62
     7
370
    35
100
AcDbSpline
210
0.0
220
0.0
230
1.0
 70
     8
 71
     3
 72
     8
 73
     4
 74
     0
 42
0.0000000001
 43
0.0000000001
 40
0.0
 40
0.0
 40
0.0
 40
0.0
 40
1.0
 40
1.0
 40
1.0
 40
1.0
 10
34.23474939429733
 20
175.3851190660786
 30
0.0
 10
34.23474939429733
 20
175.3755549634175
 30
0.0
 10
34.23481146238313
 20
175.3659908929495
 30
0.0
 10
34.23493559730116
 20
175.3564270478218
 30
0.0
  0
SPLINE
  5
1B5
330
70
100
AcDbEntity
  8
Isometric$4
 62
     7
370
    35
100
AcDbSpline
210
0.0
220
0.0
230
1.0
 70
     8
 71
     3
 72
     8
 73
     4
 74
     0
 42
0.0000000001
 43
0.0000000001
 40
0.0
 40
0.0
 40
0.0
 40
0.0
 40
1.0
 40
1.0
 40
1.0
 40
1.0
 10
149.4999719008857
 20
175.3851190658017
 30
0.0
 10
149.499971900887
 20
175.3946831684776
 30
0.0
 10
149.4999098328028
 20
175.4042472389617
 30
0.0
 10
149.4997856978851
 20
175.4138110841038
 30
0.0
  0
SPLINE
  5
1B6
330
70
100
AcDbEntity
  8
Isometric$4
 62
     7
370
    35
100
AcDbSpline
210
0.0
220
0.0
230
1.0
 70
     8
 71
     3
 72
     8
 73
     4
 74
     0
 42
0.0000000001
 43
0.0000000001
 40
0.0
 40
0.0
 40
0.0
 40
0.0
 40
1.0
 40
1.0
 40
1.0
 40
1.0
 10
149.4997856978851
 20
175.4138110841038
 30
0.0
 10
149.4864559648694
 20
176.4407864506486
 30
0.0
 10
148.7589923651202
 20
177.4235603033849
 30
0.0
 10
147.4745954219576
 20
178.1497611037073
 30
0.0
  0
SPLINE
  5
1B7
330
70
100
AcDbEntity
  8
Isometric$4
 62
     7
370
    35
100
AcDbSpline
210
0.0
220
0.0
230
1.0
 70
     8
 71
     3
 72
     8
 73
     4
 74
     0
 42
0.0000000001
 43
0.0000000001
 40
0.0
 40
0.0
 40
0.0
 40
0.0
 40
1.0
 40
1.0
 40
1.0
 40
1.0
 10
147.9167482612858
 20
172.8704700244752
 30
0.0
 10
147.7994820372337
 20
172.9367726621507
 30
0.0
 10
147.6870187432818
 20
172.9476824942938
 30
0.0
 10
147.6040990203827
 20
172.9007994823626
 30
0.0
  0
SPLINE
  5
1B8
330
70
100
AcDbEntity
  8
Isometric$4
 62
     7
370
    35
100
AcDbSpline
210
0.0
220
0.0
230
1.0
 70
     8
 71
     3
 72
     8
 73
     4
 74
     0
 42
0.0000000001
 43
0.0000000001
 40
0.0
 40
0.0
 40
0.0
 40
0.0
 40
1.0
 40
1.0
 40
1.0
 40
1.0
 10
36.13062227479227
 20
172.9007994823671
 30
0.0
 10
36.04770255189446
 20
172.9476824942925
 30
0.0
 10
35.93523925794576
 20
172.9367726621491
 30
0.0
 10
35.81797303389786
 20
172.8704700244752
 30
0.0
  0
SPLINE
  5
1B9
330
70
100
AcDbEntity
  8
Isometric$4
 62
     7
370
    35
100
AcDbSpline
210
0.0
220
0.0
230
1.0
 70
     8
 71
     3
 72
     8
 73
     4
 74
     0
 42
0.0000000001
 43
0.0000000001
 40
0.0
 40
0.0
 40
0.0
 40
0.0
 40
1.0
 40
1.0
 40
1.0
 40
1.0
 10
97.19920485165721
 20
144.1946482846621
 30
0.0
 10
97.0821304001145
 20
144.2608424936468
 30
0.0
 10
96.96983488512969
 20
144.2718291364693
 30
0.0
 10
96.88694720744599
 20
144.225198598323
 30
0.0
  0
SPLINE
  5
1BA
330
70
100
AcDbEntity
  8
Isometric$4
 62
     7
370
    35
100
AcDbSpline
210
0.0
220
0.0
230
1.0
 70
     8
 71
     3
 72
     8
 73
     4
 74
     0
 42
0.0000000001
 43
0.0000000001
 40
0.0
 40
0.0
 40
0.0
 40
0.0
 40
1.0
 40
1.0
 40
1.0
 40
1.0
 10
86.84824241067067
 20
144.2249343400497
 30
0.0
 10
86.76531645744631
 20
144.2718669166928
 30
0.0
 10
86.65282027282961
 20
144.2609721844474
 30
0.0
 10
86.53551644352649
 20
144.1946482846621
 30
0.0
  0
SPLINE
  5
1BB
330
70
100
AcDbEntity
  8
Isometric$4
 62
     7
370
    35
100
AcDbSpline
210
0.0
220
0.0
230
1.0
 70
     8
 71
     3
 72
     8
 73
     4
 74
     0
 42
0.0000000001
 43
0.0000000001
 40
0.0
 40
0.0
 40
0.0
 40
0.0
 40
1.0
 40
1.0
 40
1.0
 40
1.0
 10
35.81797293123051
 20
178.8997440175769
 30
0.0
 10
32.87327663184014
 20
177.2348063826337
 30
0.0
 10
32.87327663125716
 20
174.5354091241561
 30
0.0
 10
35.81797292992817
 20
172.8704714888067
 30
0.0
  0
SPLINE
  5
1BC
330
70
100
AcDbEntity
  8
Isometric$4
 62
     7
370
    35
100
AcDbSpline
210
0.0
220
0.0
230
1.0
 70
     8
 71
     3
 72
     8
 73
     4
 74
     0
 42
0.0000000001
 43
0.0000000001
 40
0.0
 40
0.0
 40
0.0
 40
0.0
 40
1.0
 40
1.0
 40
1.0
 40
1.0
 10
97.19920495519117
 20
207.5755657568992
 30
0.0
 10
94.25450865628047
 20
209.2405033921135
 30
0.0
 10
89.48021264092393
 20
209.2405033924434
 30
0.0
 10
86.53551634129389
 20
207.5755657576359
 30
0.0
  0
SPLINE
  5
1BD
330
70
100
AcDbEntity
  8
Isometric$4
 62
     7
370
    35
100
AcDbSpline
210
0.0
220
0.0
230
1.0
 70
     8
 71
     3
 72
     8
 73
     4
 74
     0
 42
0.0000000001
 43
0.0000000001
 40
0.0
 40
0.0
 40
0.0
 40
0.0
 40
1.0
 40
1.0
 40
1.0
 40
1.0
 10
147.9167483639538
 20
172.8704714880714
 30
0.0
 10
150.8614446633429
 20
174.5354091230142
 30
0.0
 10
150.8614446639262
 20
177.2348063814912
 30
0.0
 10
147.9167483652545
 20
178.8997440168409
 30
0.0
  0
SPLINE
  5
1BE
330
70
100
AcDbEntity
  8
Isometric$4
 62
     7
370
    35
100
AcDbSpline
210
0.0
220
0.0
230
1.0
 70
     8
 71
     3
 72
     8
 73
     4
 74
     0
 42
0.0000000001
 43
0.0000000001
 40
0.0
 40
0.0
 40
0.0
 40
0.0
 40
1.0
 40
1.0
 40
1.0
 40
1.0
 10
86.53551633999123
 20
144.1946497487491
 30
0.0
 10
89.48021263890225
 20
142.5297121135342
 30
0.0
 10
94.25450865425975
 20
142.529712113205
 30
0.0
 10
97.19920495389011
 20
144.1946497480125
 30
0.0
  0
SPLINE
  5
1BF
330
70
100
AcDbEntity
  8
Isometric$4
 62
     7
370
    35
100
AcDbSpline
210
0.0
220
0.0
230
1.0
 70
     8
 71
     3
 72
     8
 73
     4
 74
     0
 42
0.0000000001
 43
0.0000000001
 40
0.0
 40
0.0
 40
0.0
 40
0.0
 40
1.0
 40
1.0
 40
1.0
 40
1.0
 10
102.1929323058598
 20
218.4282623636302
 30
0.0
 10
101.3310699743514
 20
218.9155611836817
 30
0.0
 10
99.93371504292916
 20
218.9155611836817
 30
0.0
 10
99.07185271142139
 20
218.4282623636302
 30
0.0
  0
SPLINE
  5
1C0
330
70
100
AcDbEntity
  8
Isometric$4
 62
     7
370
    35
100
AcDbSpline
210
0.0
220
0.0
230
1.0
 70
     8
 71
     3
 72
     8
 73
     4
 74
     0
 42
0.0000000001
 43
0.0000000001
 40
0.0
 40
0.0
 40
0.0
 40
0.0
 40
1.0
 40
1.0
 40
1.0
 40
1.0
 10
167.111387870184
 20
179.9585454062273
 30
0.0
 10
167.973250201694
 20
180.4458442262775
 30
0.0
 10
167.973250201694
 20
181.2359117166188
 30
0.0
 10
167.111387870184
 20
181.7232105366696
 30
0.0
  0
SPLINE
  5
1C1
330
70
100
AcDbEntity
  8
Isometric$4
 62
     7
370
    35
100
AcDbSpline
210
0.0
220
0.0
230
1.0
 70
     8
 71
     3
 72
     8
 73
     4
 74
     0
 42
0.0000000001
 43
0.0000000001
 40
0.0
 40
0.0
 40
0.0
 40
0.0
 40
1.0
 40
1.0
 40
1.0
 40
1.0
 10
20.99284485721248
 20
174.282202433929
 30
0.0
 10
20.13098252570407
 20
173.7949036138778
 30
0.0
 10
20.13098252570407
 20
173.0048361235362
 30
0.0
 10
20.99284485721248
 20
172.5175373034851
 30
0.0
  0
SPLINE
  5
1C2
330
70
100
AcDbEntity
  8
Isometric$4
 62
     7
370
    35
100
AcDbSpline
210
0.0
220
0.0
230
1.0
 70
     8
 71
     3
 72
     8
 73
     4
 74
     0
 42
0.0000000001
 43
0.0000000001
 40
0.0
 40
0.0
 40
0.0
 40
0.0
 40
1.0
 40
1.0
 40
1.0
 40
1.0
 10
20.34644810858157
 20
173.0469366780624
 30
0.0
 10
20.34644810858157
 20
172.7159977703266
 30
0.0
 10
20.57896396993908
 20
172.3986132586609
 30
0.0
 10
20.99284485721248
 20
172.1646041128418
 30
0.0
  0
SPLINE
  5
1C3
330
70
100
AcDbEntity
  8
Isometric$4
 62
     7
370
    35
100
AcDbSpline
210
0.0
220
0.0
230
1.0
 70
     8
 71
     3
 72
     8
 73
     4
 74
     0
 42
0.0000000001
 43
0.0000000001
 40
0.0
 40
0.0
 40
0.0
 40
0.0
 40
1.0
 40
1.0
 40
1.0
 40
1.0
 10
167.111387870184
 20
179.6056122155818
 30
0.0
 10
167.5252687574593
 20
179.8396213614022
 30
0.0
 10
167.7577846188162
 20
180.1570058730673
 30
0.0
 10
167.7577846188162
 20
180.4879447808047
 30
0.0
  0
SPLINE
  5
1C4
330
70
100
AcDbEntity
  8
Isometric$4
 62
     7
370
    35
100
AcDbSpline
210
0.0
220
0.0
230
1.0
 70
     8
 71
     3
 72
     8
 73
     4
 74
     0
 42
0.0000000001
 43
0.0000000001
 40
0.0
 40
0.0
 40
0.0
 40
0.0
 40
1.0
 40
1.0
 40
1.0
 40
1.0
 10
85.91130042153766
 20
135.8124854765244
 30
0.0
 10
86.77316275304638
 20
135.3251866564733
 30
0.0
 10
88.17051768446832
 20
135.3251866564733
 30
0.0
 10
89.03238001597641
 20
135.8124854765244
 30
0.0
  0
SPLINE
  5
1C5
330
70
100
AcDbEntity
  8
Isometric$4
 62
     7
370
    35
100
AcDbSpline
210
0.0
220
0.0
230
1.0
 70
     8
 71
     3
 72
     8
 73
     4
 74
     0
 42
0.0000000001
 43
0.0000000001
 40
0.0
 40
0.0
 40
0.0
 40
0.0
 40
1.0
 40
1.0
 40
1.0
 40
1.0
 10
85.91130042153766
 20
135.4595522858799
 30
0.0
 10
86.77316275304638
 20
134.9722534658294
 30
0.0
 10
88.17051768446832
 20
134.9722534658294
 30
0.0
 10
89.03238001597641
 20
135.4595522858799
 30
0.0
  0
SPLINE
  5
1C6
330
70
100
AcDbEntity
  8
Isometric$4
 62
     7
370
    35
100
AcDbSpline
210
0.0
220
0.0
230
1.0
 70
     8
 71
     3
 72
     8
 73
     4
 74
     0
 42
0.0000000001
 43
0.0000000001
 40
0.0
 40
0.0
 40
0.0
 40
0.0
 40
1.0
 40
1.0
 40
1.0
 40
1.0
 10
123.2862284800442
 20
152.4885783710479
 30
0.0
 10
123.4873296438468
 20
152.6022815085735
 30
0.0
 10
123.6503543858525
 20
152.8788052591206
 30
0.0
 10
123.6503544327395
 20
153.1062114546683
 30
0.0
  0
SPLINE
  5
1C7
330
70
100
AcDbEntity
  8
Isometric$4
 62
     7
370
    35
100
AcDbSpline
210
0.0
220
0.0
230
1.0
 70
     8
 71
     3
 72
     8
 73
     4
 74
     0
 42
0.0000000001
 43
0.0000000001
 40
0.0
 40
0.0
 40
0.0
 40
0.0
 40
1.0
 40
1.0
 40
1.0
 40
1.0
 10
123.6503544327395
 20
153.1062114546802
 30
0.0
 10
123.6503544796207
 20
153.3336176502208
 30
0.0
 10
123.4873298136385
 20
153.4257921907621
 30
0.0
 10
123.2862286498403
 20
153.312089053238
 30
0.0
  0
SPLINE
  5
1C8
330
70
100
AcDbEntity
  8
Isometric$4
 62
     7
370
    35
100
AcDbSpline
210
0.0
220
0.0
230
1.0
 70
     8
 71
     3
 72
     8
 73
     4
 74
     0
 42
0.0000000001
 43
0.0000000001
 40
0.0
 40
0.0
 40
0.0
 40
0.0
 40
1.0
 40
1.0
 40
1.0
 40
1.0
 10
122.9221026971444
 20
152.6944559696058
 30
0.0
 10
122.9221026502625
 20
152.4670497740658
 30
0.0
 10
123.0851273162448
 20
152.3748752335235
 30
0.0
 10
123.2862284800442
 20
152.4885783710479
 30
0.0
  0
SPLINE
  5
1C9
330
70
100
AcDbEntity
  8
Isometric$4
 62
     7
370
    35
100
AcDbSpline
210
0.0
220
0.0
230
1.0
 70
     8
 71
     3
 72
     8
 73
     4
 74
     0
 42
0.0000000001
 43
0.0000000001
 40
0.0
 40
0.0
 40
0.0
 40
0.0
 40
1.0
 40
1.0
 40
1.0
 40
1.0
 10
123.2862286498403
 20
153.312089053238
 30
0.0
 10
123.0851274860357
 20
153.1983859157124
 30
0.0
 10
122.9221027440314
 20
152.9218621651666
 30
0.0
 10
122.9221026971444
 20
152.694455969618
 30
0.0
  0
SPLINE
  5
1CA
330
70
100
AcDbEntity
  8
Isometric$4
 62
     7
370
    35
100
AcDbSpline
210
0.0
220
0.0
230
1.0
 70
     8
 71
     3
 72
    11
 73
     7
 74
     0
 42
0.0000000001
 43
0.0000000001
 40
0.0
 40
0.0
 40
0.0
 40
0.0
 40
1.0
 40
1.0
 40
1.0
 40
2.0
 40
2.0
 40
2.0
 40
2.0
 10
54.20086000507925
 20
161.2794018635885
 30
0.0
 10
53.41384248517357
 20
161.7243832658401
 30
0.0
 10
52.13783496939194
 20
161.7243832658517
 30
0.0
 10
51.35081744946059
 20
161.2794018636144
 30
0.0
 10
50.57590716262286
 20
160.8412659170676
 30
0.0
 10
50.56225574489724
 20
160.133324561745
 30
0.0
 10
51.32008645392943
 20
159.6857400869361
 30
0.0
  0
SPLINE
  5
1CB
330
70
100
AcDbEntity
  8
Isometric$4
 62
     7
370
    35
100
AcDbSpline
210
0.0
220
0.0
230
1.0
 70
     8
 71
     3
 72
     8
 73
     4
 74
     0
 42
0.0000000001
 43
0.0000000001
 40
0.0
 40
0.0
 40
0.0
 40
0.0
 40
1.0
 40
1.0
 40
1.0
 40
1.0
 10
51.32008645197
 20
159.6857400880934
 30
0.0
 10
51.33021566953591
 20
159.6797576430921
 30
0.0
 10
51.34045994371422
 20
159.6738378152227
 30
0.0
 10
51.35081744810147
 20
159.6679816599051
 30
0.0
  0
SPLINE
  5
1CC
330
70
100
AcDbEntity
  8
Isometric$4
 62
     7
370
    35
100
AcDbSpline
210
0.0
220
0.0
230
1.0
 70
     8
 71
     3
 72
     8
 73
     4
 74
     0
 42
0.0000000001
 43
0.0000000001
 40
0.0
 40
0.0
 40
0.0
 40
0.0
 40
1.0
 40
1.0
 40
1.0
 40
1.0
 10
65.28541456616172
 20
155.0117848503396
 30
0.0
 10
65.2752853485955
 20
155.0177672953409
 30
0.0
 10
65.26504107441718
 20
155.0236871232097
 30
0.0
 10
65.25468357002961
 20
155.0295432785276
 30
0.0
  0
SPLINE
  5
1CD
330
70
100
AcDbEntity
  8
Isometric$4
 62
     7
370
    35
100
AcDbSpline
210
0.0
220
0.0
230
1.0
 70
     8
 71
     3
 72
    11
 73
     7
 74
     0
 42
0.0000000001
 43
0.0000000001
 40
0.0
 40
0.0
 40
0.0
 40
0.0
 40
1.0
 40
1.0
 40
1.0
 40
2.0
 40
2.0
 40
2.0
 40
2.0
 10
62.40464101305086
 20
153.4181230748455
 30
0.0
 10
63.19165853295686
 20
152.9731416725933
 30
0.0
 10
64.4676660487385
 20
152.9731416725823
 30
0.0
 10
65.25468356867017
 20
153.4181230748183
 30
0.0
 10
66.02959385550725
 20
153.8562590213663
 30
0.0
 10
66.0432452732332
 20
154.564200376689
 30
0.0
 10
65.285414564201
 20
155.0117848514969
 30
0.0
  0
SPLINE
  5
1CE
330
70
100
AcDbEntity
  8
Isometric$4
 62
     7
370
    35
100
AcDbSpline
210
0.0
220
0.0
230
1.0
 70
     8
 71
     3
 72
    32
 73
    28
 74
     0
 42
0.0000000001
 43
0.0000000001
 40
0.0
 40
0.0
 40
0.0
 40
0.0
 40
1.0
 40
1.0
 40
1.0
 40
2.0
 40
2.0
 40
2.0
 40
3.0
 40
3.0
 40
3.0
 40
4.0
 40
4.0
 40
4.0
 40
5.0
 40
5.0
 40
5.0
 40
6.0
 40
6.0
 40
6.0
 40
7.0
 40
7.0
 40
7.0
 40
8.0
 40
8.0
 40
8.0
 40
9.0
 40
9.0
 40
9.0
 40
9.0
 10
35.55673606868388
 20
162.1601385132917
 30
0.0
 10
35.55604532619208
 20
162.1342516970312
 30
0.0
 10
35.55581722410433
 20
162.1084074675369
 30
0.0
 10
35.55627499894637
 20
162.0825865949228
 30
0.0
 10
35.55899132833018
 20
161.9293715455649
 30
0.0
 10
35.58585710613416
 20
161.7769788824883
 30
0.0
 10
35.61982756375906
 20
161.6268768643814
 30
0.0
 10
35.65350979490943
 20
161.4780484050815
 30
0.0
 10
35.6941766562992
 20
161.3314718851414
 30
0.0
 10
35.74549801709157
 20
161.1884650503388
 30
0.0
 10
35.79687230215596
 20
161.0453107421939
 30
0.0
 10
35.85892307249264
 20
160.9057334853357
 30
0.0
 10
35.92951923719507
 20
160.7707177083883
 30
0.0
 10
36.00088788985786
 20
160.6342245415211
 30
0.0
 10
36.08098997346598
 20
160.5023932273553
 30
0.0
 10
36.16908293140009
 20
160.375888184984
 30
0.0
 10
36.25899642433789
 20
160.2467687808853
 30
0.0
 10
36.35723448428907
 20
160.1231980695432
 30
0.0
 10
36.4626035067807
 20
160.005520561793
 30
0.0
 10
36.57104480976272
 20
159.8844118908517
 30
0.0
 10
36.68703897748573
 20
159.7695450939025
 30
0.0
 10
36.80967000924394
 20
159.66101891879
 30
0.0
 10
36.93654583019809
 20
159.5487361844377
 30
0.0
 10
37.07052592816103
 20
159.4432406215123
 30
0.0
 10
37.21036581773791
 20
159.3444000152063
 30
0.0
 10
37.34980264718583
 20
159.245844296907
 30
0.0
 10
37.49506553760782
 20
159.1539052273899
 30
0.0
 10
37.64656732623619
 20
159.0686266667045
 30
0.0
  0
SPLINE
  5
1CF
330
70
100
AcDbEntity
  8
Isometric$4
 62
     7
370
    35
100
AcDbSpline
210
0.0
220
0.0
230
1.0
 70
     8
 71
     3
 72
    20
 73
    16
 74
     0
 42
0.0000000001
 43
0.0000000001
 40
0.0
 40
0.0
 40
0.0
 40
0.0
 40
1.0
 40
1.0
 40
1.0
 40
2.0
 40
2.0
 40
2.0
 40
3.0
 40
3.0
 40
3.0
 40
4.0
 40
4.0
 40
4.0
 40
5.0
 40
5.0
 40
5.0
 40
5.0
 10
138.5160786460271
 20
160.6551352304694
 30
0.0
 10
138.5540524751987
 20
160.6769400807216
 30
0.0
 10
138.5899943564312
 20
160.7015337045767
 30
0.0
 10
138.6241539917283
 20
160.7293440130274
 30
0.0
 10
138.6773073217642
 20
160.7726176162313
 30
0.0
 10
138.7261454397877
 20
160.8236795250412
 30
0.0
 10
138.7690706349369
 20
160.879791763716
 30
0.0
 10
138.8130922654165
 20
160.9373372734711
 30
0.0
 10
138.8508950484142
 20
161.0001944085967
 30
0.0
 10
138.8809948815194
 20
161.0659068114293
 30
0.0
 10
138.9122976246921
 20
161.1342453454688
 30
0.0
 10
138.9352694338695
 20
161.2056719233281
 30
0.0
 10
138.9480190776612
 20
161.2768367743781
 30
0.0
 10
138.9539779365452
 20
161.3100974137996
 30
0.0
 10
138.9577038762603
 20
161.3433008818874
 30
0.0
 10
138.9593643292786
 20
161.3767437369489
 30
0.0
  0
SPLINE
  5
1D0
330
70
100
AcDbEntity
  8
Isometric$4
 62
     7
370
    35
100
AcDbSpline
210
0.0
220
0.0
230
1.0
 70
     8
 71
     3
 72
    17
 73
    13
 74
     0
 42
0.0000000001
 43
0.0000000001
 40
0.0
 40
0.0
 40
0.0
 40
0.0
 40
1.0
 40
1.0
 40
1.0
 40
2.0
 40
2.0
 40
2.0
 40
3.0
 40
3.0
 40
3.0
 40
4.0
 40
4.0
 40
4.0
 40
4.0
 10
135.2403302935358
 20
159.7689429746743
 30
0.0
 10
135.2425500881824
 20
159.7212712084941
 30
0.0
 10
135.2501065224561
 20
159.6753427822575
 30
0.0
 10
135.2632653648843
 20
159.6310175684822
 30
0.0
 10
135.2795423942407
 20
159.5761888242509
 30
0.0
 10
135.3043915717056
 20
159.5238131277617
 30
0.0
 10
135.3366708551901
 20
159.4744926251046
 30
0.0
 10
135.3681681478895
 20
159.4263669500395
 30
0.0
 10
135.4067399070405
 20
159.3811502329641
 30
0.0
 10
135.4555917610651
 20
159.3523263809781
 30
0.0
 10
135.4709492012299
 20
159.3432650957716
 30
0.0
 10
135.4873225922133
 20
159.3358238680577
 30
0.0
 10
135.5045750488483
 20
159.3294269146575
 30
0.0
  0
SPLINE
  5
1D1
330
70
100
AcDbEntity
  8
Isometric$4
 62
     7
370
    35
100
AcDbSpline
210
0.0
220
0.0
230
1.0
 70
     8
 71
     3
 72
    17
 73
    13
 74
     0
 42
0.0000000001
 43
0.0000000001
 40
0.0
 40
0.0
 40
0.0
 40
0.0
 40
1.0
 40
1.0
 40
1.0
 40
2.0
 40
2.0
 40
2.0
 40
3.0
 40
3.0
 40
3.0
 40
4.0
 40
4.0
 40
4.0
 40
4.0
 10
135.5753502384292
 20
159.2895806189498
 30
0.0
 10
135.6130379905809
 20
159.2648436258788
 30
0.0
 10
135.6520170996083
 20
159.2462422391058
 30
0.0
 10
135.6934967402241
 20
159.2345103134005
 30
0.0
 10
135.7472836632364
 20
159.2192974481176
 30
0.0
 10
135.8052750999874
 20
159.2156352241362
 30
0.0
 10
135.8618367769523
 20
159.2201041699247
 30
0.0
 10
135.9168836036867
 20
159.224453427189
 30
0.0
 10
135.9705762295129
 20
159.2365041442257
 30
0.0
 10
136.0218162774118
 20
159.2550649447048
 30
0.0
 10
136.0563186610124
 20
159.2675628225227
 30
0.0
 10
136.0897090518504
 20
159.2830123560577
 30
0.0
 10
136.1221737337271
 20
159.3016156017137
 30
0.0
  0
SPLINE
  5
1D2
330
70
100
AcDbEntity
  8
Isometric$4
 62
     7
370
    35
100
AcDbSpline
210
0.0
220
0.0
230
1.0
 70
     8
 71
     3
 72
    29
 73
    25
 74
     0
 42
0.0000000001
 43
0.0000000001
 40
0.0
 40
0.0
 40
0.0
 40
0.0
 40
1.0
 40
1.0
 40
1.0
 40
2.0
 40
2.0
 40
2.0
 40
3.0
 40
3.0
 40
3.0
 40
4.0
 40
4.0
 40
4.0
 40
5.0
 40
5.0
 40
5.0
 40
6.0
 40
6.0
 40
6.0
 40
7.0
 40
7.0
 40
7.0
 40
8.0
 40
8.0
 40
8.0
 40
8.0
 10
124.5579933335198
 20
152.0357160998492
 30
0.0
 10
124.6027273399751
 20
152.0606808454146
 30
0.0
 10
124.6465857451244
 20
152.0880455237403
 30
0.0
 10
124.6897425236278
 20
152.1180239194528
 30
0.0
 10
124.7679894844204
 20
152.1723773358871
 30
0.0
 10
124.8439300008015
 20
152.2353227775895
 30
0.0
 10
124.9161048342604
 20
152.3050670940179
 30
0.0
 10
124.9878436113183
 20
152.3743900384208
 30
0.0
 10
125.0558620700133
 20
152.4504299526275
 30
0.0
 10
125.1188788581789
 20
152.531538892044
 30
0.0
 10
125.1816231744564
 20
152.6122971327555
 30
0.0
 10
125.2394089791288
 20
152.6980806585569
 30
0.0
 10
125.2909124237943
 20
152.7868927820147
 30
0.0
 10
125.3425363566129
 20
152.875912674269
 30
0.0
 10
125.3878485008956
 20
152.9679753510745
 30
0.0
 10
125.4257553645135
 20
153.0610373658102
 30
0.0
 10
125.4640222789761
 20
153.1549833116762
 30
0.0
 10
125.4947425694984
 20
153.2499476696578
 30
0.0
 10
125.5170660723027
 20
153.3441555563593
 30
0.0
 10
125.5384825532469
 20
153.4345357009259
 30
0.0
 10
125.5521707209947
 20
153.5242195974559
 30
0.0
 10
125.5573599979603
 20
153.6116650998302
 30
0.0
 10
125.55834965717
 20
153.628342037194
 30
0.0
 10
125.5590302015178
 20
153.6449375614749
 30
0.0
 10
125.5594144244794
 20
153.6614772760815
 30
0.0
  0
SPLINE
  5
1D3
330
70
100
AcDbEntity
  8
Isometric$4
 62
     7
370
    35
100
AcDbSpline
210
0.0
220
0.0
230
1.0
 70
     8
 71
     3
 72
     8
 73
     4
 74
     0
 42
0.0000000001
 43
0.0000000001
 40
0.0
 40
0.0
 40
0.0
 40
0.0
 40
1.0
 40
1.0
 40
1.0
 40
1.0
 10
125.6318277442094
 20
155.9619733188586
 30
0.0
 10
125.6348231155328
 20
156.0304712080133
 30
0.0
 10
125.6418315440881
 20
156.0991106101838
 30
0.0
 10
125.653000179598
 20
156.1682843904822
 30
0.0
  0
SPLINE
  5
1D4
330
70
100
AcDbEntity
  8
Isometric$4
 62
     7
370
    35
100
AcDbSpline
210
0.0
220
0.0
230
1.0
 70
     8
 71
     3
 72
    20
 73
    16
 74
     0
 42
0.0000000001
 43
0.0000000001
 40
0.0
 40
0.0
 40
0.0
 40
0.0
 40
1.0
 40
1.0
 40
1.0
 40
2.0
 40
2.0
 40
2.0
 40
3.0
 40
3.0
 40
3.0
 40
4.0
 40
4.0
 40
4.0
 40
5.0
 40
5.0
 40
5.0
 40
5.0
 10
120.5467993024693
 20
150.2210533135555
 30
0.0
 10
120.5670330568043
 20
150.2062469464841
 30
0.0
 10
120.5878905533399
 20
150.1930307106367
 30
0.0
 10
120.6098497773364
 20
150.1818940316183
 30
0.0
 10
120.6730862813338
 20
150.1498234699559
 30
0.0
 10
120.7454592020871
 20
150.134998278417
 30
0.0
 10
120.8176643918429
 20
150.1278916190315
 30
0.0
 10
120.8893969701811
 20
150.1208314755326
 30
0.0
 10
120.9609640060678
 20
150.1213891531975
 30
0.0
 10
121.0323790744709
 20
150.1308100001451
 30
0.0
 10
121.1073387529469
 20
150.1406984406946
 30
0.0
 10
121.1821310040792
 20
150.1603517129177
 30
0.0
 10
121.2553872372433
 20
150.1872670858629
 30
0.0
 10
121.323679199597
 20
150.2123585157181
 30
0.0
 10
121.3906362693868
 20
150.2437611505502
 30
0.0
 10
121.4566640718158
 20
150.2822167539889
 30
0.0
  0
SPLINE
  5
1D5
330
70
100
AcDbEntity
  8
Isometric$4
 62
     7
370
    35
100
AcDbSpline
210
0.0
220
0.0
230
1.0
 70
     8
 71
     3
 72
    20
 73
    16
 74
     0
 42
0.0000000001
 43
0.0000000001
 40
0.0
 40
0.0
 40
0.0
 40
0.0
 40
1.0
 40
1.0
 40
1.0
 40
2.0
 40
2.0
 40
2.0
 40
3.0
 40
3.0
 40
3.0
 40
4.0
 40
4.0
 40
4.0
 40
5.0
 40
5.0
 40
5.0
 40
5.0
 10
103.1438432423889
 20
140.6555877606512
 30
0.0
 10
103.1818170715618
 20
140.6773926109038
 30
0.0
 10
103.2177589527937
 20
140.7019862347589
 30
0.0
 10
103.2519185880905
 20
140.7297965432095
 30
0.0
 10
103.3050719181264
 20
140.7730701464131
 30
0.0
 10
103.3539100361499
 20
140.8241320552224
 30
0.0
 10
103.3968352312988
 20
140.8802442938978
 30
0.0
 10
103.4408568617771
 20
140.9377898036529
 30
0.0
 10
103.4786596447754
 20
141.0006469387788
 30
0.0
 10
103.5087594778807
 20
141.0663593416118
 30
0.0
 10
103.5400622210546
 20
141.1346978756506
 30
0.0
 10
103.5630340302307
 20
141.20612445351
 30
0.0
 10
103.5757836740237
 20
141.2772893045596
 30
0.0
 10
103.5817425329064
 20
141.3105499439795
 30
0.0
 10
103.5854684726222
 20
141.3437534120686
 30
0.0
 10
103.5871289256411
 20
141.3771962671291
 30
0.0
  0
SPLINE
  5
1D6
330
70
100
AcDbEntity
  8
Isometric$4
 62
     7
370
    35
100
AcDbSpline
210
0.0
220
0.0
230
1.0
 70
     8
 71
     3
 72
    17
 73
    13
 74
     0
 42
0.0000000001
 43
0.0000000001
 40
0.0
 40
0.0
 40
0.0
 40
0.0
 40
1.0
 40
1.0
 40
1.0
 40
2.0
 40
2.0
 40
2.0
 40
3.0
 40
3.0
 40
3.0
 40
4.0
 40
4.0
 40
4.0
 40
4.0
 10
99.86809488989958
 20
139.7693955048501
 30
0.0
 10
99.87031468454722
 20
139.7217237386695
 30
0.0
 10
99.87787111882092
 20
139.6757953124335
 30
0.0
 10
99.8910299612484
 20
139.6314700986592
 30
0.0
 10
99.90730699060613
 20
139.5766413544272
 30
0.0
 10
99.93215616807004
 20
139.524265657938
 30
0.0
 10
99.96443545155493
 20
139.4749451552813
 30
0.0
 10
99.99593274425398
 20
139.4268194802185
 30
0.0
 10
100.034504503404
 20
139.3816027631424
 30
0.0
 10
100.0833563574289
 20
139.3527789111576
 30
0.0
 10
100.0987137975924
 20
139.3437176259524
 30
0.0
 10
100.1150871885742
 20
139.3362763982392
 30
0.0
 10
100.132339645204
 20
139.3298794448403
 30
0.0
  0
SPLINE
  5
1D7
330
70
100
AcDbEntity
  8
Isometric$4
 62
     7
370
    35
100
AcDbSpline
210
0.0
220
0.0
230
1.0
 70
     8
 71
     3
 72
    17
 73
    13
 74
     0
 42
0.0000000001
 43
0.0000000001
 40
0.0
 40
0.0
 40
0.0
 40
0.0
 40
1.0
 40
1.0
 40
1.0
 40
2.0
 40
2.0
 40
2.0
 40
3.0
 40
3.0
 40
3.0
 40
4.0
 40
4.0
 40
4.0
 40
4.0
 10
100.2031148347894
 20
139.2900331491303
 30
0.0
 10
100.2408025869421
 20
139.2652961560609
 30
0.0
 10
100.2797816959689
 20
139.2466947692867
 30
0.0
 10
100.3212613365843
 20
139.2349628435817
 30
0.0
 10
100.3750482595964
 20
139.2197499782984
 30
0.0
 10
100.4330396963477
 20
139.2160877543183
 30
0.0
 10
100.4896013733145
 20
139.2205567001055
 30
0.0
 10
100.5446482000479
 20
139.2249059573712
 30
0.0
 10
100.598340825875
 20
139.2369566744079
 30
0.0
 10
100.6495808737724
 20
139.2555174748863
 30
0.0
 10
100.6840832573723
 20
139.2680153527045
 30
0.0
 10
100.7174736482125
 20
139.2834648862396
 30
0.0
 10
100.7499383300883
 20
139.3020681318958
 30
0.0
  0
SPLINE
  5
1D8
330
70
100
AcDbEntity
  8
Isometric$4
 62
     7
370
    35
100
AcDbSpline
210
0.0
220
0.0
230
1.0
 70
     8
 71
     3
 72
    44
 73
    40
 74
     0
 42
0.0000000001
 43
0.0000000001
 40
0.0
 40
0.0
 40
0.0
 40
0.0
 40
1.0
 40
1.0
 40
1.0
 40
2.0
 40
2.0
 40
2.0
 40
3.0
 40
3.0
 40
3.0
 40
4.0
 40
4.0
 40
4.0
 40
5.0
 40
5.0
 40
5.0
 40
6.0
 40
6.0
 40
6.0
 40
7.0
 40
7.0
 40
7.0
 40
8.0
 40
8.0
 40
8.0
 40
9.0
 40
9.0
 40
9.0
 40
10.0
 40
10.0
 40
10.0
 40
11.0
 40
11.0
 40
11.0
 40
12.0
 40
12.0
 40
12.0
 40
13.0
 40
13.0
 40
13.0
 40
13.0
 10
88.36411071926471
 20
130.3928049362772
 30
0.0
 10
88.4629814135749
 20
130.3370204257829
 30
0.0
 10
88.56385752085307
 20
130.2839801557215
 30
0.0
 10
88.66689477344356
 20
130.2336955906882
 30
0.0
 10
88.83834911079366
 20
130.1500219041329
 30
0.0
 10
89.01578745911754
 20
130.0739785092713
 30
0.0
 10
89.19808826242231
 20
130.0054828401812
 30
0.0
 10
89.38087758717914
 20
129.9368036194928
 30
0.0
 10
89.56855546220896
 20
129.8757126308845
 30
0.0
 10
89.76025921440221
 20
129.82220666666
 30
0.0
 10
89.9518901109347
 20
129.7687210370016
 30
0.0
 10
90.14754382520083
 20
129.722814667553
 30
0.0
 10
90.34616358001155
 20
129.6845339899352
 30
0.0
 10
90.54406836045734
 20
129.6463911118189
 30
0.0
 10
90.74491786608517
 20
129.6158191237224
 30
0.0
 10
90.94758644507226
 20
129.5928745871065
 30
0.0
 10
91.14960233098601
 20
129.5700039432489
 30
0.0
 10
91.35342559249304
 20
129.5547117016464
 30
0.0
 10
91.55786261672666
 20
129.5470341251558
 30
0.0
 10
91.76214465084681
 20
129.5393623692753
 30
0.0
 10
91.96703951742282
 20
129.5392937370507
 30
0.0
 10
92.17133268038791
 20
129.5468284551284
 30
0.0
 10
92.37618843385936
 20
129.5543839226068
 30
0.0
 10
92.58043916516818
 20
129.5695846748562
 30
0.0
 10
92.78288359753185
 20
129.5923944390286
 30
0.0
 10
92.98642617326086
 20
129.615327932914
 30
0.0
 10
93.18814280065288
 20
129.6459532115457
 30
0.0
 10
93.38689340796213
 20
129.6842134072974
 30
0.0
 10
93.58751133088203
 20
129.7228330679155
 30
0.0
 10
93.78510723878473
 20
129.7692317838109
 30
0.0
 10
93.9785932780161
 20
129.8233610230874
 30
0.0
 10
94.174550807925
 20
129.8781816812942
 30
0.0
 10
94.3662928039115
 20
129.9409316156294
 30
0.0
 10
94.55289684599049
 20
130.0116197293304
 30
0.0
 10
94.74217904423124
 20
130.0833223645027
 30
0.0
 10
94.92617474958555
 20
130.1631926729349
 30
0.0
 10
95.10363884673823
 20
130.2513136649597
 30
0.0
 10
95.19429061248201
 20
130.2963274094538
 30
0.0
 10
95.28323805620985
 20
130.3434940420631
 30
0.0
 10
95.37061057544732
 20
130.3928049360115
 30
0.0
  0
SPLINE
  5
1D9
330
70
100
AcDbEntity
  8
Isometric$4
 62
     7
370
    35
100
AcDbSpline
210
0.0
220
0.0
230
1.0
 70
     8
 71
     3
 72
    32
 73
    28
 74
     0
 42
0.0000000001
 43
0.0000000001
 40
0.0
 40
0.0
 40
0.0
 40
0.0
 40
1.0
 40
1.0
 40
1.0
 40
2.0
 40
2.0
 40
2.0
 40
3.0
 40
3.0
 40
3.0
 40
4.0
 40
4.0
 40
4.0
 40
5.0
 40
5.0
 40
5.0
 40
6.0
 40
6.0
 40
6.0
 40
7.0
 40
7.0
 40
7.0
 40
8.0
 40
8.0
 40
8.0
 40
9.0
 40
9.0
 40
9.0
 40
9.0
 10
148.1763263973214
 20
162.1552064151559
 30
0.0
 10
148.1771223553638
 20
162.118253716818
 30
0.0
 10
148.1770244612492
 20
162.0813959258958
 30
0.0
 10
148.1756687775703
 20
162.0445949030141
 30
0.0
 10
148.1698067323113
 20
161.8854654060854
 30
0.0
 10
148.140427271885
 20
161.727397324864
 30
0.0
 10
148.1027134585565
 20
161.5719817914583
 30
0.0
 10
148.0639302516682
 20
161.4121593748472
 30
0.0
 10
148.0163333414991
 20
161.2551420673607
 30
0.0
 10
147.9567376223285
 20
161.1025577912004
 30
0.0
 10
147.9019807309899
 20
160.9623624760698
 30
0.0
 10
147.8370943963245
 20
160.8259095440016
 30
0.0
 10
147.7639919411279
 20
160.6940616908683
 30
0.0
 10
147.6891185123507
 20
160.5590197033684
 30
0.0
 10
147.6056260550336
 20
160.4288086219651
 30
0.0
 10
147.5143179363152
 20
160.3040370811826
 30
0.0
 10
147.4202302537872
 20
160.1754672970007
 30
0.0
 10
147.3178438249308
 20
160.0526732706779
 30
0.0
 10
147.2083554364973
 20
159.9359543007182
 30
0.0
 10
147.0951620728288
 20
159.8152856800288
 30
0.0
 10
146.9743779711813
 20
159.7011102195097
 30
0.0
 10
146.846932787053
 20
159.5934642879612
 30
0.0
 10
146.7003556489193
 20
159.4696586480231
 30
0.0
 10
146.5449674047226
 20
159.3544900985984
 30
0.0
 10
146.3823821785457
 20
159.2478191004458
 30
0.0
 10
146.2868620271323
 20
159.1851490157486
 30
0.0
 10
146.1888577231771
 20
159.1254119957235
 30
0.0
 10
146.0881539473447
 20
159.0686266544901
 30
0.0
  0
SPLINE
  5
1DA
330
70
100
AcDbEntity
  8
Isometric$4
 62
     7
370
    35
100
AcDbSpline
210
0.0
220
0.0
230
1.0
 70
     8
 71
     3
 72
    17
 73
    13
 74
     0
 42
0.0000000001
 43
0.0000000001
 40
0.0
 40
0.0
 40
0.0
 40
0.0
 40
1.0
 40
1.0
 40
1.0
 40
2.0
 40
2.0
 40
2.0
 40
3.0
 40
3.0
 40
3.0
 40
4.0
 40
4.0
 40
4.0
 40
4.0
 10
138.7060168381024
 20
151.7686858637249
 30
0.0
 10
138.7069279017782
 20
151.7153918261874
 30
0.0
 10
138.7145963962093
 20
151.6645640424354
 30
0.0
 10
138.7295672439484
 20
151.6155257478295
 30
0.0
 10
138.7455012175775
 20
151.5633326518377
 30
0.0
 10
138.7697073381941
 20
151.5131666992373
 30
0.0
 10
138.8003710438459
 20
151.4672814788499
 30
0.0
 10
138.8316926122326
 20
151.4204118315666
 30
0.0
 10
138.8697518215181
 20
151.3780085654886
 30
0.0
 10
138.911909391252
 20
151.3404617235817
 30
0.0
 10
138.9545790850701
 20
151.3024587680481
 30
0.0
 10
139.0014473167165
 20
151.2694309436322
 30
0.0
 10
139.0534117158098
 20
151.2412455951947
 30
0.0
  0
SPLINE
  5
1DB
330
70
100
AcDbEntity
  8
Isometric$4
 62
     7
370
    35
100
AcDbSpline
210
0.0
220
0.0
230
1.0
 70
     8
 71
     3
 72
    29
 73
    25
 74
     0
 42
0.0000000001
 43
0.0000000001
 40
0.0
 40
0.0
 40
0.0
 40
0.0
 40
1.0
 40
1.0
 40
1.0
 40
2.0
 40
2.0
 40
2.0
 40
3.0
 40
3.0
 40
3.0
 40
4.0
 40
4.0
 40
4.0
 40
5.0
 40
5.0
 40
5.0
 40
6.0
 40
6.0
 40
6.0
 40
7.0
 40
7.0
 40
7.0
 40
8.0
 40
8.0
 40
8.0
 40
8.0
 10
144.2226206143742
 20
151.9027365286702
 30
0.0
 10
144.2784523334097
 20
151.8707783738175
 30
0.0
 10
144.3360686781966
 20
151.8414469796213
 30
0.0
 10
144.3957377783071
 20
151.8147469322976
 30
0.0
 10
144.4953363646496
 20
151.7701796945839
 30
0.0
 10
144.6006542731366
 20
151.7329438325424
 30
0.0
 10
144.7097498384201
 20
151.7030061350167
 30
0.0
 10
144.8190805228034
 20
151.6730039167727
 30
0.0
 10
144.9322051644903
 20
151.6503313544596
 30
0.0
 10
145.047370445027
 20
151.6351077402946
 30
0.0
 10
145.1624033889666
 20
151.6199016196093
 30
0.0
 10
145.2794722846495
 20
151.6121273377127
 30
0.0
 10
145.3964486876033
 20
151.6118628596302
 30
0.0
 10
145.5139288268725
 20
151.611597242625
 30
0.0
 10
145.631315675094
 20
151.6189062477416
 30
0.0
 10
145.7464839844
 20
151.6337512760014
 30
0.0
 10
145.8633015464753
 20
151.6488088905547
 30
0.0
 10
145.9778365740771
 20
151.6716199109627
 30
0.0
 10
146.0883042260913
 20
151.7021455695035
 30
0.0
 10
146.2017702213662
 20
151.7334997638288
 30
0.0
 10
146.3109450489608
 20
151.7729930653263
 30
0.0
 10
146.4137395949231
 20
151.8207244484653
 30
0.0
 10
146.4466196965987
 20
151.835991919283
 30
0.0
 10
146.4788470195258
 20
151.8521022439035
 30
0.0
 10
146.5105136990077
 20
151.8690510572962
 30
0.0
  0
SPLINE
  5
1DC
330
70
100
AcDbEntity
  8
Isometric$4
 62
     7
370
    35
100
AcDbSpline
210
0.0
220
0.0
230
1.0
 70
     8
 71
     3
 72
    17
 73
    13
 74
     0
 42
0.0000000001
 43
0.0000000001
 40
0.0
 40
0.0
 40
0.0
 40
0.0
 40
1.0
 40
1.0
 40
1.0
 40
2.0
 40
2.0
 40
2.0
 40
3.0
 40
3.0
 40
3.0
 40
4.0
 40
4.0
 40
4.0
 40
4.0
 10
153.5870235350551
 20
155.7532622630286
 30
0.0
 10
153.6135702945218
 20
155.764166956157
 30
0.0
 10
153.6381273210647
 20
155.7771806091783
 30
0.0
 10
153.660605206238
 20
155.7931854809778
 30
0.0
 10
153.7070775483895
 20
155.8262750653663
 30
0.0
 10
153.7446627459681
 20
155.8721504055085
 30
0.0
 10
153.7743099885335
 20
155.921445150079
 30
0.0
 10
153.8024212724173
 20
155.9681860419365
 30
0.0
 10
153.8233957915442
 20
156.0180012123677
 30
0.0
 10
153.8371447578349
 20
156.069458639138
 30
0.0
 10
153.8511883688063
 20
156.1220188147794
 30
0.0
 10
153.8576934167985
 20
156.1762923891236
 30
0.0
 10
153.8566905609223
 20
156.2327738489244
 30
0.0
  0
SPLINE
  5
1DD
330
70
100
AcDbEntity
  8
Isometric$4
 62
     7
370
    35
100
AcDbSpline
210
0.0
220
0.0
230
1.0
 70
     8
 71
     3
 72
    14
 73
    10
 74
     0
 42
0.0000000001
 43
0.0000000001
 40
0.0
 40
0.0
 40
0.0
 40
0.0
 40
1.0
 40
1.0
 40
1.0
 40
2.0
 40
2.0
 40
2.0
 40
3.0
 40
3.0
 40
3.0
 40
3.0
 10
139.2084401485392
 20
154.7377667943097
 30
0.0
 10
139.1830880558848
 20
154.7518046983653
 30
0.0
 10
139.1582511687193
 20
154.7664044221152
 30
0.0
 10
139.13386930976
 20
154.7815582841337
 30
0.0
 10
139.0533346082836
 20
154.8316123737692
 30
0.0
 10
138.9777643528527
 20
154.8877122194753
 30
0.0
 10
138.9086704042177
 20
154.9500508051362
 30
0.0
 10
138.8955062066263
 20
154.9619279300586
 30
0.0
 10
138.8825771001258
 20
154.9740315223544
 30
0.0
 10
138.8698974071526
 20
154.9863595951094
 30
0.0
  0
SPLINE
  5
1DE
330
70
100
AcDbEntity
  8
Isometric$4
 62
     7
370
    35
100
AcDbSpline
210
0.0
220
0.0
230
1.0
 70
     8
 71
     3
 72
    92
 73
    88
 74
     0
 42
0.0000000001
 43
0.0000000001
 40
0.0
 40
0.0
 40
0.0
 40
0.0
 40
1.0
 40
1.0
 40
1.0
 40
2.0
 40
2.0
 40
2.0
 40
3.0
 40
3.0
 40
3.0
 40
4.0
 40
4.0
 40
4.0
 40
5.0
 40
5.0
 40
5.0
 40
6.0
 40
6.0
 40
6.0
 40
7.0
 40
7.0
 40
7.0
 40
8.0
 40
8.0
 40
8.0
 40
9.0
 40
9.0
 40
9.0
 40
10.0
 40
10.0
 40
10.0
 40
11.0
 40
11.0
 40
11.0
 40
12.0
 40
12.0
 40
12.0
 40
13.0
 40
13.0
 40
13.0
 40
14.0
 40
14.0
 40
14.0
 40
15.0
 40
15.0
 40
15.0
 40
16.0
 40
16.0
 40
16.0
 40
17.0
 40
17.0
 40
17.0
 40
18.0
 40
18.0
 40
18.0
 40
19.0
 40
19.0
 40
19.0
 40
20.0
 40
20.0
 40
20.0
 40
21.0
 40
21.0
 40
21.0
 40
22.0
 40
22.0
 40
22.0
 40
23.0
 40
23.0
 40
23.0
 40
24.0
 40
24.0
 40
24.0
 40
25.0
 40
25.0
 40
25.0
 40
26.0
 40
26.0
 40
26.0
 40
27.0
 40
27.0
 40
27.0
 40
28.0
 40
28.0
 40
28.0
 40
29.0
 40
29.0
 40
29.0
 40
29.0
 10
74.63972174476221
 20
90.09030443918872
 30
0.0
 10
74.91245774361496
 20
89.97292139163191
 30
0.0
 10
75.18865827738408
 20
89.85882739665651
 30
0.0
 10
75.46879520624789
 20
89.74832133421775
 30
0.0
 10
75.86244719771656
 20
89.59303680345207
 30
0.0
 10
76.2638720852612
 20
89.44483708659982
 30
0.0
 10
76.67054331306253
 20
89.3021218433024
 30
0.0
 10
77.07683689893986
 20
89.15953912784239
 30
0.0
 10
77.48836708591259
 20
89.02243070471204
 30
0.0
 10
77.90524876887663
 20
88.89137664263559
 30
0.0
 10
78.32173106588438
 20
88.76044813453459
 30
0.0
 10
78.74355460998692
 20
88.63556239250177
 30
0.0
 10
79.17010981551158
 20
88.51670762242196
 30
0.0
 10
79.59626282611011
 20
88.39796491939519
 30
0.0
 10
80.02713857945897
 20
88.28524182059085
 30
0.0
 10
80.46230473908391
 20
88.17867485012657
 30
0.0
 10
80.8970814557502
 20
88.07220324957095
 30
0.0
 10
81.33614090290842
 20
87.97187676368675
 30
0.0
 10
81.77898805714077
 20
87.87778077179599
 30
0.0
 10
82.22147065184055
 20
87.78376224137332
 30
0.0
 10
82.66773471996774
 20
87.69596395106189
 30
0.0
 10
83.11728826527478
 20
87.61447227987565
 30
0.0
 10
83.5665115642341
 20
87.5330404732529
 30
0.0
 10
84.01901950918517
 20
87.45790602335336
 30
0.0
 10
84.47430718967765
 20
87.38914131115407
 30
0.0
 10
84.92930613507981
 20
87.32042020827478
 30
0.0
 10
85.38708129142563
 20
87.25806076651698
 30
0.0
 10
85.8471208400034
 20
87.20212451294903
 30
0.0
 10
86.30691858320167
 20
87.14621766052117
 30
0.0
 10
86.76897833884316
 20
87.09672724576327
 30
0.0
 10
87.23278158132032
 20
87.05370239453953
 30
0.0
 10
87.69639394972518
 20
87.01069524980916
 30
0.0
 10
88.16174837022863
 20
86.97414834801797
 30
0.0
 10
88.62832141466682
 20
86.94409827653444
 30
0.0
 10
89.09475739303307
 20
86.91405703291936
 30
0.0
 10
89.562411279444
 20
86.89050880299845
 30
0.0
 10
90.03075615211985
 20
86.87347726657
 30
0.0
 10
90.4990197417082
 20
86.85644868603255
 30
0.0
 10
90.96797407773479
 20
86.84593453718902
 30
0.0
 10
91.43709028108379
 20
86.84194542424632
 30
0.0
 10
91.90618221954615
 20
86.83795651764
 30
0.0
 10
92.37543600858545
 20
86.84049197194156
 30
0.0
 10
92.84432232541835
 20
86.8495492282965
 30
0.0
 10
93.31323825941479
 20
86.85860705675178
 30
0.0
 10
93.78178667477822
 20
86.87418751118467
 30
0.0
 10
94.24943933725668
 20
86.89627489263932
 30
0.0
 10
94.7171638214859
 20
86.91836566625687
 30
0.0
 10
95.18399227766739
 20
86.94696536570654
 30
0.0
 10
95.64939913084236
 20
86.98204528083875
 30
0.0
 10
96.11493505810797
 20
87.01713492489394
 30
0.0
 10
96.57904859373051
 20
87.05870837952533
 30
0.0
 10
97.04121831694081
 20
87.10672415812956
 30
0.0
 10
97.50357332951345
 20
87.15475918683354
 30
0.0
 10
97.96398297076519
 20
87.20924170615536
 30
0.0
 10
98.42193145002637
 20
87.27011779656571
 30
0.0
 10
98.88011973098009
 20
87.33102576433775
 30
0.0
 10
99.33584427172776
 20
87.39833400085315
 30
0.0
 10
99.78859635307824
 20
87.47197661154102
 30
0.0
 10
100.241640260728
 20
87.54566668937679
 30
0.0
 10
100.6917078758838
 20
87.62569930979671
 30
0.0
 10
101.138298941509
 20
87.71199717972283
 30
0.0
 10
101.5852304092903
 20
87.79836082790479
 30
0.0
 10
102.0286800257052
 20
87.89099928027285
 30
0.0
 10
102.468157332773
 20
87.98982455417307
 30
0.0
 10
102.9080189726169
 20
88.08873625299574
 30
0.0
 10
103.3439013523271
 20
88.19384559911172
 30
0.0
 10
103.7753250160896
 20
88.30505474304755
 30
0.0
 10
104.207170801846
 20
88.4163726984155
 30
0.0
 10
104.6345491422176
 20
88.53380239400932
 30
0.0
 10
105.0569928345561
 20
88.65723715079747
 30
0.0
 10
105.4798884336616
 20
88.7808039512226
 30
0.0
 10
105.8978388214658
 20
88.91038866747335
 30
0.0
 10
106.3103895143203
 20
89.04587668932977
 30
0.0
 10
106.7234115982611
 20
89.18151952330358
 30
0.0
 10
107.131021640543
 20
89.32307916112888
 30
0.0
 10
107.5327804719488
 20
89.47043514530216
 30
0.0
 10
107.9350170972878
 20
89.61796637340126
 30
0.0
 10
108.3313885863072
 20
89.77130774271889
 30
0.0
 10
108.7214646577545
 20
89.93033123365886
 30
0.0
 10
109.112008546197
 20
90.08954544096654
 30
0.0
 10
109.4962419078669
 20
90.25445540716967
 30
0.0
 10
109.8737692746403
 20
90.42493857711345
 30
0.0
 10
110.2316376395293
 20
90.58654416822818
 30
0.0
 10
110.5834802287579
 20
90.75315764795071
 30
0.0
 10
110.9288949083548
 20
90.92463750916952
 30
0.0
 10
110.9855483317188
 20
90.95276289511797
 30
0.0
 10
111.0420288369657
 20
90.98101919229135
 30
0.0
 10
111.098341423072
 20
91.00940815978241
 30
0.0
  0
SPLINE
  5
1DF
330
70
100
AcDbEntity
  8
Isometric$4
 62
     7
370
    35
100
AcDbSpline
210
0.0
220
0.0
230
1.0
 70
     8
 71
     3
 72
    35
 73
    31
 74
     0
 42
0.0000000001
 43
0.0000000001
 40
0.0
 40
0.0
 40
0.0
 40
0.0
 40
1.0
 40
1.0
 40
1.0
 40
2.0
 40
2.0
 40
2.0
 40
3.0
 40
3.0
 40
3.0
 40
4.0
 40
4.0
 40
4.0
 40
5.0
 40
5.0
 40
5.0
 40
6.0
 40
6.0
 40
6.0
 40
7.0
 40
7.0
 40
7.0
 40
8.0
 40
8.0
 40
8.0
 40
9.0
 40
9.0
 40
9.0
 40
10.0
 40
10.0
 40
10.0
 40
10.0
 10
117.5539198535351
 20
140.1536420900467
 30
0.0
 10
117.5960926245501
 20
140.1810204428733
 30
0.0
 10
117.6380965697321
 20
140.2084828508959
 30
0.0
 10
117.6798873148912
 20
140.2360554838038
 30
0.0
 10
118.0108900449865
 20
140.4544439507542
 30
0.0
 10
118.3285178867525
 20
140.6797472647312
 30
0.0
 10
118.6386898446753
 20
140.908474691043
 30
0.0
 10
118.9488834194064
 20
141.1372180580515
 30
0.0
 10
119.2516200710131
 20
141.3693860146841
 30
0.0
 10
119.5449273371709
 20
141.6056634991772
 30
0.0
 10
119.8381613333964
 20
141.8418819601221
 30
0.0
 10
120.1219706546161
 20
142.0822078960129
 30
0.0
 10
120.3965145577361
 20
142.3262004438437
 30
0.0
 10
120.6709335755311
 20
142.5700820036376
 30
0.0
 10
120.936095602667
 20
142.8176268403705
 30
0.0
 10
121.1916055049562
 20
143.0686883589613
 30
0.0
 10
121.4469355033731
 20
143.3195731057749
 30
0.0
 10
121.6926269642308
 20
143.5739695840162
 30
0.0
 10
121.9284486646514
 20
143.8316442529911
 30
0.0
 10
122.164035548647
 20
144.089062345728
 30
0.0
 10
122.389772317794
 20
144.3497521040195
 30
0.0
 10
122.6054001534288
 20
144.6134934864641
 30
0.0
 10
122.8207428892661
 20
144.8768861541222
 30
0.0
 10
123.0260034056723
 20
145.143322381649
 30
0.0
 10
123.2209411050049
 20
145.4125669656285
 30
0.0
 10
123.415553644424
 20
145.6813624443481
 30
0.0
 10
123.5998777753759
 20
145.9529569185465
 30
0.0
 10
123.7736987400126
 20
146.2271035969705
 30
0.0
 10
123.8443628426805
 20
146.3385534964127
 30
0.0
 10
123.9132910896148
 20
146.4504251980244
 30
0.0
 10
123.980465786943
 20
146.5627013153058
 30
0.0
  0
SPLINE
  5
1E0
330
70
100
AcDbEntity
  8
Isometric$4
 62
     7
370
    35
100
AcDbSpline
210
0.0
220
0.0
230
1.0
 70
     8
 71
     3
 72
    59
 73
    55
 74
     0
 42
0.0000000001
 43
0.0000000001
 40
0.0
 40
0.0
 40
0.0
 40
0.0
 40
1.0
 40
1.0
 40
1.0
 40
2.0
 40
2.0
 40
2.0
 40
3.0
 40
3.0
 40
3.0
 40
4.0
 40
4.0
 40
4.0
 40
5.0
 40
5.0
 40
5.0
 40
6.0
 40
6.0
 40
6.0
 40
7.0
 40
7.0
 40
7.0
 40
8.0
 40
8.0
 40
8.0
 40
9.0
 40
9.0
 40
9.0
 40
10.0
 40
10.0
 40
10.0
 40
11.0
 40
11.0
 40
11.0
 40
12.0
 40
12.0
 40
12.0
 40
13.0
 40
13.0
 40
13.0
 40
14.0
 40
14.0
 40
14.0
 40
15.0
 40
15.0
 40
15.0
 40
16.0
 40
16.0
 40
16.0
 40
17.0
 40
17.0
 40
17.0
 40
18.0
 40
18.0
 40
18.0
 40
18.0
 10
62.28673201239812
 20
143.3250972278844
 30
0.0
 10
62.43045379956852
 20
143.1787908446832
 30
0.0
 10
62.57741407925942
 20
143.0336276173312
 30
0.0
 10
62.7275615699551
 20
142.8896489623626
 30
0.0
 10
62.98700967980741
 20
142.6408603231538
 30
0.0
 10
63.25597425524364
 20
142.3956086139737
 30
0.0
 10
63.53417906688414
 20
142.1541008029479
 30
0.0
 10
63.81264790927136
 20
141.9123637885251
 30
0.0
 10
64.10037453510894
 20
141.6743777819354
 30
0.0
 10
64.39706929809105
 20
141.4403444527023
 30
0.0
 10
64.69396471792626
 20
141.2061528450059
 30
0.0
 10
64.99984040944156
 20
140.9759192629247
 30
0.0
 10
65.31439285429816
 20
140.7498403083617
 30
0.0
 10
65.62908497617434
 20
140.5236609634344
 30
0.0
 10
65.95246155892657
 20
140.3016399365725
 30
0.0
 10
66.28420481893936
 20
140.0839686773855
 30
0.0
 10
66.61603217523829
 20
139.8662422389493
 30
0.0
 10
66.95623045120841
 20
139.652867773786
 30
0.0
 10
67.30446739402847
 20
139.4440312712315
 30
0.0
 10
67.65273951316476
 20
139.2351736735624
 30
0.0
 10
68.00905192324569
 20
139.0308549553322
 30
0.0
 10
68.37305787106569
 20
138.8312551895504
 30
0.0
 10
68.73704745537088
 20
138.6316643965719
 30
0.0
 10
69.10872988571971
 20
138.4367921317812
 30
0.0
 10
69.48774408981414
 20
138.2468119894628
 30
0.0
 10
69.86671228772781
 20
138.056854907655
 30
0.0
 10
70.25301047957862
 20
137.8717887607437
 30
0.0
 10
70.64626356361016
 20
137.6917800858224
 30
0.0
 10
71.03944811140059
 20
137.5118027828561
 30
0.0
 10
71.43958512738248
 20
137.3368811891992
 30
0.0
 10
71.84628591048535
 20
137.1671741936118
 30
0.0
 10
72.25290200811518
 20
136.9975025353497
 30
0.0
 10
72.66607913966315
 20
136.8330433037592
 30
0.0
 10
73.08541555020426
 20
136.6739471611004
 30
0.0
 10
73.50465668613576
 20
136.514887165609
 30
0.0
 10
73.93005430256277
 20
136.361187822303
 30
0.0
 10
74.36119423367191
 20
136.2129910157144
 30
0.0
 10
74.79223303778154
 20
136.0648289697625
 30
0.0
 10
75.22901146308619
 20
135.9221668795118
 30
0.0
 10
75.6711036561094
 20
135.7851373367553
 30
0.0
 10
76.11309283247219
 20
135.6481397247273
 30
0.0
 10
76.56039330040538
 20
135.5167720354987
 30
0.0
 10
77.0125683078943
 20
135.3911570943437
 30
0.0
 10
77.46464167464843
 20
135.2655703891477
 30
0.0
 10
77.92158738978837
 20
135.1457338460892
 30
0.0
 10
78.38295864567783
 20
135.031760093795
 30
0.0
 10
78.8442322931772
 20
134.9178104539577
 30
0.0
 10
79.30992960907665
 20
134.8097211244645
 30
0.0
 10
79.77959461685621
 20
134.7075941515162
 30
0.0
 10
80.24916818449204
 20
134.6054870618982
 30
0.0
 10
80.722707899201
 20
134.5093400074011
 30
0.0
 10
81.19974953793969
 20
134.4192441100438
 30
0.0
 10
81.22016124861291
 20
134.4153890767715
 30
0.0
 10
81.24057937068767
 20
134.4115451220917
 30
0.0
 10
81.26100386720624
 20
134.4077122522712
 30
0.0
  0
SPLINE
  5
1E1
330
70
100
AcDbEntity
  8
Isometric$4
 62
     7
370
    35
100
AcDbSpline
210
0.0
220
0.0
230
1.0
 70
     8
 71
     3
 72
    32
 73
    28
 74
     0
 42
0.0000000001
 43
0.0000000001
 40
0.0
 40
0.0
 40
0.0
 40
0.0
 40
1.0
 40
1.0
 40
1.0
 40
2.0
 40
2.0
 40
2.0
 40
3.0
 40
3.0
 40
3.0
 40
4.0
 40
4.0
 40
4.0
 40
5.0
 40
5.0
 40
5.0
 40
6.0
 40
6.0
 40
6.0
 40
7.0
 40
7.0
 40
7.0
 40
8.0
 40
8.0
 40
8.0
 40
9.0
 40
9.0
 40
9.0
 40
9.0
 10
102.4844879858252
 20
134.4097347661109
 30
0.0
 10
102.7852817599322
 20
134.4662455747125
 30
0.0
 10
103.0846915859374
 20
134.52516040231
 30
0.0
 10
103.3826004793304
 20
134.5864575652274
 30
0.0
 10
103.8553195331277
 20
134.6837233316993
 30
0.0
 10
104.3242593817313
 20
134.7869875913332
 30
0.0
 10
104.7889606379958
 20
134.8961527132619
 30
0.0
 10
105.2537572630364
 20
135.0053402387119
 30
0.0
 10
105.7143135558207
 20
135.1204310487242
 30
0.0
 10
106.1701793442804
 20
135.2413167856411
 30
0.0
 10
106.6261484765994
 20
135.3622299271106
 30
0.0
 10
107.0774249776984
 20
135.4889406231787
 30
0.0
 10
107.5235667982221
 20
135.6213301771505
 30
0.0
 10
107.9698183593164
 20
135.753752295892
 30
0.0
 10
108.4109327134989
 20
135.8918560666142
 30
0.0
 10
108.8464841965037
 20
136.0355127778327
 30
0.0
 10
109.2821498524086
 20
136.1792071463746
 30
0.0
 10
109.7122497203151
 20
136.3284573670246
 30
0.0
 10
110.1363476475109
 20
136.4831254766749
 30
0.0
 10
110.5605617533649
 20
136.6378359565719
 30
0.0
 10
110.9787706296774
 20
136.7979672942628
 30
0.0
 10
111.3906316859278
 20
136.9633715965057
 30
0.0
 10
111.8026079836748
 20
137.1288221799853
 30
0.0
 10
112.2082329085377
 20
137.2995486792537
 30
0.0
 10
112.6068723503474
 20
137.4753981595301
 30
0.0
 10
112.999808353677
 20
137.6487317154215
 30
0.0
 10
113.3859573302966
 20
137.8270427093325
 30
0.0
 10
113.7655256293739
 20
138.0103809085838
 30
0.0
  0
SPLINE
  5
1E2
330
70
100
AcDbEntity
  8
Isometric$4
 62
     7
370
    35
100
AcDbSpline
210
0.0
220
0.0
230
1.0
 70
    24
 71
     3
 72
     8
 73
     4
 74
     0
 42
0.0000000001
 43
0.0000000001
 40
0.0
 40
0.0
 40
0.0
 40
0.0
 40
1.0
 40
1.0
 40
1.0
 40
1.0
 10
111.0970950627811
 20
91.01030612484269
 30
0.0
 10
111.1174372495293
 20
91.02044099126052
 30
0.0
 10
111.1377794362769
 20
91.03057585767899
 30
0.0
 10
111.1581216230238
 20
91.0407107240981
 30
0.0
  0
SPLINE
  5
1E3
330
70
100
AcDbEntity
  8
Isometric$4
 62
     7
370
    35
100
AcDbSpline
210
0.0
220
0.0
230
1.0
 70
     8
 71
     3
 72
    59
 73
    55
 74
     0
 42
0.0000000001
 43
0.0000000001
 40
0.0
 40
0.0
 40
0.0
 40
0.0
 40
1.0
 40
1.0
 40
1.0
 40
2.0
 40
2.0
 40
2.0
 40
3.0
 40
3.0
 40
3.0
 40
4.0
 40
4.0
 40
4.0
 40
5.0
 40
5.0
 40
5.0
 40
6.0
 40
6.0
 40
6.0
 40
7.0
 40
7.0
 40
7.0
 40
8.0
 40
8.0
 40
8.0
 40
9.0
 40
9.0
 40
9.0
 40
10.0
 40
10.0
 40
10.0
 40
11.0
 40
11.0
 40
11.0
 40
12.0
 40
12.0
 40
12.0
 40
13.0
 40
13.0
 40
13.0
 40
14.0
 40
14.0
 40
14.0
 40
15.0
 40
15.0
 40
15.0
 40
16.0
 40
16.0
 40
16.0
 40
17.0
 40
17.0
 40
17.0
 40
18.0
 40
18.0
 40
18.0
 40
18.0
 10
121.535639957077
 20
103.9717569915049
 30
0.0
 10
121.5293290214605
 20
103.8177165422664
 30
0.0
 10
121.5191368838969
 20
103.6639821811011
 30
0.0
 10
121.5043175467035
 20
103.5105118156561
 30
0.0
 10
121.4763836424836
 20
103.221225835246
 30
0.0
 10
121.4320089000397
 20
102.9328778543288
 30
0.0
 10
121.3779006853154
 20
102.6458463309632
 30
0.0
 10
121.3234198379719
 20
102.3568380780238
 30
0.0
 10
121.259070991695
 20
102.0691644774418
 30
0.0
 10
121.1833137986413
 20
101.7833876687855
 30
0.0
 10
121.1069360788336
 20
101.4952700638503
 30
0.0
 10
121.0189623554235
 20
101.2090804513262
 30
0.0
 10
120.9201668173472
 20
100.9252701021251
 30
0.0
 10
120.8204832150737
 20
100.6389086072471
 30
0.0
 10
120.7097823710885
 20
100.3549693419058
 30
0.0
 10
120.5882726690786
 20
100.0738614145322
 30
0.0
 10
120.4656399460414
 20
99.79015542207571
 30
0.0
 10
120.3319976457207
 20
99.50933334520795
 30
0.0
 10
120.1877495699023
 20
99.2317393899653
 30
0.0
 10
120.0422077778348
 20
98.95165578064215
 30
0.0
 10
119.8858691173477
 20
98.67485845664837
 30
0.0
 10
119.7191069727504
 20
98.40163557874117
 30
0.0
 10
119.5509703804852
 20
98.12616080758573
 30
0.0
 10
119.3722377760705
 20
97.85431964624486
 30
0.0
 10
119.1832977906976
 20
97.58635002104888
 30
0.0
 10
118.9930013090579
 20
97.31645650559922
 30
0.0
 10
118.7923503523554
 20
97.05049031730688
 30
0.0
 10
118.5817254456345
 20
96.78864937369196
 30
0.0
 10
118.3698535086897
 20
96.52525816911406
 30
0.0
 10
118.1478891681483
 20
96.26604120183667
 30
0.0
 10
117.9162052392886
 20
96.01116680617634
 30
0.0
 10
117.6834552176984
 20
95.75511960694043
 30
0.0
 10
117.4408959526906
 20
95.50345503592364
 30
0.0
 10
117.1888910735431
 20
95.25632172226449
 30
0.0
 10
116.9360457854521
 20
95.00836424580722
 30
0.0
 10
116.6736917779733
 20
94.76496829960609
 30
0.0
 10
116.4021856262971
 20
94.52627084819672
 30
0.0
 10
116.1300823734542
 20
94.28704844909809
 30
0.0
 10
115.8487866770307
 20
94.05254523354363
 30
0.0
 10
115.5586523594264
 20
93.82289288961967
 30
0.0
 10
115.2681590151373
 20
93.59295636242338
 30
0.0
 10
114.9688051614324
 20
93.36788271970744
 30
0.0
 10
114.660942560982
 20
93.14780101507109
 30
0.0
 10
114.3529374760001
 20
92.92761745253294
 30
0.0
 10
114.0364157664383
 20
92.71243044986681
 30
0.0
 10
113.7117435442974
 20
92.50237342703604
 30
0.0
 10
113.3871469040593
 20
92.29236530432293
 30
0.0
 10
113.0544035455899
 20
92.08748477326338
 30
0.0
 10
112.7138505188584
 20
91.88785215685694
 30
0.0
 10
112.3736069577748
 20
91.68840094960698
 30
0.0
 10
112.0255679155087
 20
91.49418812362631
 30
0.0
 10
111.670217840713
 20
91.30538819007371
 30
0.0
 10
111.4816686644626
 20
91.20521071869534
 30
0.0
 10
111.2910611574126
 20
91.10655718024364
 30
0.0
 10
111.098341423072
 20
91.00940815978241
 30
0.0
  0
SPLINE
  5
1E4
330
70
100
AcDbEntity
  8
Isometric$4
 62
     7
370
    35
100
AcDbSpline
210
0.0
220
0.0
230
1.0
 70
     8
 71
     3
 72
    56
 73
    52
 74
     0
 42
0.0000000001
 43
0.0000000001
 40
0.0
 40
0.0
 40
0.0
 40
0.0
 40
1.0
 40
1.0
 40
1.0
 40
2.0
 40
2.0
 40
2.0
 40
3.0
 40
3.0
 40
3.0
 40
4.0
 40
4.0
 40
4.0
 40
5.0
 40
5.0
 40
5.0
 40
6.0
 40
6.0
 40
6.0
 40
7.0
 40
7.0
 40
7.0
 40
8.0
 40
8.0
 40
8.0
 40
9.0
 40
9.0
 40
9.0
 40
10.0
 40
10.0
 40
10.0
 40
11.0
 40
11.0
 40
11.0
 40
12.0
 40
12.0
 40
12.0
 40
13.0
 40
13.0
 40
13.0
 40
14.0
 40
14.0
 40
14.0
 40
15.0
 40
15.0
 40
15.0
 40
16.0
 40
16.0
 40
16.0
 40
17.0
 40
17.0
 40
17.0
 40
17.0
 10
71.23851922689124
 20
91.76591927203958
 30
0.0
 10
71.17425707555638
 20
91.80115562085303
 30
0.0
 10
71.11038171426802
 20
91.83665048024918
 30
0.0
 10
71.04705435754971
 20
91.87252243511322
 30
0.0
 10
70.70263572468185
 20
92.06761931413756
 30
0.0
 10
70.37442678278061
 20
92.27387048154232
 30
0.0
 10
70.05201345005602
 20
92.48361563064309
 30
0.0
 10
69.73007162596228
 20
92.69305404103906
 30
0.0
 10
69.41390847203448
 20
92.90597622116012
 30
0.0
 10
69.10675767836818
 20
93.12426759512957
 30
0.0
 10
68.80033615002815
 20
93.34204068188258
 30
0.0
 10
68.50288423682468
 20
93.56515749669545
 30
0.0
 10
68.21397822584684
 20
93.79295348579246
 30
0.0
 10
67.92606422710176
 20
94.01996729522084
 30
0.0
 10
67.64663754346803
 20
94.25162820048049
 30
0.0
 10
67.37624599795143
 20
94.4879521373906
 30
0.0
 10
67.10709700145088
 20
94.7231900785289
 30
0.0
 10
66.84690029427378
 20
94.96304829308311
 30
0.0
 10
66.59594448506045
 20
95.2073571167936
 30
0.0
 10
66.34644027813869
 20
95.45025278633239
 30
0.0
 10
66.10607037421394
 20
95.69754772666845
 30
0.0
 10
65.87519613798344
 20
95.94911110581383
 30
0.0
 10
65.64591464363765
 20
96.19893901400693
 30
0.0
 10
65.4259982525796
 20
96.45297667043681
 30
0.0
 10
65.21579577305125
 20
96.71106375662247
 30
0.0
 10
65.00723725778119
 20
96.96713237972517
 30
0.0
 10
64.80824130590787
 20
97.22718734022073
 30
0.0
 10
64.61916703457859
 20
97.49104637965629
 30
0.0
 10
64.43168725336159
 20
97.75268025843589
 30
0.0
 10
64.25396251642323
 20
98.01805432601947
 30
0.0
 10
64.08635526093201
 20
98.28695061070749
 30
0.0
 10
63.9201955966324
 20
98.55352449060381
 30
0.0
 10
63.76397940305849
 20
98.82356000893722
 30
0.0
 10
63.61806219662959
 20
99.09679547232471
 30
0.0
 10
63.47336589529369
 20
99.3677447449536
 30
0.0
 10
63.33879695663422
 20
99.64184063808426
 30
0.0
 10
63.21471762424119
 20
99.91876950108419
 30
0.0
 10
63.09158154321614
 20
100.1935931502342
 30
0.0
 10
62.97877619063545
 20
100.471206860484
 30
0.0
 10
62.87657426741323
 20
100.7512408997088
 30
0.0
 10
62.77502268594111
 20
101.0294929976411
 30
0.0
 10
62.68394001752159
 20
101.3101347199776
 30
0.0
 10
62.60380828214181
 20
101.5927362032644
 30
0.0
 10
62.52405413417788
 20
101.8740060448077
 30
0.0
 10
62.45514795898707
 20
102.1572172217007
 30
0.0
 10
62.39660877927455
 20
102.4418938511999
 30
0.0
 10
62.33823006227549
 20
102.7257901488817
 30
0.0
 10
62.29016158436416
 20
103.0111438762293
 30
0.0
 10
62.25524434272567
 20
103.2974018282265
 30
0.0
 10
62.22838058031709
 20
103.5176358802084
 30
0.0
 10
62.20930113286072
 20
103.7384051495124
 30
0.0
 10
62.19739878051427
 20
103.9598278752773
 30
0.0
  0
SPLINE
  5
1E5
330
70
100
AcDbEntity
  8
Isometric$4
 62
     7
370
    35
100
AcDbSpline
210
0.0
220
0.0
230
1.0
 70
     8
 71
     3
 72
    53
 73
    49
 74
     0
 42
0.0000000001
 43
0.0000000001
 40
0.0
 40
0.0
 40
0.0
 40
0.0
 40
1.0
 40
1.0
 40
1.0
 40
2.0
 40
2.0
 40
2.0
 40
3.0
 40
3.0
 40
3.0
 40
4.0
 40
4.0
 40
4.0
 40
5.0
 40
5.0
 40
5.0
 40
6.0
 40
6.0
 40
6.0
 40
7.0
 40
7.0
 40
7.0
 40
8.0
 40
8.0
 40
8.0
 40
9.0
 40
9.0
 40
9.0
 40
10.0
 40
10.0
 40
10.0
 40
11.0
 40
11.0
 40
11.0
 40
12.0
 40
12.0
 40
12.0
 40
13.0
 40
13.0
 40
13.0
 40
14.0
 40
14.0
 40
14.0
 40
15.0
 40
15.0
 40
15.0
 40
16.0
 40
16.0
 40
16.0
 40
16.0
 10
95.90245192887298
 20
206.6700936341893
 30
0.0
 10
95.81596756088883
 20
206.7189594578249
 30
0.0
 10
95.72753609619494
 20
206.7661887657559
 30
0.0
 10
95.63703430695914
 20
206.811818012434
 30
0.0
 10
95.46797261859603
 20
206.8970556364329
 30
0.0
 10
95.29168631864736
 20
206.9767096812234
 30
0.0
 10
95.10926563514683
 20
207.0504576249913
 30
0.0
 10
94.92716352386048
 20
207.1240767782874
 30
0.0
 10
94.73894843599699
 20
207.1918104409077
 30
0.0
 10
94.54549015654093
 20
207.2534435574781
 30
0.0
 10
94.35243156724759
 20
207.3149493383232
 30
0.0
 10
94.15415142913898
 20
207.3703797548732
 30
0.0
 10
93.95166651877081
 20
207.4195139530521
 30
0.0
 10
93.74963803969501
 20
207.4685373953948
 30
0.0
 10
93.54342372336464
 20
207.5112929726132
 30
0.0
 10
93.33407825822039
 20
207.5476043374469
 30
0.0
 10
93.12513762886206
 20
207.5838454827515
 30
0.0
 10
92.91307794911672
 20
207.6136673154272
 30
0.0
 10
92.69900416538494
 20
207.6369395628371
 30
0.0
 10
92.48522035235938
 20
207.6601802871443
 30
0.0
 10
92.26942788800595
 20
207.6768891574694
 30
0.0
 10
92.05275921222401
 20
207.6869915830747
 30
0.0
 10
91.83623147421418
 20
207.6970874372942
 30
0.0
 10
91.6188286643146
 20
207.7005854386652
 30
0.0
 10
91.40169609099819
 20
207.6974697436711
 30
0.0
 10
91.18453901492468
 20
207.6943536970814
 30
0.0
 10
90.96765223642782
 20
207.6846224613708
 30
0.0
 10
90.75217688032347
 20
207.668319898688
 30
0.0
 10
90.5365481162345
 20
207.6520057293726
 30
0.0
 10
90.32233278498052
 20
207.6291108728242
 30
0.0
 10
90.11065055330062
 20
207.5997364847092
 30
0.0
 10
89.89866158470212
 20
207.5703195318057
 30
0.0
 10
89.68921306214285
 20
207.5344042554756
 30
0.0
 10
89.48338827852525
 20
207.4921442624136
 30
0.0
 10
89.27710026377697
 20
207.449789158627
 30
0.0
 10
89.07445231756559
 20
207.4010607470165
 30
0.0
 10
88.87647374709905
 20
207.3461545749523
 30
0.0
 10
88.6779004679605
 20
207.2910834700029
 30
0.0
 10
88.48402465941743
 20
207.2297974340528
 30
0.0
 10
88.29582439338199
 20
207.1625282833213
 30
0.0
 10
88.1069439118168
 20
207.0950160005158
 30
0.0
 10
87.92378007332732
 20
207.0214772750152
 30
0.0
 10
87.74720380347263
 20
206.9421387187279
 30
0.0
 10
87.57959225367979
 20
206.8668281552604
 30
0.0
 10
87.41791635492081
 20
206.7862917226578
 30
0.0
 10
87.2630172107455
 20
206.7007975322802
 30
0.0
 10
87.24460204628549
 20
206.690633566659
 30
0.0
 10
87.22628266184626
 20
206.6803995300124
 30
0.0
 10
87.20805344700881
 20
206.670093633956
 30
0.0
  0
SPLINE
  5
1E6
330
70
100
AcDbEntity
  8
Isometric$4
 62
     7
370
    35
100
AcDbSpline
210
0.0
220
0.0
230
1.0
 70
     8
 71
     3
 72
    32
 73
    28
 74
     0
 42
0.0000000001
 43
0.0000000001
 40
0.0
 40
0.0
 40
0.0
 40
0.0
 40
1.0
 40
1.0
 40
1.0
 40
2.0
 40
2.0
 40
2.0
 40
3.0
 40
3.0
 40
3.0
 40
4.0
 40
4.0
 40
4.0
 40
5.0
 40
5.0
 40
5.0
 40
6.0
 40
6.0
 40
6.0
 40
7.0
 40
7.0
 40
7.0
 40
8.0
 40
8.0
 40
8.0
 40
9.0
 40
9.0
 40
9.0
 40
9.0
 10
36.93266298068768
 20
178.2442662379468
 30
0.0
 10
36.84593703928058
 20
178.1952667360072
 30
0.0
 10
36.76155123178133
 20
178.1447237252451
 30
0.0
 10
36.67939042014682
 20
178.0926046271143
 30
0.0
 10
36.52505809095972
 20
177.994703186637
 30
0.0
 10
36.37857655588094
 20
177.8912405954081
 30
0.0
 10
36.24097461067429
 20
177.7825079533004
 30
0.0
 10
36.10334578764668
 20
177.6737540724219
 30
0.0
 10
35.97460002373344
 20
177.559728081662
 30
0.0
 10
35.85548325380769
 20
177.4406233817637
 30
0.0
 10
35.73721468670605
 20
177.3223667987417
 30
0.0
 10
35.62843847017727
 20
177.1991035776784
 30
0.0
 10
35.53017833515283
 20
177.0711400781027
 30
0.0
 10
35.43335770843591
 20
176.9450512403193
 30
0.0
 10
35.3467472995862
 20
176.8143988331474
 30
0.0
 10
35.27099996486562
 20
176.6796795251883
 30
0.0
 10
35.19689020003891
 20
176.5478726930752
 30
0.0
 10
35.13317889223185
 20
176.4121729028046
 30
0.0
 10
35.08203281418392
 20
176.2734584510188
 30
0.0
 10
35.03215410091419
 20
176.1381812483285
 30
0.0
 10
34.99422561706382
 20
176.0000369355721
 30
0.0
 10
34.96462220353961
 20
175.8600622311899
 30
0.0
 10
34.93567412404189
 20
175.723186162256
 30
0.0
 10
34.91468660858694
 20
175.5845598438737
 30
0.0
 10
34.91767140058782
 20
175.4460721674587
 30
0.0
 10
34.9182500368566
 20
175.4192247381134
 30
0.0
 10
34.91972960716957
 20
175.3923825192498
 30
0.0
 10
34.92183581988469
 20
175.3655131529214
 30
0.0
  0
SPLINE
  5
1E7
330
70
100
AcDbEntity
  8
Isometric$4
 62
     7
370
    35
100
AcDbSpline
210
0.0
220
0.0
230
1.0
 70
     8
 71
     3
 72
    32
 73
    28
 74
     0
 42
0.0000000001
 43
0.0000000001
 40
0.0
 40
0.0
 40
0.0
 40
0.0
 40
1.0
 40
1.0
 40
1.0
 40
2.0
 40
2.0
 40
2.0
 40
3.0
 40
3.0
 40
3.0
 40
4.0
 40
4.0
 40
4.0
 40
5.0
 40
5.0
 40
5.0
 40
6.0
 40
6.0
 40
6.0
 40
7.0
 40
7.0
 40
7.0
 40
8.0
 40
8.0
 40
8.0
 40
9.0
 40
9.0
 40
9.0
 40
9.0
 10
148.6308224989555
 20
175.1253195366421
 30
0.0
 10
148.6330485599903
 20
175.2357911299936
 30
0.0
 10
148.627594760075
 20
175.3453729216538
 30
0.0
 10
148.6138102140507
 20
175.4544153382936
 30
0.0
 10
148.5967260581162
 20
175.5895592629535
 30
0.0
 10
148.5668455549307
 20
175.7238746867831
 30
0.0
 10
148.5269749615792
 20
175.855850763647
 30
0.0
 10
148.4869155668689
 20
175.9884517939034
 30
0.0
 10
148.4367712447582
 20
176.1186912694666
 30
0.0
 10
148.3766838329833
 20
176.2458125118934
 30
0.0
 10
148.3157060455843
 20
176.3748174376481
 30
0.0
 10
148.2444883117607
 20
176.5006110335916
 30
0.0
 10
148.1640331817795
 20
176.6226153126775
 30
0.0
 10
148.0818902509023
 20
176.7471790175116
 30
0.0
 10
147.9901182914228
 20
176.8677927520535
 30
0.0
 10
147.8894837474159
 20
176.9841304388016
 30
0.0
 10
147.7866302138963
 20
177.1030333690158
 30
0.0
 10
147.6745189472532
 20
177.2174695988935
 30
0.0
 10
147.5539401132101
 20
177.3272130883147
 30
0.0
 10
147.4311286268475
 20
177.4389886014998
 30
0.0
 10
147.2995330969956
 20
177.5458959826344
 30
0.0
 10
147.1598534612357
 20
177.6477608896719
 30
0.0
 10
147.0241588038021
 20
177.7467196504811
 30
0.0
 10
146.8808347302154
 20
177.8409195506612
 30
0.0
 10
146.730699134458
 20
177.9301141136478
 30
0.0
 10
146.6942074554696
 20
177.9517935784251
 30
0.0
 10
146.6573133704125
 20
177.9731773415931
 30
0.0
 10
146.6199953377402
 20
177.994271894808
 30
0.0
  0
SPLINE
  5
1E8
330
70
100
AcDbEntity
  8
Isometric$4
 62
     7
370
    35
100
AcDbSpline
210
0.0
220
0.0
230
1.0
 70
     8
 71
     3
 72
    20
 73
    16
 74
     0
 42
0.0000000001
 43
0.0000000001
 40
0.0
 40
0.0
 40
0.0
 40
0.0
 40
1.0
 40
1.0
 40
1.0
 40
2.0
 40
2.0
 40
2.0
 40
3.0
 40
3.0
 40
3.0
 40
4.0
 40
4.0
 40
4.0
 40
5.0
 40
5.0
 40
5.0
 40
5.0
 10
128.9682701249738
 20
136.8026514602217
 30
0.0
 10
129.0095165615077
 20
136.7792356310311
 30
0.0
 10
129.0508213736836
 20
136.7588088600459
 30
0.0
 10
129.0924774627193
 20
136.7410155700955
 30
0.0
 10
129.1712798233005
 20
136.7073553469907
 30
0.0
 10
129.2513392873112
 20
136.6831194794667
 30
0.0
 10
129.3300053699934
 20
136.6715256116183
 30
0.0
 10
129.3990444652884
 20
136.6613505765854
 30
0.0
 10
129.4670103495683
 20
136.6609126702366
 30
0.0
 10
129.5349121070465
 20
136.6671302103773
 30
0.0
 10
129.6002886799123
 20
136.6731165276864
 30
0.0
 10
129.6656058068854
 20
136.6852724799267
 30
0.0
 10
129.7193717135233
 20
136.7178034335489
 30
0.0
 10
129.7269561429251
 20
136.7223923772958
 30
0.0
 10
129.7343107142608
 20
136.7273867637813
 30
0.0
 10
129.7415422319789
 20
136.732654568457
 30
0.0
  0
SPLINE
  5
1E9
330
70
100
AcDbEntity
  8
Isometric$4
 62
     7
370
    35
100
AcDbSpline
210
0.0
220
0.0
230
1.0
 70
     8
 71
     3
 72
    26
 73
    22
 74
     0
 42
0.0000000001
 43
0.0000000001
 40
0.0
 40
0.0
 40
0.0
 40
0.0
 40
1.0
 40
1.0
 40
1.0
 40
2.0
 40
2.0
 40
2.0
 40
3.0
 40
3.0
 40
3.0
 40
4.0
 40
4.0
 40
4.0
 40
5.0
 40
5.0
 40
5.0
 40
6.0
 40
6.0
 40
6.0
 40
7.0
 40
7.0
 40
7.0
 40
7.0
 10
135.8341482595065
 20
126.6503705425118
 30
0.0
 10
135.9036674936036
 20
126.6102212042065
 30
0.0
 10
135.9736552330568
 20
126.573068535062
 30
0.0
 10
136.0442090806578
 20
126.5387636849529
 30
0.0
 10
136.1749349531927
 20
126.4752018578469
 30
0.0
 10
136.3076043103006
 20
126.4214167710936
 30
0.0
 10
136.4413661554716
 20
126.3787062455717
 30
0.0
 10
136.5747352207648
 20
126.3361211357449
 30
0.0
 10
136.70919036755
 20
126.3045456436908
 30
0.0
 10
136.8439792049861
 20
126.2849248049926
 30
0.0
 10
136.9608527437508
 20
126.2679118468287
 30
0.0
 10
137.0779771639767
 20
126.2598868567305
 30
0.0
 10
137.1939898102587
 20
126.2622283198573
 30
0.0
 10
137.3060065111531
 20
126.2644891335114
 30
0.0
 10
137.4169867070971
 20
126.2764145738091
 30
0.0
 10
137.5267089833397
 20
126.2965054524213
 30
0.0
 10
137.6444842279164
 20
126.3180708831015
 30
0.0
 10
137.7608101289783
 20
126.349044326907
 30
0.0
 10
137.8683653391941
 20
126.3977865395459
 30
0.0
 10
137.9110979956569
 20
126.4171522608691
 30
0.0
 10
137.9524461593913
 20
126.4393228617259
 30
0.0
 10
137.9928919156702
 20
126.4637478154126
 30
0.0
  0
SPLINE
  5
1EA
330
70
100
AcDbEntity
  8
Isometric$4
 62
     7
370
    35
100
AcDbSpline
210
0.0
220
0.0
230
1.0
 70
     8
 71
     3
 72
    20
 73
    16
 74
     0
 42
0.0000000001
 43
0.0000000001
 40
0.0
 40
0.0
 40
0.0
 40
0.0
 40
1.0
 40
1.0
 40
1.0
 40
2.0
 40
2.0
 40
2.0
 40
3.0
 40
3.0
 40
3.0
 40
4.0
 40
4.0
 40
4.0
 40
5.0
 40
5.0
 40
5.0
 40
5.0
 10
130.1554389816028
 20
137.2215696461786
 30
0.0
 10
130.1553480445895
 20
137.1781041897746
 30
0.0
 10
130.1534811789864
 20
137.1364787687546
 30
0.0
 10
130.1497404850158
 20
137.0964090231847
 30
0.0
 10
130.1425937854711
 20
137.019854663297
 30
0.0
 10
130.1286073946619
 20
136.9489786995606
 30
0.0
 10
130.1086830439629
 20
136.8864003031095
 30
0.0
 10
130.0887461322626
 20
136.8237824550643
 30
0.0
 10
130.0628637713207
 20
136.7694726397523
 30
0.0
 10
130.0335644508426
 20
136.7224546950465
 30
0.0
 10
130.0036747206005
 20
136.6744892930895
 30
0.0
 10
129.9702289332192
 20
136.6341125992379
 30
0.0
 10
129.9304262740039
 20
136.6058040479605
 30
0.0
 10
129.9121460364973
 20
136.592802729681
 30
0.0
 10
129.8925249404989
 20
136.5823469513895
 30
0.0
 10
129.8718032105327
 20
136.574052514153
 30
0.0
  0
SPLINE
  5
1EB
330
70
100
AcDbEntity
  8
Isometric$4
 62
     7
370
    35
100
AcDbSpline
210
0.0
220
0.0
230
1.0
 70
     8
 71
     3
 72
    26
 73
    22
 74
     0
 42
0.0000000001
 43
0.0000000001
 40
0.0
 40
0.0
 40
0.0
 40
0.0
 40
1.0
 40
1.0
 40
1.0
 40
2.0
 40
2.0
 40
2.0
 40
3.0
 40
3.0
 40
3.0
 40
4.0
 40
4.0
 40
4.0
 40
5.0
 40
5.0
 40
5.0
 40
6.0
 40
6.0
 40
6.0
 40
7.0
 40
7.0
 40
7.0
 40
7.0
 10
146.5535153518942
 20
130.8063200818819
 30
0.0
 10
146.6313424589503
 20
130.8438872389339
 30
0.0
 10
146.704386732024
 20
130.8877088876765
 30
0.0
 10
146.7727098896044
 20
130.9386002795499
 30
0.0
 10
146.8557125317753
 20
131.0004258762996
 30
0.0
 10
146.9317474232923
 20
131.0726854917459
 30
0.0
 10
147.0005574083387
 20
131.1519823050721
 30
0.0
 10
147.0697196422918
 20
131.2316850509951
 30
0.0
 10
147.1315828096219
 20
131.3184972282111
 30
0.0
 10
147.1857099029805
 20
131.4116977355087
 30
0.0
 10
147.2409589207215
 20
131.5068300650242
 30
0.0
 10
147.2881478404271
 20
131.6086182986774
 30
0.0
 10
147.3274007283508
 20
131.7157948015318
 30
0.0
 10
147.3676864432267
 20
131.8257913460862
 30
0.0
 10
147.3996130042403
 20
131.9414634439348
 30
0.0
 10
147.423351246997
 20
132.0619691440369
 30
0.0
 10
147.4476048583041
 20
132.1850910802489
 30
0.0
 10
147.4633107472589
 20
132.313258776618
 30
0.0
 10
147.4707257418155
 20
132.4452121794054
 30
0.0
 10
147.4745570421088
 20
132.5133920151314
 30
0.0
 10
147.4761748802724
 20
132.5825825401019
 30
0.0
 10
147.4755520115968
 20
132.6529174227829
 30
0.0
  0
SPLINE
  5
1EC
330
70
100
AcDbEntity
  8
Isometric$4
 62
     7
370
    35
100
AcDbSpline
210
0.0
220
0.0
230
1.0
 70
     8
 71
     3
 72
    32
 73
    28
 74
     0
 42
0.0000000001
 43
0.0000000001
 40
0.0
 40
0.0
 40
0.0
 40
0.0
 40
1.0
 40
1.0
 40
1.0
 40
2.0
 40
2.0
 40
2.0
 40
3.0
 40
3.0
 40
3.0
 40
4.0
 40
4.0
 40
4.0
 40
5.0
 40
5.0
 40
5.0
 40
6.0
 40
6.0
 40
6.0
 40
7.0
 40
7.0
 40
7.0
 40
8.0
 40
8.0
 40
8.0
 40
9.0
 40
9.0
 40
9.0
 40
9.0
 10
36.13062227496392
 20
172.9007994822695
 30
0.0
 10
36.05035892005599
 20
172.946212413285
 30
0.0
 10
35.97247181033307
 20
172.9924701485752
 30
0.0
 10
35.89686690002287
 20
173.0396651774688
 30
0.0
 10
35.75258003024728
 20
173.1297337055612
 30
0.0
 10
35.61660519249721
 20
173.2232159644636
 30
0.0
 10
35.48980691774723
 20
173.3192617310356
 30
0.0
 10
35.36312388188652
 20
173.4152202077185
 30
0.0
 10
35.24560073661642
 20
173.51373753457
 30
0.0
 10
35.13767081013976
 20
173.6140870062183
 30
0.0
 10
35.02965226737757
 20
173.7145188701894
 30
0.0
 10
34.93124270297477
 20
173.8167858887726
 30
0.0
 10
34.842769360802
 20
173.9200666184841
 30
0.0
 10
34.75387429426181
 20
174.0238396546838
 30
0.0
 10
34.67501040135638
 20
174.1286360891248
 30
0.0
 10
34.60604689689403
 20
174.2336892465261
 30
0.0
 10
34.53631507114992
 20
174.3399127994452
 30
0.0
 10
34.47670546283347
 20
174.4463988274814
 30
0.0
 10
34.42741697611104
 20
174.5525686462349
 30
0.0
 10
34.37713444486643
 20
174.6608796856627
 30
0.0
 10
34.33759354364865
 20
174.7688616326441
 30
0.0
 10
34.30640059141266
 20
174.8762914720436
 30
0.0
 10
34.27426652614817
 20
174.9869625442906
 30
0.0
 10
34.25099173559416
 20
175.0970476914472
 30
0.0
 10
34.24352242923639
 20
175.2068934994758
 30
0.0
 10
34.24001275214689
 20
175.2585078391899
 30
0.0
 10
34.23999272272836
 20
175.3100693359015
 30
0.0
 10
34.242841406447
 20
175.3615470076515
 30
0.0
  0
SPLINE
  5
1ED
330
70
100
AcDbEntity
  8
Isometric$4
 62
     7
370
    35
100
AcDbSpline
210
0.0
220
0.0
230
1.0
 70
     8
 71
     3
 72
    32
 73
    28
 74
     0
 42
0.0000000001
 43
0.0000000001
 40
0.0
 40
0.0
 40
0.0
 40
0.0
 40
1.0
 40
1.0
 40
1.0
 40
2.0
 40
2.0
 40
2.0
 40
3.0
 40
3.0
 40
3.0
 40
4.0
 40
4.0
 40
4.0
 40
5.0
 40
5.0
 40
5.0
 40
6.0
 40
6.0
 40
6.0
 40
7.0
 40
7.0
 40
7.0
 40
8.0
 40
8.0
 40
8.0
 40
9.0
 40
9.0
 40
9.0
 40
9.0
 10
149.4918798887367
 20
175.4086911245061
 30
0.0
 10
149.4962901497202
 20
175.3468328307032
 30
0.0
 10
149.4967735215374
 20
175.2848629415312
 30
0.0
 10
149.4926983187624
 20
175.2228337980109
 30
0.0
 10
149.485071599053
 20
175.106746595051
 30
0.0
 10
149.4614785092832
 20
174.9904518542241
 30
0.0
 10
149.4275261912953
 20
174.8734849715981
 30
0.0
 10
149.3942087288768
 20
174.7587051878608
 30
0.0
 10
149.3509158192509
 20
174.6432781633352
 30
0.0
 10
149.2954387429399
 20
174.5275136399754
 30
0.0
 10
149.2418292520644
 20
174.4156462242527
 30
0.0
 10
149.1768421243705
 20
174.3034636504023
 30
0.0
 10
149.1005763768286
 20
174.1916778299161
 30
0.0
 10
149.0265191745892
 20
174.0831291644677
 30
0.0
 10
148.9418271191868
 20
173.9749546062972
 30
0.0
 10
148.8464458843626
 20
173.86802248996
 30
0.0
 10
148.7528343736468
 20
173.7630744152898
 30
0.0
 10
148.6489266623721
 20
173.6593231051045
 30
0.0
 10
148.5351050458137
 20
173.5576342246095
 30
0.0
 10
148.422401758556
 20
173.4569444658802
 30
0.0
 10
148.2999784227637
 20
173.3582768080399
 30
0.0
 10
148.1683296330909
 20
173.2623775063138
 30
0.0
 10
148.0372156115295
 20
173.1668677553665
 30
0.0
 10
147.8969509329532
 20
173.074103915636
 30
0.0
 10
147.7484105862353
 20
172.9848940456856
 30
0.0
 10
147.7011569630035
 20
172.9565146209943
 30
0.0
 10
147.6530658405174
 20
172.9284948587488
 30
0.0
 10
147.604099020128
 20
172.9007994822182
 30
0.0
  0
SPLINE
  5
1EE
330
70
100
AcDbEntity
  8
Isometric$4
 62
     7
370
    35
100
AcDbSpline
210
0.0
220
0.0
230
1.0
 70
     8
 71
     3
 72
    56
 73
    52
 74
     0
 42
0.0000000001
 43
0.0000000001
 40
0.0
 40
0.0
 40
0.0
 40
0.0
 40
1.0
 40
1.0
 40
1.0
 40
2.0
 40
2.0
 40
2.0
 40
3.0
 40
3.0
 40
3.0
 40
4.0
 40
4.0
 40
4.0
 40
5.0
 40
5.0
 40
5.0
 40
6.0
 40
6.0
 40
6.0
 40
7.0
 40
7.0
 40
7.0
 40
8.0
 40
8.0
 40
8.0
 40
9.0
 40
9.0
 40
9.0
 40
10.0
 40
10.0
 40
10.0
 40
11.0
 40
11.0
 40
11.0
 40
12.0
 40
12.0
 40
12.0
 40
13.0
 40
13.0
 40
13.0
 40
14.0
 40
14.0
 40
14.0
 40
15.0
 40
15.0
 40
15.0
 40
16.0
 40
16.0
 40
16.0
 40
17.0
 40
17.0
 40
17.0
 40
17.0
 10
96.8865556109351
 20
144.2249777426515
 30
0.0
 10
96.80617263092635
 20
144.1795151340717
 30
0.0
 10
96.7237498758859
 20
144.1351694044752
 30
0.0
 10
96.63916989634447
 20
144.09186945257
 30
0.0
 10
96.47721204397862
 20
144.0089566018454
 30
0.0
 10
96.30734441513602
 20
143.9298782466851
 30
0.0
 10
96.1306531987652
 20
143.8552919416993
 30
0.0
 10
95.95360945032094
 20
143.7805568230647
 30
0.0
 10
95.76971485851581
 20
143.7103316974487
 30
0.0
 10
95.57983888311458
 20
143.6450059247547
 30
0.0
 10
95.38957809881509
 20
143.5795477606998
 30
0.0
 10
95.1933116622151
 20
143.5190088280705
 30
0.0
 10
94.99203377893564
 20
143.4637521844301
 30
0.0
 10
94.7903458232747
 20
143.4083829639735
 30
0.0
 10
94.58362598004708
 20
143.3583175781165
 30
0.0
 10
94.37288777681377
 20
143.3138342640761
 30
0.0
 10
94.1617686580612
 20
143.269270545132
 30
0.0
 10
93.94661663956735
 20
143.2303090957622
 30
0.0
 10
93.72848160182304
 20
143.1971636040706
 30
0.0
 10
93.51002964596988
 20
143.1639699568574
 30
0.0
 10
93.28858599679282
 20
143.1366091790611
 30
0.0
 10
93.06522189789083
 20
143.1152278460042
 30
0.0
 10
92.84162603606002
 20
143.0938243276424
 30
0.0
 10
92.61610573711221
 20
143.0784126690186
 30
0.0
 10
92.3897475354569
 20
143.0690746789671
 30
0.0
 10
92.16325462549747
 20
143.0597311317737
 30
0.0
 10
91.93592281524235
 20
143.0564684843211
 30
0.0
 10
91.70884542379972
 20
143.0593039807609
 30
0.0
 10
91.48173604585974
 20
143.0621398766142
 30
0.0
 10
91.25488115841358
 20
143.0710756344693
 30
0.0
 10
91.02937324248356
 20
143.0860638970002
 30
0.0
 10
90.80396255361561
 20
143.1010456973868
 30
0.0
 10
90.57989767502917
 20
143.1220747845344
 30
0.0
 10
90.35826100355206
 20
143.1490392602663
 30
0.0
 10
90.13683162747113
 20
143.175978516293
 30
0.0
 10
89.91782591844964
 20
143.2088420634322
 30
0.0
 10
89.70231087925542
 20
143.2474507497268
 30
0.0
 10
89.48709704540446
 20
143.2860054762473
 30
0.0
 10
89.27536413102922
 20
143.3302892942502
 30
0.0
 10
89.0681446769614
 20
143.3800609892859
 30
0.0
 10
88.86130813635244
 20
143.4297407129762
 30
0.0
 10
88.65896839093689
 20
143.4848880507329
 30
0.0
 10
88.4621548606089
 20
143.5451719154095
 30
0.0
 10
88.26578624613771
 20
143.6053195026299
 30
0.0
 10
88.07491888991597
 20
143.6705804197966
 30
0.0
 10
87.89041974412993
 20
143.7406240607135
 30
0.0
 10
87.70639750429126
 20
143.8104866480598
 30
0.0
 10
87.52871059546988
 20
143.8851072656916
 30
0.0
 10
87.35860637331761
 20
143.9638011901474
 30
0.0
 10
87.18027553196748
 20
144.0463009281307
 30
0.0
 10
87.01027854371721
 20
144.1332774884046
 30
0.0
 10
86.84816568415779
 20
144.2249777427035
 30
0.0
  0
SPLINE
  5
1EF
330
70
100
AcDbEntity
  8
Isometric$4
 62
     7
370
    35
100
AcDbSpline
210
0.0
220
0.0
230
1.0
 70
     8
 71
     3
 72
   110
 73
   106
 74
     0
 42
0.0000000001
 43
0.0000000001
 40
0.0
 40
0.0
 40
0.0
 40
0.0
 40
1.0
 40
1.0
 40
1.0
 40
2.0
 40
2.0
 40
2.0
 40
3.0
 40
3.0
 40
3.0
 40
4.0
 40
4.0
 40
4.0
 40
5.0
 40
5.0
 40
5.0
 40
6.0
 40
6.0
 40
6.0
 40
7.0
 40
7.0
 40
7.0
 40
8.0
 40
8.0
 40
8.0
 40
9.0
 40
9.0
 40
9.0
 40
10.0
 40
10.0
 40
10.0
 40
11.0
 40
11.0
 40
11.0
 40
12.0
 40
12.0
 40
12.0
 40
13.0
 40
13.0
 40
13.0
 40
14.0
 40
14.0
 40
14.0
 40
15.0
 40
15.0
 40
15.0
 40
16.0
 40
16.0
 40
16.0
 40
17.0
 40
17.0
 40
17.0
 40
18.0
 40
18.0
 40
18.0
 40
19.0
 40
19.0
 40
19.0
 40
20.0
 40
20.0
 40
20.0
 40
21.0
 40
21.0
 40
21.0
 40
22.0
 40
22.0
 40
22.0
 40
23.0
 40
23.0
 40
23.0
 40
24.0
 40
24.0
 40
24.0
 40
25.0
 40
25.0
 40
25.0
 40
26.0
 40
26.0
 40
26.0
 40
27.0
 40
27.0
 40
27.0
 40
28.0
 40
28.0
 40
28.0
 40
29.0
 40
29.0
 40
29.0
 40
30.0
 40
30.0
 40
30.0
 40
31.0
 40
31.0
 40
31.0
 40
32.0
 40
32.0
 40
32.0
 40
33.0
 40
33.0
 40
33.0
 40
34.0
 40
34.0
 40
34.0
 40
35.0
 40
35.0
 40
35.0
 40
35.0
 10
135.502947883136
 20
159.3219351113068
 30
0.0
 10
135.5025466150354
 20
159.3221612719749
 30
0.0
 10
135.5021459852674
 20
159.3223885289973
 30
0.0
 10
135.5017459959517
 20
159.3226168812158
 30
0.0
 10
135.4990948601926
 20
159.3241304034772
 30
0.0
 10
135.4964718598863
 20
159.3256920383805
 30
0.0
 10
135.4938775996996
 20
159.3273014260602
 30
0.0
 10
135.4912833395796
 20
159.3289108136992
 30
0.0
 10
135.4887178195771
 20
159.3305679541121
 30
0.0
 10
135.4861816310968
 20
159.3322724653779
 30
0.0
 10
135.4836454425869
 20
159.3339769766636
 30
0.0
 10
135.4811385855992
 20
159.3357288588044
 30
0.0
 10
135.478661638135
 20
159.3375277079205
 30
0.0
 10
135.4761846905573
 20
159.3393265571201
 30
0.0
 10
135.4737376525076
 20
159.3411723732993
 30
0.0
 10
135.4713210882743
 20
159.3430647308367
 30
0.0
 10
135.4689045238607
 20
159.3449570885158
 30
0.0
 10
135.4665184332699
 20
159.3468959875588
 30
0.0
 10
135.4641633668275
 20
159.3488809807868
 30
0.0
 10
135.4618083001502
 20
159.3508659742131
 30
0.0
 10
135.459484257627
 20
159.3528970618347
 30
0.0
 10
135.4571917753649
 20
159.3549737751261
 30
0.0
 10
135.4548992928248
 20
159.3570504886685
 30
0.0
 10
135.4526383705522
 20
159.3591728278929
 30
0.0
 10
135.4504095301751
 20
159.3613403031466
 30
0.0
 10
135.4481806894894
 20
159.363507778698
 30
0.0
 10
135.4459839307101
 20
159.3657203902927
 30
0.0
 10
135.4438197607449
 20
159.367977627375
 30
0.0
 10
135.4416555904544
 20
159.3702348647977
 30
0.0
 10
135.4395240089901
 20
159.3725367277219
 30
0.0
 10
135.4374255083042
 20
159.3748826849337
 30
0.0
 10
135.435327007284
 20
159.3772286425185
 30
0.0
 10
135.4332615870537
 20
159.3796186944029
 30
0.0
 10
135.4312297243816
 20
159.3820522889568
 30
0.0
 10
135.4291978613765
 20
159.3844858839089
 30
0.0
 10
135.4271995559393
 20
159.3869630215425
 30
0.0
 10
135.425235269429
 20
159.3894831300665
 30
0.0
 10
135.4232709825947
 20
159.3920032390066
 30
0.0
 10
135.4213407146996
 20
159.3945663188494
 30
0.0
 10
135.4194449114743
 20
159.3971717779081
 30
0.0
 10
135.417549107939
 20
159.3997772373897
 30
0.0
 10
135.415687769085
 20
159.4024250761001
 30
0.0
 10
135.4138613248089
 20
159.4051146827314
 30
0.0
 10
135.4120348802486
 20
159.4078042897854
 30
0.0
 10
135.4102433302733
 20
159.4105356647721
 30
0.0
 10
135.4084870887481
 20
159.4133081770466
 30
0.0
 10
135.4067308469617
 20
159.4160806897305
 30
0.0
 10
135.4050099136344
 20
159.4188943397152
 30
0.0
 10
135.4033246863918
 20
159.4217484773123
 30
0.0
 10
135.4016394589214
 20
159.4246026152934
 30
0.0
 10
135.3999899375459
 20
159.4274972408975
 30
0.0
 10
135.398376503473
 20
159.4304316856932
 30
0.0
 10
135.3967630692084
 20
159.4333661308396
 30
0.0
 10
135.3951857222553
 20
159.4363403951867
 30
0.0
 10
135.3936448272242
 20
159.4393537918719
 30
0.0
 10
135.3921039320377
 20
159.4423671888604
 30
0.0
 10
135.3905994887808
 20
159.4454197181955
 30
0.0
 10
135.3891318452934
 20
159.4485106749004
 30
0.0
 10
135.3876642016899
 20
159.4516016318494
 30
0.0
 10
135.3862333578624
 20
159.4547310161744
 30
0.0
 10
135.3848396447158
 20
159.4578981051157
 30
0.0
 10
135.3834459314948
 20
159.4610651942277
 30
0.0
 10
135.3820893489598
 20
159.4642699879603
 30
0.0
 10
135.3807702109262
 20
159.4675117460992
 30
0.0
 10
135.3794510728572
 20
159.4707535043255
 30
0.0
 10
135.378169379294
 20
159.4740322269616
 30
0.0
 10
135.3769254268138
 20
159.4773471566908
 30
0.0
 10
135.3756814743381
 20
159.4806620864093
 30
0.0
 10
135.3744752629454
 20
159.4840132232197
 30
0.0
 10
135.3733070718313
 20
159.487399793045
 30
0.0
 10
135.3721388807596
 20
159.4907863627518
 30
0.0
 10
135.3710087099619
 20
159.4942083654692
 30
0.0
 10
135.369916821154
 20
159.4976650107456
 30
0.0
 10
135.3688249324238
 20
159.5011216557811
 30
0.0
 10
135.3677713256775
 20
159.5046129433707
 30
0.0
 10
135.3667562448769
 20
159.508138066954
 30
0.0
 10
135.3657411641823
 20
159.5116631901633
 30
0.0
 10
135.3647646094245
 20
159.5152221493604
 30
0.0
 10
135.3638268072675
 20
159.5188141226162
 30
0.0
 10
135.3628890052459
 20
159.5224060953516
 30
0.0
 10
135.3619899558138
 20
159.526031082138
 30
0.0
 10
135.3611298660729
 20
159.5296882447061
 30
0.0
 10
135.3602697764899
 20
159.5333454065955
 30
0.0
 10
135.3594486465834
 20
159.5370347442562
 30
0.0
 10
135.3586666718645
 20
159.5407554085154
 30
0.0
 10
135.3578846973265
 20
159.5444760719268
 30
0.0
 10
135.357141877958
 20
159.548228061925
 30
0.0
 10
135.3564383674447
 20
159.552010499989
 30
0.0
 10
135.355734857122
 20
159.5557929370231
 30
0.0
 10
135.3550706556294
 20
159.5596058221075
 30
0.0
 10
135.354445987287
 20
159.563448318095
 30
0.0
 10
135.3538213191422
 20
159.5672908128629
 30
0.0
 10
135.3532361841226
 20
159.5711629185148
 30
0.0
 10
135.3526904570498
 20
159.5750635772478
 30
0.0
 10
135.3521447301761
 20
159.5789642345617
 30
0.0
 10
135.3516384112224
 20
159.5828934449363
 30
0.0
 10
135.3511725931183
 20
159.586850909756
 30
0.0
 10
135.350706775206
 20
159.5908083729454
 30
0.0
 10
135.3502814581101
 20
159.5947940905558
 30
0.0
 10
135.349893102214
 20
159.5988048683169
 30
0.0
 10
135.3495047464943
 20
159.6028156442296
 30
0.0
 10
135.3491533519412
 20
159.6068514802711
 30
0.0
 10
135.3488525810394
 20
159.6109199285483
 30
0.0
 10
135.3485518102903
 20
159.6149883747481
 30
0.0
 10
135.3483016631413
 20
159.6190894331515
 30
0.0
 10
135.3480515159928
 20
159.6231904915556
 30
0.0
  0
SPLINE
  5
1F0
330
70
100
AcDbEntity
  8
Isometric$4
 62
     7
370
    35
100
AcDbSpline
210
0.0
220
0.0
230
1.0
 70
     8
 71
     3
 72
    14
 73
    10
 74
     0
 42
0.0000000001
 43
0.0000000001
 40
0.0
 40
0.0
 40
0.0
 40
0.0
 40
1.0
 40
1.0
 40
1.0
 40
2.0
 40
2.0
 40
2.0
 40
3.0
 40
3.0
 40
3.0
 40
3.0
 10
41.96540100811636
 20
155.2255635896748
 30
0.0
 10
41.96522995060459
 20
155.2200773931757
 30
0.0
 10
41.96514463699066
 20
155.2145911966769
 30
0.0
 10
41.96514463699869
 20
155.2091050001784
 30
0.0
 10
41.9651446371575
 20
155.0988287384648
 30
0.0
 10
41.9996145142577
 20
154.9885524767665
 30
0.0
 10
42.07204872084034
 20
154.8782762150859
 30
0.0
 10
42.14448166830424
 20
154.7680018703295
 30
0.0
 10
42.2548776253995
 20
154.6577275255922
 30
0.0
 10
42.44991668365641
 20
154.5474531808932
 30
0.0
  0
SPLINE
  5
1F1
330
70
100
AcDbEntity
  8
Isometric$4
 62
     7
370
    35
100
AcDbSpline
210
0.0
220
0.0
230
1.0
 70
     8
 71
     3
 72
    17
 73
    13
 74
     0
 42
0.0000000001
 43
0.0000000001
 40
0.0
 40
0.0
 40
0.0
 40
0.0
 40
1.0
 40
1.0
 40
1.0
 40
2.0
 40
2.0
 40
2.0
 40
3.0
 40
3.0
 40
3.0
 40
4.0
 40
4.0
 40
4.0
 40
4.0
 10
125.6318525398344
 20
155.9640049273074
 30
0.0
 10
125.631642974443
 20
155.9505572688393
 30
0.0
 10
125.6292723691608
 20
155.9371632320555
 30
0.0
 10
125.6247804450313
 20
155.9240572984421
 30
0.0
 10
125.6200780905385
 20
155.9103373993432
 30
0.0
 10
125.6130512421419
 20
155.8969339073641
 30
0.0
 10
125.6038345745837
 20
155.8841037103379
 30
0.0
 10
125.5946179070274
 20
155.8712735133134
 30
0.0
 10
125.5832118761116
 20
155.8590172457469
 30
0.0
 10
125.5698350868555
 20
155.8475698080698
 30
0.0
 10
125.5564582975994
 20
155.8361223703935
 30
0.0
 10
125.5411114115384
 20
155.8254843287286
 30
0.0
 10
125.5240885630912
 20
155.8158595690105
 30
0.0
  0
SPLINE
  5
1F2
330
70
100
AcDbEntity
  8
Isometric$4
 62
     7
370
    35
100
AcDbSpline
210
0.0
220
0.0
230
1.0
 70
     8
 71
     3
 72
    62
 73
    58
 74
     0
 42
0.0000000001
 43
0.0000000001
 40
0.0
 40
0.0
 40
0.0
 40
0.0
 40
1.0
 40
1.0
 40
1.0
 40
2.0
 40
2.0
 40
2.0
 40
3.0
 40
3.0
 40
3.0
 40
4.0
 40
4.0
 40
4.0
 40
5.0
 40
5.0
 40
5.0
 40
6.0
 40
6.0
 40
6.0
 40
7.0
 40
7.0
 40
7.0
 40
8.0
 40
8.0
 40
8.0
 40
9.0
 40
9.0
 40
9.0
 40
10.0
 40
10.0
 40
10.0
 40
11.0
 40
11.0
 40
11.0
 40
12.0
 40
12.0
 40
12.0
 40
13.0
 40
13.0
 40
13.0
 40
14.0
 40
14.0
 40
14.0
 40
15.0
 40
15.0
 40
15.0
 40
16.0
 40
16.0
 40
16.0
 40
17.0
 40
17.0
 40
17.0
 40
18.0
 40
18.0
 40
18.0
 40
19.0
 40
19.0
 40
19.0
 40
19.0
 10
120.2498261956655
 20
150.867242681828
 30
0.0
 10
120.2496196900709
 20
150.8471294173837
 30
0.0
 10
120.249413184477
 20
150.8270161529391
 30
0.0
 10
120.2498101193874
 20
150.8072713251662
 30
0.0
 10
120.2502070546155
 20
150.7875264816351
 30
0.0
 10
120.2512074313112
 20
150.7681500753633
 30
0.0
 10
120.252648274226
 20
150.7490773497094
 30
0.0
 10
120.2540891178389
 20
150.7300046148068
 30
0.0
 10
120.2559704280996
 20
150.7112355608174
 30
0.0
 10
120.2583329360852
 20
150.6928204007518
 30
0.0
 10
120.2606954445257
 20
150.6744052371571
 30
0.0
 10
120.2635391508753
 20
150.6563439676232
 30
0.0
 10
120.2668485562123
 20
150.6386548049166
 30
0.0
 10
120.2701579613099
 20
150.6209656434828
 30
0.0
 10
120.2739330653283
 20
150.6036485888231
 30
0.0
 10
120.2781718012674
 20
150.5867291471194
 30
0.0
 10
120.2824105359534
 20
150.5698097104244
 30
0.0
 10
120.2871129022867
 20
150.5532878864506
 30
0.0
 10
120.292271615102
 20
150.5371858636375
 30
0.0
 10
120.2974303254878
 20
150.5210838484151
 30
0.0
 10
120.303045381925
 20
150.5054016339582
 30
0.0
 10
120.3091093020152
 20
150.4901608524572
 30
0.0
 10
120.3151732185377
 20
150.474920079926
 30
0.0
 10
120.3216859981858
 20
150.4601207398299
 30
0.0
 10
120.3286386312451
 20
150.4457831019836
 30
0.0
 10
120.335591259862
 20
150.431445473295
 30
0.0
 10
120.3429837413299
 20
150.4175695462676
 30
0.0
 10
120.3508059623758
 20
150.4041743391768
 30
0.0
 10
120.3586281786217
 20
150.3907791403049
 30
0.0
 10
120.3668801339194
 20
150.3778646607799
 30
0.0
 10
120.3755503912612
 20
150.3654486980746
 30
0.0
 10
120.3842206442258
 20
150.3530327416355
 30
0.0
 10
120.3933091988123
 20
150.3411153015124
 30
0.0
 10
120.4028039160184
 20
150.3297124096375
 30
0.0
 10
120.412298630331
 20
150.3183095212386
 30
0.0
 10
120.4221995070163
 20
150.3074211807752
 30
0.0
 10
120.4324916225922
 20
150.2970635137454
 30
0.0
 10
120.43778280993
 20
150.2917386263374
 30
0.0
 10
120.4431774016591
 20
150.2865539958562
 30
0.0
 10
120.4486737465737
 20
150.2815111256782
 30
0.0
 10
120.4541700910365
 20
150.2764682559166
 30
0.0
 10
120.4597681886675
 20
150.2715671464374
 30
0.0
 10
120.4654659305817
 20
150.2668096712488
 30
0.0
 10
120.4711636716797
 20
150.2620521967408
 30
0.0
 10
120.4769610570321
 20
150.2574383564815
 30
0.0
 10
120.4828560078055
 20
150.2529697937912
 30
0.0
 10
120.4887509574546
 20
150.2485012319538
 30
0.0
 10
120.4947434724881
 20
150.244177947628
 30
0.0
 10
120.5008313753465
 20
150.2400015130326
 30
0.0
 10
120.5069192768362
 20
150.2358250793753
 30
0.0
 10
120.5131025661071
 20
150.2317954953822
 30
0.0
 10
120.5193790033473
 20
150.2279142179635
 30
0.0
 10
120.5256554390506
 20
150.2240329414962
 30
0.0
 10
120.5320250226777
 20
150.2202999715304
 30
0.0
 10
120.5384854444276
 20
150.2167166601753
 30
0.0
 10
120.5392067864045
 20
150.2163165635563
 30
0.0
 10
120.5399292608576
 20
150.2159183327263
 30
0.0
 10
120.5406528644784
 20
150.2155219694147
 30
0.0
  0
SPLINE
  5
1F3
330
70
100
AcDbEntity
  8
Isometric$4
 62
     7
370
    35
100
AcDbSpline
210
0.0
220
0.0
230
1.0
 70
     8
 71
     3
 72
    29
 73
    25
 74
     0
 42
0.0000000001
 43
0.0000000001
 40
0.0
 40
0.0
 40
0.0
 40
0.0
 40
1.0
 40
1.0
 40
1.0
 40
2.0
 40
2.0
 40
2.0
 40
3.0
 40
3.0
 40
3.0
 40
4.0
 40
4.0
 40
4.0
 40
5.0
 40
5.0
 40
5.0
 40
6.0
 40
6.0
 40
6.0
 40
7.0
 40
7.0
 40
7.0
 40
8.0
 40
8.0
 40
8.0
 40
8.0
 10
120.842469172315
 20
153.1688606986757
 30
0.0
 10
120.8254463238171
 20
153.1592359390071
 30
0.0
 10
120.8067483547916
 20
153.1506249372693
 30
0.0
 10
120.7867336256399
 20
153.1431927296788
 30
0.0
 10
120.7667188964895
 20
153.1357605220887
 30
0.0
 10
120.7453883970222
 20
153.1295074761973
 30
0.0
 10
120.7231509420324
 20
153.124553436254
 30
0.0
 10
120.700913487044
 20
153.1195993963104
 30
0.0
 10
120.6777701762615
 20
153.1159446073123
 30
0.0
 10
120.6541645683557
 20
153.1136591159916
 30
0.0
 10
120.6305589604494
 20
153.1113736246715
 30
0.0
 10
120.6064922228069
 20
153.1104575440569
 30
0.0
 10
120.5824256122536
 20
153.1109284315093
 30
0.0
 10
120.5583590017003
 20
153.111399318962
 30
0.0
 10
120.5342937084235
 20
153.1132571511948
 30
0.0
 10
120.5106909615689
 20
153.1164663214798
 30
0.0
 10
120.4870882147117
 20
153.1196754917636
 30
0.0
 10
120.4639491815239
 20
153.1242358413936
 30
0.0
 10
120.441717338687
 20
153.130059967897
 30
0.0
 10
120.4194854958488
 20
153.1358840943993
 30
0.0
 10
120.3981619428147
 20
153.1429717097484
 30
0.0
 10
120.378155361247
 20
153.1511869745544
 30
0.0
 10
120.3581487796787
 20
153.1594022393613
 30
0.0
 10
120.3394601589793
 20
153.1687447473468
 30
0.0
 10
120.3224476803873
 20
153.1790354424379
 30
0.0
  0
SPLINE
  5
1F4
330
70
100
AcDbEntity
  8
Isometric$4
 62
     7
370
    35
100
AcDbSpline
210
0.0
220
0.0
230
1.0
 70
     8
 71
     3
 72
   110
 73
   106
 74
     0
 42
0.0000000001
 43
0.0000000001
 40
0.0
 40
0.0
 40
0.0
 40
0.0
 40
1.0
 40
1.0
 40
1.0
 40
2.0
 40
2.0
 40
2.0
 40
3.0
 40
3.0
 40
3.0
 40
4.0
 40
4.0
 40
4.0
 40
5.0
 40
5.0
 40
5.0
 40
6.0
 40
6.0
 40
6.0
 40
7.0
 40
7.0
 40
7.0
 40
8.0
 40
8.0
 40
8.0
 40
9.0
 40
9.0
 40
9.0
 40
10.0
 40
10.0
 40
10.0
 40
11.0
 40
11.0
 40
11.0
 40
12.0
 40
12.0
 40
12.0
 40
13.0
 40
13.0
 40
13.0
 40
14.0
 40
14.0
 40
14.0
 40
15.0
 40
15.0
 40
15.0
 40
16.0
 40
16.0
 40
16.0
 40
17.0
 40
17.0
 40
17.0
 40
18.0
 40
18.0
 40
18.0
 40
19.0
 40
19.0
 40
19.0
 40
20.0
 40
20.0
 40
20.0
 40
21.0
 40
21.0
 40
21.0
 40
22.0
 40
22.0
 40
22.0
 40
23.0
 40
23.0
 40
23.0
 40
24.0
 40
24.0
 40
24.0
 40
25.0
 40
25.0
 40
25.0
 40
26.0
 40
26.0
 40
26.0
 40
27.0
 40
27.0
 40
27.0
 40
28.0
 40
28.0
 40
28.0
 40
29.0
 40
29.0
 40
29.0
 40
30.0
 40
30.0
 40
30.0
 40
31.0
 40
31.0
 40
31.0
 40
32.0
 40
32.0
 40
32.0
 40
33.0
 40
33.0
 40
33.0
 40
34.0
 40
34.0
 40
34.0
 40
35.0
 40
35.0
 40
35.0
 40
35.0
 10
100.1307124794966
 20
139.322387641489
 30
0.0
 10
100.1303112113956
 20
139.3226138021558
 30
0.0
 10
100.129910581628
 20
139.3228410591782
 30
0.0
 10
100.1295105923126
 20
139.3230694113967
 30
0.0
 10
100.1268594565531
 20
139.324582933658
 30
0.0
 10
100.1242364562472
 20
139.3261445685613
 30
0.0
 10
100.1216421960598
 20
139.3277539562417
 30
0.0
 10
100.1190479359398
 20
139.3293633438797
 30
0.0
 10
100.116482415937
 20
139.3310204842936
 30
0.0
 10
100.113946227457
 20
139.3327249955587
 30
0.0
 10
100.1114100389475
 20
139.3344295068451
 30
0.0
 10
100.1089031819594
 20
139.3361813889853
 30
0.0
 10
100.1064262344956
 20
139.3379802381017
 30
0.0
 10
100.1039492869179
 20
139.3397790873009
 30
0.0
 10
100.1015022488679
 20
139.3416249034808
 30
0.0
 10
100.0990856846349
 20
139.3435172610178
 30
0.0
 10
100.0966691202216
 20
139.3454096186967
 30
0.0
 10
100.0942830296302
 20
139.3473485177397
 30
0.0
 10
100.091927963188
 20
139.349333510968
 30
0.0
 10
100.0895728965114
 20
139.351318504394
 30
0.0
 10
100.0872488539879
 20
139.3533495920149
 30
0.0
 10
100.0849563717254
 20
139.355426305307
 30
0.0
 10
100.0826638891851
 20
139.35750301885
 30
0.0
 10
100.0804029669131
 20
139.3596253580751
 30
0.0
 10
100.0781741265344
 20
139.3617928333275
 30
0.0
 10
100.07594528585
 20
139.3639603088788
 30
0.0
 10
100.0737485270704
 20
139.3661729204735
 30
0.0
 10
100.0715843571052
 20
139.3684301575559
 30
0.0
 10
100.0694201868146
 20
139.3706873949789
 30
0.0
 10
100.0672886053503
 20
139.3729892579031
 30
0.0
 10
100.0651901046644
 20
139.3753352151145
 30
0.0
 10
100.0630916036445
 20
139.3776811726987
 30
0.0
 10
100.0610261834133
 20
139.3800712245837
 30
0.0
 10
100.0589943207419
 20
139.3825048191367
 30
0.0
 10
100.0569624577365
 20
139.3849384140901
 30
0.0
 10
100.0549641522989
 20
139.3874155517237
 30
0.0
 10
100.0529998657893
 20
139.389935660247
 30
0.0
 10
100.0510355789547
 20
139.3924557691869
 30
0.0
 10
100.0491053110589
 20
139.3950188490306
 30
0.0
 10
100.0472095078329
 20
139.397624308088
 30
0.0
 10
100.0453137042995
 20
139.4002297675708
 30
0.0
 10
100.0434523654459
 20
139.4028776062816
 30
0.0
 10
100.0416259211695
 20
139.4055672129133
 30
0.0
 10
100.0397994766066
 20
139.4082568199666
 30
0.0
 10
100.0380079266339
 20
139.410988194953
 30
0.0
 10
100.0362516851077
 20
139.4137607072275
 30
0.0
 10
100.0344954433213
 20
139.4165332199113
 30
0.0
 10
100.0327745099943
 20
139.4193468698961
 30
0.0
 10
100.0310892827523
 20
139.4222010074928
 30
0.0
 10
100.0294040552819
 20
139.4250551454746
 30
0.0
 10
100.0277545339064
 20
139.4279497710786
 30
0.0
 10
100.0261410998339
 20
139.4308842158741
 30
0.0
 10
100.0245276655689
 20
139.4338186610198
 30
0.0
 10
100.0229503186156
 20
139.4367929253679
 30
0.0
 10
100.0214094235847
 20
139.4398063220531
 30
0.0
 10
100.019868528398
 20
139.4428197190413
 30
0.0
 10
100.0183640851404
 20
139.4458722483763
 30
0.0
 10
100.0168964416537
 20
139.4489632050812
 30
0.0
 10
100.0154287980505
 20
139.45205416203
 30
0.0
 10
100.0139979542223
 20
139.4551835463556
 30
0.0
 10
100.0126042410761
 20
139.4583506352966
 30
0.0
 10
100.0112105278554
 20
139.4615177244095
 30
0.0
 10
100.0098539453185
 20
139.4647225181402
 30
0.0
 10
100.0085348072867
 20
139.46796427628
 30
0.0
 10
100.0072156692171
 20
139.4712060345064
 30
0.0
 10
100.0059339756536
 20
139.4744847571424
 30
0.0
 10
100.0046900231737
 20
139.4777996868709
 30
0.0
 10
100.0034460706977
 20
139.4811146165898
 30
0.0
 10
100.0022398593057
 20
139.4844657534006
 30
0.0
 10
100.0010716681919
 20
139.4878523232261
 30
0.0
 10
99.99990347711957
 20
139.4912388929329
 30
0.0
 10
99.99877330632125
 20
139.4946608956494
 30
0.0
 10
99.99768141751463
 20
139.4981175409268
 30
0.0
 10
99.99658952878341
 20
139.5015741859616
 30
0.0
 10
99.99553592203808
 20
139.5050654735516
 30
0.0
 10
99.99452084123563
 20
139.5085905971349
 30
0.0
 10
99.9935057605426
 20
139.5121157203441
 30
0.0
 10
99.99252920578408
 20
139.5156746795409
 30
0.0
 10
99.9915914036268
 20
139.5192666527974
 30
0.0
 10
99.99065360160654
 20
139.5228586255322
 30
0.0
 10
99.98975455217404
 20
139.5264836123189
 30
0.0
 10
99.9888944624322
 20
139.5301407748869
 30
0.0
 10
99.98803437285017
 20
139.5337979367766
 30
0.0
 10
99.98721324294244
 20
139.5374872744361
 30
0.0
 10
99.98643126822507
 20
139.5412079386965
 30
0.0
 10
99.98564929368516
 20
139.544928602108
 30
0.0
 10
99.98490647431797
 20
139.5486805921052
 30
0.0
 10
99.98420296380466
 20
139.5524630301692
 30
0.0
 10
99.98349945348099
 20
139.556245467204
 30
0.0
 10
99.98283525199001
 20
139.5600583522896
 30
0.0
 10
99.98221058364693
 20
139.5639008482758
 30
0.0
 10
99.98158591550248
 20
139.5677433430441
 30
0.0
 10
99.98100078048153
 20
139.5716154486956
 30
0.0
 10
99.98045505341046
 20
139.5755161074287
 30
0.0
 10
99.97990932653607
 20
139.5794167647429
 30
0.0
 10
99.97940300758298
 20
139.5833459751175
 30
0.0
 10
99.97893718947887
 20
139.5873034399371
 30
0.0
 10
99.97847137156664
 20
139.5912609031256
 30
0.0
 10
99.97804605447035
 20
139.5952466207354
 30
0.0
 10
99.97765769857297
 20
139.5992573984977
 30
0.0
 10
99.97726934285525
 20
139.6032681744108
 30
0.0
 10
99.97691794830117
 20
139.6073040104513
 30
0.0
 10
99.97661717739809
 20
139.6113724587292
 30
0.0
 10
99.97631640664966
 20
139.6154409049293
 30
0.0
 10
99.97606625950188
 20
139.6195419633327
 30
0.0
 10
99.97581611235249
 20
139.6236430217355
 30
0.0
  0
SPLINE
  5
1F5
330
70
100
AcDbEntity
  8
Isometric$4
 62
     7
370
    35
100
AcDbSpline
210
0.0
220
0.0
230
1.0
 70
     8
 71
     3
 72
    17
 73
    13
 74
     0
 42
0.0000000001
 43
0.0000000001
 40
0.0
 40
0.0
 40
0.0
 40
0.0
 40
1.0
 40
1.0
 40
1.0
 40
2.0
 40
2.0
 40
2.0
 40
3.0
 40
3.0
 40
3.0
 40
4.0
 40
4.0
 40
4.0
 40
4.0
 10
69.47378874097458
 20
139.2680905434635
 30
0.0
 10
69.66882582712864
 20
139.1578151330394
 30
0.0
 10
69.8638629132272
 20
139.0953970209591
 30
0.0
 10
70.05889999930073
 20
139.0544433301156
 30
0.0
 10
70.25393980172449
 20
139.0134890688961
 30
0.0
 10
70.44897960412352
 20
138.9939998268003
 30
0.0
 10
70.64401940649947
 20
138.9939998268728
 30
0.0
 10
70.83905920887572
 20
138.993999826946
 30
0.0
 10
71.0340990112292
 20
139.0134890691861
 30
0.0
 10
71.22913881355829
 20
139.0544433305507
 30
0.0
 10
71.42417589906168
 20
139.0953970214404
 30
0.0
 10
71.61921298454068
 20
139.1578151334616
 30
0.0
 10
71.81425006996384
 20
139.2680905435289
 30
0.0
  0
SPLINE
  5
1F6
330
70
100
AcDbEntity
  8
Isometric$4
 62
     7
370
    35
100
AcDbSpline
210
0.0
220
0.0
230
1.0
 70
     8
 71
     3
 72
    17
 73
    13
 74
     0
 42
0.0000000001
 43
0.0000000001
 40
0.0
 40
0.0
 40
0.0
 40
0.0
 40
1.0
 40
1.0
 40
1.0
 40
2.0
 40
2.0
 40
2.0
 40
3.0
 40
3.0
 40
3.0
 40
4.0
 40
4.0
 40
4.0
 40
4.0
 10
119.4970937565908
 20
152.6841827642408
 30
0.0
 10
119.5048043036024
 20
152.5726632171997
 30
0.0
 10
119.513734804199
 20
152.4620965469729
 30
0.0
 10
119.5336335549411
 20
152.3600969168283
 30
0.0
 10
119.5560223121784
 20
152.2453336843479
 30
0.0
 10
119.5922960634391
 20
152.1414156914257
 30
0.0
 10
119.6379978536627
 20
152.0477985904162
 30
0.0
 10
119.6836991248724
 20
151.9541825525631
 30
0.0
 10
119.7388282209061
 20
151.8708671726603
 30
0.0
 10
119.8037876087206
 20
151.7998025926889
 30
0.0
 10
119.8146292271707
 20
151.7879420273825
 30
0.0
 10
119.8257446691742
 20
151.7764227090747
 30
0.0
 10
119.8371264350224
 20
151.7652487103455
 30
0.0
  0
SPLINE
  5
1F7
330
70
100
AcDbEntity
  8
Isometric$4
 62
     7
370
    35
100
AcDbSpline
210
0.0
220
0.0
230
1.0
 70
     8
 71
     3
 72
    11
 73
     7
 74
     0
 42
0.0000000001
 43
0.0000000001
 40
0.0
 40
0.0
 40
0.0
 40
0.0
 40
1.0
 40
1.0
 40
1.0
 40
2.0
 40
2.0
 40
2.0
 40
2.0
 10
122.8312007821272
 20
152.4921133368067
 30
0.0
 10
122.7942967841618
 20
152.5131079493343
 30
0.0
 10
122.7653014102545
 20
152.5468631175924
 30
0.0
 10
122.7460936555282
 20
152.5905240285062
 30
0.0
 10
122.7267097426905
 20
152.6345853622587
 30
0.0
 10
122.7172938006561
 20
152.688734966891
 30
0.0
 10
122.7197769980392
 20
152.7500387605959
 30
0.0
  0
SPLINE
  5
1F8
330
70
100
AcDbEntity
  8
Isometric$4
 62
     7
370
    35
100
AcDbSpline
210
0.0
220
0.0
230
1.0
 70
     8
 71
     3
 72
     8
 73
     4
 74
     0
 42
0.0000000001
 43
0.0000000001
 40
0.0
 40
0.0
 40
0.0
 40
0.0
 40
1.0
 40
1.0
 40
1.0
 40
1.0
 10
120.8265456814192
 20
153.4360763619256
 30
0.0
 10
120.8402568680987
 20
153.3528572969228
 30
0.0
 10
120.8457222125923
 20
153.2632014833008
 30
0.0
 10
120.8424583315881
 20
153.1685157835587
 30
0.0
  0
SPLINE
  5
1F9
330
70
100
AcDbEntity
  8
Isometric$4
 62
     7
370
    35
100
AcDbSpline
210
0.0
220
0.0
230
1.0
 70
     8
 71
     3
 72
     8
 73
     4
 74
     0
 42
0.0000000001
 43
0.0000000001
 40
0.0
 40
0.0
 40
0.0
 40
0.0
 40
1.0
 40
1.0
 40
1.0
 40
1.0
 10
125.5240775814343
 20
155.8155101695103
 30
0.0
 10
125.5267553062736
 20
155.9098645166567
 30
0.0
 10
125.5381560635116
 20
156.0090566040724
 30
0.0
 10
125.5576890420723
 20
156.1110721798719
 30
0.0
  0
SPLINE
  5
1FA
330
70
100
AcDbEntity
  8
Isometric$4
 62
     7
370
    35
100
AcDbSpline
210
0.0
220
0.0
230
1.0
 70
     8
 71
     3
 72
    32
 73
    28
 74
     0
 42
0.0000000001
 43
0.0000000001
 40
0.0
 40
0.0
 40
0.0
 40
0.0
 40
1.0
 40
1.0
 40
1.0
 40
2.0
 40
2.0
 40
2.0
 40
3.0
 40
3.0
 40
3.0
 40
4.0
 40
4.0
 40
4.0
 40
5.0
 40
5.0
 40
5.0
 40
6.0
 40
6.0
 40
6.0
 40
7.0
 40
7.0
 40
7.0
 40
8.0
 40
8.0
 40
8.0
 40
9.0
 40
9.0
 40
9.0
 40
9.0
 10
134.6242241532441
 20
148.1346455802561
 30
0.0
 10
134.6114680253903
 20
148.1424404173466
 30
0.0
 10
134.5987118975359
 20
148.1502352544359
 30
0.0
 10
134.5862249968653
 20
148.1591503670562
 30
0.0
 10
134.5737385911519
 20
148.1680651262978
 30
0.0
 10
134.5615213912807
 20
148.1781000722611
 30
0.0
 10
134.5495954680404
 20
148.1889059807885
 30
0.0
 10
134.5252657605536
 20
148.2109507808683
 30
0.0
 10
134.502148312018
 20
148.2362042361113
 30
0.0
 10
134.4809900812113
 20
148.2640718604275
 30
0.0
 10
134.4598305060554
 20
148.2919412553924
 30
0.0
 10
134.4406303976044
 20
148.3224251516377
 30
0.0
 10
134.4238349079762
 20
148.3545178383825
 30
0.0
 10
134.4070408994978
 20
148.3866076949605
 30
0.0
 10
134.3926510857459
 20
148.4203060582996
 30
0.0
 10
134.380990812506
 20
148.4547257720449
 30
0.0
 10
134.3634525564951
 20
148.5064965787008
 30
0.0
 10
134.3520894133504
 20
148.559899315769
 30
0.0
 10
134.3475484689566
 20
148.6112821101996
 30
0.0
 10
134.343007654
 20
148.6626634399968
 30
0.0
 10
134.3452886488759
 20
148.7120249423077
 30
0.0
 10
134.3542159210261
 20
148.7562233177058
 30
0.0
 10
134.3631292042676
 20
148.8003524348748
 30
0.0
 10
134.3786679518577
 20
148.8393345935454
 30
0.0
 10
134.4000900331091
 20
148.8706480900997
 30
0.0
 10
134.4183612304154
 20
148.8973558159832
 30
0.0
 10
134.4409123331218
 20
148.918484876727
 30
0.0
 10
134.4665890772466
 20
148.9330570612115
 30
0.0
  0
SPLINE
  5
1FB
330
70
100
AcDbEntity
  8
Isometric$4
 62
     7
370
    35
100
AcDbSpline
210
0.0
220
0.0
230
1.0
 70
     8
 71
     3
 72
    32
 73
    28
 74
     0
 42
0.0000000001
 43
0.0000000001
 40
0.0
 40
0.0
 40
0.0
 40
0.0
 40
1.0
 40
1.0
 40
1.0
 40
2.0
 40
2.0
 40
2.0
 40
3.0
 40
3.0
 40
3.0
 40
4.0
 40
4.0
 40
4.0
 40
5.0
 40
5.0
 40
5.0
 40
6.0
 40
6.0
 40
6.0
 40
7.0
 40
7.0
 40
7.0
 40
8.0
 40
8.0
 40
8.0
 40
9.0
 40
9.0
 40
9.0
 40
9.0
 10
134.8702719692195
 20
148.1215001425179
 30
0.0
 10
134.8655400015494
 20
148.1188163443098
 30
0.0
 10
134.860715296061
 20
148.1163259657639
 30
0.0
 10
134.8558053087227
 20
148.1140348819276
 30
0.0
 10
134.8473692584153
 20
148.110098476969
 30
0.0
 10
134.8386814553753
 20
148.1067503916522
 30
0.0
 10
134.8297672710344
 20
148.1039880973087
 30
0.0
 10
134.8208527757023
 20
148.1012257065968
 30
0.0
 10
134.8117118832728
 20
148.099049147732
 30
0.0
 10
134.8023889467152
 20
148.097476431106
 30
0.0
 10
134.7930659834476
 20
148.0959037099759
 30
0.0
 10
134.7835609750098
 20
148.0949348345434
 30
0.0
 10
134.773915732302
 20
148.0945771007147
 30
0.0
 10
134.7642706412887
 20
148.0942193725119
 30
0.0
 10
134.7544853204176
 20
148.0944727666869
 30
0.0
 10
134.7446017976288
 20
148.0953352520007
 30
0.0
 10
134.7347188644606
 20
148.0961976858617
 30
0.0
 10
134.7247377410928
 20
148.097669138189
 30
0.0
 10
134.7147050584058
 20
148.0997596515007
 30
0.0
 10
134.7046731059679
 20
148.1018500126501
 30
0.0
 10
134.6945896017168
 20
148.1045593446675
 30
0.0
 10
134.6844925494227
 20
148.1078272511999
 30
0.0
 10
134.6743959573802
 20
148.1110950087735
 30
0.0
 10
134.6642858185301
 20
148.1149212899419
 30
0.0
 10
134.6542389507073
 20
148.1194840308756
 30
0.0
 10
134.6441918362352
 20
148.124046883823
 30
0.0
 10
134.634207995897
 20
148.1293462326934
 30
0.0
 10
134.6242241555587
 20
148.1346455815651
 30
0.0
  0
SPLINE
  5
1FC
330
70
100
AcDbEntity
  8
Isometric$4
 62
     7
370
    35
100
AcDbSpline
210
0.0
220
0.0
230
1.0
 70
     8
 71
     3
 72
    56
 73
    52
 74
     0
 42
0.0000000001
 43
0.0000000001
 40
0.0
 40
0.0
 40
0.0
 40
0.0
 40
1.0
 40
1.0
 40
1.0
 40
2.0
 40
2.0
 40
2.0
 40
3.0
 40
3.0
 40
3.0
 40
4.0
 40
4.0
 40
4.0
 40
5.0
 40
5.0
 40
5.0
 40
6.0
 40
6.0
 40
6.0
 40
7.0
 40
7.0
 40
7.0
 40
8.0
 40
8.0
 40
8.0
 40
9.0
 40
9.0
 40
9.0
 40
10.0
 40
10.0
 40
10.0
 40
11.0
 40
11.0
 40
11.0
 40
12.0
 40
12.0
 40
12.0
 40
13.0
 40
13.0
 40
13.0
 40
14.0
 40
14.0
 40
14.0
 40
15.0
 40
15.0
 40
15.0
 40
16.0
 40
16.0
 40
16.0
 40
17.0
 40
17.0
 40
17.0
 40
17.0
 10
134.6254516042082
 20
148.8706175959893
 30
0.0
 10
134.6383800287238
 20
148.862782114149
 30
0.0
 10
134.6513084532414
 20
148.8549466323091
 30
0.0
 10
134.66407104245
 20
148.8460122473479
 30
0.0
 10
134.6768313024073
 20
148.8370794929667
 30
0.0
 10
134.6894257875841
 20
148.8270482365405
 30
0.0
 10
134.7017974629797
 20
148.8162765641424
 30
0.0
 10
134.7266803347264
 20
148.7946117423468
 30
0.0
 10
134.750661888115
 20
148.769951762477
 30
0.0
 10
134.7729173637772
 20
148.7427700909867
 30
0.0
 10
134.7951735625636
 20
148.7155875363102
 30
0.0
 10
134.8157035714551
 20
148.6858831261413
 30
0.0
 10
134.8338801930529
 20
148.6545750543248
 30
0.0
 10
134.85205573292
 20
148.6232688457188
 30
0.0
 10
134.8678781655948
 20
148.5903591663368
 30
0.0
 10
134.8808349645443
 20
148.5566603049513
 30
0.0
 10
134.9004431020889
 20
148.5056622218874
 30
0.0
 10
134.9134883072585
 20
148.4528567382274
 30
0.0
 10
134.918889187318
 20
148.4018276856914
 30
0.0
 10
134.9242904033127
 20
148.3507954591438
 30
0.0
 10
134.9220463432121
 20
148.3015398847159
 30
0.0
 10
134.9123868162471
 20
148.257148631546
 30
0.0
 10
134.9027077059269
 20
148.2126673812502
 30
0.0
 10
134.8855830305977
 20
148.1730701956823
 30
0.0
 10
134.8621447149348
 20
148.1409168326656
 30
0.0
 10
134.8387081468237
 20
148.1087658669902
 30
0.0
 10
134.8089588798298
 20
148.0840576138907
 30
0.0
 10
134.7752769561653
 20
148.0686549508704
 30
0.0
 10
134.7668577481084
 20
148.0648048671909
 30
0.0
 10
134.758192823312
 20
148.0615362070728
 30
0.0
 10
134.7493077714042
 20
148.0588447566383
 30
0.0
 10
134.740422504182
 20
148.0561532409808
 30
0.0
 10
134.7313170991794
 20
148.0540389629837
 30
0.0
 10
134.7220340263054
 20
148.0525215697756
 30
0.0
 10
134.7127514930072
 20
148.0510042647639
 30
0.0
 10
134.7032913124913
 20
148.0500837751555
 30
0.0
 10
134.693694261022
 20
148.0497693596369
 30
0.0
 10
134.6840970130587
 20
148.0494549376809
 30
0.0
 10
134.6743628885387
 20
148.0497466146331
 30
0.0
 10
134.6645359364876
 20
148.0506348891318
 30
0.0
 10
134.6547091953662
 20
148.0515231445631
 30
0.0
 10
134.6447896306993
 20
148.0530079719293
 30
0.0
 10
134.6348221351267
 20
148.0550998178111
 30
0.0
 10
134.6248558489238
 20
148.0571914098856
 30
0.0
 10
134.6148416434454
 20
148.0598898731827
 30
0.0
 10
134.6048151560329
 20
148.0631383098013
 30
0.0
 10
134.5947892663995
 20
148.0663865527475
 30
0.0
 10
134.584751096297
 20
148.0701847034369
 30
0.0
 10
134.5747743695571
 20
148.0747234289008
 30
0.0
 10
134.5647938690294
 20
148.0792638711773
 30
0.0
 10
134.554874858356
 20
148.0845454485913
 30
0.0
 10
134.5449558476846
 20
148.0898270260053
 30
0.0
  0
SPLINE
  5
1FD
330
70
100
AcDbEntity
  8
Isometric$4
 62
     7
370
    35
100
AcDbSpline
210
0.0
220
0.0
230
1.0
 70
     8
 71
     3
 72
    56
 73
    52
 74
     0
 42
0.0000000001
 43
0.0000000001
 40
0.0
 40
0.0
 40
0.0
 40
0.0
 40
1.0
 40
1.0
 40
1.0
 40
2.0
 40
2.0
 40
2.0
 40
3.0
 40
3.0
 40
3.0
 40
4.0
 40
4.0
 40
4.0
 40
5.0
 40
5.0
 40
5.0
 40
6.0
 40
6.0
 40
6.0
 40
7.0
 40
7.0
 40
7.0
 40
8.0
 40
8.0
 40
8.0
 40
9.0
 40
9.0
 40
9.0
 40
10.0
 40
10.0
 40
10.0
 40
11.0
 40
11.0
 40
11.0
 40
12.0
 40
12.0
 40
12.0
 40
13.0
 40
13.0
 40
13.0
 40
14.0
 40
14.0
 40
14.0
 40
15.0
 40
15.0
 40
15.0
 40
16.0
 40
16.0
 40
16.0
 40
17.0
 40
17.0
 40
17.0
 40
17.0
 10
134.5449558476846
 20
148.0898270260053
 30
0.0
 10
134.5321504007331
 20
148.0976400630578
 30
0.0
 10
134.5193449537822
 20
148.1054531001108
 30
0.0
 10
134.5068136635703
 20
148.1144131997628
 30
0.0
 10
134.4942862464099
 20
148.1233705301163
 30
0.0
 10
134.4820328165466
 20
148.1334742141307
 30
0.0
 10
134.4700750143249
 20
148.1443464645888
 30
0.0
 10
134.4457824179839
 20
148.16643373337
 30
0.0
 10
134.4227099068863
 20
148.191692953763
 30
0.0
 10
134.4016033989011
 20
148.2195722620467
 30
0.0
 10
134.3804958359729
 20
148.2474529637895
 30
0.0
 10
134.3613544726896
 20
148.277954015342
 30
0.0
 10
134.3446203061702
 20
148.3100574444441
 30
0.0
 10
134.3278875003948
 20
148.3421582630459
 30
0.0
 10
134.3135614999155
 20
148.3758611986116
 30
0.0
 10
134.3019645317046
 20
148.4102856850157
 30
0.0
 10
134.2843143019751
 20
148.4626786969064
 30
0.0
 10
134.2729855769077
 20
148.5167431023676
 30
0.0
 10
134.2686345278021
 20
148.5686973466461
 30
0.0
 10
134.264283592813
 20
148.6206502282853
 30
0.0
 10
134.266909967774
 20
148.6704930594286
 30
0.0
 10
134.2763177021947
 20
148.71497501436
 30
0.0
 10
134.2855964971256
 20
148.7588473134105
 30
0.0
 10
134.3014720389466
 20
148.7975046782444
 30
0.0
 10
134.3231802556696
 20
148.8284627668904
 30
0.0
 10
134.3448862732836
 20
148.859417719386
 30
0.0
 10
134.3724237841247
 20
148.8826749555367
 30
0.0
 10
134.4039310538921
 20
148.8966773352872
 30
0.0
 10
134.4118098914025
 20
148.900178827979
 30
0.0
 10
134.4199369661231
 20
148.9031015954234
 30
0.0
 10
134.4282935977873
 20
148.9054563167486
 30
0.0
 10
134.436650370705
 20
148.9078110778767
 30
0.0
 10
134.4452367083295
 20
148.909597773684
 30
0.0
 10
134.4540181806345
 20
148.9108030965208
 30
0.0
 10
134.4627990074231
 20
148.912008330755
 30
0.0
 10
134.471774940207
 20
148.9126322774889
 30
0.0
 10
134.4809129648939
 20
148.9126719465346
 30
0.0
 10
134.4900509266166
 20
148.9127116153082
 30
0.0
 10
134.4993509780098
 20
148.912167014443
 30
0.0
 10
134.5087755269595
 20
148.9110515883155
 30
0.0
 10
134.5182002934042
 20
148.9099361364459
 30
0.0
 10
134.5277495631513
 20
148.9082498329665
 30
0.0
 10
134.5373860162365
 20
148.9059872763149
 30
0.0
 10
134.5470219547735
 20
148.9037248404761
 30
0.0
 10
134.5567450673382
 20
148.9008862130031
 30
0.0
 10
134.5665205716013
 20
148.8975284154949
 30
0.0
 10
134.576295648611
 20
148.894170764744
 30
0.0
 10
134.5861231127392
 20
148.8902939893382
 30
0.0
 10
134.5959524303253
 20
148.8857230321394
 30
0.0
 10
134.605784252018
 20
148.8811509104474
 30
0.0
 10
134.6156179281125
 20
148.8758842532189
 30
0.0
 10
134.6254516042082
 20
148.8706175959893
 30
0.0
  0
SPLINE
  5
1FE
330
70
100
AcDbEntity
  8
Isometric$4
 62
     7
370
    35
100
AcDbSpline
210
0.0
220
0.0
230
1.0
 70
     8
 71
     3
 72
    56
 73
    52
 74
     0
 42
0.0000000001
 43
0.0000000001
 40
0.0
 40
0.0
 40
0.0
 40
0.0
 40
1.0
 40
1.0
 40
1.0
 40
2.0
 40
2.0
 40
2.0
 40
3.0
 40
3.0
 40
3.0
 40
4.0
 40
4.0
 40
4.0
 40
5.0
 40
5.0
 40
5.0
 40
6.0
 40
6.0
 40
6.0
 40
7.0
 40
7.0
 40
7.0
 40
8.0
 40
8.0
 40
8.0
 40
9.0
 40
9.0
 40
9.0
 40
10.0
 40
10.0
 40
10.0
 40
11.0
 40
11.0
 40
11.0
 40
12.0
 40
12.0
 40
12.0
 40
13.0
 40
13.0
 40
13.0
 40
14.0
 40
14.0
 40
14.0
 40
15.0
 40
15.0
 40
15.0
 40
16.0
 40
16.0
 40
16.0
 40
17.0
 40
17.0
 40
17.0
 40
17.0
 10
134.6328708051925
 20
149.0218679416584
 30
0.0
 10
134.6102236849453
 20
149.033536540953
 30
0.0
 10
134.5875765646968
 20
149.0452051402467
 30
0.0
 10
134.5650794429829
 20
149.0542557417209
 30
0.0
 10
134.5425828662351
 20
149.0633061239551
 30
0.0
 10
134.5202362807515
 20
149.0697386352035
 30
0.0
 10
134.498306864733
 20
149.0741800515395
 30
0.0
 10
134.4763772515004
 20
149.078621507817
 30
0.0
 10
134.4548648152364
 20
149.0810718333714
 30
0.0
 10
134.4339443159876
 20
149.0812791928332
 30
0.0
 10
134.3869410415056
 20
149.0817450791191
 30
0.0
 10
134.3429258154982
 20
149.0708886604589
 30
0.0
 10
134.3043318866445
 20
149.0492963552008
 30
0.0
 10
134.2657381357154
 20
149.027704149488
 30
0.0
 10
134.2325656319555
 20
148.9953761561659
 30
0.0
 10
134.2062548944084
 20
148.9539776556861
 30
0.0
 10
134.1797316832891
 20
148.9122448397121
 30
0.0
 10
134.1601815108858
 20
148.8612944264581
 30
0.0
 10
134.1484720251202
 20
148.8039974043608
 30
0.0
 10
134.1367618385089
 20
148.746696952866
 30
0.0
 10
134.1328932771409
 20
148.6830491327777
 30
0.0
 10
134.1370090973129
 20
148.6166517840385
 30
0.0
 10
134.1411458568901
 20
148.5499166360554
 30
0.0
 10
134.1533484464074
 20
148.4804039115728
 30
0.0
 10
134.1732552034275
 20
148.4119099730177
 30
0.0
 10
134.1931606786283
 20
148.3434204448629
 30
0.0
 10
134.2207693292042
 20
148.2759495714368
 30
0.0
 10
134.2546998510019
 20
148.2138709758513
 30
0.0
 10
134.2631814394027
 20
148.1983532334677
 30
0.0
 10
134.2720580476831
 20
148.1831724256525
 30
0.0
 10
134.281313070128
 20
148.1683510540765
 30
0.0
 10
134.2905682726389
 20
148.153529394134
 30
0.0
 10
134.30020190404
 20
148.1390671844169
 30
0.0
 10
134.3101849669066
 20
148.1250299866011
 30
0.0
 10
134.3201677270254
 20
148.1109932144801
 30
0.0
 10
134.3304998974169
 20
148.0973814284815
 30
0.0
 10
134.3411514901715
 20
148.0842482795026
 30
0.0
 10
134.3518034674912
 20
148.0711146563639
 30
0.0
 10
134.3627748902405
 20
148.0584597048062
 30
0.0
 10
134.3740262081795
 20
148.0463231475761
 30
0.0
 10
134.3852772419761
 20
148.0341868968458
 30
0.0
 10
134.3968081568277
 20
148.0225690142605
 30
0.0
 10
134.408584070289
 20
148.0115315609027
 30
0.0
 10
134.4203586205447
 20
148.0004953852646
 30
0.0
 10
134.4323781126903
 20
147.9900395044771
 30
0.0
 10
134.4445925235616
 20
147.980145127127
 30
0.0
 10
134.4568061693557
 20
147.9702513695337
 30
0.0
 10
134.4692147094602
 20
147.9609190450373
 30
0.0
 10
134.4818145845399
 20
147.9524338921248
 30
0.0
 10
134.4944182067371
 20
147.9439462157847
 30
0.0
 10
134.5072132777289
 20
147.9363062149894
 30
0.0
 10
134.5200083487207
 20
147.9286662141929
 30
0.0
  0
SPLINE
  5
1FF
330
70
100
AcDbEntity
  8
Isometric$4
 62
     7
370
    35
100
AcDbSpline
210
0.0
220
0.0
230
1.0
 70
     8
 71
     3
 72
    59
 73
    55
 74
     0
 42
0.0000000001
 43
0.0000000001
 40
0.0
 40
0.0
 40
0.0
 40
0.0
 40
1.0
 40
1.0
 40
1.0
 40
2.0
 40
2.0
 40
2.0
 40
3.0
 40
3.0
 40
3.0
 40
4.0
 40
4.0
 40
4.0
 40
5.0
 40
5.0
 40
5.0
 40
6.0
 40
6.0
 40
6.0
 40
7.0
 40
7.0
 40
7.0
 40
8.0
 40
8.0
 40
8.0
 40
9.0
 40
9.0
 40
9.0
 40
10.0
 40
10.0
 40
10.0
 40
11.0
 40
11.0
 40
11.0
 40
12.0
 40
12.0
 40
12.0
 40
13.0
 40
13.0
 40
13.0
 40
14.0
 40
14.0
 40
14.0
 40
15.0
 40
15.0
 40
15.0
 40
16.0
 40
16.0
 40
16.0
 40
17.0
 40
17.0
 40
17.0
 40
18.0
 40
18.0
 40
18.0
 40
18.0
 10
134.5200083487207
 20
147.9286662141929
 30
0.0
 10
134.5427247732862
 20
147.9171198607272
 30
0.0
 10
134.5654411978511
 20
147.9055735072615
 30
0.0
 10
134.5883252710796
 20
147.89681558923
 30
0.0
 10
134.6112073608229
 20
147.8880584302945
 30
0.0
 10
134.6342570701685
 20
147.8820892234366
 30
0.0
 10
134.6570806570253
 20
147.8782030542018
 30
0.0
 10
134.6799065859282
 20
147.8743164861862
 30
0.0
 10
134.7025063459308
 20
147.8725133833175
 30
0.0
 10
134.7246577947055
 20
147.8730113868489
 30
0.0
 10
134.7582865666227
 20
147.8737674207956
 30
0.0
 10
134.7908821077006
 20
147.8798268554776
 30
0.0
 10
134.8214822760193
 20
147.8908348325723
 30
0.0
 10
134.8520804283167
 20
147.9018420844315
 30
0.0
 10
134.8806834707668
 20
147.9177972266781
 30
0.0
 10
134.9065259473579
 20
147.9382219513717
 30
0.0
 10
134.932370434401
 20
147.9586482650379
 30
0.0
 10
134.9554539260426
 20
147.9835448566117
 30
0.0
 10
134.9751526956395
 20
148.0123351918612
 30
0.0
 10
135.0048925054745
 20
148.0558008048378
 30
0.0
 10
135.0269175772734
 20
148.1081413599812
 30
0.0
 10
135.0396503882335
 20
148.1663167735177
 30
0.0
 10
135.0523820017465
 20
148.2244867160033
 30
0.0
 10
135.0558231021002
 20
148.2884904194649
 30
0.0
 10
135.0497768387473
 20
148.354762586974
 30
0.0
 10
135.0437886422758
 20
148.4203982922799
 30
0.0
 10
135.0284944358453
 20
148.4882590992744
 30
0.0
 10
135.0048405906303
 20
148.5547428963921
 30
0.0
 10
134.9811884675905
 20
148.6212218529978
 30
0.0
 10
134.9491779230094
 20
148.6863240002332
 30
0.0
 10
134.9112511381856
 20
148.7460658198533
 30
0.0
 10
134.9017691990689
 20
148.761001657389
 30
0.0
 10
134.8919174759911
 20
148.7756024572816
 30
0.0
 10
134.8817253155111
 20
148.7898540981783
 30
0.0
 10
134.8715330671966
 20
148.8041058618943
 30
0.0
 10
134.8610003756136
 20
148.8180084605969
 30
0.0
 10
134.8501712365356
 20
148.8315047962009
 30
0.0
 10
134.8393426324062
 20
148.8450004651002
 30
0.0
 10
134.8282176100677
 20
148.8580899110386
 30
0.0
 10
134.8168386093295
 20
148.8707285149969
 30
0.0
 10
134.8054595809136
 20
148.8833671496983
 30
0.0
 10
134.7938265728588
 20
148.8955549402272
 30
0.0
 10
134.7819871207258
 20
148.9072588972339
 30
0.0
 10
134.7701474086336
 20
148.918963111224
 30
0.0
 10
134.7581012433973
 20
148.9301834704438
 30
0.0
 10
134.7458928882038
 20
148.940866749758
 30
0.0
 10
134.733685029629
 20
148.9515495944905
 30
0.0
 10
134.7213149942923
 20
148.9616954030117
 30
0.0
 10
134.7088298497851
 20
148.9713244677453
 30
0.0
 10
134.6963452279501
 20
148.9809531293721
 30
0.0
 10
134.6837455065817
 20
148.9900650904762
 30
0.0
 10
134.6710675648399
 20
148.998402267604
 30
0.0
 10
134.6583874762015
 20
149.0067408565582
 30
0.0
 10
134.645629140697
 20
149.0143043991077
 30
0.0
 10
134.6328708051925
 20
149.0218679416584
 30
0.0
  0
SPLINE
  5
200
330
70
100
AcDbEntity
  8
Isometric$4
 62
     7
370
    35
100
AcDbSpline
210
0.0
220
0.0
230
1.0
 70
     8
 71
     3
 72
    20
 73
    16
 74
     0
 42
0.0000000001
 43
0.0000000001
 40
0.0
 40
0.0
 40
0.0
 40
0.0
 40
1.0
 40
1.0
 40
1.0
 40
2.0
 40
2.0
 40
2.0
 40
3.0
 40
3.0
 40
3.0
 40
4.0
 40
4.0
 40
4.0
 40
5.0
 40
5.0
 40
5.0
 40
5.0
 10
134.710979398288
 20
149.0660307449901
 30
0.0
 10
134.6882959334488
 20
149.0776999689851
 30
0.0
 10
134.6656124686097
 20
149.0893691929808
 30
0.0
 10
134.6430814176597
 20
149.0984355567947
 30
0.0
 10
134.6205499949735
 20
149.1075020701934
 30
0.0
 10
134.5981709912061
 20
149.1139656375222
 30
0.0
 10
134.5762131138523
 20
149.1184097734948
 30
0.0
 10
134.5542551129637
 20
149.12285393447
 30
0.0
 10
134.5327182432284
 20
149.1252786413661
 30
0.0
 10
134.5117771068199
 20
149.1254609261434
 30
0.0
 10
134.464964334158
 20
149.1258684138613
 30
0.0
 10
134.4211285704089
 20
149.1150700309046
 30
0.0
 10
134.3826855312199
 20
149.093602250769
 30
0.0
 10
134.3823051144557
 20
149.0933898143015
 30
0.0
 10
134.3819252257624
 20
149.0931763330565
 30
0.0
 10
134.3815458665202
 20
149.0929618086418
 30
0.0
  0
SPLINE
  5
201
330
70
100
AcDbEntity
  8
Isometric$4
 62
     7
370
    35
100
AcDbSpline
210
0.0
220
0.0
230
1.0
 70
     8
 71
     3
 72
    47
 73
    43
 74
     0
 42
0.0000000001
 43
0.0000000001
 40
0.0
 40
0.0
 40
0.0
 40
0.0
 40
1.0
 40
1.0
 40
1.0
 40
2.0
 40
2.0
 40
2.0
 40
3.0
 40
3.0
 40
3.0
 40
4.0
 40
4.0
 40
4.0
 40
5.0
 40
5.0
 40
5.0
 40
6.0
 40
6.0
 40
6.0
 40
7.0
 40
7.0
 40
7.0
 40
8.0
 40
8.0
 40
8.0
 40
9.0
 40
9.0
 40
9.0
 40
10.0
 40
10.0
 40
10.0
 40
11.0
 40
11.0
 40
11.0
 40
12.0
 40
12.0
 40
12.0
 40
13.0
 40
13.0
 40
13.0
 40
14.0
 40
14.0
 40
14.0
 40
14.0
 10
134.9466562390501
 20
147.9567124834465
 30
0.0
 10
134.9598523603897
 20
147.9641737415436
 30
0.0
 10
134.972526141654
 20
147.9726594953797
 30
0.0
 10
134.9845999605113
 20
147.9821210107785
 30
0.0
 10
135.0104537975484
 20
148.0023810859198
 30
0.0
 10
135.033556671628
 20
148.0271152478984
 30
0.0
 10
135.0532847249359
 20
148.0557509780612
 30
0.0
 10
135.0830368111595
 20
148.0989368261329
 30
0.0
 10
135.1051132132244
 20
148.1509963913961
 30
0.0
 10
135.1179382516146
 20
148.2089143380356
 30
0.0
 10
135.1307621236431
 20
148.2668270173761
 30
0.0
 10
135.1343363146331
 20
148.3305970125706
 30
0.0
 10
135.1284597997281
 20
148.3966775339597
 30
0.0
 10
135.1226360516844
 20
148.4621646999784
 30
0.0
 10
135.1075305567871
 20
148.5299210847703
 30
0.0
 10
135.0840694287374
 20
148.5963559354842
 30
0.0
 10
135.0606094609791
 20
148.6627875005984
 30
0.0
 10
135.0287946865179
 20
148.7278976623468
 30
0.0
 10
134.9910499942273
 20
148.7877114961484
 30
0.0
 10
134.9815377464266
 20
148.8027855098575
 30
0.0
 10
134.971648878775
 20
148.8175231441594
 30
0.0
 10
134.9614125917541
 20
148.8319087072282
 30
0.0
 10
134.9511761075685
 20
148.8462945473798
 30
0.0
 10
134.9405921906315
 20
148.8603283027369
 30
0.0
 10
134.9297069295573
 20
148.8739527774324
 30
0.0
 10
134.9188216306638
 20
148.8875772994626
 30
0.0
 10
134.9076349855392
 20
148.9007925379884
 30
0.0
 10
134.8961906188747
 20
148.9135544389752
 30
0.0
 10
134.8847463579166
 20
148.9263162220851
 30
0.0
 10
134.8730443801793
 20
148.938624676031
 30
0.0
 10
134.861130133396
 20
148.9504404122932
 30
0.0
 10
134.8492159975048
 20
148.9622560385807
 30
0.0
 10
134.8370895965159
 20
148.9735789563578
 30
0.0
 10
134.8247969116373
 20
148.9843547700402
 30
0.0
 10
134.8125043819542
 20
148.9951304476777
 30
0.0
 10
134.8000455725779
 20
149.0053590350359
 30
0.0
 10
134.7874699806399
 20
149.0150622814493
 30
0.0
 10
134.7748946465526
 20
149.0247653289061
 30
0.0
 10
134.7622025346951
 20
149.0339430569605
 30
0.0
 10
134.7494344316521
 20
149.0423503678986
 30
0.0
 10
134.7366667446849
 20
149.0507574048664
 30
0.0
 10
134.7238230714855
 20
149.0583940749292
 30
0.0
 10
134.710979398288
 20
149.0660307449901
 30
0.0
  0
SPLINE
  5
202
330
70
100
AcDbEntity
  8
Isometric$4
 62
     7
370
    35
100
AcDbSpline
210
0.0
220
0.0
230
1.0
 70
     8
 71
     3
 72
    35
 73
    31
 74
     0
 42
0.0000000001
 43
0.0000000001
 40
0.0
 40
0.0
 40
0.0
 40
0.0
 40
1.0
 40
1.0
 40
1.0
 40
2.0
 40
2.0
 40
2.0
 40
3.0
 40
3.0
 40
3.0
 40
4.0
 40
4.0
 40
4.0
 40
5.0
 40
5.0
 40
5.0
 40
6.0
 40
6.0
 40
6.0
 40
7.0
 40
7.0
 40
7.0
 40
8.0
 40
8.0
 40
8.0
 40
9.0
 40
9.0
 40
9.0
 40
10.0
 40
10.0
 40
10.0
 40
10.0
 10
154.9866420779165
 20
161.5888062391343
 30
0.0
 10
154.9844350363189
 20
161.6311511114282
 30
0.0
 10
154.9822279947213
 20
161.6734959837205
 30
0.0
 10
154.9752600173231
 20
161.7176333527325
 30
0.0
 10
154.9682922635262
 20
161.7617693053887
 30
0.0
 10
154.9565638794743
 20
161.8076976397231
 30
0.0
 10
154.9416121562365
 20
161.8536956119819
 30
0.0
 10
154.9266607568019
 20
161.8996925880806
 30
0.0
 10
154.9084861577901
 20
161.9457591990875
 30
0.0
 10
154.8871599428722
 20
161.9910321202576
 30
0.0
 10
154.8734554303363
 20
162.02012510831
 30
0.0
 10
154.8584494515641
 20
162.0488903405199
 30
0.0
 10
154.8423155644357
 20
162.0770694617582
 30
0.0
 10
154.8261816866793
 20
162.1052485666295
 30
0.0
 10
154.8089199018771
 20
162.13284156121
 30
0.0
 10
154.7906764609123
 20
162.1595957478863
 30
0.0
 10
154.7724329691591
 20
162.186350009044
 30
0.0
 10
154.7532078157798
 20
162.2122654576262
 30
0.0
 10
154.7331772330163
 20
162.2371192404916
 30
0.0
 10
154.7131464841324
 20
162.2619732294794
 30
0.0
 10
154.6923102925035
 20
162.2857655351383
 30
0.0
 10
154.6708559976953
 20
162.3082376877358
 30
0.0
 10
154.6494014014888
 20
162.3307101560336
 30
0.0
 10
154.6273286847335
 20
162.3518624341776
 30
0.0
 10
154.6048378044636
 20
162.3716648366796
 30
0.0
 10
154.5823465117892
 20
162.3914676022899
 30
0.0
 10
154.5594370402647
 20
162.4099204427531
 30
0.0
 10
154.5363181962833
 20
162.4262557162039
 30
0.0
 10
154.5131988619027
 20
162.4425913361597
 30
0.0
 10
154.4898701461821
 20
162.4568092992662
 30
0.0
 10
154.4665414304641
 20
162.4710272623725
 30
0.0
  0
SPLINE
  5
203
330
70
100
AcDbEntity
  8
Isometric$4
 62
     7
370
    35
100
AcDbSpline
210
0.0
220
0.0
230
1.0
 70
     8
 71
     3
 72
    17
 73
    13
 74
     0
 42
0.0000000001
 43
0.0000000001
 40
0.0
 40
0.0
 40
0.0
 40
0.0
 40
1.0
 40
1.0
 40
1.0
 40
2.0
 40
2.0
 40
2.0
 40
3.0
 40
3.0
 40
3.0
 40
4.0
 40
4.0
 40
4.0
 40
4.0
 10
138.7058667558357
 20
151.7752120119828
 30
0.0
 10
138.7058667558357
 20
151.7616005462625
 30
0.0
 10
138.7082377736553
 20
151.7479894171119
 30
0.0
 10
138.712934366985
 20
151.7346394918885
 30
0.0
 10
138.7176309603147
 20
151.7212895666646
 30
0.0
 10
138.7246528968883
 20
151.7082015055743
 30
0.0
 10
138.7338655961
 20
151.6956261509873
 30
0.0
 10
138.7430782953118
 20
151.6830507964012
 30
0.0
 10
138.7544813015555
 20
151.6709887702185
 30
0.0
 10
138.7678560677847
 20
151.6596712500926
 30
0.0
 10
138.781230834014
 20
151.6483537299669
 30
0.0
 10
138.7965766987931
 20
151.6377812755947
 30
0.0
 10
138.8135995472737
 20
151.6281565158811
 30
0.0
  0
SPLINE
  5
204
330
70
100
AcDbEntity
  8
Isometric$4
 62
     7
370
    35
100
AcDbSpline
210
0.0
220
0.0
230
1.0
 70
     8
 71
     3
 72
    47
 73
    43
 74
     0
 42
0.0000000001
 43
0.0000000001
 40
0.0
 40
0.0
 40
0.0
 40
0.0
 40
1.0
 40
1.0
 40
1.0
 40
2.0
 40
2.0
 40
2.0
 40
3.0
 40
3.0
 40
3.0
 40
4.0
 40
4.0
 40
4.0
 40
5.0
 40
5.0
 40
5.0
 40
6.0
 40
6.0
 40
6.0
 40
7.0
 40
7.0
 40
7.0
 40
8.0
 40
8.0
 40
8.0
 40
9.0
 40
9.0
 40
9.0
 40
10.0
 40
10.0
 40
10.0
 40
11.0
 40
11.0
 40
11.0
 40
12.0
 40
12.0
 40
12.0
 40
13.0
 40
13.0
 40
13.0
 40
14.0
 40
14.0
 40
14.0
 40
14.0
 10
138.706018000827
 20
151.7618761709159
 30
0.0
 10
138.7060185009474
 20
151.7605021128483
 30
0.0
 10
138.7060444045415
 20
151.759128438017
 30
0.0
 10
138.7060957161802
 20
151.7577554310222
 30
0.0
 10
138.7062438349037
 20
151.7537920409083
 30
0.0
 10
138.7066036724194
 20
151.7498342156983
 30
0.0
 10
138.7071746073028
 20
151.7458887903631
 30
0.0
 10
138.7077456517827
 20
151.7419426076538
 30
0.0
 10
138.7085278746832
 20
151.738008829581
 30
0.0
 10
138.7095199250933
 20
151.7340942508108
 30
0.0
 10
138.710512287738
 20
151.7301784399711
 30
0.0
 10
138.7117146099943
 20
151.7262818405212
 30
0.0
 10
138.7131248136331
 20
151.7224111873667
 30
0.0
 10
138.714535587095
 20
151.718538970194
 30
0.0
 10
138.7161544099709
 20
151.7146927202886
 30
0.0
 10
138.7179784837144
 20
151.7108790918338
 30
0.0
 10
138.7198033722758
 20
151.7070637598265
 30
0.0
 10
138.7218336951159
 20
151.7032810784193
 30
0.0
 10
138.7240659324199
 20
151.6995375941628
 30
0.0
 10
138.7262991304321
 20
151.6957924987855
 30
0.0
 10
138.7287344167437
 20
151.6920866343046
 30
0.0
 10
138.7313675907217
 20
151.6884264333623
 30
0.0
 10
138.7340016708147
 20
151.6847649728857
 30
0.0
 10
138.7368337747907
 20
151.6811492073799
 30
0.0
 10
138.7398589218035
 20
151.6775853672729
 30
0.0
 10
138.7428846085084
 20
151.6740208913709
 30
0.0
 10
138.7461034071339
 20
151.6705083593951
 30
0.0
 10
138.7495099974035
 20
151.6670540133292
 30
0.0
 10
138.7529163335115
 20
151.6635999249866
 30
0.0
 10
138.7565104332424
 20
151.6602040138734
 30
0.0
 10
138.7602850830578
 20
151.6568716159157
 30
0.0
 10
138.7640581438718
 20
151.6535406207852
 30
0.0
 10
138.7680116027902
 20
151.6502730853493
 30
0.0
 10
138.7721422654648
 20
151.6470767398735
 30
0.0
 10
138.7762693557739
 20
151.6438831587275
 30
0.0
 10
138.7805733434658
 20
151.6407606444597
 30
0.0
 10
138.7850331558915
 20
151.6377068939782
 30
0.0
 10
138.7894866867562
 20
151.6346574446461
 30
0.0
 10
138.7940956037117
 20
151.6316765655318
 30
0.0
 10
138.7989027025397
 20
151.6287980926483
 30
0.0
 10
138.8036999360991
 20
151.6259255270488
 30
0.0
 10
138.8086945389386
 20
151.6231549477891
 30
0.0
 10
138.8136891417767
 20
151.6203843685293
 30
0.0
  0
SPLINE
  5
205
330
70
100
AcDbEntity
  8
Isometric$4
 62
     7
370
    35
100
AcDbSpline
210
0.0
220
0.0
230
1.0
 70
     8
 71
     3
 72
    59
 73
    55
 74
     0
 42
0.0000000001
 43
0.0000000001
 40
0.0
 40
0.0
 40
0.0
 40
0.0
 40
1.0
 40
1.0
 40
1.0
 40
2.0
 40
2.0
 40
2.0
 40
3.0
 40
3.0
 40
3.0
 40
4.0
 40
4.0
 40
4.0
 40
5.0
 40
5.0
 40
5.0
 40
6.0
 40
6.0
 40
6.0
 40
7.0
 40
7.0
 40
7.0
 40
8.0
 40
8.0
 40
8.0
 40
9.0
 40
9.0
 40
9.0
 40
10.0
 40
10.0
 40
10.0
 40
11.0
 40
11.0
 40
11.0
 40
12.0
 40
12.0
 40
12.0
 40
13.0
 40
13.0
 40
13.0
 40
14.0
 40
14.0
 40
14.0
 40
15.0
 40
15.0
 40
15.0
 40
16.0
 40
16.0
 40
16.0
 40
17.0
 40
17.0
 40
17.0
 40
18.0
 40
18.0
 40
18.0
 40
18.0
 10
149.8181001334056
 20
159.8427873074951
 30
0.0
 10
149.8400721668764
 20
159.8296857927638
 30
0.0
 10
149.8620442003484
 20
159.8165842780331
 30
0.0
 10
149.88383677876
 20
159.8016241063439
 30
0.0
 10
149.9056293348765
 20
159.7866639499602
 30
0.0
 10
149.9272424362997
 20
159.7698451404207
 30
0.0
 10
149.9484991035484
 20
159.7518207707107
 30
0.0
 10
149.9697558061445
 20
159.7337963710298
 30
0.0
 10
149.9906560733816
 20
159.7145664071697
 30
0.0
 10
150.011028098104
 20
159.6941392141634
 30
0.0
 10
150.0314001722442
 20
159.6737119716042
 30
0.0
 10
150.0512440013061
 20
159.652087494091
 30
0.0
 10
150.0703995615024
 20
159.6294662751634
 30
0.0
 10
150.0895551622907
 20
159.606845008298
 30
0.0
 10
150.108022491295
 20
159.5832269957925
 30
0.0
 10
150.1256397244698
 20
159.5587994242031
 30
0.0
 10
150.1358134216898
 20
159.5446928551004
 30
0.0
 10
150.1457036208457
 20
159.5303163065137
 30
0.0
 10
150.1552909805483
 20
159.5157056176837
 30
0.0
 10
150.1648783386204
 20
159.5010949313393
 30
0.0
 10
150.1741628573431
 20
159.4862501048318
 30
0.0
 10
150.1831217888249
 20
159.4712125705063
 30
0.0
 10
150.1920807120879
 20
159.4561750499762
 30
0.0
 10
150.2007140487094
 20
159.4409448219841
 30
0.0
 10
150.209002019727
 20
159.4255631255171
 30
0.0
 10
150.2172899846003
 20
159.410181440454
 30
0.0
 10
150.2252325843843
 20
159.3946482871399
 30
0.0
 10
150.2328119183024
 20
159.3790062747001
 30
0.0
 10
150.2403912582331
 20
159.3633642498504
 30
0.0
 10
150.2476073317216
 20
159.3476133657033
 30
0.0
 10
150.2544419371831
 20
159.3317954138065
 30
0.0
 10
150.2612765543981
 20
159.3159774347052
 30
0.0
 10
150.2677297022706
 20
159.3000923876234
 30
0.0
 10
150.273784027338
 20
159.2841818789271
 30
0.0
 10
150.2798383612339
 20
159.2682713470346
 30
0.0
 10
150.2854938711601
 20
159.2523353534521
 30
0.0
 10
150.2907359069317
 20
159.2364156612311
 30
0.0
 10
150.2959779481526
 20
159.2204959524619
 30
0.0
 10
150.3008065143585
 20
159.2045925450885
 30
0.0
 10
150.3052081047014
 20
159.1887476791234
 30
0.0
 10
150.3096096971998
 20
159.1729028054069
 30
0.0
 10
150.3135843134149
 20
159.1571164731564
 30
0.0
 10
150.3171245370038
 20
159.1414285105196
 30
0.0
 10
150.320664759915
 20
159.1257405508763
 30
0.0
 10
150.3237705903662
 20
159.1101509608084
 30
0.0
 10
150.3264229038856
 20
159.0947070662698
 30
0.0
 10
150.329075214758
 20
159.0792631871505
 30
0.0
 10
150.3312740096041
 20
159.0639650032696
 30
0.0
 10
150.3330550120473
 20
159.0488292725204
 30
0.0
 10
150.3348360110511
 20
159.0336935710037
 30
0.0
 10
150.3361992192647
 20
159.0187203219906
 30
0.0
 10
150.3369870229217
 20
159.0040367690464
 30
0.0
 10
150.3377748242243
 20
158.9893532599739
 30
0.0
 10
150.3379872244092
 20
158.9749594452378
 30
0.0
 10
150.3381996245934
 20
158.9605656305029
 30
0.0
  0
SPLINE
  5
206
330
70
100
AcDbEntity
  8
Isometric$4
 62
     7
370
    35
100
AcDbSpline
210
0.0
220
0.0
230
1.0
 70
     8
 71
     3
 72
     8
 73
     4
 74
     0
 42
0.0000000001
 43
0.0000000001
 40
0.0
 40
0.0
 40
0.0
 40
0.0
 40
1.0
 40
1.0
 40
1.0
 40
1.0
 10
138.8136890666241
 20
151.6203844087899
 30
0.0
 10
138.8136293482185
 20
151.622991296235
 30
0.0
 10
138.813599491904
 20
151.6255822829054
 30
0.0
 10
138.8135995472737
 20
151.6281565169444
 30
0.0
  0
SPLINE
  5
207
330
70
100
AcDbEntity
  8
Isometric$4
 62
     7
370
    35
100
AcDbSpline
210
0.0
220
0.0
230
1.0
 70
     8
 71
     3
 72
    11
 73
     7
 74
     0
 42
0.0000000001
 43
0.0000000001
 40
0.0
 40
0.0
 40
0.0
 40
0.0
 40
1.0
 40
1.0
 40
1.0
 40
2.0
 40
2.0
 40
2.0
 40
2.0
 10
154.8407455306288
 20
156.623322634832
 30
0.0
 10
154.8811982327403
 20
156.6478406902674
 30
0.0
 10
154.9147010609475
 20
156.6841471722501
 30
0.0
 10
154.9405879596942
 20
156.733371849045
 30
0.0
 10
154.9678333523497
 20
156.7851797407788
 30
0.0
 10
154.9866425034721
 20
156.8512972466171
 30
0.0
 10
154.9866421221527
 20
156.9493196178684
 30
0.0
  0
SPLINE
  5
208
330
70
100
AcDbEntity
  8
Isometric$4
 62
     7
370
    35
100
AcDbSpline
210
0.0
220
0.0
230
1.0
 70
     8
 71
     3
 72
    32
 73
    28
 74
     0
 42
0.0000000001
 43
0.0000000001
 40
0.0
 40
0.0
 40
0.0
 40
0.0
 40
1.0
 40
1.0
 40
1.0
 40
2.0
 40
2.0
 40
2.0
 40
3.0
 40
3.0
 40
3.0
 40
4.0
 40
4.0
 40
4.0
 40
5.0
 40
5.0
 40
5.0
 40
6.0
 40
6.0
 40
6.0
 40
7.0
 40
7.0
 40
7.0
 40
8.0
 40
8.0
 40
8.0
 40
9.0
 40
9.0
 40
9.0
 40
9.0
 10
139.0471480110887
 20
151.2447529813856
 30
0.0
 10
139.0374793114794
 20
151.2502151556143
 30
0.0
 10
139.0280295455432
 20
151.2559287263457
 30
0.0
 10
139.0188164983733
 20
151.2618921543049
 30
0.0
 10
139.0032557680582
 20
151.271964315287
 30
0.0
 10
138.9883703211072
 20
151.2827492394935
 30
0.0
 10
138.9742447645967
 20
151.2942261320529
 30
0.0
 10
138.9601107694076
 20
151.3057098809653
 30
0.0
 10
138.9467375728544
 20
151.3178864252476
 30
0.0
 10
138.9341973469474
 20
151.3307163488127
 30
0.0
 10
138.9216562518232
 20
151.3435471616732
 30
0.0
 10
138.9099482428227
 20
151.3570314443979
 30
0.0
 10
138.899150650437
 20
151.3711264454011
 30
0.0
 10
138.8883566866046
 20
151.3852167097507
 30
0.0
 10
138.878472527593
 20
151.3999172819844
 30
0.0
 10
138.8695770042458
 20
151.4151800162874
 30
0.0
 10
138.8606800902829
 20
151.4304451365746
 30
0.0
 10
138.8527721211081
 20
151.4462725947088
 30
0.0
 10
138.8459331458121
 20
151.4625933441627
 30
0.0
 10
138.8390936415239
 20
151.4789153560225
 30
0.0
 10
138.8333232964924
 20
151.4957307355193
 30
0.0
 10
138.8285597253186
 20
151.5129382887464
 30
0.0
 10
138.8237977455718
 20
151.5301400932198
 30
0.0
 10
138.820041867105
 20
151.5477338094309
 30
0.0
 10
138.8177344061389
 20
151.5657103957233
 30
0.0
 10
138.8154273611921
 20
151.5836837409479
 30
0.0
 10
138.8145682115147
 20
151.6020398182073
 30
0.0
 10
138.8137090618372
 20
151.6203958954661
 30
0.0
  0
SPLINE
  5
209
330
70
100
AcDbEntity
  8
Isometric$4
 62
     7
370
    35
100
AcDbSpline
210
0.0
220
0.0
230
1.0
 70
     8
 71
     3
 72
    74
 73
    70
 74
     0
 42
0.0000000001
 43
0.0000000001
 40
0.0
 40
0.0
 40
0.0
 40
0.0
 40
1.0
 40
1.0
 40
1.0
 40
2.0
 40
2.0
 40
2.0
 40
3.0
 40
3.0
 40
3.0
 40
4.0
 40
4.0
 40
4.0
 40
5.0
 40
5.0
 40
5.0
 40
6.0
 40
6.0
 40
6.0
 40
7.0
 40
7.0
 40
7.0
 40
8.0
 40
8.0
 40
8.0
 40
9.0
 40
9.0
 40
9.0
 40
10.0
 40
10.0
 40
10.0
 40
11.0
 40
11.0
 40
11.0
 40
12.0
 40
12.0
 40
12.0
 40
13.0
 40
13.0
 40
13.0
 40
14.0
 40
14.0
 40
14.0
 40
15.0
 40
15.0
 40
15.0
 40
16.0
 40
16.0
 40
16.0
 40
17.0
 40
17.0
 40
17.0
 40
18.0
 40
18.0
 40
18.0
 40
19.0
 40
19.0
 40
19.0
 40
20.0
 40
20.0
 40
20.0
 40
21.0
 40
21.0
 40
21.0
 40
22.0
 40
22.0
 40
22.0
 40
23.0
 40
23.0
 40
23.0
 40
23.0
 10
153.5933078543295
 20
155.7481885374466
 30
0.0
 10
153.5948530615063
 20
155.749047272641
 30
0.0
 10
153.5963891036186
 20
155.7499217378456
 30
0.0
 10
153.5979158642845
 20
155.7508118682147
 30
0.0
 10
153.600845583313
 20
155.7525199498663
 30
0.0
 10
153.6037411259858
 20
155.7542857141324
 30
0.0
 10
153.6066016887533
 20
155.7561086707453
 30
0.0
 10
153.6094622519662
 20
155.7579316276438
 30
0.0
 10
153.6122878352616
 20
155.7598117769089
 30
0.0
 10
153.6150776544581
 20
155.7617485965098
 30
0.0
 10
153.6178674742675
 20
155.7636854165365
 30
0.0
 10
153.6206215299641
 20
155.765678906925
 30
0.0
 10
153.6233390571475
 20
155.7677285141723
 30
0.0
 10
153.6260565850978
 20
155.7697781219979
 30
0.0
 10
153.6287375845156
 20
155.7718838467134
 30
0.0
 10
153.631381311233
 20
155.7740451036585
 30
0.0
 10
153.6340250388559
 20
155.7762063613445
 30
0.0
 10
153.6366314937538
 20
155.7784231512977
 30
0.0
 10
153.639199952385
 20
155.7806948580196
 30
0.0
 10
153.6417684120499
 20
155.7829665656558
 30
0.0
 10
153.6442988754197
 20
155.7852931901032
 30
0.0
 10
153.6467906400606
 20
155.7876740854094
 30
0.0
 10
153.6492824058507
 20
155.7900549818132
 30
0.0
 10
153.6517354728759
 20
155.7924901491237
 30
0.0
 10
153.6541491598411
 20
155.7949789110889
 30
0.0
 10
153.6565628480383
 20
155.7974676743227
 30
0.0
 10
153.6589371561338
 20
155.8000100322654
 30
0.0
 10
153.6612714245361
 20
155.8026052788424
 30
0.0
 10
153.6636056942281
 20
155.8052005268562
 30
0.0
 10
153.665899924182
 20
155.8078486635623
 30
0.0
 10
153.6681534770494
 20
155.8105489535618
 30
0.0
 10
153.6704070312605
 20
155.8132492451707
 30
0.0
 10
153.6726199083364
 20
155.816001690135
 30
0.0
 10
153.6747914935023
 20
155.8188055241127
 30
0.0
 10
153.676963080055
 20
155.8216093598834
 30
0.0
 10
153.6790933746425
 20
155.8244645847339
 30
0.0
 10
153.6811817854176
 20
155.8273704058217
 30
0.0
 10
153.6832701976167
 20
155.8302762288924
 30
0.0
 10
153.6853167259468
 20
155.8332326482691
 30
0.0
 10
153.687320801821
 20
155.8362388430438
 30
0.0
 10
153.6893248791511
 20
155.8392450400041
 30
0.0
 10
153.6912865039657
 20
155.8423010124344
 30
0.0
 10
153.6932051312656
 20
155.8454059118265
 30
0.0
 10
153.6951237600486
 20
155.8485108136163
 30
0.0
 10
153.6969993912523
 20
155.8516646424431
 30
0.0
 10
153.6988315037811
 20
155.8548665226696
 30
0.0
 10
153.7006636178095
 20
155.8580684055152
 30
0.0
 10
153.7024522130925
 20
155.8613183398399
 30
0.0
 10
153.7041967927361
 20
155.8646154233662
 30
0.0
 10
153.7059413738903
 20
155.8679125097485
 30
0.0
 10
153.7076419393289
 20
155.871256745413
 30
0.0
 10
153.7092980166393
 20
155.8746472019522
 30
0.0
 10
153.7109540954654
 20
155.8780376615937
 30
0.0
 10
153.7125656860819
 20
155.8814743421926
 30
0.0
 10
153.7141323408369
 20
155.8849562897237
 30
0.0
 10
153.7156989971032
 20
155.8884382406167
 30
0.0
 10
153.7172207174214
 20
155.8919654585299
 30
0.0
 10
153.7186970791487
 20
155.8955369643537
 30
0.0
 10
153.7201734423802
 20
155.8991084738146
 30
0.0
 10
153.7216044469295
 20
155.9027242712761
 30
0.0
 10
153.7229896954164
 20
155.9063833530915
 30
0.0
 10
153.7243749453894
 20
155.9100424388363
 30
0.0
 10
153.7257144392011
 20
155.9137448090269
 30
0.0
 10
153.727007804958
 20
155.9174894360457
 30
0.0
 10
153.7283011721779
 20
155.9212340672988
 30
0.0
 10
153.7295484112378
 20
155.9250209554735
 30
0.0
 10
153.7307491759609
 20
155.9288490495412
 30
0.0
 10
153.7319474839379
 20
155.9326693113888
 30
0.0
 10
153.7330995075551
 20
155.9365306106896
 30
0.0
 10
153.7342049284649
 20
155.9404318801985
 30
0.0
  0
SPLINE
  5
20A
330
70
100
AcDbEntity
  8
Isometric$4
 62
     7
370
    35
100
AcDbSpline
210
0.0
220
0.0
230
1.0
 70
     8
 71
     3
 72
   188
 73
   184
 74
     0
 42
0.0000000001
 43
0.0000000001
 40
0.0
 40
0.0
 40
0.0
 40
0.0
 40
1.0
 40
1.0
 40
1.0
 40
2.0
 40
2.0
 40
2.0
 40
3.0
 40
3.0
 40
3.0
 40
4.0
 40
4.0
 40
4.0
 40
5.0
 40
5.0
 40
5.0
 40
6.0
 40
6.0
 40
6.0
 40
7.0
 40
7.0
 40
7.0
 40
8.0
 40
8.0
 40
8.0
 40
9.0
 40
9.0
 40
9.0
 40
10.0
 40
10.0
 40
10.0
 40
11.0
 40
11.0
 40
11.0
 40
12.0
 40
12.0
 40
12.0
 40
13.0
 40
13.0
 40
13.0
 40
14.0
 40
14.0
 40
14.0
 40
15.0
 40
15.0
 40
15.0
 40
16.0
 40
16.0
 40
16.0
 40
17.0
 40
17.0
 40
17.0
 40
18.0
 40
18.0
 40
18.0
 40
19.0
 40
19.0
 40
19.0
 40
20.0
 40
20.0
 40
20.0
 40
21.0
 40
21.0
 40
21.0
 40
22.0
 40
22.0
 40
22.0
 40
23.0
 40
23.0
 40
23.0
 40
24.0
 40
24.0
 40
24.0
 40
25.0
 40
25.0
 40
25.0
 40
26.0
 40
26.0
 40
26.0
 40
27.0
 40
27.0
 40
27.0
 40
28.0
 40
28.0
 40
28.0
 40
29.0
 40
29.0
 40
29.0
 40
30.0
 40
30.0
 40
30.0
 40
31.0
 40
31.0
 40
31.0
 40
32.0
 40
32.0
 40
32.0
 40
33.0
 40
33.0
 40
33.0
 40
34.0
 40
34.0
 40
34.0
 40
35.0
 40
35.0
 40
35.0
 40
36.0
 40
36.0
 40
36.0
 40
37.0
 40
37.0
 40
37.0
 40
38.0
 40
38.0
 40
38.0
 40
39.0
 40
39.0
 40
39.0
 40
40.0
 40
40.0
 40
40.0
 40
41.0
 40
41.0
 40
41.0
 40
42.0
 40
42.0
 40
42.0
 40
43.0
 40
43.0
 40
43.0
 40
44.0
 40
44.0
 40
44.0
 40
45.0
 40
45.0
 40
45.0
 40
46.0
 40
46.0
 40
46.0
 40
47.0
 40
47.0
 40
47.0
 40
48.0
 40
48.0
 40
48.0
 40
49.0
 40
49.0
 40
49.0
 40
50.0
 40
50.0
 40
50.0
 40
51.0
 40
51.0
 40
51.0
 40
52.0
 40
52.0
 40
52.0
 40
53.0
 40
53.0
 40
53.0
 40
54.0
 40
54.0
 40
54.0
 40
55.0
 40
55.0
 40
55.0
 40
56.0
 40
56.0
 40
56.0
 40
57.0
 40
57.0
 40
57.0
 40
58.0
 40
58.0
 40
58.0
 40
59.0
 40
59.0
 40
59.0
 40
60.0
 40
60.0
 40
60.0
 40
61.0
 40
61.0
 40
61.0
 40
61.0
 10
150.3381994977667
 20
154.1343124303667
 30
0.0
 10
150.3381109116346
 20
154.1261494589983
 30
0.0
 10
150.3380223255025
 20
154.11798648763
 30
0.0
 10
150.3377412769101
 20
154.1099398111696
 30
0.0
 10
150.337460227918
 20
154.1018931232091
 30
0.0
 10
150.3369867159168
 20
154.093962730488
 30
0.0
 10
150.3363726796265
 20
154.0861263129193
 30
0.0
 10
150.3357586426727
 20
154.0782898868975
 30
0.0
 10
150.3350040811269
 20
154.0705474362303
 30
0.0
 10
150.3340957902198
 20
154.0629135678081
 30
0.0
 10
150.3331874986152
 20
154.0552796935298
 30
0.0
 10
150.3321254774118
 20
154.0477544016639
 30
0.0
 10
150.3309143197061
 20
154.0403421745232
 30
0.0
 10
150.329703161399
 20
154.0329299437073
 30
0.0
 10
150.3283428664414
 20
154.025630777727
 30
0.0
 10
150.3268336000307
 20
154.0184516270282
 30
0.0
 10
150.325324333219
 20
154.0112724744265
 30
0.0
 10
150.3236660948748
 20
154.0042133371684
 30
0.0
 10
150.3218605754194
 20
153.9972802453043
 30
0.0
 10
150.3200550558261
 20
153.9903471529141
 30
0.0
 10
150.3181022550978
 20
153.9835401059368
 30
0.0
 10
150.3160037908977
 20
153.9768651081359
 30
0.0
 10
150.3139053268464
 20
153.97019011081
 30
0.0
 10
150.3116611993443
 20
153.9636471626403
 30
0.0
 10
150.309273377968
 20
153.9572419880975
 30
0.0
 10
150.3068855570094
 20
153.9508368146754
 30
0.0
 10
150.3043540422279
 20
153.9445694148316
 30
0.0
 10
150.3016810374855
 20
153.9384452888321
 30
0.0
 10
150.2990080333733
 20
153.9323211642733
 30
0.0
 10
150.2961935393669
 20
153.9263403134917
 30
0.0
 10
150.2932400197711
 20
153.9205079847441
 30
0.0
 10
150.2902865009171
 20
153.9146756574622
 30
0.0
 10
150.2871939565416
 20
153.9089918521399
 30
0.0
 10
150.2839651019723
 20
153.9034615632123
 30
0.0
 10
150.2807362481179
 20
153.8979312755096
 30
0.0
 10
150.2773710841274
 20
153.8925545041327
 30
0.0
 10
150.2738725627328
 20
153.8873359694164
 30
0.0
 10
150.270374041851
 20
153.8821174354623
 30
0.0
 10
150.2667421636028
 20
153.8770571381229
 30
0.0
 10
150.2629801542177
 20
153.8721595538963
 30
0.0
 10
150.2592181449242
 20
153.8672619697868
 30
0.0
 10
150.2553260045008
 20
153.8625270987838
 30
0.0
 10
150.2513070715098
 20
153.8579590229134
 30
0.0
 10
150.2472881379337
 20
153.8533909463783
 30
0.0
 10
150.2431424117527
 20
153.848989665025
 30
0.0
 10
150.2388739194854
 20
153.8447593917172
 30
0.0
 10
150.2367860354681
 20
153.8426902020666
 30
0.0
 10
150.2346687788671
 20
153.8406619272002
 30
0.0
 10
150.2325225132734
 20
153.8386749008525
 30
0.0
 10
150.2303762473486
 20
153.836687874198
 30
0.0
 10
150.2282009724202
 20
153.8347420960716
 30
0.0
 10
150.2259971636857
 20
153.8328379981007
 30
0.0
 10
150.2237933546631
 20
153.8309338998808
 30
0.0
 10
150.2215610118246
 20
153.8290714818264
 30
0.0
 10
150.21930059621
 20
153.8272511274398
 30
0.0
 10
150.2170401803527
 20
153.8254307728568
 30
0.0
 10
150.2147516917142
 20
153.8236524819488
 30
0.0
 10
150.2124356106246
 20
153.8219166290097
 30
0.0
 10
150.2101195293386
 20
153.8201807759241
 30
0.0
 10
150.2077758555978
 20
153.8184873608128
 30
0.0
 10
150.2054050798059
 20
153.8168367381306
 30
0.0
 10
150.2030343038696
 20
153.8151861153458
 30
0.0
 10
150.2006364258803
 20
153.8135782849949
 30
0.0
 10
150.1982119485282
 20
153.8120135843488
 30
0.0
 10
150.1957874710831
 20
153.8104488836424
 30
0.0
 10
150.1933363942715
 20
153.808927312643
 30
0.0
 10
150.1908592322097
 20
153.8074491905453
 30
0.0
 10
150.18838207011
 20
153.8059710684258
 30
0.0
 10
150.1858788227584
 20
153.8045363952086
 30
0.0
 10
150.1833500156497
 20
153.8031454720786
 30
0.0
 10
150.1808212085602
 20
153.8017545489592
 30
0.0
 10
150.1782668417157
 20
153.8004073759262
 30
0.0
 10
150.1756874517209
 20
153.7991042359754
 30
0.0
 10
150.1731080618069
 20
153.7978010960622
 30
0.0
 10
150.1705036487452
 20
153.7965419892264
 30
0.0
 10
150.1678747600405
 20
153.795327180164
 30
0.0
 10
150.1652458714789
 20
153.7941123711679
 30
0.0
 10
150.162592507278
 20
153.7929418599409
 30
0.0
 10
150.1599152256097
 20
153.7918158927699
 30
0.0
 10
150.1572379441492
 20
153.7906899256858
 30
0.0
 10
150.1545367452269
 20
153.7896085026511
 30
0.0
 10
150.1518121974286
 20
153.7885718514303
 30
0.0
 10
150.149087649903
 20
153.7875352003134
 30
0.0
 10
150.146339753506
 20
153.7865433209996
 30
0.0
 10
150.1435690870775
 20
153.7855964226824
 30
0.0
 10
150.1407984209911
 20
153.7846495244827
 30
0.0
 10
150.1380049848784
 20
153.7837476072644
 30
0.0
 10
150.1351893672846
 20
153.7828908613817
 30
0.0
 10
150.1323737501022
 20
153.7820341156224
 30
0.0
 10
150.1295359514464
 20
153.7812225411825
 30
0.0
 10
150.1266765704511
 20
153.7804563101732
 30
0.0
 10
150.1238171899286
 20
153.7796900792899
 30
0.0
 10
150.1209362270738
 20
153.7789691918201
 30
0.0
 10
150.1180342851548
 20
153.7782937978151
 30
0.0
 10
150.1151323436402
 20
153.7776184039035
 30
0.0
 10
150.1122094230664
 20
153.7769885034413
 30
0.0
 10
150.1092661333802
 20
153.7764042260553
 30
0.0
 10
150.1063228439552
 20
153.7758199487222
 30
0.0
 10
150.1033591854208
 20
153.775281294456
 30
0.0
 10
150.1003757772472
 20
153.7747883742803
 30
0.0
 10
150.0973923691999
 20
153.7742954541257
 30
0.0
 10
150.0943892115139
 20
153.7738482680577
 30
0.0
 10
150.091366932145
 20
153.7734469079846
 30
0.0
 10
150.0883446527857
 20
153.7730455479118
 30
0.0
 10
150.0853032517434
 20
153.7726900138342
 30
0.0
 10
150.0822433654021
 20
153.7723803786328
 30
0.0
 10
150.0791834789664
 20
153.7720707434198
 30
0.0
 10
150.076105107229
 20
153.7718070070859
 30
0.0
 10
150.0730088946773
 20
153.7715892234186
 30
0.0
 10
150.0699126819381
 20
153.7713714397391
 30
0.0
 10
150.0667986283819
 20
153.7711996087294
 30
0.0
 10
150.0636673863298
 20
153.7710737650769
 30
0.0
 10
150.0605361440185
 20
153.7709479214128
 30
0.0
 10
150.0573877132106
 20
153.7708680651123
 30
0.0
 10
150.054222753787
 20
153.7708342117337
 30
0.0
 10
150.0510577940426
 20
153.7708003583516
 30
0.0
 10
150.0478763056807
 20
153.7708125079023
 30
0.0
 10
150.0446789558597
 20
153.770870656815
 30
0.0
 10
150.0414816056748
 20
153.7709288057349
 30
0.0
 10
150.0382683940263
 20
153.7710329540283
 30
0.0
 10
150.0350399950691
 20
153.7711830789992
 30
0.0
 10
150.0318115957218
 20
153.7713332039889
 30
0.0
 10
150.0285680090593
 20
153.7715293056663
 30
0.0
 10
150.0253099159418
 20
153.7717713422175
 30
0.0
 10
150.0220518224218
 20
153.7720133787999
 30
0.0
 10
150.0187792224442
 20
153.7723013502681
 30
0.0
 10
150.0154928032808
 20
153.7726351957087
 30
0.0
 10
150.0122063837228
 20
153.7729690411885
 30
0.0
 10
150.0089061449751
 20
153.7733487606523
 30
0.0
 10
150.0055927804346
 20
153.7737742741101
 30
0.0
 10
150.0022794155264
 20
153.7741997876151
 30
0.0
 10
149.9989529248215
 20
153.7746710951252
 30
0.0
 10
149.9956140075423
 20
153.7751880976124
 30
0.0
 10
149.9922750899403
 20
153.775705100149
 30
0.0
 10
149.9889237457606
 20
153.7762677976721
 30
0.0
 10
149.9855606797583
 20
153.7768760721518
 30
0.0
 10
149.9821976134942
 20
153.7774843466784
 30
0.0
 10
149.9788228254036
 20
153.7781381981713
 30
0.0
 10
149.9754370254706
 20
153.778837489652
 30
0.0
 10
149.9720512253554
 20
153.7795367811712
 30
0.0
 10
149.9686544133959
 20
153.7802815126828
 30
0.0
 10
149.9652473045013
 20
153.7810715283207
 30
0.0
 10
149.9618401955232
 20
153.7818615439772
 30
0.0
 10
149.9584227896102
 20
153.7826968437627
 30
0.0
 10
149.9549958062953
 20
153.7835772529839
 30
0.0
 10
149.9515688230138
 20
153.7844576621971
 30
0.0
 10
149.9481322623298
 20
153.7853831808454
 30
0.0
 10
149.9446868480953
 20
153.7863536154786
 30
0.0
 10
149.9412414340283
 20
153.7873240500652
 30
0.0
 10
149.9377871664108
 20
153.7883394006303
 30
0.0
 10
149.9343247731039
 20
153.7893994550867
 30
0.0
 10
149.9308623801174
 20
153.7904595094452
 30
0.0
 10
149.9273918614428
 20
153.7915642676872
 30
0.0
 10
149.9239139486389
 20
153.7927134990168
 30
0.0
 10
149.9204360363286
 20
153.7938627301843
 30
0.0
 10
149.9169507298896
 20
153.7950564344263
 30
0.0
 10
149.9134587642753
 20
153.7962943629353
 30
0.0
 10
149.9099667993431
 20
153.7975322912036
 30
0.0
 10
149.9064681752362
 20
153.7988144437222
 30
0.0
 10
149.9029636299785
 20
153.8001405515466
 30
0.0
 10
149.8994590856115
 20
153.8014666590343
 30
0.0
 10
149.8959486200963
 20
153.8028367218049
 30
0.0
 10
149.8924329742306
 20
153.8042504592114
 30
0.0
 10
149.888917329479
 20
153.8056641961703
 30
0.0
 10
149.8853965043802
 20
153.8071216077366
 30
0.0
 10
149.8818712421437
 20
153.8086223706237
 30
0.0
 10
149.8783459812663
 20
153.8101231329329
 30
0.0
 10
149.8748162832544
 20
153.8116672465298
 30
0.0
 10
149.871282893578
 20
153.8132544615264
 30
0.0
 10
149.8677495055187
 20
153.8148416757967
 30
0.0
 10
149.8642124257976
 20
153.8164719914273
 30
0.0
 10
149.8606724012355
 20
153.8181447994715
 30
0.0
 10
149.8571323785684
 20
153.819817606619
 30
0.0
 10
149.8535894110609
 20
153.8215329061323
 30
0.0
 10
149.8500442487682
 20
153.8232913446319
 30
0.0
 10
149.8464990886637
 20
153.8250497820461
 30
0.0
 10
149.8429517337746
 20
153.8268513583921
 30
0.0
 10
149.8394029288696
 20
153.8286919506547
 30
0.0
 10
149.8358541264621
 20
153.8305325416225
 30
0.0
 10
149.8323038740394
 20
153.8324121484507
 30
0.0
 10
149.8287529413623
 20
153.8343443655635
 30
0.0
 10
149.8252020115076
 20
153.83627658114
 30
0.0
 10
149.8216504013985
 20
153.8382614069172
 30
0.0
 10
149.8180987912902
 20
153.8402462326932
 30
0.0
  0
SPLINE
  5
20B
330
70
100
AcDbEntity
  8
Isometric$4
 62
     7
370
    35
100
AcDbSpline
210
0.0
220
0.0
230
1.0
 70
     8
 71
     3
 72
   266
 73
   262
 74
     0
 42
0.0000000001
 43
0.0000000001
 40
0.0
 40
0.0
 40
0.0
 40
0.0
 40
1.0
 40
1.0
 40
1.0
 40
2.0
 40
2.0
 40
2.0
 40
3.0
 40
3.0
 40
3.0
 40
4.0
 40
4.0
 40
4.0
 40
5.0
 40
5.0
 40
5.0
 40
6.0
 40
6.0
 40
6.0
 40
7.0
 40
7.0
 40
7.0
 40
8.0
 40
8.0
 40
8.0
 40
9.0
 40
9.0
 40
9.0
 40
10.0
 40
10.0
 40
10.0
 40
11.0
 40
11.0
 40
11.0
 40
12.0
 40
12.0
 40
12.0
 40
13.0
 40
13.0
 40
13.0
 40
14.0
 40
14.0
 40
14.0
 40
15.0
 40
15.0
 40
15.0
 40
16.0
 40
16.0
 40
16.0
 40
17.0
 40
17.0
 40
17.0
 40
18.0
 40
18.0
 40
18.0
 40
19.0
 40
19.0
 40
19.0
 40
20.0
 40
20.0
 40
20.0
 40
21.0
 40
21.0
 40
21.0
 40
22.0
 40
22.0
 40
22.0
 40
23.0
 40
23.0
 40
23.0
 40
24.0
 40
24.0
 40
24.0
 40
25.0
 40
25.0
 40
25.0
 40
26.0
 40
26.0
 40
26.0
 40
27.0
 40
27.0
 40
27.0
 40
28.0
 40
28.0
 40
28.0
 40
29.0
 40
29.0
 40
29.0
 40
30.0
 40
30.0
 40
30.0
 40
31.0
 40
31.0
 40
31.0
 40
32.0
 40
32.0
 40
32.0
 40
33.0
 40
33.0
 40
33.0
 40
34.0
 40
34.0
 40
34.0
 40
35.0
 40
35.0
 40
35.0
 40
36.0
 40
36.0
 40
36.0
 40
37.0
 40
37.0
 40
37.0
 40
38.0
 40
38.0
 40
38.0
 40
39.0
 40
39.0
 40
39.0
 40
40.0
 40
40.0
 40
40.0
 40
41.0
 40
41.0
 40
41.0
 40
42.0
 40
42.0
 40
42.0
 40
43.0
 40
43.0
 40
43.0
 40
44.0
 40
44.0
 40
44.0
 40
45.0
 40
45.0
 40
45.0
 40
46.0
 40
46.0
 40
46.0
 40
47.0
 40
47.0
 40
47.0
 40
48.0
 40
48.0
 40
48.0
 40
49.0
 40
49.0
 40
49.0
 40
50.0
 40
50.0
 40
50.0
 40
51.0
 40
51.0
 40
51.0
 40
52.0
 40
52.0
 40
52.0
 40
53.0
 40
53.0
 40
53.0
 40
54.0
 40
54.0
 40
54.0
 40
55.0
 40
55.0
 40
55.0
 40
56.0
 40
56.0
 40
56.0
 40
57.0
 40
57.0
 40
57.0
 40
58.0
 40
58.0
 40
58.0
 40
59.0
 40
59.0
 40
59.0
 40
60.0
 40
60.0
 40
60.0
 40
61.0
 40
61.0
 40
61.0
 40
62.0
 40
62.0
 40
62.0
 40
63.0
 40
63.0
 40
63.0
 40
64.0
 40
64.0
 40
64.0
 40
65.0
 40
65.0
 40
65.0
 40
66.0
 40
66.0
 40
66.0
 40
67.0
 40
67.0
 40
67.0
 40
68.0
 40
68.0
 40
68.0
 40
69.0
 40
69.0
 40
69.0
 40
70.0
 40
70.0
 40
70.0
 40
71.0
 40
71.0
 40
71.0
 40
72.0
 40
72.0
 40
72.0
 40
73.0
 40
73.0
 40
73.0
 40
74.0
 40
74.0
 40
74.0
 40
75.0
 40
75.0
 40
75.0
 40
76.0
 40
76.0
 40
76.0
 40
77.0
 40
77.0
 40
77.0
 40
78.0
 40
78.0
 40
78.0
 40
79.0
 40
79.0
 40
79.0
 40
80.0
 40
80.0
 40
80.0
 40
81.0
 40
81.0
 40
81.0
 40
82.0
 40
82.0
 40
82.0
 40
83.0
 40
83.0
 40
83.0
 40
84.0
 40
84.0
 40
84.0
 40
85.0
 40
85.0
 40
85.0
 40
86.0
 40
86.0
 40
86.0
 40
87.0
 40
87.0
 40
87.0
 40
87.0
 10
144.082549679649
 20
152.2255063740445
 30
0.0
 10
144.0942520338121
 20
152.2189906887832
 30
0.0
 10
144.1059543879739
 20
152.2124750035209
 30
0.0
 10
144.1178497526384
 20
152.2060707320761
 30
0.0
 10
144.1297451101114
 20
152.1996664645022
 30
0.0
 10
144.141833477853
 20
152.1933736106109
 30
0.0
 10
144.1540576758237
 20
152.1871652202117
 30
0.0
 10
144.1662818668276
 20
152.1809568333528
 30
0.0
 10
144.1786418879034
 20
152.1748329098889
 30
0.0
 10
144.1911474626898
 20
152.1688034903102
 30
0.0
 10
144.2036530307564
 20
152.1627740739711
 30
0.0
 10
144.2163041523757
 20
152.156839161416
 30
0.0
 10
144.2290924938209
 20
152.1509987956937
 30
0.0
 10
144.2418808287824
 20
152.1451584329335
 30
0.0
 10
144.25480638343
 20
152.139412616912
 30
0.0
 10
144.2678655360148
 20
152.1337639817136
 30
0.0
 10
144.280924682345
 20
152.1281153492197
 30
0.0
 10
144.2941174264848
 20
152.1225638974568
 30
0.0
 10
144.3074387618431
 20
152.1171114765899
 30
0.0
 10
144.3207600911714
 20
152.111659058192
 30
0.0
 10
144.3342100116014
 20
152.1063056706015
 30
0.0
 10
144.3477837696364
 20
152.1010532825662
 30
0.0
 10
144.3613575218551
 20
152.0958008967801
 30
0.0
 10
144.3750551115724
 20
152.0906495104612
 30
0.0
 10
144.38887160388
 20
152.085600967358
 30
0.0
 10
144.4026880905734
 20
152.0805524263059
 30
0.0
 10
144.4166234797615
 20
152.0756067283856
 30
0.0
 10
144.430672776008
 20
152.0707656559256
 30
0.0
 10
144.4447220668308
 20
152.0659245853351
 30
0.0
 10
144.458885264626
 20
152.0611881401256
 30
0.0
 10
144.4731572855842
 20
152.0565580225526
 30
0.0
 10
144.4874293012895
 20
152.0519279066853
 30
0.0
 10
144.5018101400769
 20
152.0474041183765
 30
0.0
 10
144.516294641838
 20
152.0429882832608
 30
0.0
 10
144.5307791385032
 20
152.0385724496999
 30
0.0
 10
144.5453672980677
 20
152.0342645692569
 30
0.0
 10
144.5600538855736
 20
152.0300661885425
 30
0.0
 10
144.5747404681185
 20
152.0258678092439
 30
0.0
 10
144.5895254785407
 20
152.021778929601
 30
0.0
 10
144.6044036113919
 20
152.0178010164325
 30
0.0
 10
144.6192817394009
 20
152.0138231045586
 30
0.0
 10
144.6342529897799
 20
152.0099561590872
 30
0.0
 10
144.6493119902514
 20
152.0062015659256
 30
0.0
 10
144.6643709859756
 20
152.0024469739483
 30
0.0
 10
144.6795177317359
 20
151.9988047342092
 30
0.0
 10
144.6947467923228
 20
151.99527615073
 30
0.0
 10
144.7099758482349
 20
151.9917475683337
 30
0.0
 10
144.7252872189211
 20
151.9883326421279
 30
0.0
 10
144.7406754101316
 20
151.9850325933671
 30
0.0
 10
144.7560635967174
 20
151.9817325455973
 30
0.0
 10
144.7715286037826
 20
151.9785473752035
 30
0.0
 10
144.7870648819807
 20
151.9754782196344
 30
0.0
 10
144.8026011555824
 20
151.9724090649727
 30
0.0
 10
144.8182087002751
 20
151.9694559250679
 30
0.0
 10
144.8338819156147
 20
151.966619853419
 30
0.0
 10
144.8495551263604
 20
151.9637837826014
 30
0.0
 10
144.8652940077149
 20
151.9610647799735
 30
0.0
 10
144.8810929121333
 20
151.9584638118711
 30
0.0
 10
144.8968918119596
 20
151.955862844526
 30
0.0
 10
144.9127507348151
 20
151.9533799116395
 30
0.0
 10
144.9286639902096
 20
151.9510159051124
 30
0.0
 10
144.9445772412764
 20
151.9486518992287
 30
0.0
 10
144.9605448248507
 20
151.9464068196393
 30
0.0
 10
144.9765610115349
 20
151.9442814772771
 30
0.0
 10
144.992577194304
 20
151.9421561354341
 30
0.0
 10
145.0086419801587
 20
151.9401505307608
 30
0.0
 10
145.0247496049415
 20
151.9382653857875
 30
0.0
 10
145.0408572261821
 20
151.9363802412294
 30
0.0
 10
145.0570076863349
 20
151.9346155563187
 30
0.0
 10
145.0731951903179
 20
151.9329719663865
 30
0.0
 10
145.0893826910827
 20
151.931328376782
 30
0.0
 10
145.1056072356649
 20
151.9298058821082
 30
0.0
 10
145.121863003412
 20
151.9284050296078
 30
0.0
 10
145.1381187682189
 20
151.9270041773614
 30
0.0
 10
145.1544057561797
 20
151.9257249672444
 30
0.0
 10
145.1707181207817
 20
151.9245678581761
 30
0.0
 10
145.1870304826744
 20
151.9234107493
 30
0.0
 10
145.2033682212
 20
151.9223757414323
 30
0.0
 10
145.2197254848561
 20
151.9214632047934
 30
0.0
 10
145.2360827459898
 20
151.920550668297
 30
0.0
 10
145.2524595322503
 20
151.9197606029917
 30
0.0
 10
145.2688499290963
 20
151.9190932902993
 30
0.0
 10
145.2852403235578
 20
151.9184259777038
 30
0.0
 10
145.3016443286015
 20
151.9178814176843
 30
0.0
 10
145.3180562032286
 20
151.9174598022132
 30
0.0
 10
145.3344680755635
 20
151.9170381868018
 30
0.0
 10
145.3508878174779
 20
151.9167395159031
 30
0.0
 10
145.3673089985436
 20
151.9165638936655
 30
0.0
 10
145.3755159617766
 20
151.9164761213394
 30
0.0
 10
145.3837232844793
 20
151.9164190840043
 30
0.0
 10
145.3919303658363
 20
151.9163927833814
 30
0.0
 10
145.4001374466922
 20
151.9163664827597
 30
0.0
 10
145.4083442862025
 20
151.916370918847
 30
0.0
 10
145.4165501128364
 20
151.9164060925946
 30
0.0
 10
145.424755939025
 20
151.9164412663408
 30
0.0
 10
145.4329607523385
 20
151.916507177745
 30
0.0
 10
145.441163827186
 20
151.9166038209091
 30
0.0
 10
145.4493669016427
 20
151.9167004640686
 30
0.0
 10
145.457568237634
 20
151.9168278389835
 30
0.0
 10
145.465767097627
 20
151.9169859345375
 30
0.0
 10
145.4739659572786
 20
151.9171440300848
 30
0.0
 10
145.4821623409332
 20
151.9173328462665
 30
0.0
 10
145.49035551479
 20
151.917552366313
 30
0.0
 10
145.4985486883528
 20
151.9177718863522
 30
0.0
 10
145.5067386521179
 20
151.9180221102513
 30
0.0
 10
145.5149246719858
 20
151.9183030157095
 30
0.0
 10
145.5231106916035
 20
151.9185839211575
 30
0.0
 10
145.5312927673222
 20
151.9188955081616
 30
0.0
 10
145.5394701659905
 20
151.9192377488571
 30
0.0
 10
145.5476475644484
 20
151.9195799895439
 30
0.0
 10
145.5558202858552
 20
151.9199528839221
 30
0.0
 10
145.5639875978379
 20
151.9203563985815
 30
0.0
 10
145.572154909646
 20
151.9207599132333
 30
0.0
 10
145.5803168120308
 20
151.9211940481654
 30
0.0
 10
145.5884725736092
 20
151.9216587644318
 30
0.0
 10
145.5966283350438
 20
151.9221234806906
 30
0.0
 10
145.6047779556734
 20
151.9226187782814
 30
0.0
 10
145.612920705213
 20
151.9231446127259
 30
0.0
 10
145.621063454641
 20
151.9236704471633
 30
0.0
 10
145.6291993329789
 20
151.9242268184531
 30
0.0
 10
145.6373276111803
 20
151.9248136765948
 30
0.0
 10
145.6454558892984
 20
151.9254005347297
 30
0.0
 10
145.65357656728
 20
151.9260178797152
 30
0.0
 10
145.6616889174448
 20
151.9266656560373
 30
0.0
 10
145.6698012675493
 20
151.9273134323539
 30
0.0
 10
145.6779052898383
 20
151.9279916400073
 30
0.0
 10
145.6860002581247
 20
151.9287002179798
 30
0.0
 10
145.694095226374
 20
151.929408795949
 30
0.0
 10
145.7021811406219
 20
151.9301477442378
 30
0.0
 10
145.7102572763109
 20
151.9309169963397
 30
0.0
 10
145.7183334119793
 20
151.9316862484402
 30
0.0
 10
145.7263997690886
 20
151.9324858043547
 30
0.0
 10
145.7344556248394
 20
151.9333155920983
 30
0.0
 10
145.7425114805831
 20
151.9341453798419
 30
0.0
 10
145.7505568349669
 20
151.9350053994149
 30
0.0
 10
145.7585909670748
 20
151.9358955733742
 30
0.0
 10
145.7666250991916
 20
151.9367857473338
 30
0.0
 10
145.7746480090292
 20
151.9377060756803
 30
0.0
 10
145.7826589776941
 20
151.9386564755092
 30
0.0
 10
145.7906699463712
 20
151.9396068753419
 30
0.0
 10
145.798668973873
 20
151.9405873466575
 30
0.0
 10
145.8066553434409
 20
151.9415978011577
 30
0.0
 10
145.8146417130313
 20
151.9426082556608
 30
0.0
 10
145.8226154246872
 20
151.9436486933481
 30
0.0
 10
145.8305757639235
 20
151.9447190203752
 30
0.0
 10
145.8385361031881
 20
151.9457893474065
 30
0.0
 10
145.8464830700338
 20
151.9468895637784
 30
0.0
 10
145.85441595238
 20
151.9480195710166
 30
0.0
 10
145.8623488347948
 20
151.9491495782644
 30
0.0
 10
145.8702676327114
 20
151.9503093763805
 30
0.0
 10
145.878171636582
 20
151.9514988618704
 30
0.0
 10
145.8860756405817
 20
151.9526883473802
 30
0.0
 10
145.893964850534
 20
151.9539075202634
 30
0.0
 10
145.9018385595478
 20
151.9551562715833
 30
0.0
 10
145.9097122687484
 20
151.9564050229308
 30
0.0
 10
145.9175704770073
 20
151.957683352716
 30
0.0
 10
145.9254124802138
 20
151.9589911466818
 30
0.0
 10
145.933254483661
 20
151.9602989406867
 30
0.0
 10
145.9410802820545
 20
151.9616361988751
 30
0.0
 10
145.948889174188
 20
151.9630028016669
 30
0.0
 10
145.9566980666123
 20
151.9643694045098
 30
0.0
 10
145.9644900527771
 20
151.9657653519569
 30
0.0
 10
145.972264434507
 20
151.9671905191392
 30
0.0
 10
145.9800388165763
 20
151.9686156863824
 30
0.0
 10
145.9877955942107
 20
151.9700700733626
 30
0.0
 10
145.9955340723942
 20
151.9715535499344
 30
0.0
 10
146.0032725509608
 20
151.9730370265813
 30
0.0
 10
146.0109927300765
 20
151.9745495928211
 30
0.0
 10
146.0186939180045
 20
151.9760911132669
 30
0.0
 10
146.0263951063574
 20
151.9776326337971
 30
0.0
 10
146.0340773035226
 20
151.9792031085362
 30
0.0
 10
146.0417398211714
 20
151.98080239687
 30
0.0
 10
146.0494023392841
 20
151.9824016853006
 30
0.0
 10
146.0570451778785
 20
151.984029787331
 30
0.0
 10
146.0646676521546
 20
151.9856865571534
 30
0.0
 10
146.0722901269311
 20
151.9873433270839
 30
0.0
 10
146.0798922373861
 20
151.9890287648102
 30
0.0
 10
146.0874733023732
 20
151.990742719356
 30
0.0
 10
146.0950543678936
 20
151.9924566740237
 30
0.0
 10
146.1026143879412
 20
151.9941991455143
 30
0.0
 10
146.1101526851453
 20
151.9959699777144
 30
0.0
 10
146.1176909829129
 20
151.9977408100474
 30
0.0
 10
146.12520755783
 20
151.999540003093
 30
0.0
 10
146.1327017364188
 20
152.0013673956244
 30
0.0
 10
146.1401959156005
 20
152.0031947883011
 30
0.0
 10
146.1476676984482
 20
152.0050503804695
 30
0.0
 10
146.1551164154976
 20
152.0069340058221
 30
0.0
 10
146.1625651331669
 20
152.0088176313304
 30
0.0
 10
146.1699907850336
 20
152.0107292900278
 30
0.0
 10
146.1773927057679
 20
152.0126688105554
 30
0.0
 10
146.1847946271447
 20
152.0146083312514
 30
0.0
 10
146.1921728173859
 20
152.0165757137837
 30
0.0
 10
146.1995266154153
 20
152.0185707817767
 30
0.0
 10
146.2068804141062
 20
152.0205658499488
 30
0.0
 10
146.2142098205814
 20
152.0225886035866
 30
0.0
 10
146.2215141781369
 20
152.0246388613294
 30
0.0
 10
146.2288185363719
 20
152.0266891192615
 30
0.0
 10
146.2360978456835
 20
152.0287668813048
 30
0.0
 10
146.2433514538558
 20
152.0308719611429
 30
0.0
 10
146.2506050627261
 20
152.0329770411838
 30
0.0
 10
146.257832970454
 20
152.035109439025
 30
0.0
 10
146.2650345294277
 20
152.0372689634363
 30
0.0
 10
146.2722360891162
 20
152.0394284880617
 30
0.0
 10
146.2794113000479
 20
152.0416151392616
 30
0.0
 10
146.2865595193367
 20
152.043828720923
 30
0.0
 10
146.2937077393531
 20
152.0460423028093
 30
0.0
 10
146.3008289677209
 20
152.0482828151622
 30
0.0
 10
146.3079225663921
 20
152.0505500570233
 30
0.0
 10
146.3150161658026
 20
152.0528172991183
 30
0.0
 10
146.3220821355114
 20
152.0551112707271
 30
0.0
 10
146.3291198424222
 20
152.0574317660788
 30
0.0
 10
146.3361575500792
 20
152.0597522616769
 30
0.0
 10
146.3431669949338
 20
152.0620992810234
 30
0.0
 10
146.350147548953
 20
152.0644726135782
 30
0.0
 10
146.3571281037275
 20
152.066845946391
 30
0.0
 10
146.3640797676608
 20
152.0692455924168
 30
0.0
 10
146.3710019178982
 20
152.071671336384
 30
0.0
 10
146.3779240688985
 20
152.0740970806193
 30
0.0
 10
146.3848167061946
 20
152.0765489228008
 30
0.0
 10
146.3916792122247
 20
152.0790266429627
 30
0.0
 10
146.3985417190216
 20
152.0815043634024
 30
0.0
 10
146.405374094545
 20
152.084007961828
 30
0.0
 10
146.4121757266261
 20
152.0865372136232
 30
0.0
 10
146.4189773594779
 20
152.089066465704
 30
0.0
 10
146.4257482488823
 20
152.0916213711608
 30
0.0
 10
146.4324877881879
 20
152.0942017007586
 30
0.0
 10
146.4392273282636
 20
152.0967820306523
 30
0.0
 10
146.4459355182347
 20
152.0993877846933
 30
0.0
 10
146.4526117570366
 20
152.1020187290966
 30
0.0
 10
146.4592879966097
 20
152.1046496738057
 30
0.0
 10
146.4659322850072
 20
152.1073058088829
 30
0.0
 10
146.4725440270012
 20
152.1099868959501
 30
0.0
 10
146.4791557697703
 20
152.1126679833312
 30
0.0
 10
146.4857349661314
 20
152.1153740227064
 30
0.0
 10
146.4922810262572
 20
152.1181047714729
 30
0.0
 10
146.4988270871556
 20
152.1208355205608
 30
0.0
 10
146.5053400118097
 20
152.1235909790435
 30
0.0
 10
146.5118192179598
 20
152.1263708989252
 30
0.0
 10
146.5182984248799
 20
152.1291508191354
 30
0.0
 10
146.5247439132876
 20
152.131955200749
 30
0.0
 10
146.5311551008809
 20
152.1347837949361
 30
0.0
 10
146.5375662892403
 20
152.137612389461
 30
0.0
 10
146.5439431767782
 20
152.140465196565
 30
0.0
 10
146.5502852100394
 20
152.1433419497827
 30
0.0
 10
146.5566272440629
 20
152.1462187033473
 30
0.0
 10
146.562934423806
 20
152.1491194030322
 30
0.0
 10
146.5692061173168
 20
152.1520438276599
 30
0.0
 10
146.5754778115861
 20
152.1549682526424
 30
0.0
 10
146.5817140196175
 20
152.1579164025716
 30
0.0
 10
146.5879144320716
 20
152.1608878669634
 30
0.0
 10
146.5941148452784
 20
152.1638593317184
 30
0.0
 10
146.6002794629002
 20
152.1668541109416
 30
0.0
 10
146.6064068017504
 20
152.1698724805781
 30
0.0
 10
146.6125341413462
 20
152.1728908505837
 30
0.0
 10
146.6186242021608
 20
152.1759328110082
 30
0.0
 10
146.6246799124813
 20
152.1789960561637
 30
0.0
 10
146.6307356235436
 20
152.1820593016936
 30
0.0
 10
146.636756984102
 20
152.1851438319597
 30
0.0
 10
146.6427304896755
 20
152.1882569564531
 30
0.0
 10
146.6487039959831
 20
152.1913700813296
 30
0.0
 10
146.6546296472934
 20
152.1945118004417
 30
0.0
 10
146.6605552986051
 20
152.1976535195532
 30
0.0
  0
SPLINE
  5
20C
330
70
100
AcDbEntity
  8
Isometric$4
 62
     7
370
    35
100
AcDbSpline
210
0.0
220
0.0
230
1.0
 70
     8
 71
     3
 72
    53
 73
    49
 74
     0
 42
0.0000000001
 43
0.0000000001
 40
0.0
 40
0.0
 40
0.0
 40
0.0
 40
1.0
 40
1.0
 40
1.0
 40
2.0
 40
2.0
 40
2.0
 40
3.0
 40
3.0
 40
3.0
 40
4.0
 40
4.0
 40
4.0
 40
5.0
 40
5.0
 40
5.0
 40
6.0
 40
6.0
 40
6.0
 40
7.0
 40
7.0
 40
7.0
 40
8.0
 40
8.0
 40
8.0
 40
9.0
 40
9.0
 40
9.0
 40
10.0
 40
10.0
 40
10.0
 40
11.0
 40
11.0
 40
11.0
 40
12.0
 40
12.0
 40
12.0
 40
13.0
 40
13.0
 40
13.0
 40
14.0
 40
14.0
 40
14.0
 40
15.0
 40
15.0
 40
15.0
 40
16.0
 40
16.0
 40
16.0
 40
16.0
 10
116.5241988422459
 20
140.4984614586492
 30
0.0
 10
116.5233835224462
 20
140.483723675713
 30
0.0
 10
116.5225682026458
 20
140.4689858927776
 30
0.0
 10
116.5224037769355
 20
140.4546930459737
 30
0.0
 10
116.5222393477522
 20
140.4403998972858
 30
0.0
 10
116.5227258401551
 20
140.426551703528
 30
0.0
 10
116.5236857665176
 20
140.4130853116456
 30
0.0
 10
116.5246457008745
 20
140.3996188076391
 30
0.0
 10
116.5260790770735
 20
140.3865341118672
 30
0.0
 10
116.5280265969889
 20
140.373901254343
 30
0.0
 10
116.5299741135123
 20
140.3612684188234
 30
0.0
 10
116.5324357719617
 20
140.3490874199774
 30
0.0
 10
116.5353900599022
 20
140.3373893244154
 30
0.0
 10
116.5383443227203
 20
140.325691328336
 30
0.0
 10
116.5417912066503
 20
140.3144762273254
 30
0.0
 10
116.5457222410897
 20
140.3037818864699
 30
0.0
 10
116.5496532307873
 20
140.2930876673345
 30
0.0
 10
116.5540683599719
 20
140.2829141965001
 30
0.0
 10
116.5589519095843
 20
140.2732937679464
 30
0.0
 10
116.5638354113658
 20
140.2636734336236
 30
0.0
 10
116.5691873243964
 20
140.2546061307464
 30
0.0
 10
116.5749910051045
 20
140.2461209016385
 30
0.0
 10
116.5807946674504
 20
140.2376356993742
 30
0.0
 10
116.5870500946138
 20
140.2297325671952
 30
0.0
 10
116.5937352219362
 20
140.2224390697652
 30
0.0
 10
116.597201999078
 20
140.2186568037054
 30
0.0
 10
116.6007843336812
 20
140.2150384841646
 30
0.0
 10
116.6044793398591
 20
140.2115868026924
 30
0.0
 10
116.6081743597853
 20
140.2081351083778
 30
0.0
 10
116.6119820521236
 20
140.2048500533735
 30
0.0
 10
116.6158988156577
 20
140.201734847451
 30
0.0
 10
116.6198155913955
 20
140.1986196318209
 30
0.0
 10
116.6238414390087
 20
140.1956742663319
 30
0.0
 10
116.6279727289576
 20
140.1929014583395
 30
0.0
 10
116.6321040310218
 20
140.190128642216
 30
0.0
 10
116.6363407760409
 20
140.1875283846022
 30
0.0
 10
116.6406791294821
 20
140.1851031566997
 30
0.0
 10
116.6450174967172
 20
140.1826779210859
 30
0.0
 10
116.6494574730192
 20
140.1804277162974
 30
0.0
 10
116.6539950745755
 20
140.1783546991526
 30
0.0
 10
116.658532693672
 20
140.1762816739949
 30
0.0
 10
116.6631679387781
 20
140.1743858378498
 30
0.0
 10
116.6678966685028
 20
140.1726690487868
 30
0.0
 10
116.6726254218716
 20
140.1709522511386
 30
0.0
 10
116.6774476607979
 20
140.1694145023617
 30
0.0
 10
116.6823591034557
 20
140.1680573493383
 30
0.0
 10
116.6851420278117
 20
140.1672883585421
 30
0.0
 10
116.6879535918157
 20
140.16657734961
 30
0.0
 10
116.6907929871792
 20
140.1659245491278
 30
0.0
  0
SPLINE
  5
20D
330
70
100
AcDbEntity
  8
Isometric$4
 62
     7
370
    35
100
AcDbSpline
210
0.0
220
0.0
230
1.0
 70
     8
 71
     3
 72
    26
 73
    22
 74
     0
 42
0.0000000001
 43
0.0000000001
 40
0.0
 40
0.0
 40
0.0
 40
0.0
 40
1.0
 40
1.0
 40
1.0
 40
2.0
 40
2.0
 40
2.0
 40
3.0
 40
3.0
 40
3.0
 40
4.0
 40
4.0
 40
4.0
 40
5.0
 40
5.0
 40
5.0
 40
6.0
 40
6.0
 40
6.0
 40
7.0
 40
7.0
 40
7.0
 40
7.0
 10
116.2653977693603
 20
140.4981535352993
 30
0.0
 10
116.275231893627
 20
140.5035263129405
 30
0.0
 10
116.2850660178931
 20
140.5088990905818
 30
0.0
 10
116.2960882248359
 20
140.513326795349
 30
0.0
 10
116.3071131349796
 20
140.5177555860122
 30
0.0
 10
116.3193267106251
 20
140.5212388401861
 30
0.0
 10
116.3320396218806
 20
140.5239064562903
 30
0.0
 10
116.3447559673438
 20
140.5265747930141
 30
0.0
 10
116.3579719182303
 20
140.5284270509437
 30
0.0
 10
116.3714682006985
 20
140.529363043426
 30
0.0
 10
116.3849684645819
 20
140.5302993120275
 30
0.0
 10
116.398749225468
 20
140.5303187745039
 30
0.0
 10
116.4124150355736
 20
140.5294208979924
 30
0.0
 10
116.4260852166141
 20
140.5285227343012
 30
0.0
 10
116.4396403733302
 20
140.5267066447177
 30
0.0
 10
116.4528428344799
 20
140.5240723596866
 30
0.0
 10
116.4660498460547
 20
140.521437166711
 30
0.0
 10
116.4789039188977
 20
140.5179832141838
 30
0.0
 10
116.4907368728878
 20
140.5135787338421
 30
0.0
 10
116.502574198679
 20
140.5091726262234
 30
0.0
 10
116.513389650953
 20
140.5038152882955
 30
0.0
 10
116.5242051032271
 20
140.4984579503682
 30
0.0
  0
SPLINE
  5
20E
330
70
100
AcDbEntity
  8
Isometric$4
 62
     7
370
    35
100
AcDbSpline
210
0.0
220
0.0
230
1.0
 70
     8
 71
     3
 72
     8
 73
     4
 74
     0
 42
0.0000000001
 43
0.0000000001
 40
0.0
 40
0.0
 40
0.0
 40
0.0
 40
1.0
 40
1.0
 40
1.0
 40
1.0
 10
117.7017260437914
 20
140.4492154471595
 30
0.0
 10
117.7459247417393
 20
141.3307585512027
 30
0.0
 10
117.7901234393727
 20
142.212301655414
 30
0.0
 10
117.834322136691
 20
143.093844759796
 30
0.0
  0
SPLINE
  5
20F
330
70
100
AcDbEntity
  8
Isometric$4
 62
     7
370
    35
100
AcDbSpline
210
0.0
220
0.0
230
1.0
 70
    24
 71
     3
 72
     8
 73
     4
 74
     0
 42
0.0000000001
 43
0.0000000001
 40
0.0
 40
0.0
 40
0.0
 40
0.0
 40
1.0
 40
1.0
 40
1.0
 40
1.0
 10
114.0361201782047
 20
140.9463339876787
 30
0.0
 10
113.9966630771568
 20
140.067471190021
 30
0.0
 10
113.957205976109
 20
139.1886083923633
 30
0.0
 10
113.9177488750598
 20
138.3097455947056
 30
0.0
  0
SPLINE
  5
210
330
70
100
AcDbEntity
  8
Isometric$4
 62
     7
370
    35
100
AcDbSpline
210
0.0
220
0.0
230
1.0
 70
     8
 71
     3
 72
    35
 73
    31
 74
     0
 42
0.0000000001
 43
0.0000000001
 40
0.0
 40
0.0
 40
0.0
 40
0.0
 40
1.0
 40
1.0
 40
1.0
 40
2.0
 40
2.0
 40
2.0
 40
3.0
 40
3.0
 40
3.0
 40
4.0
 40
4.0
 40
4.0
 40
5.0
 40
5.0
 40
5.0
 40
6.0
 40
6.0
 40
6.0
 40
7.0
 40
7.0
 40
7.0
 40
8.0
 40
8.0
 40
8.0
 40
9.0
 40
9.0
 40
9.0
 40
10.0
 40
10.0
 40
10.0
 40
10.0
 10
116.2653978281816
 20
140.4981194394108
 30
0.0
 10
116.2654834875064
 20
140.449438015425
 30
0.0
 10
116.2655704686029
 20
140.4007576657583
 30
0.0
 10
116.2713287919085
 20
140.3566869176688
 30
0.0
 10
116.2770884961338
 20
140.3126056008467
 30
0.0
 10
116.2885222630166
 20
140.2731360967486
 30
0.0
 10
116.3038616922063
 20
140.2382054492917
 30
0.0
 10
116.3192008518631
 20
140.2032754156084
 30
0.0
 10
116.3384455365719
 20
140.1728840790618
 30
0.0
 10
116.3615433986701
 20
140.148032216014
 30
0.0
 10
116.3762531286996
 20
140.1322054613735
 30
0.0
 10
116.3925255919298
 20
140.1186253510679
 30
0.0
 10
116.4101635764707
 20
140.1073709421371
 30
0.0
 10
116.4278017069456
 20
140.0961164400894
 30
0.0
 10
116.4468053813275
 20
140.0871876779005
 30
0.0
 10
116.4670092878838
 20
140.0806985933122
 30
0.0
 10
116.4872136453037
 20
140.0742093639155
 30
0.0
 10
116.5086182884664
 20
140.0701599210056
 30
0.0
 10
116.531018130755
 20
140.0685815175067
 30
0.0
 10
116.5534181755144
 20
140.0670030997408
 30
0.0
 10
116.5768134373922
 20
140.0678957660566
 30
0.0
 10
116.6009860362599
 20
140.0713179083497
 30
0.0
 10
116.6251583824959
 20
140.0747400148783
 30
0.0
 10
116.6501080494752
 20
140.0806915445114
 30
0.0
 10
116.67559607702
 20
140.0889266630355
 30
0.0
 10
116.7010836013963
 20
140.0971616189864
 30
0.0
 10
116.727109465083
 20
140.1076800736657
 30
0.0
 10
116.7534487434372
 20
140.1211427901367
 30
0.0
 10
116.7562261755001
 20
140.1225624106711
 30
0.0
 10
116.7590070925292
 20
140.1240147694617
 30
0.0
 10
116.761791127056
 20
140.1254964144788
 30
0.0
  0
SPLINE
  5
211
330
70
100
AcDbEntity
  8
Isometric$4
 62
     7
370
    35
100
AcDbSpline
210
0.0
220
0.0
230
1.0
 70
    24
 71
     3
 72
     8
 73
     4
 74
     0
 42
0.0000000001
 43
0.0000000001
 40
0.0
 40
0.0
 40
0.0
 40
0.0
 40
1.0
 40
1.0
 40
1.0
 40
1.0
 10
116.3535627540715
 20
142.256702032815
 30
0.0
 10
116.3241744258259
 20
141.6705192003151
 30
0.0
 10
116.2947860975892
 20
141.0843363678094
 30
0.0
 10
116.2653977693603
 20
140.4981535352993
 30
0.0
  0
SPLINE
  5
212
330
70
100
AcDbEntity
  8
Isometric$4
 62
     7
370
    35
100
AcDbSpline
210
0.0
220
0.0
230
1.0
 70
     8
 71
     3
 72
   185
 73
   181
 74
     0
 42
0.0000000001
 43
0.0000000001
 40
0.0
 40
0.0
 40
0.0
 40
0.0
 40
1.0
 40
1.0
 40
1.0
 40
2.0
 40
2.0
 40
2.0
 40
3.0
 40
3.0
 40
3.0
 40
4.0
 40
4.0
 40
4.0
 40
5.0
 40
5.0
 40
5.0
 40
6.0
 40
6.0
 40
6.0
 40
7.0
 40
7.0
 40
7.0
 40
8.0
 40
8.0
 40
8.0
 40
9.0
 40
9.0
 40
9.0
 40
10.0
 40
10.0
 40
10.0
 40
11.0
 40
11.0
 40
11.0
 40
12.0
 40
12.0
 40
12.0
 40
13.0
 40
13.0
 40
13.0
 40
14.0
 40
14.0
 40
14.0
 40
15.0
 40
15.0
 40
15.0
 40
16.0
 40
16.0
 40
16.0
 40
17.0
 40
17.0
 40
17.0
 40
18.0
 40
18.0
 40
18.0
 40
19.0
 40
19.0
 40
19.0
 40
20.0
 40
20.0
 40
20.0
 40
21.0
 40
21.0
 40
21.0
 40
22.0
 40
22.0
 40
22.0
 40
23.0
 40
23.0
 40
23.0
 40
24.0
 40
24.0
 40
24.0
 40
25.0
 40
25.0
 40
25.0
 40
26.0
 40
26.0
 40
26.0
 40
27.0
 40
27.0
 40
27.0
 40
28.0
 40
28.0
 40
28.0
 40
29.0
 40
29.0
 40
29.0
 40
30.0
 40
30.0
 40
30.0
 40
31.0
 40
31.0
 40
31.0
 40
32.0
 40
32.0
 40
32.0
 40
33.0
 40
33.0
 40
33.0
 40
34.0
 40
34.0
 40
34.0
 40
35.0
 40
35.0
 40
35.0
 40
36.0
 40
36.0
 40
36.0
 40
37.0
 40
37.0
 40
37.0
 40
38.0
 40
38.0
 40
38.0
 40
39.0
 40
39.0
 40
39.0
 40
40.0
 40
40.0
 40
40.0
 40
41.0
 40
41.0
 40
41.0
 40
42.0
 40
42.0
 40
42.0
 40
43.0
 40
43.0
 40
43.0
 40
44.0
 40
44.0
 40
44.0
 40
45.0
 40
45.0
 40
45.0
 40
46.0
 40
46.0
 40
46.0
 40
47.0
 40
47.0
 40
47.0
 40
48.0
 40
48.0
 40
48.0
 40
49.0
 40
49.0
 40
49.0
 40
50.0
 40
50.0
 40
50.0
 40
51.0
 40
51.0
 40
51.0
 40
52.0
 40
52.0
 40
52.0
 40
53.0
 40
53.0
 40
53.0
 40
54.0
 40
54.0
 40
54.0
 40
55.0
 40
55.0
 40
55.0
 40
56.0
 40
56.0
 40
56.0
 40
57.0
 40
57.0
 40
57.0
 40
58.0
 40
58.0
 40
58.0
 40
59.0
 40
59.0
 40
59.0
 40
60.0
 40
60.0
 40
60.0
 40
60.0
 10
146.5483418101848
 20
130.7980296659692
 30
0.0
 10
146.5954793483726
 20
130.8219781437361
 30
0.0
 10
146.640952251184
 20
130.8488807578737
 30
0.0
 10
146.6846304961734
 20
130.878675333261
 30
0.0
 10
146.7703801236918
 20
130.9371683826558
 30
0.0
 10
146.8492127829813
 20
131.0068076259577
 30
0.0
 10
146.9201521884158
 20
131.0866880868118
 30
0.0
 10
146.9250500278669
 20
131.0922032397815
 30
0.0
 10
146.9299102411428
 20
131.0977672113813
 30
0.0
 10
146.9347333463648
 20
131.1033802047112
 30
0.0
 10
146.9395564515013
 20
131.108993197944
 30
0.0
 10
146.9443424485872
 20
131.1146552129069
 30
0.0
 10
146.9490908863948
 20
131.1203658263868
 30
0.0
 10
146.9538393241377
 20
131.1260764397917
 30
0.0
 10
146.9585502026043
 20
131.1318356517126
 30
0.0
 10
146.9632233350321
 20
131.137643200277
 30
0.0
 10
146.9678964674118
 20
131.1434507487831
 30
0.0
 10
146.9725318537532
 20
131.1493066339322
 30
0.0
 10
146.9771292411917
 20
131.1552105441788
 30
0.0
 10
146.9817266285917
 20
131.1611144543792
 30
0.0
 10
146.9862860170907
 20
131.1670663896752
 30
0.0
 10
146.9908071763232
 20
131.1730660454323
 30
0.0
 10
146.9953283355262
 20
131.1790657011489
 30
0.0
 10
146.9998112654646
 20
131.1851130773236
 30
0.0
 10
147.0042557345711
 20
131.1912078611073
 30
0.0
 10
147.0087002036482
 20
131.1973026448538
 30
0.0
 10
147.0131062118932
 20
131.2034448362094
 30
0.0
 10
147.0174735329137
 20
131.2096341182063
 30
0.0
 10
147.0218408539047
 20
131.2158234001595
 30
0.0
 10
147.0261694876703
 20
131.2220597727546
 30
0.0
 10
147.0304592113173
 20
131.2283429138497
 30
0.0
 10
147.0347489349282
 20
131.2346260548909
 30
0.0
 10
147.0389997484204
 20
131.2409559644327
 30
0.0
 10
147.0432114328762
 20
131.2473323154858
 30
0.0
 10
147.0474231172846
 20
131.2537086664684
 30
0.0
 10
147.0515956726573
 20
131.2601314589609
 30
0.0
 10
147.0557288839513
 20
131.2666003610871
 30
0.0
 10
147.0598620951869
 20
131.2730692631169
 30
0.0
 10
147.0639559623451
 20
131.2795842747785
 30
0.0
 10
147.0680102743159
 20
131.2861450593567
 30
0.0
 10
147.0720645862117
 20
131.2927058438118
 30
0.0
 10
147.0760793429227
 20
131.299312401181
 30
0.0
 10
147.0800543372865
 20
131.3059643899464
 30
0.0
 10
147.0840293315516
 20
131.3126163785495
 30
0.0
 10
147.087964563474
 20
131.3193137985475
 30
0.0
 10
147.0918598298554
 20
131.3260563036539
 30
0.0
 10
147.0957550961174
 20
131.332798808553
 30
0.0
 10
147.0996103968434
 20
131.3395863985567
 30
0.0
 10
147.1034255328296
 20
131.3464187226492
 30
0.0
 10
147.1072406686715
 20
131.3532510464818
 30
0.0
 10
147.1110156397772
 20
131.3601281043993
 30
0.0
 10
147.1147502509524
 20
131.3670495406881
 30
0.0
 10
147.1184848619563
 20
131.373970976658
 30
0.0
 10
147.1221791130353
 20
131.3809367909952
 30
0.0
 10
147.1258328130345
 20
131.3879466233365
 30
0.0
 10
147.1294865128334
 20
131.3949564552896
 30
0.0
 10
147.1330996615575
 20
131.4020103052415
 30
0.0
 10
147.136672072074
 20
131.4091078081894
 30
0.0
 10
147.1402444823568
 20
131.4162053106758
 30
0.0
 10
147.1437761544378
 20
131.4233464661519
 30
0.0
 10
147.14726690538
 20
131.4305309051034
 30
0.0
 10
147.1507576560559
 20
131.4377153435081
 30
0.0
 10
147.1542074855994
 20
131.444943065382
 30
0.0
 10
147.157616214693
 20
131.4522136964231
 30
0.0
 10
147.161024943492
 20
131.4594843268367
 30
0.0
 10
147.1643925718474
 20
131.4667978664105
 30
0.0
 10
147.1677189273623
 20
131.4741539377902
 30
0.0
 10
147.1710452826173
 20
131.4815100085969
 30
0.0
 10
147.1743303650388
 20
131.4889086112025
 30
0.0
 10
147.1775740076741
 20
131.4963493644787
 30
0.0
 10
147.1808176501175
 20
131.5037901173135
 30
0.0
 10
147.1840198527792
 20
131.5112730208132
 30
0.0
 10
147.1871804525354
 20
131.5187976892646
 30
0.0
 10
147.1903410521582
 20
131.5263223574024
 30
0.0
 10
147.1934600488773
 20
131.533888790488
 30
0.0
 10
147.196537283816
 20
131.5414965984771
 30
0.0
 10
147.1996145186744
 20
131.5491044062705
 30
0.0
 10
147.2026499917541
 20
131.556753588964
 30
0.0
 10
147.2056435483314
 20
131.5644437521689
 30
0.0
 10
147.2086371048753
 20
131.572133915284
 30
0.0
 10
147.2115887449173
 20
131.5798650589077
 30
0.0
 10
147.2144983179405
 20
131.5876367843591
 30
0.0
 10
147.2174078909663
 20
131.5954085098194
 30
0.0
 10
147.2202753969739
 20
131.6032208171074
 30
0.0
 10
147.2231006896482
 20
131.6110733032871
 30
0.0
 10
147.2259259823585
 20
131.6189257895651
 30
0.0
 10
147.2287090617381
 20
131.6268184547363
 30
0.0
 10
147.2314497857027
 20
131.6347508916593
 30
0.0
 10
147.2341905097275
 20
131.6426833287574
 30
0.0
 10
147.2368888783367
 20
131.6506555376081
 30
0.0
 10
147.2395447536901
 20
131.6586671069058
 30
0.0
 10
147.2422006291224
 20
131.6666786764417
 30
0.0
 10
147.244814011295
 20
131.6747296064272
 30
0.0
 10
147.2473847666266
 20
131.6828194814309
 30
0.0
 10
147.2499555220501
 20
131.6909093567286
 30
0.0
 10
147.2524836506281
 20
131.699038177047
 30
0.0
 10
147.2549690230488
 20
131.70720552288
 30
0.0
 10
147.2574543955715
 20
131.7153728690486
 30
0.0
 10
147.2598970119317
 20
131.7235787407343
 30
0.0
 10
147.2622967471014
 20
131.7318227143952
 30
0.0
 10
147.2646964823789
 20
131.7400666884218
 30
0.0
 10
147.2670533364607
 20
131.7483487644275
 30
0.0
 10
147.2693671886202
 20
131.7566685148816
 30
0.0
 10
147.2716810408869
 20
131.7649882657188
 30
0.0
 10
147.2739518912229
 20
131.7733456910075
 30
0.0
 10
147.2761796232144
 20
131.7817403592726
 30
0.0
 10
147.2784073553086
 20
131.7901350279271
 30
0.0
 10
147.2805919690518
 20
131.7985669395619
 30
0.0
 10
147.2827333523458
 20
131.8070356587994
 30
0.0
 10
147.2848747357372
 20
131.8155043784226
 30
0.0
 10
147.2869728886781
 20
131.8240099056538
 30
0.0
 10
147.2890277034052
 20
131.8325518012665
 30
0.0
 10
147.2910825182203
 20
131.8410936972418
 30
0.0
 10
147.2930939948184
 20
131.8496719616026
 30
0.0
 10
147.2950620297847
 20
131.858286151314
 30
0.0
 10
147.2970300648281
 20
131.866900341356
 30
0.0
 10
147.2989546582363
 20
131.8755504567524
 30
0.0
 10
147.3008357109537
 20
131.8842360507089
 30
0.0
 10
147.3027167637313
 20
131.892921644947
 30
0.0
 10
147.3045542758168
 20
131.901642717751
 30
0.0
 10
147.3063481525184
 20
131.9103988186101
 30
0.0
 10
147.3081420292662
 20
131.9191549196913
 30
0.0
 10
147.3098922706275
 20
131.9279460488316
 30
0.0
 10
147.3115987862948
 20
131.93677175186
 30
0.0
 10
147.313305301991
 20
131.9455974550341
 30
0.0
 10
147.3149680919893
 20
131.9544577320971
 30
0.0
 10
147.3165870703693
 20
131.9633521252596
 30
0.0
 10
147.3182060487604
 20
131.9722465184792
 30
0.0
 10
147.3197812155313
 20
131.9811750277988
 30
0.0
 10
147.3213124891574
 20
131.9901371918602
 30
0.0
 10
147.3228437627759
 20
131.999099355874
 30
0.0
 10
147.3243311432509
 20
132.0080951746301
 30
0.0
 10
147.3257745534629
 20
132.0171241832463
 30
0.0
 10
147.3272179636481
 20
132.0261531916983
 30
0.0
 10
147.3286174035717
 20
132.0352153900111
 30
0.0
 10
147.3299728005298
 20
132.0443103098298
 30
0.0
 10
147.3313281974424
 20
132.053405229352
 30
0.0
 10
147.3326395513914
 20
132.0625328703801
 30
0.0
 10
147.3339067940976
 20
132.0716927611388
 30
0.0
 10
147.3351740367402
 20
132.0808526514515
 30
0.0
 10
147.3363971681426
 20
132.0900447914924
 30
0.0
 10
147.3375761244486
 20
132.0992687061127
 30
0.0
 10
147.3387550806775
 20
132.1084926201247
 30
0.0
 10
147.3398898618152
 20
132.1177483087129
 30
0.0
 10
147.3409804084544
 20
132.1270352934003
 30
0.0
 10
147.3420709550011
 20
132.136322277301
 30
0.0
 10
147.3431172670565
 20
132.1456405572964
 30
0.0
 10
147.3441192896184
 20
132.1549896516571
 30
0.0
 10
147.3451213120745
 20
132.164338745038
 30
0.0
 10
147.3460790450475
 20
132.1737186527772
 30
0.0
 10
147.3469924381178
 20
132.1831288898453
 30
0.0
 10
147.3479058310732
 20
132.192539125725
 30
0.0
 10
147.3487748841388
 20
132.2019796909264
 30
0.0
 10
147.349599550842
 20
132.2114500975376
 30
0.0
 10
147.350424217422
 20
132.2209205027365
 30
0.0
 10
147.3512044976519
 20
132.2304207493355
 30
0.0
 10
147.351940351426
 20
132.2399503452214
 30
0.0
 10
147.3526762050725
 20
132.249479939455
 30
0.0
 10
147.3533676322761
 20
132.2590388829665
 30
0.0
 10
147.3540145902862
 20
132.2686266846053
 30
0.0
 10
147.3546615481654
 20
132.2782144843383
 30
0.0
 10
147.3552640368678
 20
132.2878311421883
 30
0.0
 10
147.3558220446432
 20
132.2974761489286
 30
0.0
 10
147.3563800522941
 20
132.3071211534903
 30
0.0
 10
147.3568935790354
 20
132.3167945069301
 30
0.0
 10
147.3573625185594
 20
132.326495753269
 30
0.0
 10
147.3578314579633
 20
132.3361969971405
 30
0.0
 10
147.3582558101692
 20
132.3459261338956
 30
0.0
 10
147.3586358429509
 20
132.3556824948576
 30
0.0
 10
147.3590158756248
 20
132.36543885305
 30
0.0
 10
147.3593515888976
 20
132.3752224354345
 30
0.0
 10
147.3596418756198
 20
132.3850333533922
 30
0.0
 10
147.3599321622514
 20
132.3948442682619
 30
0.0
 10
147.3601770223606
 20
132.4046825186881
 30
0.0
 10
147.3603805012662
 20
132.4145452913557
 30
0.0
 10
147.3605839800993
 20
132.424408060599
 30
0.0
 10
147.3607460777583
 20
132.4342953520671
 30
0.0
 10
147.3608516315019
 20
132.4442152543261
 30
0.0
 10
147.3609571852044
 20
132.4541351528087
 30
0.0
 10
147.3610061950366
 20
132.4640876620572
 30
0.0
 10
147.3610552048707
 20
132.4740401713064
 30
0.0
  0
SPLINE
  5
213
330
70
100
AcDbEntity
  8
Isometric$4
 62
     7
370
    35
100
AcDbSpline
210
0.0
220
0.0
230
1.0
 70
     8
 71
     3
 72
    71
 73
    67
 74
     0
 42
0.0000000001
 43
0.0000000001
 40
0.0
 40
0.0
 40
0.0
 40
0.0
 40
1.0
 40
1.0
 40
1.0
 40
2.0
 40
2.0
 40
2.0
 40
3.0
 40
3.0
 40
3.0
 40
4.0
 40
4.0
 40
4.0
 40
5.0
 40
5.0
 40
5.0
 40
6.0
 40
6.0
 40
6.0
 40
7.0
 40
7.0
 40
7.0
 40
8.0
 40
8.0
 40
8.0
 40
9.0
 40
9.0
 40
9.0
 40
10.0
 40
10.0
 40
10.0
 40
11.0
 40
11.0
 40
11.0
 40
12.0
 40
12.0
 40
12.0
 40
13.0
 40
13.0
 40
13.0
 40
14.0
 40
14.0
 40
14.0
 40
15.0
 40
15.0
 40
15.0
 40
16.0
 40
16.0
 40
16.0
 40
17.0
 40
17.0
 40
17.0
 40
18.0
 40
18.0
 40
18.0
 40
19.0
 40
19.0
 40
19.0
 40
20.0
 40
20.0
 40
20.0
 40
21.0
 40
21.0
 40
21.0
 40
22.0
 40
22.0
 40
22.0
 40
22.0
 10
138.8132474238049
 20
128.1343924899145
 30
0.0
 10
138.8130455563789
 20
128.1141438553745
 30
0.0
 10
138.8128436889516
 20
128.0938952208358
 30
0.0
 10
138.8124083170214
 20
128.0737842208415
 30
0.0
 10
138.8119729448409
 20
128.0536732092364
 30
0.0
 10
138.8113040678868
 20
128.0336998323355
 30
0.0
 10
138.8104644283461
 20
128.0138326498691
 30
0.0
 10
138.8096247884088
 20
127.9939654579942
 30
0.0
 10
138.8086143857265
 20
127.9742044606539
 30
0.0
 10
138.8074166807547
 20
127.9545634591751
 30
0.0
 10
138.8062189753311
 20
127.9349224502627
 30
0.0
 10
138.8048339674788
 20
127.9154014373029
 30
0.0
 10
138.8032664584202
 20
127.8960020349406
 30
0.0
 10
138.8016989489015
 20
127.876602626907
 30
0.0
 10
138.7999489380705
 20
127.8573248295409
 30
0.0
 10
138.7980156059996
 20
127.8381734563775
 30
0.0
 10
138.7960822735122
 20
127.8190220790887
 30
0.0
 10
138.7939656197072
 20
127.7999971260572
 30
0.0
 10
138.7916664277238
 20
127.7811024848805
 30
0.0
 10
138.7893672354008
 20
127.7622078409145
 30
0.0
 10
138.7868855048461
 20
127.7434435088418
 30
0.0
 10
138.7842216862867
 20
127.7248135533248
 30
0.0
 10
138.7815578674885
 20
127.7061835961484
 30
0.0
 10
138.7787119606541
 20
127.6876880155501
 30
0.0
 10
138.7756846015404
 20
127.6693307554988
 30
0.0
 10
138.7726572423054
 20
127.6509734947128
 30
0.0
 10
138.7694484307789
 20
127.6327545544848
 30
0.0
 10
138.7660588489926
 20
127.6146778356788
 30
0.0
 10
138.7626692672025
 20
127.5966011168644
 30
0.0
 10
138.7590989151533
 20
127.578666619474
 30
0.0
 10
138.7553485581031
 20
127.5608781783581
 30
0.0
 10
138.7515982011645
 20
127.5430897377666
 30
0.0
 10
138.7476678392386
 20
127.5254473534405
 30
0.0
 10
138.7435583104027
 20
127.5079547981321
 30
0.0
 10
138.7394487817696
 20
127.4904622436861
 30
0.0
 10
138.7351600862452
 20
127.4731195182416
 30
0.0
 10
138.7306931373888
 20
127.4559303297284
 30
0.0
 10
138.7262261887987
 20
127.4387411422373
 30
0.0
 10
138.7215809868973
 20
127.4217054916607
 30
0.0
 10
138.7167585182562
 20
127.4048270182186
 30
0.0
 10
138.7119360499013
 20
127.3879485457814
 30
0.0
 10
138.706936314828
 20
127.37122725046
 30
0.0
 10
138.7017603774142
 20
127.3546667093802
 30
0.0
 10
138.6965844402564
 20
127.3381061691186
 30
0.0
 10
138.6912323007766
 20
127.3217063830817
 30
0.0
 10
138.685705081827
 20
127.3054708402419
 30
0.0
 10
138.6801778630365
 20
127.2892352978713
 30
0.0
 10
138.6744755647883
 20
127.2731639986867
 30
0.0
 10
138.6685994381535
 20
127.2572604297906
 30
0.0
 10
138.662723311506
 20
127.241356860863
 30
0.0
 10
138.6566733564725
 20
127.2256210222246
 30
0.0
 10
138.6504506897033
 20
127.2100560698724
 30
0.0
 10
138.6442280226619
 20
127.1944911168477
 30
0.0
 10
138.6378326438706
 20
127.1790970501246
 30
0.0
 10
138.6312665132001
 20
127.1638779162689
 30
0.0
 10
138.6247003819026
 20
127.1486587809604
 30
0.0
 10
138.6179634986927
 20
127.1336145785519
 30
0.0
 10
138.6110550153698
 20
127.118745679952
 30
0.0
 10
138.5618816620025
 20
127.0129115089913
 30
0.0
 10
138.5040144656466
 20
126.9159588227888
 30
0.0
 10
138.438153498753
 20
126.8291220198151
 30
0.0
 10
138.3722925294331
 20
126.7422852136407
 30
0.0
 10
138.2984377889858
 20
126.6655642914408
 30
0.0
 10
138.217381502479
 20
126.5997434568729
 30
0.0
 10
138.1488683528205
 20
126.5441081337697
 30
0.0
 10
138.0752100275482
 20
126.4962604252464
 30
0.0
 10
137.9969551595603
 20
126.4565621470877
 30
0.0
  0
SPLINE
  5
214
330
70
100
AcDbEntity
  8
Isometric$4
 62
     7
370
    35
100
AcDbSpline
210
0.0
220
0.0
230
1.0
 70
     8
 71
     3
 72
   146
 73
   142
 74
     0
 42
0.0000000001
 43
0.0000000001
 40
0.0
 40
0.0
 40
0.0
 40
0.0
 40
1.0
 40
1.0
 40
1.0
 40
2.0
 40
2.0
 40
2.0
 40
3.0
 40
3.0
 40
3.0
 40
4.0
 40
4.0
 40
4.0
 40
5.0
 40
5.0
 40
5.0
 40
6.0
 40
6.0
 40
6.0
 40
7.0
 40
7.0
 40
7.0
 40
8.0
 40
8.0
 40
8.0
 40
9.0
 40
9.0
 40
9.0
 40
10.0
 40
10.0
 40
10.0
 40
11.0
 40
11.0
 40
11.0
 40
12.0
 40
12.0
 40
12.0
 40
13.0
 40
13.0
 40
13.0
 40
14.0
 40
14.0
 40
14.0
 40
15.0
 40
15.0
 40
15.0
 40
16.0
 40
16.0
 40
16.0
 40
17.0
 40
17.0
 40
17.0
 40
18.0
 40
18.0
 40
18.0
 40
19.0
 40
19.0
 40
19.0
 40
20.0
 40
20.0
 40
20.0
 40
21.0
 40
21.0
 40
21.0
 40
22.0
 40
22.0
 40
22.0
 40
23.0
 40
23.0
 40
23.0
 40
24.0
 40
24.0
 40
24.0
 40
25.0
 40
25.0
 40
25.0
 40
26.0
 40
26.0
 40
26.0
 40
27.0
 40
27.0
 40
27.0
 40
28.0
 40
28.0
 40
28.0
 40
29.0
 40
29.0
 40
29.0
 40
30.0
 40
30.0
 40
30.0
 40
31.0
 40
31.0
 40
31.0
 40
32.0
 40
32.0
 40
32.0
 40
33.0
 40
33.0
 40
33.0
 40
34.0
 40
34.0
 40
34.0
 40
35.0
 40
35.0
 40
35.0
 40
36.0
 40
36.0
 40
36.0
 40
37.0
 40
37.0
 40
37.0
 40
38.0
 40
38.0
 40
38.0
 40
39.0
 40
39.0
 40
39.0
 40
40.0
 40
40.0
 40
40.0
 40
41.0
 40
41.0
 40
41.0
 40
42.0
 40
42.0
 40
42.0
 40
43.0
 40
43.0
 40
43.0
 40
44.0
 40
44.0
 40
44.0
 40
45.0
 40
45.0
 40
45.0
 40
46.0
 40
46.0
 40
46.0
 40
47.0
 40
47.0
 40
47.0
 40
47.0
 10
123.1462523603287
 20
153.5495189325334
 30
0.0
 10
123.1511184412679
 20
153.5526045910011
 30
0.0
 10
123.1559845222083
 20
153.5556902494685
 30
0.0
 10
123.1608512151641
 20
153.5586677665186
 30
0.0
 10
123.1657182531275
 20
153.561645494651
 30
0.0
 10
123.1705859031935
 20
153.5645150660327
 30
0.0
 10
123.1754511940388
 20
153.5673043168337
 30
0.0
 10
123.1803167695174
 20
153.5700937308122
 30
0.0
 10
123.1851799854963
 20
153.5728028148119
 30
0.0
 10
123.1900388669476
 20
153.5754229844313
 30
0.0
 10
123.1948979489672
 20
153.5780432622093
 30
0.0
 10
123.1997526960979
 20
153.5805746182653
 30
0.0
 10
123.2046008945296
 20
153.5830182384462
 30
0.0
 10
123.2094491980497
 20
153.5854619115958
 30
0.0
 10
123.2142909525851
 20
153.5878178450661
 30
0.0
 10
123.2191240286127
 20
153.5900846108716
 30
0.0
 10
123.2239571148991
 20
153.5923513814904
 30
0.0
 10
123.2287815226386
 20
153.5945289840659
 30
0.0
 10
123.2335951124699
 20
153.5966166911491
 30
0.0
 10
123.2384086302064
 20
153.5987043669632
 30
0.0
 10
123.2432113303595
 20
153.6007021499781
 30
0.0
 10
123.2480010807847
 20
153.6026091206662
 30
0.0
 10
123.2527907007082
 20
153.6045160393953
 30
0.0
 10
123.2575673716116
 20
153.6063321507478
 30
0.0
 10
123.2623289593277
 20
153.6080565871686
 30
0.0
 10
123.267090393099
 20
153.6097809678385
 30
0.0
 10
123.2718367446578
 20
153.611413679505
 30
0.0
 10
123.2765658643584
 20
153.6129538190771
 30
0.0
 10
123.2812948521168
 20
153.614493915679
 30
0.0
 10
123.2860066089783
 20
153.6159414453516
 30
0.0
 10
123.290699001798
 20
153.6172955799529
 30
0.0
 10
123.2953913447571
 20
153.6186497001674
 30
0.0
 10
123.3000643240858
 20
153.6199104272951
 30
0.0
 10
123.3047159238775
 20
153.6210778083858
 30
0.0
 10
123.309367582615
 20
153.6222452042698
 30
0.0
 10
123.3139978612747
 20
153.6233192517509
 30
0.0
 10
123.3186045897984
 20
153.6242998211426
 30
0.0
 10
123.323211437562
 20
153.625280415916
 30
0.0
 10
123.3277947339723
 20
153.6261675277609
 30
0.0
 10
123.3323523607123
 20
153.626961070805
 30
0.0
 10
123.3369101138631
 20
153.6277546358589
 30
0.0
 10
123.3414421959182
 20
153.6284546269235
 30
0.0
 10
123.3459464737816
 20
153.62906094873
 30
0.0
 10
123.3504508437326
 20
153.629667282932
 30
0.0
 10
123.3549274083535
 20
153.630179944047
 30
0.0
 10
123.3593740976424
 20
153.6305988402763
 30
0.0
 10
123.3638208151321
 20
153.6310177391604
 30
0.0
 10
123.3682376569106
 20
153.6313428719696
 30
0.0
 10
123.3726223357008
 20
153.6315741341562
 30
0.0
 10
123.3748838749081
 20
153.6316934150731
 30
0.0
 10
123.3771368577548
 20
153.6317877234691
 30
0.0
 10
123.3793810841183
 20
153.6318570832135
 30
0.0
 10
123.3816252895246
 20
153.6319264423104
 30
0.0
 10
123.3838607386093
 20
153.6319708532216
 30
0.0
 10
123.3860871749103
 20
153.6319903351165
 30
0.0
 10
123.3883135840322
 20
153.6320098167734
 30
0.0
 10
123.3905309805892
 20
153.6320043700242
 30
0.0
 10
123.3927391241509
 20
153.6319740148698
 30
0.0
 10
123.3949472355012
 20
153.631943660158
 30
0.0
 10
123.3971460941264
 20
153.6318883977676
 30
0.0
 10
123.3993354560017
 20
153.6318082470652
 30
0.0
 10
123.4015247821555
 20
153.6317280976709
 30
0.0
 10
123.4037046118714
 20
153.6316230607764
 30
0.0
 10
123.4058747025574
 20
153.6314931555337
 30
0.0
 10
123.4080447558441
 20
153.6313632525278
 30
0.0
 10
123.4102050704358
 20
153.6312084820322
 30
0.0
 10
123.4123554036712
 20
153.6310288629882
 30
0.0
 10
123.4145056999581
 20
153.6308492470305
 30
0.0
 10
123.4166460152294
 20
153.6306447833781
 30
0.0
 10
123.4187761067885
 20
153.6304154906864
 30
0.0
 10
123.4209061642593
 20
153.6301862016618
 30
0.0
 10
123.4230259983433
 20
153.6299320843932
 30
0.0
 10
123.4251353667659
 20
153.6296531580703
 30
0.0
 10
123.427244706629
 20
153.629374235525
 30
0.0
 10
123.4293435811142
 20
153.6290705045983
 30
0.0
 10
123.431431745679
 20
153.6287419824331
 30
0.0
 10
123.4335198901291
 20
153.6284134634336
 30
0.0
 10
123.4355973248674
 20
153.6280601536748
 30
0.0
 10
123.4376638126391
 20
153.6276820785638
 30
0.0
 10
123.4397302915117
 20
153.6273040050827
 30
0.0
 10
123.4417858235127
 20
153.6269011664622
 30
0.0
 10
123.4438301298354
 20
153.6264735502356
 30
0.0
 10
123.4458744381019
 20
153.6260459336021
 30
0.0
 10
123.4479075206707
 20
153.6255935393151
 30
0.0
 10
123.4499291348438
 20
153.6251164585208
 30
0.0
 10
123.451950763362
 20
153.6246393743421
 30
0.0
 10
123.4539609233208
 20
153.6241376033068
 30
0.0
 10
123.4559593950704
 20
153.6236112764543
 30
0.0
 10
123.4579578916634
 20
153.6230849430583
 30
0.0
 10
123.4599446997539
 20
153.6225340532345
 30
0.0
 10
123.4619195959903
 20
153.6219587281109
 30
0.0
 10
123.4638945237643
 20
153.6213833937998
 30
0.0
 10
123.4658575393029
 20
153.6207836234077
 30
0.0
 10
123.4678084221249
 20
153.6201595406776
 30
0.0
 10
123.4697593397918
 20
153.6195354467989
 30
0.0
 10
123.4716981243064
 20
153.6188870397121
 30
0.0
 10
123.4736245560078
 20
153.6182144422658
 30
0.0
 10
123.4755510228962
 20
153.6175418325337
 30
0.0
 10
123.4774651365192
 20
153.6168450315575
 30
0.0
 10
123.4793666783096
 20
153.616124162114
 30
0.0
 10
123.4812682530666
 20
153.6154032801727
 30
0.0
 10
123.483157255554
 20
153.6146583289298
 30
0.0
 10
123.485033467954
 20
153.6138894307809
 30
0.0
 10
123.4869097089399
 20
153.613120520917
 30
0.0
 10
123.4887731594496
 20
153.6123276634187
 30
0.0
 10
123.4906236022546
 20
153.6115109803329
 30
0.0
 10
123.4924740674856
 20
153.6106942873502
 30
0.0
 10
123.4943115246975
 20
153.6098537682031
 30
0.0
 10
123.4961357570382
 20
153.6089895445353
 30
0.0
 10
123.4979600042343
 20
153.6081253138303
 30
0.0
 10
123.4997710263436
 20
153.607237378218
 30
0.0
 10
123.5015686067787
 20
153.6063258590376
 30
0.0
 10
123.503366193444
 20
153.6054143366968
 30
0.0
 10
123.5051503383375
 20
153.6044792306243
 30
0.0
 10
123.5069208247382
 20
153.6035206615528
 30
0.0
 10
123.5086913080286
 20
153.602562094166
 30
0.0
 10
123.5104481328724
 20
153.601580063864
 30
0.0
 10
123.5121910831022
 20
153.6005746920431
 30
0.0
 10
123.5139340204898
 20
153.5995693276309
 30
0.0
 10
123.5156630834683
 20
153.5985406220428
 30
0.0
 10
123.5173780531225
 20
153.597488692892
 30
0.0
 10
123.5190930001197
 20
153.5964367776387
 30
0.0
 10
123.5207938541669
 20
153.5953616394345
 30
0.0
 10
123.5224804052641
 20
153.5942634090785
 30
0.0
 10
123.5241669240923
 20
153.5931651997333
 30
0.0
 10
123.5258391405205
 20
153.5920438991194
 30
0.0
 10
123.5274968093491
 20
153.5908995883525
 30
0.0
 10
123.5291544367811
 20
153.5897553061617
 30
0.0
 10
123.5307975173425
 20
153.5885880149673
 30
0.0
 10
123.532425934715
 20
153.5873979814003
 30
0.0
 10
123.5340543022949
 20
153.5862079842212
 30
0.0
 10
123.5356680075818
 20
153.5849952460624
 30
0.0
 10
123.5372664503638
 20
153.5837593420116
 30
0.0
 10
123.5388648359319
 20
153.5825234821972
 30
0.0
 10
123.5404479600873
 20
153.5812644581522
 30
0.0
 10
123.5420170251191
 20
153.5799844272415
 30
0.0
 10
123.5435860266632
 20
153.5787044481239
 30
0.0
 10
123.5451409702228
 20
153.5774034638414
 30
0.0
 10
123.5466763277872
 20
153.576073997576
 30
0.0
 10
123.5482116171358
 20
153.574744590379
 30
0.0
 10
123.5497273222288
 20
153.5733867037316
 30
0.0
 10
123.5512430273218
 20
153.5720288170832
 30
0.0
  0
SPLINE
  5
215
330
70
100
AcDbEntity
  8
Isometric$4
 62
     7
370
    35
100
AcDbSpline
210
0.0
220
0.0
230
1.0
 70
     8
 71
     3
 72
    38
 73
    34
 74
     0
 42
0.0000000001
 43
0.0000000001
 40
0.0
 40
0.0
 40
0.0
 40
0.0
 40
1.0
 40
1.0
 40
1.0
 40
2.0
 40
2.0
 40
2.0
 40
3.0
 40
3.0
 40
3.0
 40
4.0
 40
4.0
 40
4.0
 40
5.0
 40
5.0
 40
5.0
 40
6.0
 40
6.0
 40
6.0
 40
7.0
 40
7.0
 40
7.0
 40
8.0
 40
8.0
 40
8.0
 40
9.0
 40
9.0
 40
9.0
 40
10.0
 40
10.0
 40
10.0
 40
11.0
 40
11.0
 40
11.0
 40
11.0
 10
123.6091443296057
 20
153.3458851247312
 30
0.0
 10
123.6115455313907
 20
153.341759320413
 30
0.0
 10
123.6139467331764
 20
153.3376335160954
 30
0.0
 10
123.6162118220284
 20
153.333356394003
 30
0.0
 10
123.6184767755071
 20
153.3290795275346
 30
0.0
 10
123.620605632323
 20
153.3246513613793
 30
0.0
 10
123.6226334845878
 20
153.3201185845172
 30
0.0
 10
123.6246613074192
 20
153.3155858734471
 30
0.0
 10
123.6265881286339
 20
153.3109485547099
 30
0.0
 10
123.6284032282266
 20
153.3062001513017
 30
0.0
 10
123.6302183349352
 20
153.3014517292799
 30
0.0
 10
123.6319217191458
 20
153.2965922217193
 30
0.0
 10
123.633514942043
 20
153.2916292773509
 30
0.0
 10
123.6351081718641
 20
153.286666311407
 30
0.0
 10
123.6365912394138
 20
153.281599907757
 30
0.0
 10
123.6379624809184
 20
153.2764338774846
 30
0.0
 10
123.6393337161568
 20
153.2712678708132
 30
0.0
 10
123.640593126375
 20
153.2660022384303
 30
0.0
 10
123.6417396530878
 20
153.2606416030154
 30
0.0
 10
123.6428861634123
 20
153.2552810442293
 30
0.0
 10
123.6439197934604
 20
153.2498254851249
 30
0.0
 10
123.6448402076211
 20
153.2442798472182
 30
0.0
 10
123.645760606678
 20
153.2387343003013
 30
0.0
 10
123.6465677935623
 20
153.233098677537
 30
0.0
 10
123.6472578218267
 20
153.2273757515542
 30
0.0
 10
123.6479478483136
 20
153.2216528403
 30
0.0
 10
123.6485207167845
 20
153.2158426262772
 30
0.0
 10
123.6489860885766
 20
153.2099562126768
 30
0.0
 10
123.6494514768765
 20
153.2040695902701
 30
0.0
 10
123.6498093608723
 20
153.198106762879
 30
0.0
 10
123.6500185035272
 20
153.1920478901623
 30
0.0
 10
123.6502276683393
 20
153.1859883755532
 30
0.0
 10
123.6502880602941
 20
153.1798327952674
 30
0.0
 10
123.6503484522482
 20
153.1736772149816
 30
0.0
  0
SPLINE
  5
216
330
70
100
AcDbEntity
  8
Isometric$4
 62
     7
370
    35
100
AcDbSpline
210
0.0
220
0.0
230
1.0
 70
     8
 71
     3
 72
    41
 73
    37
 74
     0
 42
0.0000000001
 43
0.0000000001
 40
0.0
 40
0.0
 40
0.0
 40
0.0
 40
1.0
 40
1.0
 40
1.0
 40
2.0
 40
2.0
 40
2.0
 40
3.0
 40
3.0
 40
3.0
 40
4.0
 40
4.0
 40
4.0
 40
5.0
 40
5.0
 40
5.0
 40
6.0
 40
6.0
 40
6.0
 40
7.0
 40
7.0
 40
7.0
 40
8.0
 40
8.0
 40
8.0
 40
9.0
 40
9.0
 40
9.0
 40
10.0
 40
10.0
 40
10.0
 40
11.0
 40
11.0
 40
11.0
 40
12.0
 40
12.0
 40
12.0
 40
12.0
 10
123.6503473561935
 20
153.2140852126207
 30
0.0
 10
123.6502869158675
 20
153.218934703465
 30
0.0
 10
123.6502264755427
 20
153.223784194309
 30
0.0
 10
123.6500403596816
 20
153.2285193740174
 30
0.0
 10
123.6498542585616
 20
153.2332541786928
 30
0.0
 10
123.6495425018127
 20
153.2378746903401
 30
0.0
 10
123.6491402193284
 20
153.2424065308768
 30
0.0
 10
123.6487379477355
 20
153.2469382487199
 30
0.0
 10
123.6482451553092
 20
153.2513813002543
 30
0.0
 10
123.6476539177888
 20
153.2557237951995
 30
0.0
 10
123.6470626788894
 20
153.2600663002759
 30
0.0
 10
123.6463729944364
 20
153.2643082482945
 30
0.0
 10
123.6455885051248
 20
153.2684477602286
 30
0.0
 10
123.644804004733
 20
153.2725873306262
 30
0.0
 10
123.6439246968047
 20
153.2766244620464
 30
0.0
 10
123.6429511367253
 20
153.2805545048118
 30
0.0
 10
123.6419775633833
 20
153.2844846011206
 30
0.0
 10
123.6409097353209
 20
153.2883076058568
 30
0.0
 10
123.6397491118188
 20
153.2920196009975
 30
0.0
 10
123.6385884808851
 20
153.2957316199112
 30
0.0
 10
123.6373350533221
 20
153.2993326278069
 30
0.0
 10
123.635989912589
 20
153.3028181251075
 30
0.0
 10
123.6346447741481
 20
153.3063036164665
 30
0.0
 10
123.6332079228503
 20
153.3096735976246
 30
0.0
 10
123.6316812439381
 20
153.3129246725006
 30
0.0
 10
123.630154572034
 20
153.3161757324533
 30
0.0
 10
123.6285380733381
 20
153.3193078872157
 30
0.0
 10
123.6268310739196
 20
153.3223133762864
 30
0.0
 10
123.6251240674038
 20
153.3253188778507
 30
0.0
 10
123.6233265594115
 20
153.3281977126717
 30
0.0
 10
123.6214476748367
 20
153.330957930264
 30
0.0
 10
123.6195687315483
 20
153.3337182341126
 30
0.0
 10
123.6176084065909
 20
153.3363599133201
 30
0.0
 10
123.6155396650611
 20
153.3388316163554
 30
0.0
 10
123.6134707503734
 20
153.341303526278
 30
0.0
 10
123.6112934009616
 20
153.3436054315713
 30
0.0
 10
123.6091160515506
 20
153.3459073368656
 30
0.0
  0
SPLINE
  5
217
330
70
100
AcDbEntity
  8
Isometric$4
 62
     7
370
    35
100
AcDbSpline
210
0.0
220
0.0
230
1.0
 70
     8
 71
     3
 72
   116
 73
   112
 74
     0
 42
0.0000000001
 43
0.0000000001
 40
0.0
 40
0.0
 40
0.0
 40
0.0
 40
1.0
 40
1.0
 40
1.0
 40
2.0
 40
2.0
 40
2.0
 40
3.0
 40
3.0
 40
3.0
 40
4.0
 40
4.0
 40
4.0
 40
5.0
 40
5.0
 40
5.0
 40
6.0
 40
6.0
 40
6.0
 40
7.0
 40
7.0
 40
7.0
 40
8.0
 40
8.0
 40
8.0
 40
9.0
 40
9.0
 40
9.0
 40
10.0
 40
10.0
 40
10.0
 40
11.0
 40
11.0
 40
11.0
 40
12.0
 40
12.0
 40
12.0
 40
13.0
 40
13.0
 40
13.0
 40
14.0
 40
14.0
 40
14.0
 40
15.0
 40
15.0
 40
15.0
 40
16.0
 40
16.0
 40
16.0
 40
17.0
 40
17.0
 40
17.0
 40
18.0
 40
18.0
 40
18.0
 40
19.0
 40
19.0
 40
19.0
 40
20.0
 40
20.0
 40
20.0
 40
21.0
 40
21.0
 40
21.0
 40
22.0
 40
22.0
 40
22.0
 40
23.0
 40
23.0
 40
23.0
 40
24.0
 40
24.0
 40
24.0
 40
25.0
 40
25.0
 40
25.0
 40
26.0
 40
26.0
 40
26.0
 40
27.0
 40
27.0
 40
27.0
 40
28.0
 40
28.0
 40
28.0
 40
29.0
 40
29.0
 40
29.0
 40
30.0
 40
30.0
 40
30.0
 40
31.0
 40
31.0
 40
31.0
 40
32.0
 40
32.0
 40
32.0
 40
33.0
 40
33.0
 40
33.0
 40
34.0
 40
34.0
 40
34.0
 40
35.0
 40
35.0
 40
35.0
 40
36.0
 40
36.0
 40
36.0
 40
37.0
 40
37.0
 40
37.0
 40
37.0
 10
122.8505789971792
 20
153.2348583216264
 30
0.0
 10
122.8539450048621
 20
153.2402945859604
 30
0.0
 10
122.8573110125457
 20
153.2457308502938
 30
0.0
 10
122.8607288238085
 20
153.2511247632218
 30
0.0
 10
122.8641469768107
 20
153.2565192154773
 30
0.0
 10
122.8676169437525
 20
153.2618713078576
 30
0.0
 10
122.8711229152286
 20
153.2671898890042
 30
0.0
 10
122.8746291736828
 20
153.2725089055004
 30
0.0
 10
122.8781714425655
 20
153.2777944052774
 30
0.0
 10
122.881752049333
 20
153.2830415368622
 30
0.0
 10
122.8853328731778
 20
153.2882889865588
 30
0.0
 10
122.8889520395553
 20
153.2934980634094
 30
0.0
 10
122.892607016936
 20
153.2986675860236
 30
0.0
 10
122.8962621338258
 20
153.3038373059577
 30
0.0
 10
122.8999530644537
 20
153.3089674686356
 30
0.0
 10
122.9036786230779
 20
153.314055957718
 30
0.0
 10
122.9074042425787
 20
153.319144529949
 30
0.0
 10
122.9111644912085
 20
153.324191427222
 30
0.0
 10
122.914957688297
 20
153.3291946157921
 30
0.0
 10
122.9171954082994
 20
153.3321461458254
 30
0.0
 10
122.9194445949298
 20
153.3350824644792
 30
0.0
 10
122.9217049883179
 20
153.3380032152066
 30
0.0
 10
122.9239653646664
 20
153.3409239439135
 30
0.0
 10
122.9262369476026
 20
153.3438291049298
 30
0.0
 10
122.9285194175399
 20
153.3467182841807
 30
0.0
 10
122.9308018599104
 20
153.3496074285366
 30
0.0
 10
122.9330951890196
 20
153.3524805915133
 30
0.0
 10
122.9353991000533
 20
153.3553373730824
 30
0.0
 10
122.9377029758481
 20
153.3581941109556
 30
0.0
 10
122.9400174332434
 20
153.3610344679218
 30
0.0
 10
122.9423421622806
 20
153.3638580376361
 30
0.0
 10
122.9446668518629
 20
153.3666815594271
 30
0.0
 10
122.947001812738
 20
153.3694882945368
 30
0.0
 10
122.9493467330594
 20
153.3722778389582
 30
0.0
 10
122.9516916137706
 20
153.3750673362612
 30
0.0
 10
122.9540464535906
 20
153.3778396434582
 30
0.0
 10
122.9564109437139
 20
153.3805943435839
 30
0.0
 10
122.958775399385
 20
153.3833490035704
 30
0.0
 10
122.961149505079
 20
153.3860860569985
 30
0.0
 10
122.963532900933
 20
153.3888051805321
 30
0.0
 10
122.9659162738899
 20
153.3915242779406
 30
0.0
 10
122.9683089368297
 20
153.3942254457991
 30
0.0
 10
122.9707105232517
 20
153.3969083843452
 30
0.0
 10
122.9731120960286
 20
153.3995913076497
 30
0.0
 10
122.975522592187
 20
153.4022560018498
 30
0.0
 10
122.9779416504966
 20
153.4049021657764
 30
0.0
 10
122.9803606996215
 20
153.4075483196546
 30
0.0
 10
122.9827883108327
 20
153.4101759434015
 30
0.0
 10
122.9852241253358
 20
153.4127847409739
 30
0.0
 10
122.9876599312716
 20
153.4153935293716
 30
0.0
 10
122.9901039404415
 20
153.417983491729
 30
0.0
 10
122.9925557946093
 20
153.420554331662
 30
0.0
 10
122.9950076444418
 20
153.4231251670485
 30
0.0
 10
122.9974673392439
 20
153.4256768800779
 30
0.0
 10
122.9999345214219
 20
153.4282091748479
 30
0.0
 10
123.0024017056078
 20
153.4307414716805
 30
0.0
 10
123.0048763771817
 20
153.4332543502219
 30
0.0
 10
123.007358180591
 20
153.435747516583
 30
0.0
 10
123.0098399894657
 20
153.4382406884352
 30
0.0
 10
123.012328930206
 20
153.4407141480203
 30
0.0
 10
123.0148246486793
 20
153.4431676026233
 30
0.0
 10
123.0173203735362
 20
153.4456210635022
 30
0.0
 10
123.0198228761571
 20
153.4480545192951
 30
0.0
 10
123.0223318036798
 20
153.4504676782251
 30
0.0
 10
123.0248407364695
 20
153.4528808422219
 30
0.0
 10
123.0273560941843
 20
153.4552737092692
 30
0.0
 10
123.0298775249459
 20
153.4576459881647
 30
0.0
 10
123.0323989583294
 20
153.4600182695286
 30
0.0
 10
123.0349264647712
 20
153.4623699626965
 30
0.0
 10
123.0374596931125
 20
153.464700776742
 30
0.0
 10
123.0399929204277
 20
153.4670315898445
 30
0.0
 10
123.0425318696391
 20
153.4693415238411
 30
0.0
 10
123.0450761900274
 20
153.4716302877936
 30
0.0
 10
123.0476205052757
 20
153.473919047122
 30
0.0
 10
123.0501701916798
 20
153.476186636492
 30
0.0
 10
123.0527248986838
 20
153.4784327647099
 30
0.0
 10
123.0552795965058
 20
153.4806788848553
 30
0.0
 10
123.0578393148892
 20
153.4829035440017
 30
0.0
 10
123.0604037031483
 20
153.4851064504502
 30
0.0
 10
123.0629680788063
 20
153.487309346075
 30
0.0
 10
123.0655371242943
 20
153.4894904892146
 30
0.0
 10
123.0681104884984
 20
153.4916495875586
 30
0.0
 10
123.0706838378618
 20
153.4938086734501
 30
0.0
 10
123.0732615058913
 20
153.4959457147998
 30
0.0
 10
123.0758431407579
 20
153.4980604181814
 30
0.0
 10
123.078424760284
 20
153.5001751089954
 30
0.0
 10
123.0810103466024
 20
153.5022674621076
 30
0.0
 10
123.0835995468376
 20
153.504337184089
 30
0.0
 10
123.0861887335349
 20
153.5064068952503
 30
0.0
 10
123.0887815341136
 20
153.5084539755202
 30
0.0
 10
123.0913775944728
 20
153.5104781267002
 30
0.0
 10
123.0939736459682
 20
153.5125022709671
 30
0.0
 10
123.0965729572216
 20
153.5145034863016
 30
0.0
 10
123.0991751721714
 20
153.5164814870969
 30
0.0
 10
123.1017773863583
 20
153.5184594873127
 30
0.0
 10
123.1043825042404
 20
153.5204142730034
 30
0.0
 10
123.1069901691518
 20
153.5223455060559
 30
0.0
 10
123.1095978453968
 20
153.5242767475041
 30
0.0
 10
123.1122080686936
 20
153.5261844361094
 30
0.0
 10
123.1148204752905
 20
153.5280684240698
 30
0.0
 10
123.1174329099296
 20
153.5299524322527
 30
0.0
 10
123.120047527917
 20
153.5318127392816
 30
0.0
 10
123.1226639808396
 20
153.5336484862263
 30
0.0
 10
123.1252804852893
 20
153.5354842693233
 30
0.0
 10
123.1278988247461
 20
153.5372954913687
 30
0.0
 10
123.1305185617259
 20
153.5390842388354
 30
0.0
 10
123.1331383754336
 20
153.540873038693
 30
0.0
 10
123.1357595867464
 20
153.5426393626571
 30
0.0
 10
123.13838207104
 20
153.5443747010411
 30
0.0
 10
123.1410046520864
 20
153.5461101034484
 30
0.0
 10
123.1436285062066
 20
153.5478145179912
 30
0.0
 10
123.1462523603287
 20
153.5495189325334
 30
0.0
  0
SPLINE
  5
218
330
70
100
AcDbEntity
  8
Isometric$4
 62
     7
370
    35
100
AcDbSpline
210
0.0
220
0.0
230
1.0
 70
     8
 71
     3
 72
    53
 73
    49
 74
     0
 42
0.0000000001
 43
0.0000000001
 40
0.0
 40
0.0
 40
0.0
 40
0.0
 40
1.0
 40
1.0
 40
1.0
 40
2.0
 40
2.0
 40
2.0
 40
3.0
 40
3.0
 40
3.0
 40
4.0
 40
4.0
 40
4.0
 40
5.0
 40
5.0
 40
5.0
 40
6.0
 40
6.0
 40
6.0
 40
7.0
 40
7.0
 40
7.0
 40
8.0
 40
8.0
 40
8.0
 40
9.0
 40
9.0
 40
9.0
 40
10.0
 40
10.0
 40
10.0
 40
11.0
 40
11.0
 40
11.0
 40
12.0
 40
12.0
 40
12.0
 40
13.0
 40
13.0
 40
13.0
 40
14.0
 40
14.0
 40
14.0
 40
15.0
 40
15.0
 40
15.0
 40
16.0
 40
16.0
 40
16.0
 40
16.0
 10
122.6957792952958
 20
152.6944526955549
 30
0.0
 10
122.6951964244547
 20
152.708177549361
 30
0.0
 10
122.6946135536136
 20
152.7219024031667
 30
0.0
 10
122.6945997860916
 20
152.7359395540672
 30
0.0
 10
122.6945860183277
 20
152.7499769520145
 30
0.0
 10
122.6951413739168
 20
152.7643266580489
 30
0.0
 10
122.6961071292693
 20
152.7788509181432
 30
0.0
 10
122.6970728632462
 20
152.7933748567453
 30
0.0
 10
122.6984489788208
 20
152.8080733416812
 30
0.0
 10
122.7002725666987
 20
152.8229305811954
 30
0.0
 10
122.7020961694345
 20
152.8377879417579
 30
0.0
 10
122.7043672517665
 20
152.8528040594869
 30
0.0
 10
122.7070702375338
 20
152.8679303957035
 30
0.0
 10
122.7097734290516
 20
152.8830578833364
 30
0.0
 10
122.7129085897588
 20
152.8982956062379
 30
0.0
 10
122.7164766013013
 20
152.9136038876222
 30
0.0
 10
122.7200443512064
 20
152.9289110464663
 30
0.0
 10
122.7240448884654
 20
152.9442887534452
 30
0.0
 10
122.7284608617524
 20
152.9596887049668
 30
0.0
 10
122.7311502907566
 20
152.9690676286118
 30
0.0
 10
122.7339938086937
 20
152.9784548029567
 30
0.0
 10
122.7369864479654
 20
152.9878424332805
 30
0.0
 10
122.7399791999079
 20
152.9972304170418
 30
0.0
 10
122.7431210844128
 20
153.0066188568178
 30
0.0
 10
122.7464074739041
 20
153.0159985071206
 30
0.0
 10
122.7496940058916
 20
153.025378564119
 30
0.0
 10
122.7531250553967
 20
153.0347498308827
 30
0.0
 10
122.7566959310518
 20
153.0441035381269
 30
0.0
 10
122.7602667848494
 20
153.0534571881132
 30
0.0
 10
122.7639774630863
 20
153.0627932787939
 30
0.0
 10
122.7678230995219
 20
153.0721027285337
 30
0.0
 10
122.7716686473126
 20
153.0814119636825
 30
0.0
 10
122.7756491470833
 20
153.0906945591177
 30
0.0
 10
122.7797599954475
 20
153.099941331489
 30
0.0
 10
122.7838707789738
 20
153.1091879580153
 30
0.0
 10
122.7881119069828
 20
153.1183987626087
 30
0.0
 10
122.792477982144
 20
153.1275653334006
 30
0.0
 10
122.7968439931403
 20
153.136731769478
 30
0.0
 10
122.8013349476157
 20
153.1458539730545
 30
0.0
 10
122.8059487934577
 20
153.1549210497915
 30
0.0
 10
122.810562601777
 20
153.1639880527906
 30
0.0
 10
122.8152992994627
 20
153.1729999298469
 30
0.0
 10
122.8201445237425
 20
153.1819550733447
 30
0.0
 10
122.8249898259348
 20
153.19091036085
 30
0.0
 10
122.8299436582127
 20
153.1998089129711
 30
0.0
 10
122.8350376181751
 20
153.2086142283789
 30
0.0
 10
122.8401319346476
 20
153.2174201600407
 30
0.0
 10
122.845366398418
 20
153.2261328419373
 30
0.0
 10
122.8506008621897
 20
153.2348455238342
 30
0.0
  0
SPLINE
  5
219
330
70
100
AcDbEntity
  8
Isometric$4
 62
     7
370
    35
100
AcDbSpline
210
0.0
220
0.0
230
1.0
 70
     8
 71
     3
 72
    56
 73
    52
 74
     0
 42
0.0000000001
 43
0.0000000001
 40
0.0
 40
0.0
 40
0.0
 40
0.0
 40
1.0
 40
1.0
 40
1.0
 40
2.0
 40
2.0
 40
2.0
 40
3.0
 40
3.0
 40
3.0
 40
4.0
 40
4.0
 40
4.0
 40
5.0
 40
5.0
 40
5.0
 40
6.0
 40
6.0
 40
6.0
 40
7.0
 40
7.0
 40
7.0
 40
8.0
 40
8.0
 40
8.0
 40
9.0
 40
9.0
 40
9.0
 40
10.0
 40
10.0
 40
10.0
 40
11.0
 40
11.0
 40
11.0
 40
12.0
 40
12.0
 40
12.0
 40
13.0
 40
13.0
 40
13.0
 40
14.0
 40
14.0
 40
14.0
 40
15.0
 40
15.0
 40
15.0
 40
16.0
 40
16.0
 40
16.0
 40
17.0
 40
17.0
 40
17.0
 40
17.0
 10
123.1998498961688
 20
152.4397183125452
 30
0.0
 10
123.1874422932959
 20
152.4330303382949
 30
0.0
 10
123.1750346904224
 20
152.4263423640464
 30
0.0
 10
123.1626471858798
 20
152.4203250134932
 30
0.0
 10
123.1502564672259
 20
152.4143061016551
 30
0.0
 10
123.1378858573324
 20
152.4089581615642
 30
0.0
 10
123.1255674276249
 20
152.4041597853297
 30
0.0
 10
123.0882231421671
 20
152.3896131315657
 30
0.0
 10
123.0513584170229
 20
152.3801172266209
 30
0.0
 10
123.0160475575424
 20
152.376121703597
 30
0.0
 10
122.980734308836
 20
152.3721259102252
 30
0.0
 10
122.9469751360787
 20
152.3736312431401
 30
0.0
 10
122.9156132961497
 20
152.3805058826973
 30
0.0
 10
122.8841438882222
 20
152.3874041015866
 30
0.0
 10
122.855088286553
 20
152.3997085226633
 30
0.0
 10
122.8292737470464
 20
152.4171135452011
 30
0.0
 10
122.8034570175884
 20
152.4345200442775
 30
0.0
 10
122.7808819002202
 20
152.4570280102608
 30
0.0
 10
122.7620235694342
 20
152.4838636359222
 30
0.0
 10
122.7585440202696
 20
152.4888150751536
 30
0.0
 10
122.7551910050582
 20
152.4939138448493
 30
0.0
 10
122.7519646287402
 20
152.4991577185342
 30
0.0
 10
122.7487382869906
 20
152.5044015360339
 30
0.0
 10
122.7456385814226
 20
152.5097904544139
 30
0.0
 10
122.7426688738936
 20
152.5153184500514
 30
0.0
 10
122.7396991509877
 20
152.5208464743095
 30
0.0
 10
122.7368594274683
 20
152.5265135772652
 30
0.0
 10
122.7341522104409
 20
152.5323147952784
 30
0.0
 10
122.7314448707193
 20
152.5381162762133
 30
0.0
 10
122.7288700495004
 20
152.5440518843618
 30
0.0
 10
122.7264305716889
 20
152.5501164814195
 30
0.0
 10
122.723990992987
 20
152.5561813292882
 30
0.0
 10
122.721686768885
 20
152.5623751767344
 30
0.0
 10
122.7195205725266
 20
152.5686929228863
 30
0.0
 10
122.7173544344249
 20
152.5750104991275
 30
0.0
 10
122.7153263166417
 20
152.5814519674101
 30
0.0
 10
122.713439461228
 20
152.588012446933
 30
0.0
 10
122.7115526994458
 20
152.5945726009027
 30
0.0
 10
122.7098071860139
 20
152.6012517543029
 30
0.0
 10
122.7082040761869
 20
152.608043395445
 30
0.0
 10
122.7066009818665
 20
152.6148349708894
 30
0.0
 10
122.7051402883949
 20
152.6217390319007
 30
0.0
 10
122.7038243058707
 20
152.6287492550014
 30
0.0
 10
122.7025082812049
 20
152.6357597025806
 30
0.0
 10
122.7013369767525
 20
152.642876319049
 30
0.0
 10
122.7002969321562
 20
152.6500839307561
 30
0.0
 10
122.6992568639731
 20
152.6572917059283
 30
0.0
 10
122.6983480616004
 20
152.6645904804661
 30
0.0
 10
122.6976169921726
 20
152.6720005572087
 30
0.0
 10
122.6968859451933
 20
152.6794104064097
 30
0.0
 10
122.6963326202449
 20
152.6869315509828
 30
0.0
 10
122.6957792952958
 20
152.6944526955549
 30
0.0
  0
MTEXT
  5
21A
330
70
100
AcDbEntity
  8
Isometric$4
100
AcDbMText
 10
134.9714293423892
 20
208.7030079860824
 30
0.0
 40
0.2
 41
0.0
 46
0.0
 71
     7
 72
     1
  1
\C7;\FTramontina SmCd Titulos|b0|i0|c1;\H4.062853;\W1.010722;261
 11
0.8733187185872029
 21
-0.4871492746224774
 31
0.0
 73
     1
 44
1.0
  0
MTEXT
  5
21B
330
70
100
AcDbEntity
  8
Isometric$4
100
AcDbMText
 10
176.5095317994183
 20
153.5334883913023
 30
0.0
 40
0.2
 41
0.0
 46
0.0
 71
     7
 72
     1
  1
\C7;\FTramontina SmCd Titulos|b0|i0|c1;\H4.127875;\W0.979306;192
 11
-0.0056500226867978
 21
-0.9999840384944345
 31
0.0
 73
     1
 44
1.0
  0
MTEXT
  5
21C
330
70
100
AcDbEntity
  8
Isometric$4
100
AcDbMText
 10
11.01724471685173
 20
145.2918366727209
 30
0.0
 40
0.2
 41
0.0
 46
0.0
 71
     7
 72
     1
  1
\C7;\FTramontina SmCd Titulos|b0|i0|c1;\H4.127875;\W0.979306;250
 11
0.0056500226867979
 21
0.9999840384944345
 31
0.0
 73
     1
 44
1.0
  0
MTEXT
  5
21D
330
70
100
AcDbEntity
  8
Isometric$4
100
AcDbMText
 10
99.31904323330197
 20
234.1276288250305
 30
0.0
 40
0.2
 41
0.0
 46
0.0
 71
     7
 72
     1
  1
\C7;\FTramontina SmCd Titulos|b0|i0|c1;\H4.125562;\W0.980371;R6
 11
0.1644898094838165
 21
-0.9863787825049653
 31
0.0
 73
     1
 44
1.0
  0
MTEXT
  5
21E
330
70
100
AcDbEntity
  8
Isometric$4
100
AcDbMText
 10
50.42575057507069
 20
200.3663672918078
 30
0.0
 40
0.2
 41
0.0
 46
0.0
 71
     7
 72
     1
  1
\C7;\FTramontina SmCd Titulos|b0|i0|c1;\H4.063911;\W1.010201;312
 11
0.8663488506820202
 21
0.4994393545986766
 31
0.0
 73
     1
 44
1.0
  0
MTEXT
  5
21F
330
70
100
AcDbEntity
  8
Isometric$4
100
AcDbMText
 10
191.0856417092135
 20
86.32701224712043
 30
0.0
 40
0.2
 41
0.0
 46
0.0
 71
     7
 72
     1
  1
\C253;\FFrutiger Bold|b1|i0|c1;\H3.653867;\W1.000000;mm
 73
     1
 44
1.0
  0
INSERT
  5
221
330
70
100
AcDbEntity
  8
Isometric$4
100
AcDbBlockReference
  2
Block_0
 10
0.0
 20
0.0
 30
0.0
  0
INSERT
  5
227
330
70
100
AcDbEntity
  8
Isometric$4
100
AcDbBlockReference
  2
Block_1
 10
0.0
 20
0.0
 30
0.0
  0
ENDSEC
  0
SECTION
  2
OBJECTS
  0
DICTIONARY
  5
C
330
0
100
AcDbDictionary
281
     1
  3
ACAD_COLOR
350
63
  3
ACAD_DETAILVIEWSTYLE
350
6A
  3
ACAD_GROUP
350
D
  3
ACAD_LAYOUT
350
62
  3
ACAD_MATERIAL
350
10
  3
ACAD_MLEADERSTYLE
350
66
  3
ACAD_MLINESTYLE
350
5F
  3
ACAD_PLOTSETTINGS
350
61
  3
ACAD_PLOTSTYLENAME
350
E
  3
ACAD_SCALELIST
350
42
  3
ACAD_SECTIONVIEWSTYLE
350
68
  3
ACAD_TABLESTYLE
350
64
  3
ACAD_VISUALSTYLE
350
29
  3
ACDB_RECOMPOSE_DATA
350
235
  3
AcDbVariableDictionary
350
22D
  0
DICTIONARY
  5
63
102
{ACAD_REACTORS
330
C
102
}
330
C
100
AcDbDictionary
281
     1
  0
DICTIONARY
  5
6A
102
{ACAD_REACTORS
330
C
102
}
330
C
100
AcDbDictionary
281
     1
  3
Imperial24
350
6B
  0
DICTIONARY
  5
D
102
{ACAD_REACTORS
330
C
102
}
330
C
100
AcDbDictionary
281
     1
  0
DICTIONARY
  5
62
102
{ACAD_REACTORS
330
C
102
}
330
C
100
AcDbDictionary
281
     1
  3
Layout1
350
6F
  3
Layout2
350
77
  3
Model
350
73
  0
DICTIONARY
  5
10
102
{ACAD_REACTORS
330
C
102
}
330
C
100
AcDbDictionary
281
     1
  3
ByBlock
350
19
  3
ByLayer
350
11
  3
Global
350
21
  0
DICTIONARY
  5
66
102
{ACAD_REACTORS
330
C
102
}
330
C
100
AcDbDictionary
281
     1
  3
Standard
350
67
  0
DICTIONARY
  5
5F
102
{ACAD_REACTORS
330
C
102
}
330
C
100
AcDbDictionary
281
     1
  3
Standard
350
60
  0
DICTIONARY
  5
61
102
{ACAD_REACTORS
330
C
102
}
330
C
100
AcDbDictionary
281
     1
  0
ACDBDICTIONARYWDFLT
  5
E
102
{ACAD_REACTORS
330
C
102
}
330
C
100
AcDbDictionary
281
     1
  3
Normal
350
F
100
AcDbDictionaryWithDefault
340
F
  0
DICTIONARY
  5
42
102
{ACAD_REACTORS
330
C
102
}
330
C
100
AcDbDictionary
281
     1
  3
A0
350
43
  3
A1
350
44
  3
A2
350
45
  3
A3
350
46
  3
A4
350
47
  3
A5
350
48
  3
A6
350
49
  3
A7
350
4A
  3
A8
350
4B
  3
A9
350
4C
  3
B0
350
4D
  3
B1
350
4E
  3
B2
350
4F
  3
B3
350
50
  3
B4
350
51
  3
B5
350
52
  3
B6
350
53
  0
DICTIONARY
  5
68
102
{ACAD_REACTORS
330
C
102
}
330
C
100
AcDbDictionary
281
     1
  3
Imperial24
350
69
  0
DICTIONARY
  5
64
102
{ACAD_REACTORS
330
C
102
}
330
C
100
AcDbDictionary
281
     1
  3
Standard
350
65
  0
DICTIONARY
  5
29
102
{ACAD_REACTORS
330
C
102
}
330
C
100
AcDbDictionary
281
     1
  3
2dWireframe
350
2F
  3
Basic
350
2E
  3
Brighten
350
35
  3
ColorChange
350
39
  3
Conceptual
350
32
  3
Dim
350
34
  3
EdgeColorOff
350
41
  3
Facepattern
350
38
  3
Flat
350
2A
  3
FlatWithEdges
350
2B
  3
Gouraud
350
2C
  3
GouraudWithEdges
350
2D
  3
Hidden
350
31
  3
JitterOff
350
3F
  3
Linepattern
350
37
  3
OverhangOff
350
40
  3
Realistic
350
33
  3
Shaded
350
3E
  3
Shaded with edges
350
3D
  3
Shades of Gray
350
3A
  3
Sketchy
350
3B
  3
Thicken
350
36
  3
Wireframe
350
30
  3
X-Ray
350
3C
  0
XRECORD
  5
235
102
{ACAD_REACTORS
330
C
102
}
330
C
100
AcDbXrecord
280
     1
 90
        1
330
65
  0
DICTIONARY
  5
22D
102
{ACAD_REACTORS
330
C
102
}
330
C
100
AcDbDictionary
281
     1
  3
CANNOSCALE
350
232
  3
CMLEADERSTYLE
350
22F
  3
CTABLESTYLE
350
22E
  3
CVIEWDETAILSTYLE
350
230
  3
CVIEWSECTIONSTYLE
350
231
  0
ACDBDETAILVIEWSTYLE
  5
6B
102
{ACAD_REACTORS
330
6A
102
}
330
6A
100
AcDbModelDocViewStyle
 70
     0
  3
Imperial24
290
     1
300
Imperial24
 90
        0
100
AcDbDetailViewStyle
 70
     0
 71
     0
 90
        3
 71
     1
340
55
 62
   256
 40
0.24
340
0
 62
   256
 40
0.24
300

 40
0.36
280
     3
 71
     2
340
5D
 90
       25
 62
   256
 71
     3
340
55
 62
   256
 40
0.24
 90
        1
 40
0.75
 90
        1
300
%<\AcVar ViewType \f "%tc1">% %<\AcVar ViewDetailId>%\PSCALE %<\AcVar ViewScale \f "%sn">%
 71
     4
340
5D
 90
       25
 62
   256
340
5D
 90
       25
 62
   256
280
     0
  0
LAYOUT
  5
6F
102
{ACAD_REACTORS
330
62
102
}
330
62
100
AcDbPlotSettings
  1

  2

  4

  6

 40
0.0
 41
0.0
 42
0.0
 43
0.0
 44
0.0
 45
0.0
 46
0.0
 47
0.0
 48
0.0
 49
0.0
140
0.0
141
0.0
142
1.0
143
1.0
 70
   688
 72
     0
 73
     0
 74
     5
  7

 75
    16
147
1.0
 76
     0
 77
     2
 78
   300
148
0.0
149
0.0
100
AcDbLayout
  1
Layout1
 70
     1
 71
     1
 10
0.0
 20
0.0
 11
12.0
 21
9.0
 12
0.0
 22
0.0
 32
0.0
 14
0.0
 24
0.0
 34
0.0
 15
0.0
 25
0.0
 35
0.0
146
0.0
 13
0.0
 23
0.0
 33
0.0
 16
1.0
 26
0.0
 36
0.0
 17
0.0
 27
1.0
 37
0.0
 76
     0
330
6C
  0
LAYOUT
  5
77
102
{ACAD_REACTORS
330
62
102
}
330
62
100
AcDbPlotSettings
  1

  2

  4

  6

 40
0.0
 41
0.0
 42
0.0
 43
0.0
 44
0.0
 45
0.0
 46
0.0
 47
0.0
 48
0.0
 49
0.0
140
0.0
141
0.0
142
1.0
143
1.0
 70
   688
 72
     0
 73
     0
 74
     5
  7

 75
    16
147
1.0
 76
     0
 77
     2
 78
   300
148
0.0
149
0.0
100
AcDbLayout
  1
Layout2
 70
     1
 71
     2
 10
0.0
 20
0.0
 11
12.0
 21
9.0
 12
0.0
 22
0.0
 32
0.0
 14
0.0
 24
0.0
 34
0.0
 15
0.0
 25
0.0
 35
0.0
146
0.0
 13
0.0
 23
0.0
 33
0.0
 16
1.0
 26
0.0
 36
0.0
 17
0.0
 27
1.0
 37
0.0
 76
     0
330
74
  0
LAYOUT
  5
73
102
{ACAD_REACTORS
330
62
102
}
330
62
100
AcDbPlotSettings
  1

  2

  4

  6

 40
0.0
 41
0.0
 42
0.0
 43
0.0
 44
0.0
 45
0.0
 46
0.0
 47
0.0
 48
0.0
 49
0.0
140
0.0
141
0.0
142
1.0
143
1.0
 70
  1712
 72
     0
 73
     0
 74
     0
  7

 75
     0
147
1.0
 76
     0
 77
     2
 78
   300
148
0.0
149
0.0
100
AcDbLayout
  1
Model
 70
     1
 71
     0
 10
0.0
 20
0.0
 11
12.0
 21
9.0
 12
0.0
 22
0.0
 32
0.0
 14
0.0
 24
0.0
 34
0.0
 15
0.0
 25
0.0
 35
0.0
146
0.0
 13
0.0
 23
0.0
 33
0.0
 16
1.0
 26
0.0
 36
0.0
 17
0.0
 27
1.0
 37
0.0
 76
     0
330
70
  0
MATERIAL
  5
19
102
{ACAD_XDICTIONARY
360
1A
102
}
102
{ACAD_REACTORS
330
10
102
}
330
10
100
AcDbMaterial
  1
ByBlock
 72
     0
 43
0.0208333333333333
 43
0.0
 43
0.0
 43
0.0
 43
0.0
 43
0.0208333333333333
 43
0.0
 43
0.0
 43
0.0
 43
0.0
 43
1.0
 43
0.0
 43
0.0
 43
0.0
 43
0.0
 43
1.0
 77
     0
 47
0.0208333333333333
 47
0.0
 47
0.0
 47
0.0
 47
0.0
 47
0.0208333333333333
 47
0.0
 47
0.0
 47
0.0
 47
0.0
 47
1.0
 47
0.0
 47
0.0
 47
0.0
 47
0.0
 47
1.0
171
     0
 49
0.0208333333333333
 49
0.0
 49
0.0
 49
0.0
 49
0.0
 49
0.0208333333333333
 49
0.0
 49
0.0
 49
0.0
 49
0.0
 49
1.0
 49
0.0
 49
0.0
 49
0.0
 49
0.0
 49
1.0
175
     0
142
0.0208333333333333
142
0.0
142
0.0
142
0.0
142
0.0
142
0.0208333333333333
142
0.0
142
0.0
142
0.0
142
0.0
142
1.0
142
0.0
142
0.0
142
0.0
142
0.0
142
1.0
179
     0
144
0.0208333333333333
144
0.0
144
0.0
144
0.0
144
0.0
144
0.0208333333333333
144
0.0
144
0.0
144
0.0
144
0.0
144
1.0
144
0.0
144
0.0
144
0.0
144
0.0
144
1.0
147
0.0208333333333333
147
0.0
147
0.0
147
0.0
147
0.0
147
0.0208333333333333
147
0.0
147
0.0
147
0.0
147
0.0
147
1.0
147
0.0
147
0.0
147
0.0
147
0.0
147
1.0
  0
MATERIAL
  5
11
102
{ACAD_XDICTIONARY
360
12
102
}
102
{ACAD_REACTORS
330
10
102
}
330
10
100
AcDbMaterial
  1
ByLayer
 72
     0
 43
0.0208333333333333
 43
0.0
 43
0.0
 43
0.0
 43
0.0
 43
0.0208333333333333
 43
0.0
 43
0.0
 43
0.0
 43
0.0
 43
1.0
 43
0.0
 43
0.0
 43
0.0
 43
0.0
 43
1.0
 77
     0
 47
0.0208333333333333
 47
0.0
 47
0.0
 47
0.0
 47
0.0
 47
0.0208333333333333
 47
0.0
 47
0.0
 47
0.0
 47
0.0
 47
1.0
 47
0.0
 47
0.0
 47
0.0
 47
0.0
 47
1.0
171
     0
 49
0.0208333333333333
 49
0.0
 49
0.0
 49
0.0
 49
0.0
 49
0.0208333333333333
 49
0.0
 49
0.0
 49
0.0
 49
0.0
 49
1.0
 49
0.0
 49
0.0
 49
0.0
 49
0.0
 49
1.0
175
     0
142
0.0208333333333333
142
0.0
142
0.0
142
0.0
142
0.0
142
0.0208333333333333
142
0.0
142
0.0
142
0.0
142
0.0
142
1.0
142
0.0
142
0.0
142
0.0
142
0.0
142
1.0
179
     0
144
0.0208333333333333
144
0.0
144
0.0
144
0.0
144
0.0
144
0.0208333333333333
144
0.0
144
0.0
144
0.0
144
0.0
144
1.0
144
0.0
144
0.0
144
0.0
144
0.0
144
1.0
147
0.0208333333333333
147
0.0
147
0.0
147
0.0
147
0.0
147
0.0208333333333333
147
0.0
147
0.0
147
0.0
147
0.0
147
1.0
147
0.0
147
0.0
147
0.0
147
0.0
147
1.0
  0
MATERIAL
  5
21
102
{ACAD_XDICTIONARY
360
22
102
}
102
{ACAD_REACTORS
330
10
102
}
330
10
100
AcDbMaterial
  1
Global
 72
     0
 43
0.0208333333333333
 43
0.0
 43
0.0
 43
0.0
 43
0.0
 43
0.0208333333333333
 43
0.0
 43
0.0
 43
0.0
 43
0.0
 43
1.0
 43
0.0
 43
0.0
 43
0.0
 43
0.0
 43
1.0
 77
     0
 47
0.0208333333333333
 47
0.0
 47
0.0
 47
0.0
 47
0.0
 47
0.0208333333333333
 47
0.0
 47
0.0
 47
0.0
 47
0.0
 47
1.0
 47
0.0
 47
0.0
 47
0.0
 47
0.0
 47
1.0
171
     0
 49
0.0208333333333333
 49
0.0
 49
0.0
 49
0.0
 49
0.0
 49
0.0208333333333333
 49
0.0
 49
0.0
 49
0.0
 49
0.0
 49
1.0
 49
0.0
 49
0.0
 49
0.0
 49
0.0
 49
1.0
175
     0
142
0.0208333333333333
142
0.0
142
0.0
142
0.0
142
0.0
142
0.0208333333333333
142
0.0
142
0.0
142
0.0
142
0.0
142
1.0
142
0.0
142
0.0
142
0.0
142
0.0
142
1.0
179
     0
144
0.0208333333333333
144
0.0
144
0.0
144
0.0
144
0.0
144
0.0208333333333333
144
0.0
144
0.0
144
0.0
144
0.0
144
1.0
144
0.0
144
0.0
144
0.0
144
0.0
144
1.0
147
0.0208333333333333
147
0.0
147
0.0
147
0.0
147
0.0
147
0.0208333333333333
147
0.0
147
0.0
147
0.0
147
0.0
147
1.0
147
0.0
147
0.0
147
0.0
147
0.0
147
1.0
  0
MLEADERSTYLE
  5
67
102
{ACAD_REACTORS
330
66
102
}
330
66
100
AcDbMLeaderStyle
179
     2
170
     2
171
     1
172
     0
 90
        2
 40
0.0
 41
0.0
173
     1
 91
-1056964608
340
5B
 92
       -2
290
     1
 42
0.09
291
     1
 43
0.36
  3
Standard
 44
0.18
300

342
55
174
     1
178
     6
175
     1
176
     0
 93
-1056964608
 45
0.18
292
     0
297
     0
 46
0.18
 94
-1056964608
 47
1.0
 49
1.0
140
1.0
293
     1
141
0.0
294
     1
177
     0
142
1.0
295
     1
296
     0
143
0.125
271
     0
272
     9
273
     9
298
     1
  0
MLINESTYLE
  5
60
102
{ACAD_REACTORS
330
5F
102
}
330
5F
100
AcDbMlineStyle
  2
STANDARD
 70
     0
  3

 62
   256
 51
90.0
 52
90.0
 71
     2
 49
0.5
 62
   256
  6
BYLAYER
 49
-0.5
 62
   256
  6
BYLAYER
  0
ACDBPLACEHOLDER
  5
F
102
{ACAD_REACTORS
330
E
102
}
330
E
  0
SCALE
  5
43
102
{ACAD_REACTORS
330
42
102
}
330
42
100
AcDbScale
 70
     0
300
1:1
140
1.0
141
1.0
290
     1
  0
SCALE
  5
44
102
{ACAD_REACTORS
330
42
102
}
330
42
100
AcDbScale
 70
     0
300
1/128" = 1'-0"
140
0.0078125
141
12.0
290
     0
  0
SCALE
  5
45
102
{ACAD_REACTORS
330
42
102
}
330
42
100
AcDbScale
 70
     0
300
1/64" = 1'-0"
140
0.015625
141
12.0
290
     0
  0
SCALE
  5
46
102
{ACAD_REACTORS
330
42
102
}
330
42
100
AcDbScale
 70
     0
300
1/32" = 1'-0"
140
0.03125
141
12.0
290
     0
  0
SCALE
  5
47
102
{ACAD_REACTORS
330
42
102
}
330
42
100
AcDbScale
 70
     0
300
1/16" = 1'-0"
140
0.0625
141
12.0
290
     0
  0
SCALE
  5
48
102
{ACAD_REACTORS
330
42
102
}
330
42
100
AcDbScale
 70
     0
300
3/32" = 1'-0"
140
0.09375
141
12.0
290
     0
  0
SCALE
  5
49
102
{ACAD_REACTORS
330
42
102
}
330
42
100
AcDbScale
 70
     0
300
1/8" = 1'-0"
140
0.125
141
12.0
290
     0
  0
SCALE
  5
4A
102
{ACAD_REACTORS
330
42
102
}
330
42
100
AcDbScale
 70
     0
300
3/16" = 1'-0"
140
0.1875
141
12.0
290
     0
  0
SCALE
  5
4B
102
{ACAD_REACTORS
330
42
102
}
330
42
100
AcDbScale
 70
     0
300
1/4" = 1'-0"
140
0.25
141
12.0
290
     0
  0
SCALE
  5
4C
102
{ACAD_REACTORS
330
42
102
}
330
42
100
AcDbScale
 70
     0
300
3/8" = 1'-0"
140
0.375
141
12.0
290
     0
  0
SCALE
  5
4D
102
{ACAD_REACTORS
330
42
102
}
330
42
100
AcDbScale
 70
     0
300
1/2" = 1'-0"
140
0.5
141
12.0
290
     0
  0
SCALE
  5
4E
102
{ACAD_REACTORS
330
42
102
}
330
42
100
AcDbScale
 70
     0
300
3/4" = 1'-0"
140
0.75
141
12.0
290
     0
  0
SCALE
  5
4F
102
{ACAD_REACTORS
330
42
102
}
330
42
100
AcDbScale
 70
     0
300
1" = 1'-0"
140
1.0
141
12.0
290
     0
  0
SCALE
  5
50
102
{ACAD_REACTORS
330
42
102
}
330
42
100
AcDbScale
 70
     0
300
1-1/2" = 1'-0"
140
1.5
141
12.0
290
     0
  0
SCALE
  5
51
102
{ACAD_REACTORS
330
42
102
}
330
42
100
AcDbScale
 70
     0
300
3" = 1'-0"
140
3.0
141
12.0
290
     0
  0
SCALE
  5
52
102
{ACAD_REACTORS
330
42
102
}
330
42
100
AcDbScale
 70
     0
300
6" = 1'-0"
140
6.0
141
12.0
290
     0
  0
SCALE
  5
53
102
{ACAD_REACTORS
330
42
102
}
330
42
100
AcDbScale
 70
     0
300
1'-0" = 1'-0"
140
12.0
141
12.0
290
     0
  0
ACDBSECTIONVIEWSTYLE
  5
69
102
{ACAD_REACTORS
330
68
102
}
330
68
100
AcDbModelDocViewStyle
 70
     0
  3
Imperial24
290
     1
300
Imperial24
 90
        0
100
AcDbSectionViewStyle
 70
     0
 71
     0
 90
       78
 71
     1
340
55
 62
   256
 40
0.24
340
0
340
0
 62
   256
 40
0.24
300
I, O, Q, S, X, Z
 40
0.48
 90
        3
 40
0.18
 90
        1
 71
     2
340
5D
 90
       25
 62
   256
340
5D
 90
       50
 62
   256
 40
0.24
 40
0.0
 40
0.24
 71
     3
340
55
 62
   256
 40
0.24
 90
        1
 40
0.75
 90
        1
300
%<\AcVar ViewType \f "%tc1">% %<\AcVar ViewSectionStartId>%-%<\AcVar ViewSectionEndId>%\PSCALE %<\AcVar ViewScale \f "%sn">%
 71
     4
 62
   256
 62
   257
300
ANSI31
 40
1.0
 90
        0
290
     0
290
     0
 90
        6
 40
0.0
 40
1.570796326794896
 40
0.2617993877991494
 40
1.308996938995747
 40
-0.2617993877991494
 40
1.832595714594046
  0
TABLESTYLE
  5
65
102
{ACAD_XDICTIONARY
360
233
102
}
102
{ACAD_REACTORS
330
64
102
}
330
64
100
AcDbTableStyle
280
     0
  3
Standard
 70
     0
 71
     0
 40
0.06
 41
0.06
280
     0
281
     0
  7
Standard
140
0.18
170
     2
 62
     0
 63
     7
283
     0
 90
      512
 91
        0
  1

274
    -2
284
     1
 64
     0
275
    -2
285
     1
 65
     0
276
    -2
286
     1
 66
     0
277
    -2
287
     1
 67
     0
278
    -2
288
     1
 68
     0
279
    -2
289
     1
 69
     0
  7
Standard
140
0.25
170
     5
 62
     0
 63
     7
283
     0
 90
      512
 91
        0
  1

274
    -2
284
     1
 64
     0
275
    -2
285
     1
 65
     0
276
    -2
286
     1
 66
     0
277
    -2
287
     1
 67
     0
278
    -2
288
     1
 68
     0
279
    -2
289
     1
 69
     0
  7
Standard
140
0.18
170
     5
 62
     0
 63
     7
283
     0
 90
      512
 91
        0
  1

274
    -2
284
     1
 64
     0
275
    -2
285
     1
 65
     0
276
    -2
286
     1
 66
     0
277
    -2
287
     1
 67
     0
278
    -2
288
     1
 68
     0
279
    -2
289
     1
 69
     0
  0
VISUALSTYLE
  5
2F
102
{ACAD_REACTORS
330
29
102
}
330
29
100
AcDbVisualStyle
  2
2dWireframe
 70
     4
177
     3
291
     0
 70
    58
 90
        0
176
     1
 90
        2
176
     1
 90
        0
176
     1
 90
        0
176
     1
 40
0.6
176
     1
 40
30.0
176
     1
 62
     7
420
 16777215
176
     1
 90
        1
176
     1
 90
        4
176
     1
 62
     7
176
     1
 62
   257
176
     1
 90
        1
176
     1
 90
        1
176
     1
 40
1.0
176
     1
 90
        0
176
     1
 62
   257
176
     1
 40
1.0
176
     1
 90
        1
176
     1
 90
        6
176
     1
 90
        2
176
     1
 62
     7
176
     1
 90
        5
176
     1
 90
        0
176
     1
 90
        0
176
     1
290
     0
176
     1
 90
        1
176
     1
 40
0.0
176
     1
 90
        0
176
     1
290
     1
176
     1
290
     1
176
     1
290
     0
176
     1
290
     0
176
     1
290
     0
176
     1
290
     0
176
     1
290
     0
176
     1
290
     0
176
     1
290
     0
176
     1
 90
       50
176
     1
 40
0.0
176
     1
 40
1.0
176
     1
 90
        0
176
     1
 62
    18
420
        0
176
     1
 90
       50
176
     1
 90
        3
176
     1
 62
     5
420
      255
176
     1
290
     0
176
     1
 90
       50
176
     1
 90
       50
176
     1
 90
       50
176
     1
290
     0
176
     1
 90
       50
176
     1
 62
   256
176
     0
 40
1.0
176
     0
 90
        2
176
     1
  1
strokes_ogs.tif
176
     1
290
     0
176
     1
 40
1.0
176
     1
 40
1.0
176
     1
  0
VISUALSTYLE
  5
2E
102
{ACAD_REACTORS
330
29
102
}
330
29
100
AcDbVisualStyle
  2
Basic
 70
     7
177
     3
291
     1
 70
    58
 90
        1
176
     1
 90
        0
176
     1
 90
        1
176
     1
 90
        0
176
     1
 40
0.6
176
     1
 40
30.0
176
     1
 62
     7
420
 16777215
176
     1
 90
        0
176
     1
 90
        4
176
     1
 62
     7
176
     1
 62
   257
176
     1
 90
        1
176
     1
 90
        1
176
     1
 40
1.0
176
     1
 90
        8
176
     1
 62
     7
176
     1
 40
1.0
176
     1
 90
        1
176
     1
 90
        6
176
     1
 90
        2
176
     1
 62
     7
176
     1
 90
        5
176
     1
 90
        0
176
     1
 90
        0
176
     1
290
     0
176
     1
 90
        1
176
     1
 40
0.0
176
     1
 90
        0
176
     1
290
     0
176
     1
290
     1
176
     1
290
     1
176
     1
290
     0
176
     1
290
     0
176
     1
290
     0
176
     1
290
     0
176
     1
290
     0
176
     1
290
     0
176
     1
 90
       50
176
     1
 40
0.0
176
     1
 40
1.0
176
     1
 90
        0
176
     1
 62
    18
420
        0
176
     1
 90
       50
176
     1
 90
        3
176
     1
 62
     5
420
      255
176
     1
290
     0
176
     1
 90
       50
176
     1
 90
       50
176
     1
 90
       50
176
     1
290
     0
176
     1
 90
       50
176
     1
 62
   256
176
     0
 40
1.0
176
     0
 90
        2
176
     1
  1
strokes_ogs.tif
176
     1
290
     0
176
     1
 40
1.0
176
     1
 40
1.0
176
     1
  0
VISUALSTYLE
  5
35
102
{ACAD_REACTORS
330
29
102
}
330
29
100
AcDbVisualStyle
  2
Brighten
 70
    12
177
     3
291
     1
 70
    58
 90
        2
176
     1
 90
        2
176
     1
 90
        0
176
     1
 90
        0
176
     1
 40
0.6
176
     1
 40
30.0
176
     1
 62
     7
420
 16777215
176
     1
 90
        1
176
     1
 90
        4
176
     1
 62
     7
176
     1
 62
   257
176
     1
 90
        1
176
     1
 90
        1
176
     1
 40
1.0
176
     1
 90
        8
176
     1
 62
     7
176
     1
 40
1.0
176
     1
 90
        1
176
     1
 90
        6
176
     1
 90
        2
176
     1
 62
     7
176
     1
 90
        5
176
     1
 90
        0
176
     1
 90
        0
176
     1
290
     0
176
     1
 90
        1
176
     1
 40
50.0
176
     1
 90
        0
176
     1
290
     0
176
     1
290
     1
176
     1
290
     1
176
     1
290
     0
176
     1
290
     0
176
     1
290
     0
176
     1
290
     0
176
     1
290
     0
176
     1
290
     0
176
     1
 90
       50
176
     1
 40
0.0
176
     1
 40
1.0
176
     1
 90
        0
176
     1
 62
    18
420
        0
176
     1
 90
       50
176
     1
 90
        3
176
     1
 62
     5
420
      255
176
     1
290
     0
176
     1
 90
       50
176
     1
 90
       50
176
     1
 90
       50
176
     1
290
     0
176
     1
 90
       50
176
     1
 62
   256
176
     0
 40
1.0
176
     0
 90
        2
176
     1
  1
strokes_ogs.tif
176
     1
290
     0
176
     1
 40
1.0
176
     1
 40
1.0
176
     1
  0
VISUALSTYLE
  5
39
102
{ACAD_REACTORS
330
29
102
}
330
29
100
AcDbVisualStyle
  2
ColorChange
 70
    16
177
     3
291
     1
 70
    58
 90
        2
176
     1
 90
        2
176
     1
 90
        3
176
     1
 90
        0
176
     1
 40
0.6
176
     1
 40
30.0
176
     1
 62
     8
420
  8421504
176
     1
 90
        1
176
     1
 90
        4
176
     1
 62
     7
176
     1
 62
   257
176
     1
 90
        1
176
     1
 90
        1
176
     1
 40
1.0
176
     1
 90
        8
176
     1
 62
     8
420
  8421504
176
     1
 40
1.0
176
     1
 90
        1
176
     1
 90
        6
176
     1
 90
        2
176
     1
 62
     7
176
     1
 90
        5
176
     1
 90
        0
176
     1
 90
        0
176
     1
290
     0
176
     1
 90
        1
176
     1
 40
0.0
176
     1
 90
        0
176
     1
290
     0
176
     1
290
     1
176
     1
290
     1
176
     1
290
     0
176
     1
290
     0
176
     1
290
     0
176
     1
290
     0
176
     1
290
     0
176
     1
290
     0
176
     1
 90
       50
176
     1
 40
0.0
176
     1
 40
1.0
176
     1
 90
        0
176
     1
 62
    18
420
        0
176
     1
 90
       50
176
     1
 90
        3
176
     1
 62
     5
420
      255
176
     1
290
     0
176
     1
 90
       50
176
     1
 90
       50
176
     1
 90
       50
176
     1
290
     0
176
     1
 90
       50
176
     1
 62
   256
176
     0
 40
1.0
176
     0
 90
        2
176
     1
  1
strokes_ogs.tif
176
     1
290
     0
176
     1
 40
1.0
176
     1
 40
1.0
176
     1
  0
VISUALSTYLE
  5
32
102
{ACAD_REACTORS
330
29
102
}
330
29
100
AcDbVisualStyle
  2
Conceptual
 70
     9
177
     3
291
     0
 70
    58
 90
        3
176
     1
 90
        2
176
     1
 90
        0
176
     1
 90
        0
176
     1
 40
0.6
176
     1
 40
30.0
176
     1
 62
     7
420
 16777215
176
     1
 90
        2
176
     1
 90
        2
176
     1
 62
     7
176
     1
 62
   257
176
     1
 90
        1
176
     1
 90
        1
176
     1
 40
179.0
176
     1
 90
        8
176
     1
 62
     7
176
     1
 40
1.0
176
     1
 90
        1
176
     1
 90
        6
176
     1
 90
        2
176
     1
 62
     7
176
     1
 90
        3
176
     1
 90
        0
176
     1
 90
        0
176
     1
290
     0
176
     1
 90
        1
176
     1
 40
0.0
176
     1
 90
        0
176
     1
290
     0
176
     1
290
     1
176
     1
290
     1
176
     1
290
     0
176
     1
290
     0
176
     1
290
     0
176
     1
290
     0
176
     1
290
     0
176
     1
290
     0
176
     1
 90
       50
176
     1
 40
0.0
176
     1
 40
1.0
176
     1
 90
        0
176
     1
 62
    18
420
        0
176
     1
 90
       50
176
     1
 90
        3
176
     1
 62
     5
420
      255
176
     1
290
     0
176
     1
 90
       50
176
     1
 90
       50
176
     1
 90
       50
176
     1
290
     0
176
     1
 90
       50
176
     1
 62
   256
176
     0
 40
1.0
176
     0
 90
        2
176
     1
  1
strokes_ogs.tif
176
     1
290
     0
176
     1
 40
1.0
176
     1
 40
1.0
176
     1
  0
VISUALSTYLE
  5
34
102
{ACAD_REACTORS
330
29
102
}
330
29
100
AcDbVisualStyle
  2
Dim
 70
    11
177
     3
291
     1
 70
    58
 90
        2
176
     1
 90
        2
176
     1
 90
        0
176
     1
 90
        0
176
     1
 40
0.6
176
     1
 40
30.0
176
     1
 62
     7
420
 16777215
176
     1
 90
        1
176
     1
 90
        4
176
     1
 62
     7
176
     1
 62
   257
176
     1
 90
        1
176
     1
 90
        1
176
     1
 40
1.0
176
     1
 90
        8
176
     1
 62
     7
176
     1
 40
1.0
176
     1
 90
        1
176
     1
 90
        6
176
     1
 90
        2
176
     1
 62
     7
176
     1
 90
        5
176
     1
 90
        0
176
     1
 90
        0
176
     1
290
     0
176
     1
 90
        1
176
     1
 40
-50.0
176
     1
 90
        0
176
     1
290
     0
176
     1
290
     1
176
     1
290
     1
176
     1
290
     0
176
     1
290
     0
176
     1
290
     0
176
     1
290
     0
176
     1
290
     0
176
     1
290
     0
176
     1
 90
       50
176
     1
 40
0.0
176
     1
 40
1.0
176
     1
 90
        0
176
     1
 62
    18
420
        0
176
     1
 90
       50
176
     1
 90
        3
176
     1
 62
     5
420
      255
176
     1
290
     0
176
     1
 90
       50
176
     1
 90
       50
176
     1
 90
       50
176
     1
290
     0
176
     1
 90
       50
176
     1
 62
   256
176
     0
 40
1.0
176
     0
 90
        2
176
     1
  1
strokes_ogs.tif
176
     1
290
     0
176
     1
 40
1.0
176
     1
 40
1.0
176
     1
  0
VISUALSTYLE
  5
41
102
{ACAD_REACTORS
330
29
102
}
330
29
100
AcDbVisualStyle
  2
EdgeColorOff
 70
    22
177
     3
291
     1
 70
    58
 90
        2
176
     0
 90
        2
176
     0
 90
        0
176
     0
 90
        0
176
     0
 40
0.6
176
     0
 40
30.0
176
     0
 62
     7
420
 16777215
176
     0
 90
        1
176
     0
 90
        4
176
     0
 62
     7
176
     0
 62
   257
176
     0
 90
        1
176
     0
 90
        1
176
     0
 40
1.0
176
     0
 90
        8
176
     2
 62
     7
176
     0
 40
1.0
176
     0
 90
        1
176
     0
 90
        6
176
     0
 90
        2
176
     0
 62
     7
176
     0
 90
        5
176
     0
 90
        0
176
     0
 90
        0
176
     0
290
     0
176
     0
 90
        1
176
     0
 40
0.0
176
     0
 90
        0
176
     0
290
     0
176
     0
290
     1
176
     0
290
     1
176
     0
290
     0
176
     0
290
     0
176
     0
290
     0
176
     0
290
     0
176
     0
290
     0
176
     0
290
     0
176
     0
 90
       50
176
     0
 40
0.0
176
     0
 40
1.0
176
     0
 90
        0
176
     0
 62
    18
420
        0
176
     0
 90
       50
176
     0
 90
        3
176
     0
 62
     5
420
      255
176
     0
290
     0
176
     0
 90
       50
176
     0
 90
       50
176
     0
 90
       50
176
     0
290
     0
176
     0
 90
       50
176
     0
 62
   256
176
     0
 40
1.0
176
     0
 90
        2
176
     0
  1
strokes_ogs.tif
176
     0
290
     0
176
     0
 40
1.0
176
     0
 40
1.0
176
     0
  0
VISUALSTYLE
  5
38
102
{ACAD_REACTORS
330
29
102
}
330
29
100
AcDbVisualStyle
  2
Facepattern
 70
    15
177
     3
291
     1
 70
    58
 90
        2
176
     1
 90
        2
176
     1
 90
        0
176
     1
 90
        0
176
     1
 40
0.6
176
     1
 40
30.0
176
     1
 62
     7
420
 16777215
176
     1
 90
        1
176
     1
 90
        4
176
     1
 62
     7
176
     1
 62
   257
176
     1
 90
        1
176
     1
 90
        1
176
     1
 40
1.0
176
     1
 90
        8
176
     1
 62
     7
176
     1
 40
1.0
176
     1
 90
        1
176
     1
 90
        6
176
     1
 90
        2
176
     1
 62
     7
176
     1
 90
        5
176
     1
 90
        0
176
     1
 90
        0
176
     1
290
     0
176
     1
 90
        1
176
     1
 40
0.0
176
     1
 90
        0
176
     1
290
     0
176
     1
290
     1
176
     1
290
     1
176
     1
290
     0
176
     1
290
     0
176
     1
290
     0
176
     1
290
     0
176
     1
290
     0
176
     1
290
     0
176
     1
 90
       50
176
     1
 40
0.0
176
     1
 40
1.0
176
     1
 90
        0
176
     1
 62
    18
420
        0
176
     1
 90
       50
176
     1
 90
        3
176
     1
 62
     5
420
      255
176
     1
290
     0
176
     1
 90
       50
176
     1
 90
       50
176
     1
 90
       50
176
     1
290
     0
176
     1
 90
       50
176
     1
 62
   256
176
     0
 40
1.0
176
     0
 90
        2
176
     1
  1
strokes_ogs.tif
176
     1
290
     0
176
     1
 40
1.0
176
     1
 40
1.0
176
     1
  0
VISUALSTYLE
  5
2A
102
{ACAD_REACTORS
330
29
102
}
330
29
100
AcDbVisualStyle
  2
Flat
 70
     0
177
     3
291
     1
 70
    58
 90
        2
176
     1
 90
        1
176
     1
 90
        1
176
     1
 90
        2
176
     1
 40
0.6
176
     1
 40
30.0
176
     1
 62
     7
420
 16777215
176
     1
 90
        0
176
     1
 90
        0
176
     1
 62
     7
176
     1
 62
   257
176
     1
 90
        1
176
     1
 90
        1
176
     1
 40
1.0
176
     1
 90
        8
176
     1
 62
     7
176
     1
 40
1.0
176
     1
 90
        1
176
     1
 90
        6
176
     1
 90
        2
176
     1
 62
     7
176
     1
 90
        5
176
     1
 90
        0
176
     1
 90
        0
176
     1
290
     0
176
     1
 90
       13
176
     1
 40
0.0
176
     1
 90
        0
176
     1
290
     0
176
     1
290
     1
176
     1
290
     1
176
     1
290
     0
176
     1
290
     0
176
     1
290
     0
176
     1
290
     0
176
     1
290
     0
176
     1
290
     0
176
     1
 90
       50
176
     1
 40
0.0
176
     1
 40
1.0
176
     1
 90
        0
176
     1
 62
    18
420
        0
176
     1
 90
       50
176
     1
 90
        3
176
     1
 62
     5
420
      255
176
     1
290
     0
176
     1
 90
       50
176
     1
 90
       50
176
     1
 90
       50
176
     1
290
     0
176
     1
 90
       50
176
     1
 62
   256
176
     0
 40
1.0
176
     0
 90
        2
176
     1
  1
strokes_ogs.tif
176
     1
290
     0
176
     1
 40
1.0
176
     1
 40
1.0
176
     1
  0
VISUALSTYLE
  5
2B
102
{ACAD_REACTORS
330
29
102
}
330
29
100
AcDbVisualStyle
  2
FlatWithEdges
 70
     1
177
     3
291
     1
 70
    58
 90
        2
176
     1
 90
        1
176
     1
 90
        1
176
     1
 90
        2
176
     1
 40
0.6
176
     1
 40
30.0
176
     1
 62
     7
420
 16777215
176
     1
 90
        1
176
     1
 90
        0
176
     1
 62
     7
176
     1
 62
   257
176
     1
 90
        1
176
     1
 90
        1
176
     1
 40
1.0
176
     1
 90
        0
176
     1
 62
   257
176
     1
 40
1.0
176
     1
 90
        1
176
     1
 90
        6
176
     1
 90
        2
176
     1
 62
     7
176
     1
 90
        5
176
     1
 90
        0
176
     1
 90
        0
176
     1
290
     0
176
     1
 90
       13
176
     1
 40
0.0
176
     1
 90
        0
176
     1
290
     0
176
     1
290
     1
176
     1
290
     1
176
     1
290
     0
176
     1
290
     0
176
     1
290
     0
176
     1
290
     0
176
     1
290
     0
176
     1
290
     0
176
     1
 90
       50
176
     1
 40
0.0
176
     1
 40
1.0
176
     1
 90
        0
176
     1
 62
    18
420
        0
176
     1
 90
       50
176
     1
 90
        3
176
     1
 62
     5
420
      255
176
     1
290
     0
176
     1
 90
       50
176
     1
 90
       50
176
     1
 90
       50
176
     1
290
     0
176
     1
 90
       50
176
     1
 62
   256
176
     0
 40
1.0
176
     0
 90
        2
176
     1
  1
strokes_ogs.tif
176
     1
290
     0
176
     1
 40
1.0
176
     1
 40
1.0
176
     1
  0
VISUALSTYLE
  5
2C
102
{ACAD_REACTORS
330
29
102
}
330
29
100
AcDbVisualStyle
  2
Gouraud
 70
     2
177
     3
291
     1
 70
    58
 90
        2
176
     1
 90
        2
176
     1
 90
        1
176
     1
 90
        2
176
     1
 40
0.6
176
     1
 40
30.0
176
     1
 62
     7
420
 16777215
176
     1
 90
        0
176
     1
 90
        0
176
     1
 62
     7
176
     1
 62
   257
176
     1
 90
        1
176
     1
 90
        1
176
     1
 40
1.0
176
     1
 90
        0
176
     1
 62
     7
176
     1
 40
1.0
176
     1
 90
        1
176
     1
 90
        6
176
     1
 90
        2
176
     1
 62
     7
176
     1
 90
        5
176
     1
 90
        0
176
     1
 90
        0
176
     1
290
     0
176
     1
 90
       13
176
     1
 40
0.0
176
     1
 90
        0
176
     1
290
     0
176
     1
290
     1
176
     1
290
     1
176
     1
290
     0
176
     1
290
     0
176
     1
290
     0
176
     1
290
     0
176
     1
290
     0
176
     1
290
     0
176
     1
 90
       50
176
     1
 40
0.0
176
     1
 40
1.0
176
     1
 90
        0
176
     1
 62
    18
420
        0
176
     1
 90
       50
176
     1
 90
        3
176
     1
 62
     5
420
      255
176
     1
290
     0
176
     1
 90
       50
176
     1
 90
       50
176
     1
 90
       50
176
     1
290
     0
176
     1
 90
       50
176
     1
 62
   256
176
     0
 40
1.0
176
     0
 90
        2
176
     1
  1
strokes_ogs.tif
176
     1
290
     0
176
     1
 40
1.0
176
     1
 40
1.0
176
     1
  0
VISUALSTYLE
  5
2D
102
{ACAD_REACTORS
330
29
102
}
330
29
100
AcDbVisualStyle
  2
GouraudWithEdges
 70
     3
177
     3
291
     1
 70
    58
 90
        2
176
     1
 90
        2
176
     1
 90
        1
176
     1
 90
        2
176
     1
 40
0.6
176
     1
 40
30.0
176
     1
 62
     7
420
 16777215
176
     1
 90
        1
176
     1
 90
        0
176
     1
 62
     7
176
     1
 62
   257
176
     1
 90
        1
176
     1
 90
        1
176
     1
 40
1.0
176
     1
 90
        0
176
     1
 62
   257
176
     1
 40
1.0
176
     1
 90
        1
176
     1
 90
        6
176
     1
 90
        2
176
     1
 62
     7
176
     1
 90
        5
176
     1
 90
        0
176
     1
 90
        0
176
     1
290
     0
176
     1
 90
       13
176
     1
 40
0.0
176
     1
 90
        0
176
     1
290
     0
176
     1
290
     1
176
     1
290
     1
176
     1
290
     0
176
     1
290
     0
176
     1
290
     0
176
     1
290
     0
176
     1
290
     0
176
     1
290
     0
176
     1
 90
       50
176
     1
 40
0.0
176
     1
 40
1.0
176
     1
 90
        0
176
     1
 62
    18
420
        0
176
     1
 90
       50
176
     1
 90
        3
176
     1
 62
     5
420
      255
176
     1
290
     0
176
     1
 90
       50
176
     1
 90
       50
176
     1
 90
       50
176
     1
290
     0
176
     1
 90
       50
176
     1
 62
   256
176
     0
 40
1.0
176
     0
 90
        2
176
     1
  1
strokes_ogs.tif
176
     1
290
     0
176
     1
 40
1.0
176
     1
 40
1.0
176
     1
  0
VISUALSTYLE
  5
31
102
{ACAD_REACTORS
330
29
102
}
330
29
100
AcDbVisualStyle
  2
Hidden
 70
     6
177
     3
291
     0
 70
    58
 90
        1
176
     1
 90
        2
176
     1
 90
        2
176
     1
 90
        0
176
     1
 40
0.6
176
     1
 40
30.0
176
     1
 62
     7
420
 16777215
176
     1
 90
        2
176
     1
 90
        2
176
     1
 62
     7
176
     1
 62
   257
176
     1
 90
        2
176
     1
 90
        1
176
     1
 40
40.0
176
     1
 90
        0
176
     1
 62
   257
176
     1
 40
1.0
176
     1
 90
        1
176
     1
 90
        6
176
     1
 90
        2
176
     1
 62
     7
176
     1
 90
        3
176
     1
 90
        0
176
     1
 90
        0
176
     1
290
     0
176
     1
 90
        1
176
     1
 40
0.0
176
     1
 90
        0
176
     1
290
     0
176
     1
290
     1
176
     1
290
     1
176
     1
290
     0
176
     1
290
     0
176
     1
290
     0
176
     1
290
     0
176
     1
290
     0
176
     1
290
     0
176
     1
 90
       50
176
     1
 40
0.0
176
     1
 40
1.0
176
     1
 90
        0
176
     1
 62
    18
420
        0
176
     1
 90
       50
176
     1
 90
        3
176
     1
 62
     5
420
      255
176
     1
290
     0
176
     1
 90
       50
176
     1
 90
       50
176
     1
 90
       50
176
     1
290
     0
176
     1
 90
       50
176
     1
 62
   256
176
     0
 40
1.0
176
     0
 90
        2
176
     1
  1
strokes_ogs.tif
176
     1
290
     0
176
     1
 40
1.0
176
     1
 40
1.0
176
     1
  0
VISUALSTYLE
  5
3F
102
{ACAD_REACTORS
330
29
102
}
330
29
100
AcDbVisualStyle
  2
JitterOff
 70
    20
177
     3
291
     1
 70
    58
 90
        2
176
     0
 90
        2
176
     0
 90
        0
176
     0
 90
        0
176
     0
 40
0.6
176
     0
 40
30.0
176
     0
 62
     7
420
 16777215
176
     0
 90
        1
176
     0
 90
        4
176
     0
 62
     7
176
     0
 62
   257
176
     0
 90
        1
176
     0
 90
        1
176
     0
 40
1.0
176
     0
 90
       10
176
     2
 62
     7
176
     0
 40
1.0
176
     0
 90
        1
176
     0
 90
        6
176
     0
 90
        2
176
     0
 62
     7
176
     0
 90
        5
176
     0
 90
        0
176
     0
 90
        0
176
     0
290
     0
176
     0
 90
        1
176
     0
 40
0.0
176
     0
 90
        0
176
     0
290
     0
176
     0
290
     1
176
     0
290
     1
176
     0
290
     0
176
     0
290
     0
176
     0
290
     0
176
     0
290
     0
176
     0
290
     0
176
     0
290
     0
176
     0
 90
       50
176
     0
 40
0.0
176
     0
 40
1.0
176
     0
 90
        0
176
     0
 62
    18
420
        0
176
     0
 90
       50
176
     0
 90
        3
176
     0
 62
     5
420
      255
176
     0
290
     0
176
     0
 90
       50
176
     0
 90
       50
176
     0
 90
       50
176
     0
290
     0
176
     0
 90
       50
176
     0
 62
   256
176
     0
 40
1.0
176
     0
 90
        2
176
     0
  1
strokes_ogs.tif
176
     0
290
     0
176
     0
 40
1.0
176
     0
 40
1.0
176
     0
  0
VISUALSTYLE
  5
37
102
{ACAD_REACTORS
330
29
102
}
330
29
100
AcDbVisualStyle
  2
Linepattern
 70
    14
177
     3
291
     1
 70
    58
 90
        2
176
     1
 90
        2
176
     1
 90
        0
176
     1
 90
        0
176
     1
 40
0.6
176
     1
 40
30.0
176
     1
 62
     7
420
 16777215
176
     1
 90
        1
176
     1
 90
        4
176
     1
 62
     7
176
     1
 62
   257
176
     1
 90
        7
176
     1
 90
        7
176
     1
 40
1.0
176
     1
 90
        8
176
     1
 62
     7
176
     1
 40
1.0
176
     1
 90
        1
176
     1
 90
        6
176
     1
 90
        2
176
     1
 62
     7
176
     1
 90
        5
176
     1
 90
        0
176
     1
 90
        0
176
     1
290
     0
176
     1
 90
        1
176
     1
 40
0.0
176
     1
 90
        0
176
     1
290
     0
176
     1
290
     1
176
     1
290
     1
176
     1
290
     0
176
     1
290
     0
176
     1
290
     0
176
     1
290
     0
176
     1
290
     0
176
     1
290
     0
176
     1
 90
       50
176
     1
 40
0.0
176
     1
 40
1.0
176
     1
 90
        0
176
     1
 62
    18
420
        0
176
     1
 90
       50
176
     1
 90
        3
176
     1
 62
     5
420
      255
176
     1
290
     0
176
     1
 90
       50
176
     1
 90
       50
176
     1
 90
       50
176
     1
290
     0
176
     1
 90
       50
176
     1
 62
   256
176
     0
 40
1.0
176
     0
 90
        2
176
     1
  1
strokes_ogs.tif
176
     1
290
     0
176
     1
 40
1.0
176
     1
 40
1.0
176
     1
  0
VISUALSTYLE
  5
40
102
{ACAD_REACTORS
330
29
102
}
330
29
100
AcDbVisualStyle
  2
OverhangOff
 70
    21
177
     3
291
     1
 70
    58
 90
        2
176
     0
 90
        2
176
     0
 90
        0
176
     0
 90
        0
176
     0
 40
0.6
176
     0
 40
30.0
176
     0
 62
     7
420
 16777215
176
     0
 90
        1
176
     0
 90
        4
176
     0
 62
     7
176
     0
 62
   257
176
     0
 90
        1
176
     0
 90
        1
176
     0
 40
1.0
176
     0
 90
        9
176
     2
 62
     7
176
     0
 40
1.0
176
     0
 90
        1
176
     0
 90
        6
176
     0
 90
        2
176
     0
 62
     7
176
     0
 90
        5
176
     0
 90
        0
176
     0
 90
        0
176
     0
290
     0
176
     0
 90
        1
176
     0
 40
0.0
176
     0
 90
        0
176
     0
290
     0
176
     0
290
     1
176
     0
290
     1
176
     0
290
     0
176
     0
290
     0
176
     0
290
     0
176
     0
290
     0
176
     0
290
     0
176
     0
290
     0
176
     0
 90
       50
176
     0
 40
0.0
176
     0
 40
1.0
176
     0
 90
        0
176
     0
 62
    18
420
        0
176
     0
 90
       50
176
     0
 90
        3
176
     0
 62
     5
420
      255
176
     0
290
     0
176
     0
 90
       50
176
     0
 90
       50
176
     0
 90
       50
176
     0
290
     0
176
     0
 90
       50
176
     0
 62
   256
176
     0
 40
1.0
176
     0
 90
        2
176
     0
  1
strokes_ogs.tif
176
     0
290
     0
176
     0
 40
1.0
176
     0
 40
1.0
176
     0
  0
VISUALSTYLE
  5
33
102
{ACAD_REACTORS
330
29
102
}
330
29
100
AcDbVisualStyle
  2
Realistic
 70
     8
177
     3
291
     0
 70
    58
 90
        2
176
     1
 90
        3
176
     1
 90
        0
176
     1
 90
        2
176
     1
 40
0.6
176
     1
 40
30.0
176
     1
 62
     7
420
 16777215
176
     1
 90
        0
176
     1
 90
        0
176
     1
 62
     7
176
     1
 62
   257
176
     1
 90
        1
176
     1
 90
        1
176
     1
 40
1.0
176
     1
 90
        8
176
     1
 62
   257
176
     1
 40
1.0
176
     1
 90
        1
176
     1
 90
        6
176
     1
 90
        2
176
     1
 62
     7
176
     1
 90
        3
176
     1
 90
        0
176
     1
 90
        0
176
     1
290
     0
176
     1
 90
       13
176
     1
 40
0.0
176
     1
 90
        0
176
     1
290
     0
176
     1
290
     1
176
     1
290
     1
176
     1
290
     0
176
     1
290
     0
176
     1
290
     0
176
     1
290
     0
176
     1
290
     0
176
     1
290
     0
176
     1
 90
       50
176
     1
 40
0.0
176
     1
 40
1.0
176
     1
 90
        0
176
     1
 62
    18
420
        0
176
     1
 90
       50
176
     1
 90
        3
176
     1
 62
     5
420
      255
176
     1
290
     0
176
     1
 90
       50
176
     1
 90
       50
176
     1
 90
       50
176
     1
290
     0
176
     1
 90
       50
176
     1
 62
   256
176
     0
 40
1.0
176
     0
 90
        2
176
     1
  1
strokes_ogs.tif
176
     1
290
     0
176
     1
 40
1.0
176
     1
 40
1.0
176
     1
  0
VISUALSTYLE
  5
3E
102
{ACAD_REACTORS
330
29
102
}
330
29
100
AcDbVisualStyle
  2
Shaded
 70
    27
177
     3
291
     0
 70
    58
 90
        2
176
     1
 90
        2
176
     1
 90
        1
176
     1
 90
        2
176
     1
 40
0.6
176
     1
 40
30.0
176
     1
 62
     7
420
 16777215
176
     1
 90
        0
176
     1
 90
        4
176
     1
 62
     7
176
     1
 62
   257
176
     1
 90
        1
176
     1
 90
        1
176
     1
 40
1.0
176
     1
 90
        8
176
     1
 62
   257
176
     1
 40
1.0
176
     1
 90
        1
176
     1
 90
        6
176
     1
 90
        2
176
     1
 62
     8
420
  7895160
176
     1
 90
        3
176
     1
 90
        0
176
     1
 90
        0
176
     1
290
     0
176
     1
 90
        5
176
     1
 40
0.0
176
     1
 90
        0
176
     1
290
     0
176
     1
290
     1
176
     1
290
     1
176
     1
290
     0
176
     1
290
     0
176
     1
290
     0
176
     1
290
     0
176
     1
290
     0
176
     1
290
     0
176
     1
 90
       50
176
     1
 40
0.0
176
     1
 40
1.0
176
     1
 90
        0
176
     1
 62
    18
420
        0
176
     1
 90
       50
176
     1
 90
        3
176
     1
 62
     5
420
      255
176
     1
290
     0
176
     1
 90
       50
176
     1
 90
       50
176
     1
 90
       50
176
     1
290
     0
176
     1
 90
       50
176
     1
 62
   256
176
     0
 40
1.0
176
     0
 90
        2
176
     1
  1
strokes_ogs.tif
176
     1
290
     0
176
     1
 40
1.0
176
     1
 40
1.0
176
     1
  0
VISUALSTYLE
  5
3D
102
{ACAD_REACTORS
330
29
102
}
330
29
100
AcDbVisualStyle
  2
Shaded with edges
 70
    26
177
     3
291
     0
 70
    58
 90
        2
176
     1
 90
        2
176
     1
 90
        1
176
     1
 90
        2
176
     1
 40
0.6
176
     1
 40
30.0
176
     1
 62
     7
420
 16777215
176
     1
 90
        1
176
     1
 90
        2
176
     1
 62
     7
176
     1
 62
   257
176
     1
 90
        2
176
     1
 90
        1
176
     1
 40
1.0
176
     1
 90
        8
176
     1
 62
   257
176
     1
 40
1.0
176
     1
 90
        1
176
     1
 90
        6
176
     1
 90
        2
176
     1
 62
     7
176
     1
 90
        3
176
     1
 90
        0
176
     1
 90
        0
176
     1
290
     0
176
     1
 90
        5
176
     1
 40
0.0
176
     1
 90
        0
176
     1
290
     0
176
     1
290
     1
176
     1
290
     1
176
     1
290
     0
176
     1
290
     0
176
     1
290
     0
176
     1
290
     0
176
     1
290
     0
176
     1
290
     0
176
     1
 90
       50
176
     1
 40
0.0
176
     1
 40
1.0
176
     1
 90
        0
176
     1
 62
    18
420
        0
176
     1
 90
       50
176
     1
 90
        3
176
     1
 62
     5
420
      255
176
     1
290
     0
176
     1
 90
       50
176
     1
 90
       50
176
     1
 90
       50
176
     1
290
     0
176
     1
 90
       50
176
     1
 62
   256
176
     0
 40
1.0
176
     0
 90
        2
176
     1
  1
strokes_ogs.tif
176
     1
290
     0
176
     1
 40
1.0
176
     1
 40
1.0
176
     1
  0
VISUALSTYLE
  5
3A
102
{ACAD_REACTORS
330
29
102
}
330
29
100
AcDbVisualStyle
  2
Shades of Gray
 70
    23
177
     3
291
     0
 70
    58
 90
        2
176
     1
 90
        2
176
     1
 90
        3
176
     1
 90
        0
176
     1
 40
0.6
176
     1
 40
30.0
176
     1
 62
     7
420
 16777215
176
     1
 90
        2
176
     1
 90
        2
176
     1
 62
     7
176
     1
 62
     7
176
     1
 90
        1
176
     1
 90
        1
176
     1
 40
40.0
176
     1
 90
        8
176
     1
 62
     7
176
     1
 40
1.0
176
     1
 90
        1
176
     1
 90
        6
176
     1
 90
        2
176
     1
 62
     7
176
     1
 90
        3
176
     1
 90
        0
176
     1
 90
        0
176
     1
290
     0
176
     1
 90
        1
176
     1
 40
0.0
176
     1
 90
        0
176
     1
290
     0
176
     1
290
     1
176
     1
290
     1
176
     1
290
     0
176
     1
290
     0
176
     1
290
     0
176
     1
290
     0
176
     1
290
     0
176
     1
290
     0
176
     1
 90
       50
176
     1
 40
0.0
176
     1
 40
1.0
176
     1
 90
        0
176
     1
 62
    18
420
        0
176
     1
 90
       50
176
     1
 90
        3
176
     1
 62
     5
420
      255
176
     1
290
     0
176
     1
 90
       50
176
     1
 90
       50
176
     1
 90
       50
176
     1
290
     0
176
     1
 90
       50
176
     1
 62
   256
176
     0
 40
1.0
176
     0
 90
        2
176
     1
  1
strokes_ogs.tif
176
     1
290
     0
176
     1
 40
1.0
176
     1
 40
1.0
176
     1
  0
VISUALSTYLE
  5
3B
102
{ACAD_REACTORS
330
29
102
}
330
29
100
AcDbVisualStyle
  2
Sketchy
 70
    24
177
     3
291
     0
 70
    58
 90
        1
176
     1
 90
        2
176
     1
 90
        2
176
     1
 90
        0
176
     1
 40
0.6
176
     1
 40
30.0
176
     1
 62
     7
420
 16777215
176
     1
 90
        2
176
     1
 90
        2
176
     1
 62
     7
176
     1
 62
     7
176
     1
 90
        1
176
     1
 90
        1
176
     1
 40
40.0
176
     1
 90
       11
176
     1
 62
     7
176
     1
 40
1.0
176
     1
 90
        1
176
     1
 90
        6
176
     1
 90
        2
176
     1
 62
     7
176
     1
 90
        6
176
     1
 90
        0
176
     1
 90
        0
176
     1
290
     0
176
     1
 90
        1
176
     1
 40
0.0
176
     1
 90
        0
176
     1
290
     0
176
     1
290
     1
176
     1
290
     1
176
     1
290
     0
176
     1
290
     0
176
     1
290
     0
176
     1
290
     0
176
     1
290
     0
176
     1
290
     0
176
     1
 90
       50
176
     1
 40
0.0
176
     1
 40
1.0
176
     1
 90
        0
176
     1
 62
    18
420
        0
176
     1
 90
       50
176
     1
 90
        3
176
     1
 62
     5
420
      255
176
     1
290
     0
176
     1
 90
       50
176
     1
 90
       50
176
     1
 90
       50
176
     1
290
     0
176
     1
 90
       50
176
     1
 62
   256
176
     0
 40
1.0
176
     0
 90
        2
176
     1
  1
strokes_ogs.tif
176
     1
290
     0
176
     1
 40
1.0
176
     1
 40
1.0
176
     1
  0
VISUALSTYLE
  5
36
102
{ACAD_REACTORS
330
29
102
}
330
29
100
AcDbVisualStyle
  2
Thicken
 70
    13
177
     3
291
     1
 70
    58
 90
        2
176
     1
 90
        2
176
     1
 90
        0
176
     1
 90
        0
176
     1
 40
0.6
176
     1
 40
30.0
176
     1
 62
     7
420
 16777215
176
     1
 90
        1
176
     1
 90
        4
176
     1
 62
     7
176
     1
 62
   257
176
     1
 90
        1
176
     1
 90
        1
176
     1
 40
1.0
176
     1
 90
       12
176
     1
 62
     7
176
     1
 40
1.0
176
     1
 90
        1
176
     1
 90
        6
176
     1
 90
        2
176
     1
 62
     7
176
     1
 90
        5
176
     1
 90
        0
176
     1
 90
        0
176
     1
290
     0
176
     1
 90
        1
176
     1
 40
0.0
176
     1
 90
        0
176
     1
290
     0
176
     1
290
     1
176
     1
290
     1
176
     1
290
     0
176
     1
290
     0
176
     1
290
     0
176
     1
290
     0
176
     1
290
     0
176
     1
290
     0
176
     1
 90
       50
176
     1
 40
0.0
176
     1
 40
1.0
176
     1
 90
        0
176
     1
 62
    18
420
        0
176
     1
 90
       50
176
     1
 90
        3
176
     1
 62
     5
420
      255
176
     1
290
     0
176
     1
 90
       50
176
     1
 90
       50
176
     1
 90
       50
176
     1
290
     0
176
     1
 90
       50
176
     1
 62
   256
176
     0
 40
1.0
176
     0
 90
        2
176
     1
  1
strokes_ogs.tif
176
     1
290
     0
176
     1
 40
1.0
176
     1
 40
1.0
176
     1
  0
VISUALSTYLE
  5
30
102
{ACAD_REACTORS
330
29
102
}
330
29
100
AcDbVisualStyle
  2
Wireframe
 70
     5
177
     3
291
     0
 70
    58
 90
        0
176
     1
 90
        2
176
     1
 90
        0
176
     1
 90
        0
176
     1
 40
0.6
176
     1
 40
30.0
176
     1
 62
     7
420
 16777215
176
     1
 90
        1
176
     1
 90
        4
176
     1
 62
     7
176
     1
 62
   257
176
     1
 90
        1
176
     1
 90
        1
176
     1
 40
1.0
176
     1
 90
        0
176
     1
 62
   257
176
     1
 40
1.0
176
     1
 90
        1
176
     1
 90
        6
176
     1
 90
        2
176
     1
 62
     7
176
     1
 90
        3
176
     1
 90
        0
176
     1
 90
        0
176
     1
290
     0
176
     1
 90
        1
176
     1
 40
0.0
176
     1
 90
        0
176
     1
290
     0
176
     1
290
     1
176
     1
290
     1
176
     1
290
     0
176
     1
290
     0
176
     1
290
     0
176
     1
290
     0
176
     1
290
     0
176
     1
290
     0
176
     1
 90
       50
176
     1
 40
0.0
176
     1
 40
1.0
176
     1
 90
        0
176
     1
 62
    18
420
        0
176
     1
 90
       50
176
     1
 90
        3
176
     1
 62
     5
420
      255
176
     1
290
     0
176
     1
 90
       50
176
     1
 90
       50
176
     1
 90
       50
176
     1
290
     0
176
     1
 90
       50
176
     1
 62
   256
176
     0
 40
1.0
176
     0
 90
        2
176
     1
  1
strokes_ogs.tif
176
     1
290
     0
176
     1
 40
1.0
176
     1
 40
1.0
176
     1
  0
VISUALSTYLE
  5
3C
102
{ACAD_REACTORS
330
29
102
}
330
29
100
AcDbVisualStyle
  2
X-Ray
 70
    25
177
     3
291
     0
 70
    58
 90
        2
176
     1
 90
        2
176
     1
 90
        1
176
     1
 90
        1
176
     1
 40
0.5
176
     1
 40
30.0
176
     1
 62
     7
420
 16777215
176
     1
 90
        1
176
     1
 90
        0
176
     1
 62
     7
176
     1
 62
   257
176
     1
 90
        1
176
     1
 90
        1
176
     1
 40
1.0
176
     1
 90
        8
176
     1
 62
     7
176
     1
 40
1.0
176
     1
 90
        1
176
     1
 90
        6
176
     1
 90
        2
176
     1
 62
     7
176
     1
 90
        3
176
     1
 90
        0
176
     1
 90
        0
176
     1
290
     0
176
     1
 90
       13
176
     1
 40
0.0
176
     1
 90
        0
176
     1
290
     0
176
     1
290
     1
176
     1
290
     1
176
     1
290
     0
176
     1
290
     0
176
     1
290
     0
176
     1
290
     0
176
     1
290
     0
176
     1
290
     0
176
     1
 90
       50
176
     1
 40
0.0
176
     1
 40
1.0
176
     1
 90
        0
176
     1
 62
    18
420
        0
176
     1
 90
       50
176
     1
 90
        3
176
     1
 62
     5
420
      255
176
     1
290
     0
176
     1
 90
       50
176
     1
 90
       50
176
     1
 90
       50
176
     1
290
     0
176
     1
 90
       50
176
     1
 62
   256
176
     0
 40
1.0
176
     0
 90
        2
176
     1
  1
strokes_ogs.tif
176
     1
290
     0
176
     1
 40
1.0
176
     1
 40
1.0
176
     1
  0
DICTIONARYVAR
  5
232
102
{ACAD_REACTORS
330
22D
102
}
330
22D
100
DictionaryVariables
280
     0
  1
1:1
  0
DICTIONARYVAR
  5
22F
102
{ACAD_REACTORS
330
22D
102
}
330
22D
100
DictionaryVariables
280
     0
  1
STANDARD
  0
DICTIONARYVAR
  5
22E
102
{ACAD_REACTORS
330
22D
102
}
330
22D
100
DictionaryVariables
280
     0
  1
STANDARD
  0
DICTIONARYVAR
  5
230
102
{ACAD_REACTORS
330
22D
102
}
330
22D
100
DictionaryVariables
280
     0
  1
Imperial24
  0
DICTIONARYVAR
  5
231
102
{ACAD_REACTORS
330
22D
102
}
330
22D
100
DictionaryVariables
280
     0
  1
Imperial24
  0
DICTIONARY
  5
1A
330
19
100
AcDbDictionary
280
     1
281
     1
  3
BUMPTILE
360
1C
  3
DIFFUSETILE
360
1B
  3
OPACITYTILE
360
1F
  3
REFLECTIONTILE
360
1E
  3
REFRACTIONTILE
360
20
  3
SPECULARTILE
360
1D
  0
DICTIONARY
  5
12
330
11
100
AcDbDictionary
280
     1
281
     1
  3
BUMPTILE
360
14
  3
DIFFUSETILE
360
13
  3
OPACITYTILE
360
17
  3
REFLECTIONTILE
360
16
  3
REFRACTIONTILE
360
18
  3
SPECULARTILE
360
15
  0
DICTIONARY
  5
22
330
21
100
AcDbDictionary
280
     1
281
     1
  3
BUMPTILE
360
24
  3
DIFFUSETILE
360
23
  3
OPACITYTILE
360
27
  3
REFLECTIONTILE
360
26
  3
REFRACTIONTILE
360
28
  3
SPECULARTILE
360
25
  0
DICTIONARY
  5
233
330
65
100
AcDbDictionary
280
     1
281
     1
  3
ACAD_ROUNDTRIP_2008_TABLESTYLE_CELLSTYLEMAP
360
234
  0
XRECORD
  5
1C
102
{ACAD_REACTORS
330
1A
102
}
330
1A
100
AcDbXrecord
280
     1
270
     1
271
     1
  0
XRECORD
  5
1B
102
{ACAD_REACTORS
330
1A
102
}
330
1A
100
AcDbXrecord
280
     1
270
     1
271
     1
  0
XRECORD
  5
1F
102
{ACAD_REACTORS
330
1A
102
}
330
1A
100
AcDbXrecord
280
     1
270
     1
271
     1
  0
XRECORD
  5
1E
102
{ACAD_REACTORS
330
1A
102
}
330
1A
100
AcDbXrecord
280
     1
270
     1
271
     1
  0
XRECORD
  5
20
102
{ACAD_REACTORS
330
1A
102
}
330
1A
100
AcDbXrecord
280
     1
270
     1
271
     1
  0
XRECORD
  5
1D
102
{ACAD_REACTORS
330
1A
102
}
330
1A
100
AcDbXrecord
280
     1
270
     1
271
     1
  0
XRECORD
  5
14
102
{ACAD_REACTORS
330
12
102
}
330
12
100
AcDbXrecord
280
     1
270
     1
271
     1
  0
XRECORD
  5
13
102
{ACAD_REACTORS
330
12
102
}
330
12
100
AcDbXrecord
280
     1
270
     1
271
     1
  0
XRECORD
  5
17
102
{ACAD_REACTORS
330
12
102
}
330
12
100
AcDbXrecord
280
     1
270
     1
271
     1
  0
XRECORD
  5
16
102
{ACAD_REACTORS
330
12
102
}
330
12
100
AcDbXrecord
280
     1
270
     1
271
     1
  0
XRECORD
  5
18
102
{ACAD_REACTORS
330
12
102
}
330
12
100
AcDbXrecord
280
     1
270
     1
271
     1
  0
XRECORD
  5
15
102
{ACAD_REACTORS
330
12
102
}
330
12
100
AcDbXrecord
280
     1
270
     1
271
     1
  0
XRECORD
  5
24
102
{ACAD_REACTORS
330
22
102
}
330
22
100
AcDbXrecord
280
     1
270
     1
271
     1
  0
XRECORD
  5
23
102
{ACAD_REACTORS
330
22
102
}
330
22
100
AcDbXrecord
280
     1
270
     1
271
     1
  0
XRECORD
  5
27
102
{ACAD_REACTORS
330
22
102
}
330
22
100
AcDbXrecord
280
     1
270
     1
271
     1
  0
XRECORD
  5
26
102
{ACAD_REACTORS
330
22
102
}
330
22
100
AcDbXrecord
280
     1
270
     1
271
     1
  0
XRECORD
  5
28
102
{ACAD_REACTORS
330
22
102
}
330
22
100
AcDbXrecord
280
     1
270
     1
271
     1
  0
XRECORD
  5
25
102
{ACAD_REACTORS
330
22
102
}
330
22
100
AcDbXrecord
280
     1
270
     1
271
     1
  0
CELLSTYLEMAP
  5
234
102
{ACAD_REACTORS
330
233
102
}
330
233
100
AcDbCellStyleMap
 90
        3
300
CELLSTYLE
  1
TABLEFORMAT_BEGIN
 90
        5
170
     1
 91
        0
 92
    32768
 62
   257
 93
        1
300
CONTENTFORMAT
  1
CONTENTFORMAT_BEGIN
 90
        0
 91
        0
 92
      512
 93
        0
300

 40
0.0
140
1.0
 94
        5
 62
     0
340
55
144
0.25
309
CONTENTFORMAT_END
171
     0
 94
        0
309
TABLEFORMAT_END
  1
CELLSTYLE_BEGIN
 90
        1
 91
        1
300
_TITLE
309
CELLSTYLE_END
300
CELLSTYLE
  1
TABLEFORMAT_BEGIN
 90
        5
170
     1
 91
        0
 92
        0
 62
   257
 93
        1
300
CONTENTFORMAT
  1
CONTENTFORMAT_BEGIN
 90
        0
 91
        0
 92
      512
 93
        0
300

 40
0.0
140
1.0
 94
        5
 62
     0
340
55
144
0.18
309
CONTENTFORMAT_END
171
     0
 94
        0
309
TABLEFORMAT_END
  1
CELLSTYLE_BEGIN
 90
        2
 91
        1
300
_HEADER
309
CELLSTYLE_END
300
CELLSTYLE
  1
TABLEFORMAT_BEGIN
 90
        5
170
     1
 91
        0
 92
        0
 62
   257
 93
        1
300
CONTENTFORMAT
  1
CONTENTFORMAT_BEGIN
 90
        0
 91
        0
 92
      512
 93
        0
300

 40
0.0
140
1.0
 94
        2
 62
     0
340
55
144
0.18
309
CONTENTFORMAT_END
171
     0
 94
        0
309
TABLEFORMAT_END
  1
CELLSTYLE_BEGIN
 90
        3
 91
        2
300
_DATA
309
CELLSTYLE_END
  0
ENDSEC
  0
EOF
