999
DXF file: S:\Engenharia\Wildfire\Engenharia\Produtos\Lixeiras\94518000\94518000.dxf
999
Pro/ENGINEER 2013150 by Parametric Technology Corporation
  0
SECTION
  2
HEADER
  9
$ACADVER
  1
AC1021
  9
$DWGCODEPAGE
  3
ANSI_1252
  9
$EXTMAX
 10
1189.0
 20
841.0
 30
0.0
  9
$EXTMIN
 10
0.0
 20
0.0
 30
0.0
  9
$LIMMIN
 10
0.0
 20
0.0
  9
$LIMMAX
 10
1189.0
 20
841.0
  9
$VIEWCTR
 10
594.5
 20
420.5
  9
$VIEWSIZE
 40
841.0
  9
$CLAYER
  8
0
  9
$LTSCALE
 40
65.395
  9
$CELTYPE
  6
BYLAYER
  9
$DIMSCALE
 40
1.0
  9
$DIMASZ
 40
3.0
  9
$DIMEXO
 40
0.5
  9
$DIMDLI
 40
45.182
  9
$DIMEXE
 40
0.5
  9
$DIMCEN
 40
10.701
  9
$DIMLFAC
 40
1.0
  9
$DIMBLK
  1
_FILLED
  9
$DIMTXT
 40
1.8
  9
$DIMTOL
 70
1
  9
$DIMLIM
 70
0
  9
$DIMTFAC
 40
1.0
  9
$DIMTP
 40
0.001
  9
$DIMTM
 40
0.001
  9
$DIMGAP
 40
0.625
  9
$DIMDSEP
 70
46
  9
$PDMODE
 70
3
  9
$PDSIZE
 40
1.0
  9
$HANDSEED
  5
46D
  9
$TILEMODE
 70
1
  9
$MEASUREMENT
 70
1
  9
$INSUNITS
 70
4
  0
ENDSEC
  0
SECTION
  2
CLASSES
  0
CLASS
  1
ACDBDICTIONARYWDFLT
  2
AcDbDictionaryWithDefault
  3
AutoCAD 2000
 90
0
 91
1
280
0
281
0
  0
CLASS
  1
ACDBPLACEHOLDER
  2
AcDbPlaceHolder
  3
AutoCAD 2000
 90
0
 91
1
280
0
281
0
  0
CLASS
  1
LAYOUT
  2
AcDbLayout
  3
AutoCAD 2000
 90
0
 91
0
280
0
281
0
  0
ENDSEC
  0
SECTION
  2
TABLES
  0
TABLE
  2
VPORT
  5
8
100
AcDbSymbolTable
 70
2
  0
VPORT
  5
1F4
100
AcDbSymbolTableRecord
100
AcDbViewportTableRecord
  2
*ACTIVE
 70
0
 10
0.0
 20
0.0
 11
1.0
 21
1.0
 12
594.5
 22
420.5
 13
0.0
 23
0.0
 14
1.0
 24
1.0
 15
0.0
 25
0.0
 16
0.0
 26
0.0
 36
1.0
 17
0.0
 27
0.0
 37
0.0
 40
841.0
 41
1.4137931034
 42
50.0
 43
0.0
 44
0.0
 50
0.0
 51
0.0
 71
0
 72
100
 73
1
 74
1
 75
0
 76
0
 77
0
 78
0
  0
ENDTAB
  0
TABLE
  2
LTYPE
  5
5
100
AcDbSymbolTable
 70
6
  0
LTYPE
  5
14
100
AcDbSymbolTableRecord
100
AcDbLinetypeTableRecord
  2
BYBLOCK
 70
0
  3

 72
65
 73
0
 40
0.0
  0
LTYPE
  5
15
100
AcDbSymbolTableRecord
100
AcDbLinetypeTableRecord
  2
BYLAYER
 70
0
  3

 72
65
 73
0
 40
0.0
  0
LTYPE
  5
16
100
AcDbSymbolTableRecord
100
AcDbLinetypeTableRecord
  2
CONTINUOUS
 70
64
  3
Solid line
 72
65
 73
0
 40
0.0
  0
LTYPE
  5
1F5
100
AcDbSymbolTableRecord
100
AcDbLinetypeTableRecord
  2
CENTER
 70
64
  3
____ _ ____ _ ____ _ ____ _ ____ _ ____ _ ____
 72
65
 73
4
 40
0.6
 49
0.375
 74
0
 49
-0.075
 74
0
 49
0.075
 74
0
 49
-0.075
 74
0
  0
LTYPE
  5
1F6
100
AcDbSymbolTableRecord
100
AcDbLinetypeTableRecord
  2
HIDDEN
 70
64
  3
- - - - - - - - - - - - - - - - - - - -
 72
65
 73
2
 40
0.2
 49
0.1
 74
0
 49
-0.1
 74
0
  0
LTYPE
  5
1F7
100
AcDbSymbolTableRecord
100
AcDbLinetypeTableRecord
  2
PHANTOM
 70
64
  3
_____ _ _ _____ _ _ _____ _ _ _____
 72
65
 73
6
 40
0.8
 49
0.45
 74
0
 49
-0.05
 74
0
 49
0.1
 74
0
 49
-0.05
 74
0
 49
0.1
 74
0
 49
-0.05
 74
0
  0
LTYPE
  5
1F8
100
AcDbSymbolTableRecord
100
AcDbLinetypeTableRecord
  2
DOT
 70
64
  3
. . . . . . . . . . . . . . . . . . . .
 72
65
 73
2
 40
0.2
 49
0.1
 74
0
 49
-0.1
 74
0
  0
LTYPE
  5
1F9
100
AcDbSymbolTableRecord
100
AcDbLinetypeTableRecord
  2
DASHED
 70
64
  3
- - - - - - - - - - - - - - - - - - - -
 72
65
 73
2
 40
0.2
 49
0.1
 74
0
 49
-0.1
 74
0
  0
ENDTAB
  0
TABLE
  2
LAYER
  5
2
100
AcDbSymbolTable
 70
36
  0
LAYER
  5
10
100
AcDbSymbolTableRecord
100
AcDbLayerTableRecord
  2
0
 70
0
 62
7
  6
CONTINUOUS
370
-3
390
F
  0
LAYER
  5
1FA
100
AcDbSymbolTableRecord
100
AcDbLayerTableRecord
  2
DEFAULT_1
 70
0
 62
7
  6
CENTER
370
-3
390
F
  0
LAYER
  5
1FB
100
AcDbSymbolTableRecord
100
AcDbLayerTableRecord
  2
DEFAULT_2
 70
0
 62
8
  6
HIDDEN
370
-3
390
F
  0
LAYER
  5
1FC
100
AcDbSymbolTableRecord
100
AcDbLayerTableRecord
  2
DEFAULT_3
 70
0
 62
7
  6
PHANTOM
370
-3
390
F
  0
LAYER
  5
1FD
100
AcDbSymbolTableRecord
100
AcDbLayerTableRecord
  2
01_ALL_DTM_PLN
 70
0
 62
7
  6
CONTINUOUS
370
-3
390
F
  0
LAYER
  5
1FE
100
AcDbSymbolTableRecord
100
AcDbLayerTableRecord
  2
01__ASM_ALL_DTM_PLN
 70
0
 62
7
  6
CONTINUOUS
370
-3
390
F
  0
LAYER
  5
1FF
100
AcDbSymbolTableRecord
100
AcDbLayerTableRecord
  2
01__ASM_DEF_DTM_PLN
 70
0
 62
7
  6
CONTINUOUS
370
-3
390
F
  0
LAYER
  5
200
100
AcDbSymbolTableRecord
100
AcDbLayerTableRecord
  2
01___PRT_ALL_DTM_PLN
 70
0
 62
7
  6
CONTINUOUS
370
-3
390
F
  0
LAYER
  5
201
100
AcDbSymbolTableRecord
100
AcDbLayerTableRecord
  2
01___PRT_DEF_DTM_PLN
 70
0
 62
7
  6
CONTINUOUS
370
-3
390
F
  0
LAYER
  5
202
100
AcDbSymbolTableRecord
100
AcDbLayerTableRecord
  2
02_ALL_AXES
 70
0
 62
7
  6
CONTINUOUS
370
-3
390
F
  0
LAYER
  5
203
100
AcDbSymbolTableRecord
100
AcDbLayerTableRecord
  2
02__ASM_ALL_AXES
 70
0
 62
7
  6
CONTINUOUS
370
-3
390
F
  0
LAYER
  5
204
100
AcDbSymbolTableRecord
100
AcDbLayerTableRecord
  2
02___PRT_ALL_AXES
 70
0
 62
7
  6
CONTINUOUS
370
-3
390
F
  0
LAYER
  5
205
100
AcDbSymbolTableRecord
100
AcDbLayerTableRecord
  2
03_ALL_CURVES
 70
0
 62
7
  6
CONTINUOUS
370
-3
390
F
  0
LAYER
  5
206
100
AcDbSymbolTableRecord
100
AcDbLayerTableRecord
  2
03__ASM_ALL_CURVES
 70
0
 62
7
  6
CONTINUOUS
370
-3
390
F
  0
LAYER
  5
207
100
AcDbSymbolTableRecord
100
AcDbLayerTableRecord
  2
03___PRT_ALL_CURVES
 70
0
 62
7
  6
CONTINUOUS
370
-3
390
F
  0
LAYER
  5
208
100
AcDbSymbolTableRecord
100
AcDbLayerTableRecord
  2
04_ALL_DTM_PNT
 70
0
 62
7
  6
CONTINUOUS
370
-3
390
F
  0
LAYER
  5
209
100
AcDbSymbolTableRecord
100
AcDbLayerTableRecord
  2
04__ASM_ALL_DTM_PNT
 70
0
 62
7
  6
CONTINUOUS
370
-3
390
F
  0
LAYER
  5
20A
100
AcDbSymbolTableRecord
100
AcDbLayerTableRecord
  2
04___PRT_ALL_DTM_PNT
 70
0
 62
7
  6
CONTINUOUS
370
-3
390
F
  0
LAYER
  5
20B
100
AcDbSymbolTableRecord
100
AcDbLayerTableRecord
  2
05_ALL_DTM_CSYS
 70
0
 62
7
  6
CONTINUOUS
370
-3
390
F
  0
LAYER
  5
20C
100
AcDbSymbolTableRecord
100
AcDbLayerTableRecord
  2
05__ASM_ALL_DTM_CSYS
 70
0
 62
7
  6
CONTINUOUS
370
-3
390
F
  0
LAYER
  5
20D
100
AcDbSymbolTableRecord
100
AcDbLayerTableRecord
  2
05__ASM_DEF_DTM_CSYS
 70
0
 62
7
  6
CONTINUOUS
370
-3
390
F
  0
LAYER
  5
20E
100
AcDbSymbolTableRecord
100
AcDbLayerTableRecord
  2
05___PRT_ALL_DTM_CSYS
 70
0
 62
7
  6
CONTINUOUS
370
-3
390
F
  0
LAYER
  5
20F
100
AcDbSymbolTableRecord
100
AcDbLayerTableRecord
  2
05___PRT_DEF_DTM_CSYS
 70
0
 62
7
  6
CONTINUOUS
370
-3
390
F
  0
LAYER
  5
210
100
AcDbSymbolTableRecord
100
AcDbLayerTableRecord
  2
06_ALL_SURFS
 70
0
 62
7
  6
CONTINUOUS
370
-3
390
F
  0
LAYER
  5
211
100
AcDbSymbolTableRecord
100
AcDbLayerTableRecord
  2
06__ASM_ALL_SURFS
 70
0
 62
7
  6
CONTINUOUS
370
-3
390
F
  0
LAYER
  5
212
100
AcDbSymbolTableRecord
100
AcDbLayerTableRecord
  2
06___PRT_ALL_SURFS
 70
0
 62
7
  6
CONTINUOUS
370
-3
390
F
  0
LAYER
  5
213
100
AcDbSymbolTableRecord
100
AcDbLayerTableRecord
  2
07__ASM_ALL_SKELETONS
 70
0
 62
7
  6
CONTINUOUS
370
-3
390
F
  0
ENDTAB
  0
TABLE
  2
STYLE
  5
3
100
AcDbSymbolTable
 70
1
  0
STYLE
  5
11
100
AcDbSymbolTableRecord
100
AcDbTextStyleTableRecord
  2
STANDARD
 70
0
 40
0.0
 41
0.8
 50
0.0
 71
0
 42
0.2
  3
txt
  4

  0
STYLE
  5
214
100
AcDbSymbolTableRecord
100
AcDbTextStyleTableRecord
  2
TEXTSTYLE_1
 70
0
 40
0.0
 41
0.8
 50
0.0
 71
0
 42
0.2
  3
gdt
  4

  0
ENDTAB
  0
TABLE
  2
VIEW
  5
6
100
AcDbSymbolTable
 70
0
  0
ENDTAB
  0
TABLE
  2
UCS
  5
7
100
AcDbSymbolTable
 70
0
  0
ENDTAB
  0
TABLE
  2
APPID
  5
9
100
AcDbSymbolTable
 70
1
  0
APPID
  5
215
100
AcDbSymbolTableRecord
100
AcDbRegAppTableRecord
  2
ACAD
 70
0
  0
ENDTAB
  0
TABLE
  2
BLOCK_RECORD
  5
1
100
AcDbSymbolTable
 70
0
  0
BLOCK_RECORD
  5
216
100
AcDbSymbolTableRecord
100
AcDbBlockTableRecord
  2
*Model_Space
  0
BLOCK_RECORD
  5
217
100
AcDbSymbolTableRecord
100
AcDbBlockTableRecord
  2
*Paper_Space
  0
ENDTAB
  0
TABLE
  2
DIMSTYLE
  5
A
100
AcDbSymbolTable
 70
1
100
AcDbDimStyleTable
 71
0
  0
DIMSTYLE
105
218
100
AcDbSymbolTableRecord
100
AcDbDimStyleTableRecord
  2
STANDARD
 70
0
  3

  4

 40
1.0
 41
3.0
 42
0.5
 43
0.38
 44
0.5
 45
0.0
 46
0.0
 47
0.001
 48
0.001
140
1.8
141
0.09
142
0.0
143
25.4
144
1.0
145
0.0
146
1.0
147
0.625
 71
1.0
 72
0.0
 73
0
 74
0
 75
0
 76
0
 77
1
 78
8
170
0
171
2
172
0
173
0
174
0
175
0
176
0
177
0
178
0
270
2
271
3
272
3
273
2
274
2
275
0
280
0
281
0
282
0
283
1
284
8
285
0
286
0
287
3
288
0
340
11
278
46
  0
ENDTAB
  0
ENDSEC
  0
SECTION
  2
BLOCKS
  0
BLOCK
  5
20
100
AcDbEntity
  8
0
100
AcDbBlockBegin
  2
*Model_Space
 70
0
 10
0.0
 20
0.0
 30
0.0
  3
*Model_Space
  1

  0
ENDBLK
  5
21
100
AcDbEntity
  8
0
100
AcDbBlockEnd
  0
BLOCK
  5
1C
100
AcDbEntity
  8
0
100
AcDbBlockBegin
  2
*Paper_Space
 70
0
 10
0.0
 20
0.0
 30
0.0
  3
*Paper_Space
  1

  0
ENDBLK
  5
1D
100
AcDbEntity
  8
0
100
AcDbBlockEnd
  0
ENDSEC
  0
SECTION
  2
ENTITIES
  0
LINE
  5
219
100
AcDbEntity
  8
0
100
AcDbLine
 62
7
  6
CONTINUOUS
 10
0.0
 20
0.0
 11
0.0
 21
841.0
  0
LINE
  5
21A
100
AcDbEntity
  8
0
100
AcDbLine
 62
7
  6
CONTINUOUS
 10
0.0
 20
0.0
 11
1189.0
 21
0.0
  0
LINE
  5
21B
100
AcDbEntity
  8
0
100
AcDbLine
 62
7
  6
CONTINUOUS
 10
0.0
 20
841.0
 11
1189.0
 21
841.0
  0
LINE
  5
21C
100
AcDbEntity
  8
0
100
AcDbLine
 62
7
  6
CONTINUOUS
 10
1189.0
 20
0.0
 11
1189.0
 21
841.0
  0
LINE
  5
21D
100
AcDbEntity
  8
0
100
AcDbLine
 62
7
  6
CONTINUOUS
 10
422.6260196461
 20
728.6087281644
 11
425.1171739193
 21
730.0469967546
  0
LINE
  5
21E
100
AcDbEntity
  8
02___PRT_ALL_AXES
100
AcDbLine
 62
7
  6
CONTINUOUS
 10
422.6260196461
 20
728.6087281644
 11
425.1171739193
 21
730.0469967546
  0
LINE
  5
21F
100
AcDbEntity
  8
0
100
AcDbLine
 62
7
  6
CONTINUOUS
 10
422.3760196461
 20
728.5417408663
 11
422.3760196461
 21
727.8417408663
  0
LINE
  5
220
100
AcDbEntity
  8
0
100
AcDbLine
 62
7
  6
CONTINUOUS
 10
437.1760196461
 20
727.6417408663
 11
437.1760196461
 21
726.3417408663
  0
LINE
  5
221
100
AcDbEntity
  8
0
100
AcDbLine
 62
7
  6
CONTINUOUS
 10
442.2674416082
 20
721.7115398597
 11
442.6689929919
 21
710.2126127285
  0
LINE
  5
222
100
AcDbEntity
  8
0
100
AcDbLine
 62
7
  6
CONTINUOUS
 10
454.6760196461
 20
704.6417408663
 11
454.6760196461
 21
703.3417408663
  0
LINE
  5
223
100
AcDbEntity
  8
0
100
AcDbLine
 62
7
  6
CONTINUOUS
 10
461.5760196461
 20
699.7655853822
 11
461.5760196461
 21
699.444376841
  0
LINE
  5
224
100
AcDbEntity
  8
0
100
AcDbLine
 62
7
  6
CONTINUOUS
 10
678.5760196461
 20
495.8417408663
 11
482.1760196461
 21
495.8417408663
  0
LINE
  5
225
100
AcDbEntity
  8
02___PRT_ALL_AXES
100
AcDbLine
 62
7
  6
CONTINUOUS
 10
461.5760196461
 20
699.444376841
 11
462.6848357028
 21
678.2869061019
  0
LINE
  5
226
100
AcDbEntity
  8
02___PRT_ALL_AXES
100
AcDbLine
 62
7
  6
CONTINUOUS
 10
465.8036822918
 20
675.8881952645
 11
474.8132506894
 21
503.9753891726
  0
LINE
  5
227
100
AcDbEntity
  8
02___PRT_ALL_AXES
100
AcDbLine
 62
7
  6
CONTINUOUS
 10
481.8760196461
 20
497.0452909735
 11
481.8760196461
 21
496.1417408663
  0
LINE
  5
228
100
AcDbEntity
  8
0
100
AcDbLine
 62
7
  6
CONTINUOUS
 10
587.9117146924
 20
531.3417408994
 11
572.8403245999
 21
531.3417408994
  0
LINE
  5
229
100
AcDbEntity
  8
0
100
AcDbLine
 62
7
  6
CONTINUOUS
 10
575.0905830692
 20
541.9478363015
 11
576.3150577048
 21
541.9478363015
  0
LINE
  5
22A
100
AcDbEntity
  8
0
100
AcDbLine
 62
7
  6
CONTINUOUS
 10
577.2230919299
 20
545.2406266671
 11
586.1078690621
 21
545.2406266671
  0
LINE
  5
22B
100
AcDbEntity
  8
0
100
AcDbLine
 62
7
  6
CONTINUOUS
 10
587.0189356662
 20
547.5917467268
 11
577.2230919299
 21
547.5917467268
  0
LINE
  5
22C
100
AcDbEntity
  8
0
100
AcDbLine
 62
7
  6
CONTINUOUS
 10
577.2230919299
 20
550.8845370924
 11
575.0905830693
 21
550.8845370924
  0
LINE
  5
22D
100
AcDbEntity
  8
0
100
AcDbLine
 62
7
  6
CONTINUOUS
 10
575.0905830693
 20
552.3077491816
 11
586.1078690621
 21
552.3077491816
  0
LINE
  5
22E
100
AcDbEntity
  8
0
100
AcDbLine
 62
7
  6
CONTINUOUS
 10
587.0189356662
 20
554.5411662846
 11
582.6162945908
 21
554.5411662846
  0
LINE
  5
22F
100
AcDbEntity
  8
0
100
AcDbLine
 62
7
  6
CONTINUOUS
 10
580.5846939725
 20
554.5411662846
 11
577.1405179174
 21
554.5411662846
  0
LINE
  5
230
100
AcDbEntity
  8
0
100
AcDbLine
 62
7
  6
CONTINUOUS
 10
582.3044727269
 20
565.3444596249
 11
577.6541562661
 21
567.013807584
  0
LINE
  5
231
100
AcDbEntity
  8
0
100
AcDbLine
 62
7
  6
CONTINUOUS
 10
577.6541562661
 20
645.5564821079
 11
582.3044727269
 21
647.225783415
  0
LINE
  5
232
100
AcDbEntity
  8
0
100
AcDbLine
 62
7
  6
CONTINUOUS
 10
575.0905830692
 20
602.0238826094
 11
586.1078690621
 21
602.0238826094
  0
LINE
  5
233
100
AcDbEntity
  8
0
100
AcDbLine
 62
7
  6
CONTINUOUS
 10
575.0905830692
 20
646.7167636128
 11
575.0905830692
 21
644.4481709136
  0
LINE
  5
234
100
AcDbEntity
  8
0
100
AcDbLine
 62
7
  6
CONTINUOUS
 10
575.0905830693
 20
638.6085554136
 11
575.0905830693
 21
636.4393314412
  0
LINE
  5
235
100
AcDbEntity
  8
0
100
AcDbLine
 62
7
  6
CONTINUOUS
 10
575.0905830693
 20
630.6822899536
 11
575.0905830693
 21
628.5650362919
  0
LINE
  5
236
100
AcDbEntity
  8
0
100
AcDbLine
 62
7
  6
CONTINUOUS
 10
575.0905830693
 20
626.2964902446
 11
575.0905830693
 21
623.9499420794
  0
LINE
  5
237
100
AcDbEntity
  8
0
100
AcDbLine
 62
7
  6
CONTINUOUS
 10
575.0905830692
 20
612.0689412466
 11
575.0905830692
 21
609.8997172742
  0
LINE
  5
238
100
AcDbEntity
  8
0
100
AcDbLine
 62
7
  6
CONTINUOUS
 10
575.0905830692
 20
604.1441686501
 11
575.0905830692
 21
602.0238826094
  0
LINE
  5
239
100
AcDbEntity
  8
0
100
AcDbLine
 62
7
  6
CONTINUOUS
 10
575.0905830692
 20
585.6454905209
 11
575.0905830692
 21
583.5618729399
  0
LINE
  5
23A
100
AcDbEntity
  8
0
100
AcDbLine
 62
7
  6
CONTINUOUS
 10
575.0905830692
 20
577.3737204642
 11
575.0905830692
 21
575.2717686533
  0
LINE
  5
23B
100
AcDbEntity
  8
0
100
AcDbLine
 62
7
  6
CONTINUOUS
 10
575.0905830692
 20
568.1725495735
 11
575.0905830692
 21
565.9069892532
  0
LINE
  5
23C
100
AcDbEntity
  8
0
100
AcDbLine
 62
7
  6
CONTINUOUS
 10
577.1405179174
 20
554.5411662846
 11
577.1405179174
 21
556.0973831815
  0
LINE
  5
23D
100
AcDbEntity
  8
0
100
AcDbLine
 62
7
  6
CONTINUOUS
 10
577.2230919299
 20
547.5917467268
 11
577.2230919299
 21
550.8845370924
  0
LINE
  5
23E
100
AcDbEntity
  8
0
100
AcDbLine
 62
7
  6
CONTINUOUS
 10
577.2230919299
 20
614.4017270764
 11
577.2230919299
 21
616.783404186
  0
LINE
  5
23F
100
AcDbEntity
  8
0
100
AcDbLine
 62
7
  6
CONTINUOUS
 10
577.2230919299
 20
619.1345708977
 11
577.2230919299
 21
622.4273612633
  0
LINE
  5
240
100
AcDbEntity
  8
0
100
AcDbLine
 62
7
  6
CONTINUOUS
 10
580.5846939725
 20
556.0973831815
 11
580.5846939725
 21
554.5411662846
  0
LINE
  5
241
100
AcDbEntity
  8
0
100
AcDbLine
 62
7
  6
CONTINUOUS
 10
587.0189356662
 20
604.1931065818
 11
578.7303708951
 21
604.1931065818
  0
LINE
  5
242
100
AcDbEntity
  8
0
100
AcDbLine
 62
7
  6
CONTINUOUS
 10
575.0905830692
 20
609.8997172742
 11
583.5274078469
 21
609.8997172742
  0
LINE
  5
243
100
AcDbEntity
  8
0
100
AcDbLine
 62
7
  6
CONTINUOUS
 10
587.0189356662
 20
612.0689412466
 11
575.0905830692
 21
612.0689412466
  0
LINE
  5
244
100
AcDbEntity
  8
0
100
AcDbLine
 62
7
  6
CONTINUOUS
 10
575.0905830692
 20
613.4921533359
 11
576.3150577048
 21
613.4921533359
  0
LINE
  5
245
100
AcDbEntity
  8
0
100
AcDbLine
 62
7
  6
CONTINUOUS
 10
582.3044727269
 20
565.3444596249
 11
582.3044727269
 21
568.6861879221
  0
LINE
  5
246
100
AcDbEntity
  8
0
100
AcDbLine
 62
7
  6
CONTINUOUS
 10
582.3044727269
 20
643.8855946333
 11
582.3044727269
 21
647.225783415
  0
LINE
  5
247
100
AcDbEntity
  8
0
100
AcDbLine
 62
7
  6
CONTINUOUS
 10
582.6162945908
 20
554.5411662846
 11
582.6162945908
 21
556.0805884671
  0
LINE
  5
248
100
AcDbEntity
  8
0
100
AcDbLine
 62
7
  6
CONTINUOUS
 10
586.0268345652
 20
580.3332757049
 11
586.0268345652
 21
581.4094903339
  0
LINE
  5
249
100
AcDbEntity
  8
0
100
AcDbLine
 62
7
  6
CONTINUOUS
 10
587.0189356662
 20
561.3392934569
 11
587.0189356662
 21
563.6720792867
  0
LINE
  5
24A
100
AcDbEntity
  8
0
100
AcDbLine
 62
7
  6
CONTINUOUS
 10
587.0189356662
 20
571.1672337585
 11
587.0189356662
 21
572.7738814506
  0
LINE
  5
24B
100
AcDbEntity
  8
0
100
AcDbLine
 62
7
  6
CONTINUOUS
 10
587.0189356662
 20
573.4189850914
 11
587.0189356662
 21
575.6692435608
  0
LINE
  5
24C
100
AcDbEntity
  8
0
100
AcDbLine
 62
7
  6
CONTINUOUS
 10
587.0189356662
 20
586.1254927888
 11
587.0189356662
 21
587.4997669463
  0
LINE
  5
24D
100
AcDbEntity
  8
0
100
AcDbLine
 62
7
  6
CONTINUOUS
 10
587.0189356662
 20
602.936535381
 11
587.0189356662
 21
604.1931065818
  0
LINE
  5
24E
100
AcDbEntity
  8
0
100
AcDbLine
 62
7
  6
CONTINUOUS
 10
587.0189356662
 20
610.7939891639
 11
587.0189356662
 21
612.0689412466
  0
LINE
  5
24F
100
AcDbEntity
  8
0
100
AcDbLine
 62
7
  6
CONTINUOUS
 10
587.0189356662
 20
617.694517442
 11
587.0189356662
 21
619.1345708977
  0
LINE
  5
250
100
AcDbEntity
  8
0
100
AcDbLine
 62
7
  6
CONTINUOUS
 10
587.0189356662
 20
624.856436789
 11
587.0189356662
 21
626.2964902446
  0
LINE
  5
251
100
AcDbEntity
  8
0
100
AcDbLine
 62
7
  6
CONTINUOUS
 10
587.0189356662
 20
629.4731171689
 11
587.0189356662
 21
630.7296883698
  0
LINE
  5
252
100
AcDbEntity
  8
0
100
AcDbLine
 62
7
  6
CONTINUOUS
 10
587.0189356662
 20
637.3336499828
 11
587.0189356662
 21
638.6085554136
  0
LINE
  5
253
100
AcDbEntity
  8
0
100
AcDbLine
 62
7
  6
CONTINUOUS
 10
587.0189356662
 20
639.8804284653
 11
587.0189356662
 21
642.2147538106
  0
LINE
  5
254
100
AcDbEntity
  8
0
100
AcDbLine
 62
7
  6
CONTINUOUS
 10
577.2230919299
 20
616.783404186
 11
586.1078690621
 21
616.783404186
  0
LINE
  5
255
100
AcDbEntity
  8
0
100
AcDbLine
 62
7
  6
CONTINUOUS
 10
587.0189356662
 20
619.1345708977
 11
577.2230919299
 21
619.1345708977
  0
LINE
  5
256
100
AcDbEntity
  8
0
100
AcDbLine
 62
7
  6
CONTINUOUS
 10
577.2230919299
 20
622.4273612633
 11
575.0905830693
 21
622.4273612633
  0
LINE
  5
257
100
AcDbEntity
  8
0
100
AcDbLine
 62
7
  6
CONTINUOUS
 10
575.0905830693
 20
623.9499420794
 11
586.1078690621
 21
623.9499420794
  0
LINE
  5
258
100
AcDbEntity
  8
0
100
AcDbLine
 62
7
  6
CONTINUOUS
 10
587.0189356662
 20
626.2964902446
 11
575.0905830693
 21
626.2964902446
  0
LINE
  5
259
100
AcDbEntity
  8
0
100
AcDbLine
 62
7
  6
CONTINUOUS
 10
575.0905830693
 20
628.5650362919
 11
586.1078690621
 21
628.5650362919
  0
LINE
  5
25A
100
AcDbEntity
  8
0
100
AcDbLine
 62
7
  6
CONTINUOUS
 10
587.0189356662
 20
630.7296883698
 11
578.7303708951
 21
630.7296883698
  0
LINE
  5
25B
100
AcDbEntity
  8
0
100
AcDbLine
 62
7
  6
CONTINUOUS
 10
575.0905830693
 20
636.4393314412
 11
583.5274078469
 21
636.4393314412
  0
LINE
  5
25C
100
AcDbEntity
  8
0
100
AcDbLine
 62
7
  6
CONTINUOUS
 10
587.0189356662
 20
638.6085554136
 11
575.0905830693
 21
638.6085554136
  0
LINE
  5
25D
100
AcDbEntity
  8
0
100
AcDbLine
 62
7
  6
CONTINUOUS
 10
582.3044727269
 20
643.8855946333
 11
577.6541562661
 21
645.5564821079
  0
LINE
  5
25E
100
AcDbEntity
  8
0
100
AcDbLine
 62
7
  6
CONTINUOUS
 10
577.6541562661
 20
567.013807584
 11
582.3044727269
 21
568.6861879221
  0
LINE
  5
25F
100
AcDbEntity
  8
0
100
AcDbLine
 62
7
  6
CONTINUOUS
 10
572.8403245999
 20
661.3417408663
 11
587.9117146924
 21
661.3417408663
  0
LINE
  5
260
100
AcDbEntity
  8
02___PRT_ALL_AXES
100
AcDbLine
 62
7
  6
CONTINUOUS
 10
696.1571832947
 20
676.3934815713
 11
695.4258620742
 21
676.3615513972
  0
LINE
  5
261
100
AcDbEntity
  8
0
100
AcDbLine
 62
7
  6
CONTINUOUS
 10
695.4258620742
 20
676.3615513972
 11
696.1571832947
 21
676.3934815713
  0
LINE
  5
262
100
AcDbEntity
  8
02___PRT_ALL_AXES
100
AcDbLine
 62
7
  6
CONTINUOUS
 10
464.5948559976
 20
676.3934815713
 11
465.3261772181
 21
676.3615513972
  0
LINE
  5
263
100
AcDbEntity
  8
0
100
AcDbLine
 62
7
  6
CONTINUOUS
 10
699.1760196461
 20
699.444376841
 11
699.1591834363
 21
699.444376841
  0
LINE
  5
264
100
AcDbEntity
  8
0
100
AcDbLine
 62
7
  6
CONTINUOUS
 10
461.592855856
 20
699.444376841
 11
461.5760196461
 21
699.444376841
  0
LINE
  5
265
100
AcDbEntity
  8
02___PRT_ALL_AXES
100
AcDbLine
 62
7
  6
CONTINUOUS
 10
705.3760196461
 20
701.9669681578
 11
455.3760196461
 21
701.9669681578
  0
LINE
  5
266
100
AcDbEntity
  8
0
100
AcDbLine
 62
7
  6
CONTINUOUS
 10
714.3853002404
 20
706.6417408663
 11
446.3667390519
 21
706.6417408663
  0
LINE
  5
267
100
AcDbEntity
  8
02___PRT_ALL_AXES
100
AcDbLine
 62
7
  6
CONTINUOUS
 10
678.8760196461
 20
497.0452909735
 11
678.8760196461
 21
496.1417408663
  0
LINE
  5
268
100
AcDbEntity
  8
0
100
AcDbLine
 62
7
  6
CONTINUOUS
 10
678.8760196461
 20
496.1417408663
 11
678.8760196461
 21
497.0452909735
  0
LINE
  5
269
100
AcDbEntity
  8
0
100
AcDbLine
 62
7
  6
CONTINUOUS
 10
699.1760196461
 20
699.7655853822
 11
699.1760196461
 21
699.444376841
  0
LINE
  5
26A
100
AcDbEntity
  8
02___PRT_ALL_AXES
100
AcDbLine
 62
7
  6
CONTINUOUS
 10
694.9483570005
 20
675.8881952645
 11
685.9387886029
 21
503.9753891726
  0
LINE
  5
26B
100
AcDbEntity
  8
0
100
AcDbLine
 62
7
  6
CONTINUOUS
 10
685.9387886029
 20
503.9753891726
 11
694.9483570005
 21
675.8881952645
  0
LINE
  5
26C
100
AcDbEntity
  8
02___PRT_ALL_AXES
100
AcDbLine
 62
7
  6
CONTINUOUS
 10
699.1760196461
 20
699.444376841
 11
698.0672035895
 21
678.2869061019
  0
LINE
  5
26D
100
AcDbEntity
  8
0
100
AcDbLine
 62
7
  6
CONTINUOUS
 10
698.0672035895
 20
678.2869061019
 11
699.1760196461
 21
699.444376841
  0
LINE
  5
26E
100
AcDbEntity
  8
0
100
AcDbLine
 62
7
  6
CONTINUOUS
 10
720.8760196461
 20
723.6417408663
 11
439.8760196461
 21
723.6417408663
  0
LINE
  5
26F
100
AcDbEntity
  8
0
100
AcDbLine
 62
7
  6
CONTINUOUS
 10
422.3760196461
 20
727.8417408663
 11
738.3760196461
 21
727.8417408663
  0
LINE
  5
270
100
AcDbEntity
  8
0
100
AcDbLine
 62
7
  6
CONTINUOUS
 10
422.3760196461
 20
728.5417408663
 11
738.3760196461
 21
728.5417408663
  0
LINE
  5
271
100
AcDbEntity
  8
0
100
AcDbLine
 62
7
  6
CONTINUOUS
 10
426.2171739193
 20
730.3417408663
 11
734.534865373
 21
730.3417408663
  0
LINE
  5
272
100
AcDbEntity
  8
0
100
AcDbLine
 62
7
  6
CONTINUOUS
 10
706.0760196461
 20
704.6417408663
 11
706.0760196461
 21
703.3417408663
  0
LINE
  5
273
100
AcDbEntity
  8
0
100
AcDbLine
 62
7
  6
CONTINUOUS
 10
723.5760196461
 20
727.6417408663
 11
723.5760196461
 21
726.3417408663
  0
LINE
  5
274
100
AcDbEntity
  8
0
100
AcDbLine
 62
7
  6
CONTINUOUS
 10
718.4845976841
 20
721.7115398597
 11
718.0830463003
 21
710.2126127285
  0
LINE
  5
275
100
AcDbEntity
  8
0
100
AcDbLine
 62
7
  6
CONTINUOUS
 10
738.3760196461
 20
728.5417408663
 11
738.3760196461
 21
727.8417408663
  0
LINE
  5
276
100
AcDbEntity
  8
0
100
AcDbLine
 62
7
  6
CONTINUOUS
 10
738.1260196461
 20
728.6087281644
 11
735.634865373
 21
730.0469967546
  0
LINE
  5
277
100
AcDbEntity
  8
02___PRT_ALL_AXES
100
AcDbLine
 62
7
  6
CONTINUOUS
 10
738.1260196461
 20
728.6087281644
 11
735.634865373
 21
730.0469967546
  0
LINE
  5
278
100
AcDbEntity
  8
03___PRT_ALL_CURVES
100
AcDbLine
 62
40
  6
CONTINUOUS
 10
575.1602194174
 20
128.8451104658
 11
575.0570280417
 21
128.8169252784
  0
LINE
  5
279
100
AcDbEntity
  8
03___PRT_ALL_CURVES
100
AcDbLine
 62
40
  6
CONTINUOUS
 10
575.0780538901
 20
128.8219637306
 11
575.1263605884
 21
128.8348720727
  0
LINE
  5
27A
100
AcDbEntity
  8
03___PRT_ALL_CURVES
100
AcDbLine
 62
40
  6
CONTINUOUS
 10
583.3371643176
 20
128.8070529267
 11
583.2764660415
 21
128.7927450145
  0
LINE
  5
27B
100
AcDbEntity
  8
03___PRT_ALL_CURVES
100
AcDbLine
 62
40
  6
CONTINUOUS
 10
575.0053623754
 20
128.8059117388
 11
575.0570280417
 21
128.8169252784
  0
LINE
  5
27C
100
AcDbEntity
  8
03___PRT_ALL_CURVES
100
AcDbLine
 62
40
  6
CONTINUOUS
 10
575.0570280417
 20
128.8169252784
 11
574.912667775
 21
128.790559532
  0
LINE
  5
27D
100
AcDbEntity
  8
03___PRT_ALL_CURVES
100
AcDbLine
 62
40
  6
CONTINUOUS
 10
574.961566599
 20
128.7979987851
 11
575.0097010425
 21
128.8067622467
  0
LINE
  5
27E
100
AcDbEntity
  8
03___PRT_ALL_CURVES
100
AcDbLine
 62
40
  6
CONTINUOUS
 10
574.9512313125
 20
128.7963085351
 11
575.0053623754
 21
128.8059117388
  0
LINE
  5
27F
100
AcDbEntity
  8
03___PRT_ALL_CURVES
100
AcDbLine
 62
40
  6
CONTINUOUS
 10
583.2764660415
 20
128.7927450145
 11
583.2166505711
 21
128.7825173872
  0
LINE
  5
280
100
AcDbEntity
  8
03___PRT_ALL_CURVES
100
AcDbLine
 62
40
  6
CONTINUOUS
 10
574.912667775
 20
128.790559532
 11
574.961566599
 21
128.7979987851
  0
LINE
  5
281
100
AcDbEntity
  8
03___PRT_ALL_CURVES
100
AcDbLine
 62
40
  6
CONTINUOUS
 10
574.8945164281
 20
128.7881587311
 11
574.9512313125
 21
128.7963085351
  0
LINE
  5
282
100
AcDbEntity
  8
03___PRT_ALL_CURVES
100
AcDbLine
 62
40
  6
CONTINUOUS
 10
574.8630906977
 20
128.7844121898
 11
574.912667775
 21
128.790559532
  0
LINE
  5
283
100
AcDbEntity
  8
03___PRT_ALL_CURVES
100
AcDbLine
 62
40
  6
CONTINUOUS
 10
583.2166505711
 20
128.7825173872
 11
583.1587406692
 21
128.7758532807
  0
LINE
  5
284
100
AcDbEntity
  8
03___PRT_ALL_CURVES
100
AcDbLine
 62
40
  6
CONTINUOUS
 10
574.8350777651
 20
128.7815161564
 11
574.8945164281
 21
128.7881587311
  0
LINE
  5
285
100
AcDbEntity
  8
03___PRT_ALL_CURVES
100
AcDbLine
 62
40
  6
CONTINUOUS
 10
584.7368420177
 20
129.9729701322
 11
584.7868604978
 21
129.9781162436
  0
LINE
  5
286
100
AcDbEntity
  8
03___PRT_ALL_CURVES
100
AcDbLine
 62
40
  6
CONTINUOUS
 10
574.912667775
 20
128.790559532
 11
574.7620848045
 21
128.7757671533
  0
LINE
  5
287
100
AcDbEntity
  8
03___PRT_ALL_CURVES
100
AcDbLine
 62
40
  6
CONTINUOUS
 10
574.8128676651
 20
128.7794921628
 11
574.8630906977
 21
128.7844121898
  0
LINE
  5
288
100
AcDbEntity
  8
03___PRT_ALL_CURVES
100
AcDbLine
 62
40
  6
CONTINUOUS
 10
574.7728076642
 20
128.7764561724
 11
574.8350777651
 21
128.7815161564
  0
LINE
  5
289
100
AcDbEntity
  8
03___PRT_ALL_CURVES
100
AcDbLine
 62
40
  6
CONTINUOUS
 10
574.7620848045
 20
128.7757671533
 11
574.8128676651
 21
128.7794921628
  0
LINE
  5
28A
100
AcDbEntity
  8
03___PRT_ALL_CURVES
100
AcDbLine
 62
40
  6
CONTINUOUS
 10
583.1587406692
 20
128.7758532807
 11
583.1036945029
 21
128.7722251645
  0
LINE
  5
28B
100
AcDbEntity
  8
03___PRT_ALL_CURVES
100
AcDbLine
 62
40
  6
CONTINUOUS
 10
574.7075446366
 20
128.7730326087
 11
574.7728076642
 21
128.7764561724
  0
LINE
  5
28C
100
AcDbEntity
  8
03___PRT_ALL_CURVES
100
AcDbLine
 62
40
  6
CONTINUOUS
 10
584.6860914548
 20
129.9703647787
 11
584.7368420177
 21
129.9729701322
  0
LINE
  5
28D
100
AcDbEntity
  8
03___PRT_ALL_CURVES
100
AcDbLine
 62
40
  6
CONTINUOUS
 10
574.7620848045
 20
128.7757671533
 11
574.6069263166
 21
128.7711270403
  0
LINE
  5
28E
100
AcDbEntity
  8
03___PRT_ALL_CURVES
100
AcDbLine
 62
40
  6
CONTINUOUS
 10
574.6391487253
 20
128.7713208269
 11
574.7075446366
 21
128.7730326087
  0
LINE
  5
28F
100
AcDbEntity
  8
03___PRT_ALL_CURVES
100
AcDbLine
 62
40
  6
CONTINUOUS
 10
583.1036945029
 20
128.7722251645
 11
583.052524069
 21
128.7711270403
  0
LINE
  5
290
100
AcDbEntity
  8
03___PRT_ALL_CURVES
100
AcDbLine
 62
40
  6
CONTINUOUS
 10
584.6355239127
 20
129.9696326959
 11
584.6860914548
 21
129.9703647787
  0
LINE
  5
291
100
AcDbEntity
  8
03___PRT_ALL_CURVES
100
AcDbLine
 62
40
  6
CONTINUOUS
 10
574.6069263166
 20
128.7711378062
 11
574.6590549176
 21
128.7716330387
  0
LINE
  5
292
100
AcDbEntity
  8
03___PRT_ALL_CURVES
100
AcDbLine
 62
40
  6
CONTINUOUS
 10
582.9499786487
 20
129.0726697886
 11
582.7585174671
 21
129.0726374908
  0
LINE
  5
293
100
AcDbEntity
  8
03___PRT_ALL_CURVES
100
AcDbLine
 62
40
  6
CONTINUOUS
 10
582.9232037973
 20
130.0156570184
 11
582.7585174671
 21
130.0156354866
  0
LINE
  5
294
100
AcDbEntity
  8
03___PRT_ALL_CURVES
100
AcDbLine
 62
40
  6
CONTINUOUS
 10
585.6362810874
 20
128.7711270403
 11
585.1592753197
 21
128.7711270403
  0
LINE
  5
295
100
AcDbEntity
  8
03___PRT_ALL_CURVES
100
AcDbLine
 62
40
  6
CONTINUOUS
 10
574.6069263166
 20
128.7711270403
 11
574.0389269644
 21
128.7711270403
  0
LINE
  5
296
100
AcDbEntity
  8
03___PRT_ALL_CURVES
100
AcDbLine
 62
40
  6
CONTINUOUS
 10
582.3295169518
 20
128.7711270403
 11
583.055333975
 21
128.7711378062
  0
LINE
  5
297
100
AcDbEntity
  8
03___PRT_ALL_CURVES
100
AcDbLine
 62
40
  6
CONTINUOUS
 10
584.5105207762
 20
128.7806333507
 11
584.0815202609
 21
128.7806333507
  0
LINE
  5
298
100
AcDbEntity
  8
03___PRT_ALL_CURVES
100
AcDbLine
 62
40
  6
CONTINUOUS
 10
591.6575220831
 20
128.791130126
 11
590.4755205882
 21
128.791130126
  0
LINE
  5
299
100
AcDbEntity
  8
03___PRT_ALL_CURVES
100
AcDbLine
 62
40
  6
CONTINUOUS
 10
590.0175166753
 20
128.791130126
 11
589.6275211004
 21
128.791130126
  0
LINE
  5
29A
100
AcDbEntity
  8
03___PRT_ALL_CURVES
100
AcDbLine
 62
40
  6
CONTINUOUS
 10
589.2995264784
 20
128.791130126
 11
587.9035199581
 21
128.791130126
  0
LINE
  5
29B
100
AcDbEntity
  8
03___PRT_ALL_CURVES
100
AcDbLine
 62
40
  6
CONTINUOUS
 10
587.7465204973
 20
128.791130126
 11
587.3145162894
 21
128.791130126
  0
LINE
  5
29C
100
AcDbEntity
  8
03___PRT_ALL_CURVES
100
AcDbLine
 62
40
  6
CONTINUOUS
 10
586.1196279842
 20
128.791130126
 11
585.7166271739
 21
128.791130126
  0
LINE
  5
29D
100
AcDbEntity
  8
03___PRT_ALL_CURVES
100
AcDbLine
 62
40
  6
CONTINUOUS
 10
581.0615172607
 20
128.791130126
 11
580.5775244087
 21
128.791130126
  0
LINE
  5
29E
100
AcDbEntity
  8
03___PRT_ALL_CURVES
100
AcDbLine
 62
40
  6
CONTINUOUS
 10
579.7745264807
 20
128.791130126
 11
579.4025207639
 21
128.791130126
  0
LINE
  5
29F
100
AcDbEntity
  8
03___PRT_ALL_CURVES
100
AcDbLine
 62
40
  6
CONTINUOUS
 10
578.9644768729
 20
128.791130126
 11
578.5744705322
 21
128.791130126
  0
LINE
  5
2A0
100
AcDbEntity
  8
03___PRT_ALL_CURVES
100
AcDbLine
 62
40
  6
CONTINUOUS
 10
577.3609248815
 20
128.791130126
 11
576.1699230745
 21
128.791130126
  0
LINE
  5
2A1
100
AcDbEntity
  8
03___PRT_ALL_CURVES
100
AcDbLine
 62
40
  6
CONTINUOUS
 10
573.7708124084
 20
128.791130126
 11
573.3388189664
 21
128.791130126
  0
LINE
  5
2A2
100
AcDbEntity
  8
03___PRT_ALL_CURVES
100
AcDbLine
 62
40
  6
CONTINUOUS
 10
571.453479696
 20
128.791130126
 11
571.0814739792
 21
128.791130126
  0
LINE
  5
2A3
100
AcDbEntity
  8
03___PRT_ALL_CURVES
100
AcDbLine
 62
40
  6
CONTINUOUS
 10
572.1439198953
 20
128.791130126
 11
571.740919085
 21
128.791130126
  0
LINE
  5
2A4
100
AcDbEntity
  8
03___PRT_ALL_CURVES
100
AcDbLine
 62
40
  6
CONTINUOUS
 10
570.5089637051
 20
128.791130126
 11
570.1309613689
 21
128.791130126
  0
LINE
  5
2A5
100
AcDbEntity
  8
03___PRT_ALL_CURVES
100
AcDbLine
 62
40
  6
CONTINUOUS
 10
569.5584833926
 20
128.791130126
 11
569.1864776758
 21
128.791130126
  0
LINE
  5
2A6
100
AcDbEntity
  8
03___PRT_ALL_CURVES
100
AcDbLine
 62
40
  6
CONTINUOUS
 10
574.6859266624
 20
129.0726374908
 11
574.4679274797
 21
129.0726374908
  0
LINE
  5
2A7
100
AcDbEntity
  8
03___PRT_ALL_CURVES
100
AcDbLine
 62
40
  6
CONTINUOUS
 10
591.6575220831
 20
129.0931358089
 11
590.8655269289
 21
129.0931358089
  0
LINE
  5
2A8
100
AcDbEntity
  8
03___PRT_ALL_CURVES
100
AcDbLine
 62
40
  6
CONTINUOUS
 10
589.2995264784
 20
129.0931358089
 11
588.3025266109
 21
129.0931358089
  0
LINE
  5
2A9
100
AcDbEntity
  8
03___PRT_ALL_CURVES
100
AcDbLine
 62
40
  6
CONTINUOUS
 10
577.3609248815
 20
129.0931358089
 11
576.5599294153
 21
129.0931358089
  0
LINE
  5
2AA
100
AcDbEntity
  8
03___PRT_ALL_CURVES
100
AcDbLine
 62
40
  6
CONTINUOUS
 10
587.1389240789
 20
129.2591355817
 11
586.2979224413
 21
129.2591355817
  0
LINE
  5
2AB
100
AcDbEntity
  8
03___PRT_ALL_CURVES
100
AcDbLine
 62
40
  6
CONTINUOUS
 10
573.16321599
 20
129.2591355817
 11
572.3222143524
 21
129.2591355817
  0
LINE
  5
2AC
100
AcDbEntity
  8
03___PRT_ALL_CURVES
100
AcDbLine
 62
40
  6
CONTINUOUS
 10
587.0360772127
 20
129.5611412647
 11
586.4118797404
 21
129.5611412647
  0
LINE
  5
2AD
100
AcDbEntity
  8
03___PRT_ALL_CURVES
100
AcDbLine
 62
40
  6
CONTINUOUS
 10
573.0576776433
 20
129.5611412647
 11
572.433480171
 21
129.5611412647
  0
LINE
  5
2AE
100
AcDbEntity
  8
03___PRT_ALL_CURVES
100
AcDbLine
 62
40
  6
CONTINUOUS
 10
584.63252022
 20
129.6286328384
 11
584.5105207762
 21
129.6286328384
  0
LINE
  5
2AF
100
AcDbEntity
  8
03___PRT_ALL_CURVES
100
AcDbLine
 62
40
  6
CONTINUOUS
 10
582.9415166329
 20
129.6436405356
 11
582.7585174671
 21
129.6436405356
  0
LINE
  5
2B0
100
AcDbEntity
  8
03___PRT_ALL_CURVES
100
AcDbLine
 62
40
  6
CONTINUOUS
 10
577.287921155
 20
129.6436405356
 11
576.5599294153
 21
129.6436405356
  0
LINE
  5
2B1
100
AcDbEntity
  8
03___PRT_ALL_CURVES
100
AcDbLine
 62
40
  6
CONTINUOUS
 10
577.287921155
 20
129.9456354526
 11
576.5599294153
 21
129.9456354526
  0
LINE
  5
2B2
100
AcDbEntity
  8
03___PRT_ALL_CURVES
100
AcDbLine
 62
40
  6
CONTINUOUS
 10
584.6355239127
 20
129.9696326959
 11
584.5105207762
 21
129.9696326959
  0
LINE
  5
2B3
100
AcDbEntity
  8
03___PRT_ALL_CURVES
100
AcDbLine
 62
40
  6
CONTINUOUS
 10
571.0814739792
 20
130.3571305766
 11
571.0256419005
 21
130.3571305766
  0
LINE
  5
2B4
100
AcDbEntity
  8
03___PRT_ALL_CURVES
100
AcDbLine
 62
40
  6
CONTINUOUS
 10
569.6124529665
 20
130.3571305766
 11
569.5584833926
 21
130.3571305766
  0
LINE
  5
2B5
100
AcDbEntity
  8
03___PRT_ALL_CURVES
100
AcDbLine
 62
40
  6
CONTINUOUS
 10
584.6355239127
 20
130.4996391045
 11
584.5105207762
 21
130.4996391045
  0
LINE
  5
2B6
100
AcDbEntity
  8
03___PRT_ALL_CURVES
100
AcDbLine
 62
40
  6
CONTINUOUS
 10
582.906516616
 20
130.4996391045
 11
582.7585174671
 21
130.4996391045
  0
LINE
  5
2B7
100
AcDbEntity
  8
03___PRT_ALL_CURVES
100
AcDbLine
 62
40
  6
CONTINUOUS
 10
574.6859266624
 20
130.4996391045
 11
574.4679274797
 21
130.4996391045
  0
LINE
  5
2B8
100
AcDbEntity
  8
03___PRT_ALL_CURVES
100
AcDbLine
 62
40
  6
CONTINUOUS
 10
588.8725176589
 20
130.5101358797
 11
587.9425248986
 21
130.5101358797
  0
LINE
  5
2B9
100
AcDbEntity
  8
03___PRT_ALL_CURVES
100
AcDbLine
 62
40
  6
CONTINUOUS
 10
577.3549282622
 20
130.5101358797
 11
576.5599294153
 21
130.5101358797
  0
LINE
  5
2BA
100
AcDbEntity
  8
03___PRT_ALL_CURVES
100
AcDbLine
 62
40
  6
CONTINUOUS
 10
569.1864776758
 20
130.8121307967
 11
569.8244770619
 21
130.8121307967
  0
LINE
  5
2BB
100
AcDbEntity
  8
03___PRT_ALL_CURVES
100
AcDbLine
 62
40
  6
CONTINUOUS
 10
570.8154803099
 20
130.8121307967
 11
571.453479696
 21
130.8121307967
  0
LINE
  5
2BC
100
AcDbEntity
  8
03___PRT_ALL_CURVES
100
AcDbLine
 62
40
  6
CONTINUOUS
 10
572.5283494876
 20
130.8121307967
 11
572.9773530885
 21
130.8121307967
  0
LINE
  5
2BD
100
AcDbEntity
  8
03___PRT_ALL_CURVES
100
AcDbLine
 62
40
  6
CONTINUOUS
 10
576.1699230745
 20
130.8121307967
 11
577.3549282622
 21
130.8121307967
  0
LINE
  5
2BE
100
AcDbEntity
  8
03___PRT_ALL_CURVES
100
AcDbLine
 62
40
  6
CONTINUOUS
 10
578.5744705322
 20
130.8121307967
 11
578.9644768729
 21
130.8121307967
  0
LINE
  5
2BF
100
AcDbEntity
  8
03___PRT_ALL_CURVES
100
AcDbLine
 62
40
  6
CONTINUOUS
 10
579.4025207639
 20
130.8121307967
 11
579.8895173085
 21
130.8121307967
  0
LINE
  5
2C0
100
AcDbEntity
  8
03___PRT_ALL_CURVES
100
AcDbLine
 62
40
  6
CONTINUOUS
 10
580.6895223098
 20
130.8121307967
 11
581.0615172607
 21
130.8121307967
  0
LINE
  5
2C1
100
AcDbEntity
  8
03___PRT_ALL_CURVES
100
AcDbLine
 62
40
  6
CONTINUOUS
 10
586.5040575766
 20
130.8121307967
 11
586.9530504116
 21
130.8121307967
  0
LINE
  5
2C2
100
AcDbEntity
  8
03___PRT_ALL_CURVES
100
AcDbLine
 62
40
  6
CONTINUOUS
 10
587.9425248986
 20
130.8121307967
 11
589.2795233927
 21
130.8121307967
  0
LINE
  5
2C3
100
AcDbEntity
  8
03___PRT_ALL_CURVES
100
AcDbLine
 62
40
  6
CONTINUOUS
 10
589.6275211004
 20
130.8121307967
 11
590.0175166753
 21
130.8121307967
  0
LINE
  5
2C4
100
AcDbEntity
  8
03___PRT_ALL_CURVES
100
AcDbLine
 62
40
  6
CONTINUOUS
 10
590.4755205882
 20
130.8121307967
 11
590.8655269289
 21
130.8121307967
  0
LINE
  5
2C5
100
AcDbEntity
  8
03___PRT_ALL_CURVES
100
AcDbLine
 62
40
  6
CONTINUOUS
 10
583.052524069
 20
130.8311326516
 11
582.3295169518
 21
130.8311326516
  0
LINE
  5
2C6
100
AcDbEntity
  8
03___PRT_ALL_CURVES
100
AcDbLine
 62
40
  6
CONTINUOUS
 10
574.6069263166
 20
130.8311326516
 11
574.0389269644
 21
130.8311326516
  0
LINE
  5
2C7
100
AcDbEntity
  8
03___PRT_ALL_CURVES
100
AcDbLine
 62
40
  6
CONTINUOUS
 10
562.1730486192
 20
132.4042624081
 11
598.670717804
 21
132.4042624081
  0
LINE
  5
2C8
100
AcDbEntity
  8
03___PRT_ALL_CURVES
100
AcDbLine
 62
40
  6
CONTINUOUS
 10
598.670717804
 20
132.7288167917
 11
562.1730486192
 21
132.7288167917
  0
LINE
  5
2C9
100
AcDbEntity
  8
03___PRT_ALL_CURVES
100
AcDbLine
 62
40
  6
CONTINUOUS
 10
564.9788865781
 20
134.4298492359
 11
565.4219657536
 21
134.4298492359
  0
LINE
  5
2CA
100
AcDbEntity
  8
03___PRT_ALL_CURVES
100
AcDbLine
 62
40
  6
CONTINUOUS
 10
567.1533865937
 20
134.4298492359
 11
567.5602494619
 21
134.4298492359
  0
LINE
  5
2CB
100
AcDbEntity
  8
03___PRT_ALL_CURVES
100
AcDbLine
 62
40
  6
CONTINUOUS
 10
568.9694700501
 20
134.4298492359
 11
569.5202794622
 21
134.4298492359
  0
LINE
  5
2CC
100
AcDbEntity
  8
03___PRT_ALL_CURVES
100
AcDbLine
 62
40
  6
CONTINUOUS
 10
569.6519816501
 20
134.4298492359
 11
570.3697621629
 21
134.4298492359
  0
LINE
  5
2CD
100
AcDbEntity
  8
03___PRT_ALL_CURVES
100
AcDbLine
 62
40
  6
CONTINUOUS
 10
572.6759643664
 20
134.4298492359
 11
573.1703176798
 21
134.4298492359
  0
LINE
  5
2CE
100
AcDbEntity
  8
03___PRT_ALL_CURVES
100
AcDbLine
 62
40
  6
CONTINUOUS
 10
573.368811179
 20
134.4298492359
 11
574.0611986488
 21
134.4298492359
  0
LINE
  5
2CF
100
AcDbEntity
  8
03___PRT_ALL_CURVES
100
AcDbLine
 62
40
  6
CONTINUOUS
 10
577.2785072582
 20
134.4298492359
 11
577.7013609969
 21
134.4298492359
  0
LINE
  5
2D0
100
AcDbEntity
  8
03___PRT_ALL_CURVES
100
AcDbLine
 62
40
  6
CONTINUOUS
 10
582.4511376044
 20
134.4298492361
 11
582.8377750357
 21
134.4298492361
  0
LINE
  5
2D1
100
AcDbEntity
  8
03___PRT_ALL_CURVES
100
AcDbLine
 62
40
  6
CONTINUOUS
 10
584.8688165591
 20
134.4298492361
 11
585.2611096484
 21
134.4298492361
  0
LINE
  5
2D2
100
AcDbEntity
  8
03___PRT_ALL_CURVES
100
AcDbLine
 62
40
  6
CONTINUOUS
 10
586.9920567912
 20
134.4298492359
 11
587.4351503212
 21
134.4298492359
  0
LINE
  5
2D3
100
AcDbEntity
  8
03___PRT_ALL_CURVES
100
AcDbLine
 62
40
  6
CONTINUOUS
 10
589.1957250734
 20
134.4298492359
 11
589.6388186034
 21
134.4298492359
  0
LINE
  5
2D4
100
AcDbEntity
  8
03___PRT_ALL_CURVES
100
AcDbLine
 62
40
  6
CONTINUOUS
 10
590.6162426232
 20
134.4298492359
 11
591.0028800544
 21
134.4298492359
  0
LINE
  5
2D5
100
AcDbEntity
  8
03___PRT_ALL_CURVES
100
AcDbLine
 62
40
  6
CONTINUOUS
 10
593.0348689722
 20
134.4298492359
 11
593.4271477071
 21
134.4298492359
  0
LINE
  5
2D6
100
AcDbEntity
  8
03___PRT_ALL_CURVES
100
AcDbLine
 62
40
  6
CONTINUOUS
 10
593.8184934019
 20
134.4298492359
 11
594.5367476121
 21
134.4298492359
  0
LINE
  5
2D7
100
AcDbEntity
  8
03___PRT_ALL_CURVES
100
AcDbLine
 62
40
  6
CONTINUOUS
 10
596.8424761184
 20
134.4298492359
 11
597.3368437863
 21
134.4298492359
  0
LINE
  5
2D8
100
AcDbEntity
  8
03___PRT_ALL_CURVES
100
AcDbLine
 62
40
  6
CONTINUOUS
 10
575.4962859774
 20
134.7351112227
 11
575.827429059
 21
134.7351112227
  0
LINE
  5
2D9
100
AcDbEntity
  8
03___PRT_ALL_CURVES
100
AcDbLine
 62
40
  6
CONTINUOUS
 10
570.6547987128
 20
135.239340406
 11
572.1411601794
 21
135.239340406
  0
LINE
  5
2DA
100
AcDbEntity
  8
03___PRT_ALL_CURVES
100
AcDbLine
 62
40
  6
CONTINUOUS
 10
594.8222578593
 20
135.239340406
 11
596.3076719313
 21
135.239340406
  0
LINE
  5
2DB
100
AcDbEntity
  8
03___PRT_ALL_CURVES
100
AcDbLine
 62
40
  6
CONTINUOUS
 10
567.5602494619
 20
135.7845085145
 11
568.0339179957
 21
135.7845085145
  0
LINE
  5
2DC
100
AcDbEntity
  8
03___PRT_ALL_CURVES
100
AcDbLine
 62
40
  6
CONTINUOUS
 10
596.0786034283
 20
135.8804537379
 11
595.0508526651
 21
135.8804537379
  0
LINE
  5
2DD
100
AcDbEntity
  8
03___PRT_ALL_CURVES
100
AcDbLine
 62
40
  6
CONTINUOUS
 10
571.9125653736
 20
135.8804537379
 11
570.8843409131
 21
135.8804537379
  0
LINE
  5
2DE
100
AcDbEntity
  8
03___PRT_ALL_CURVES
100
AcDbLine
 62
40
  6
CONTINUOUS
 10
568.039085602
 20
136.4096166214
 11
567.5602494619
 21
136.4096166214
  0
LINE
  5
2DF
100
AcDbEntity
  8
03___PRT_ALL_CURVES
100
AcDbLine
 62
40
  6
CONTINUOUS
 10
584.6907746315
 20
130.8308958013
 11
584.0815202609
 21
130.8311326516
  0
LINE
  5
2E0
100
AcDbEntity
  8
03___PRT_ALL_CURVES
100
AcDbLine
 62
40
  6
CONTINUOUS
 10
584.61538087
 20
130.8312080131
 11
584.6996242205
 21
130.8308096739
  0
LINE
  5
2E1
100
AcDbEntity
  8
03___PRT_ALL_CURVES
100
AcDbLine
 62
40
  6
CONTINUOUS
 10
574.6590549176
 20
130.8306374192
 11
574.6069263166
 21
130.8311326516
  0
LINE
  5
2E2
100
AcDbEntity
  8
03___PRT_ALL_CURVES
100
AcDbLine
 62
40
  6
CONTINUOUS
 10
584.6867589421
 20
130.4990900424
 11
584.6355239127
 21
130.4996391045
  0
LINE
  5
2E3
100
AcDbEntity
  8
03___PRT_ALL_CURVES
100
AcDbLine
 62
40
  6
CONTINUOUS
 10
584.7492981911
 20
130.8300129956
 11
584.6907746315
 21
130.8308958013
  0
LINE
  5
2E4
100
AcDbEntity
  8
03___PRT_ALL_CURVES
100
AcDbLine
 62
40
  6
CONTINUOUS
 10
584.6996242205
 20
130.8308096739
 11
584.7843197399
 21
130.8290655943
  0
LINE
  5
2E5
100
AcDbEntity
  8
03___PRT_ALL_CURVES
100
AcDbLine
 62
40
  6
CONTINUOUS
 10
583.052524069
 20
130.8311326516
 11
583.1072257258
 21
130.8299806978
  0
LINE
  5
2E6
100
AcDbEntity
  8
03___PRT_ALL_CURVES
100
AcDbLine
 62
40
  6
CONTINUOUS
 10
574.7107959454
 20
130.829119424
 11
574.6392348527
 21
130.8309496309
  0
LINE
  5
2E7
100
AcDbEntity
  8
03___PRT_ALL_CURVES
100
AcDbLine
 62
40
  6
CONTINUOUS
 10
584.8006193479
 20
130.8285057663
 11
584.7492981911
 21
130.8300129956
  0
LINE
  5
2E8
100
AcDbEntity
  8
03___PRT_ALL_CURVES
100
AcDbLine
 62
40
  6
CONTINUOUS
 10
574.6069263166
 20
130.8311326516
 11
574.7620848045
 21
130.8265140705
  0
LINE
  5
2E9
100
AcDbEntity
  8
03___PRT_ALL_CURVES
100
AcDbLine
 62
40
  6
CONTINUOUS
 10
584.7379724397
 20
130.4970014533
 11
584.6867589421
 21
130.4990900424
  0
LINE
  5
2EA
100
AcDbEntity
  8
03___PRT_ALL_CURVES
100
AcDbLine
 62
40
  6
CONTINUOUS
 10
584.7843197399
 20
130.8290655943
 11
584.8685630904
 21
130.8250822027
  0
LINE
  5
2EB
100
AcDbEntity
  8
03___PRT_ALL_CURVES
100
AcDbLine
 62
40
  6
CONTINUOUS
 10
574.7728507279
 20
130.8258142855
 11
574.7076092321
 21
130.8292378491
  0
LINE
  5
2EC
100
AcDbEntity
  8
03___PRT_ALL_CURVES
100
AcDbLine
 62
40
  6
CONTINUOUS
 10
574.7728184301
 20
130.4942669087
 11
574.6859266624
 21
130.4996391045
  0
LINE
  5
2ED
100
AcDbEntity
  8
03___PRT_ALL_CURVES
100
AcDbLine
 62
40
  6
CONTINUOUS
 10
583.1072257258
 20
130.8299806978
 11
583.1646403952
 21
130.8261803269
  0
LINE
  5
2EE
100
AcDbEntity
  8
03___PRT_ALL_CURVES
100
AcDbLine
 62
40
  6
CONTINUOUS
 10
574.8128676651
 20
130.8227675292
 11
574.7620848045
 21
130.8265140705
  0
LINE
  5
2EF
100
AcDbEntity
  8
03___PRT_ALL_CURVES
100
AcDbLine
 62
40
  6
CONTINUOUS
 10
574.8351100628
 20
130.8207543015
 11
574.7728507279
 21
130.8258142855
  0
LINE
  5
2F0
100
AcDbEntity
  8
03___PRT_ALL_CURVES
100
AcDbLine
 62
40
  6
CONTINUOUS
 10
584.8685630904
 20
130.8250822027
 11
584.951396105
 21
130.8179766932
  0
LINE
  5
2F1
100
AcDbEntity
  8
03___PRT_ALL_CURVES
100
AcDbLine
 62
40
  6
CONTINUOUS
 10
584.7882493025
 20
130.4926627861
 11
584.7379724397
 21
130.4970014533
  0
LINE
  5
2F2
100
AcDbEntity
  8
03___PRT_ALL_CURVES
100
AcDbLine
 62
40
  6
CONTINUOUS
 10
574.8630906977
 20
130.8178582681
 11
574.8128676651
 21
130.8227675292
  0
LINE
  5
2F3
100
AcDbEntity
  8
03___PRT_ALL_CURVES
100
AcDbLine
 62
40
  6
CONTINUOUS
 10
574.7620848045
 20
130.8265140705
 11
574.912667775
 21
130.8117001599
  0
LINE
  5
2F4
100
AcDbEntity
  8
03___PRT_ALL_CURVES
100
AcDbLine
 62
40
  6
CONTINUOUS
 10
574.894527194
 20
130.8141117267
 11
574.8351100628
 21
130.8207543015
  0
LINE
  5
2F5
100
AcDbEntity
  8
03___PRT_ALL_CURVES
100
AcDbLine
 62
40
  6
CONTINUOUS
 10
583.1646403952
 20
130.8261803269
 11
583.2237991443
 21
130.8192147744
  0
LINE
  5
2F6
100
AcDbEntity
  8
03___PRT_ALL_CURVES
100
AcDbLine
 62
40
  6
CONTINUOUS
 10
574.912667775
 20
130.8117001599
 11
574.8630906977
 21
130.8178582681
  0
LINE
  5
2F7
100
AcDbEntity
  8
03___PRT_ALL_CURVES
100
AcDbLine
 62
40
  6
CONTINUOUS
 10
583.3455186741
 20
129.8016412273
 11
583.3911769552
 21
129.7953431621
  0
LINE
  5
2F8
100
AcDbEntity
  8
03___PRT_ALL_CURVES
100
AcDbLine
 62
40
  6
CONTINUOUS
 10
584.951396105
 20
130.8179766932
 11
585.0319036801
 21
130.8068447285
  0
LINE
  5
2F9
100
AcDbEntity
  8
03___PRT_ALL_CURVES
100
AcDbLine
 62
40
  6
CONTINUOUS
 10
574.9512420785
 20
130.8059511568
 11
574.894527194
 21
130.8141117267
  0
LINE
  5
2FA
100
AcDbEntity
  8
03___PRT_ALL_CURVES
100
AcDbLine
 62
40
  6
CONTINUOUS
 10
574.961566599
 20
130.8042609068
 11
574.912667775
 21
130.8117001599
  0
LINE
  5
2FB
100
AcDbEntity
  8
03___PRT_ALL_CURVES
100
AcDbLine
 62
40
  6
CONTINUOUS
 10
575.0053731413
 20
130.7963371872
 11
574.9512420785
 21
130.8059511568
  0
LINE
  5
2FC
100
AcDbEntity
  8
03___PRT_ALL_CURVES
100
AcDbLine
 62
40
  6
CONTINUOUS
 10
583.2237991443
 20
130.8192147744
 11
583.2837330398
 21
130.8085457444
  0
LINE
  5
2FD
100
AcDbEntity
  8
03___PRT_ALL_CURVES
100
AcDbLine
 62
40
  6
CONTINUOUS
 10
575.0097010425
 20
130.7954866793
 11
574.961566599
 21
130.8042609068
  0
LINE
  5
2FE
100
AcDbEntity
  8
03___PRT_ALL_CURVES
100
AcDbLine
 62
40
  6
CONTINUOUS
 10
574.912667775
 20
130.8117001599
 11
575.0570280417
 21
130.7853236476
  0
LINE
  5
2FF
100
AcDbEntity
  8
03___PRT_ALL_CURVES
100
AcDbLine
 62
40
  6
CONTINUOUS
 10
574.8580737774
 20
130.4783010443
 11
574.7728184301
 21
130.4942669087
  0
LINE
  5
300
100
AcDbEntity
  8
03___PRT_ALL_CURVES
100
AcDbLine
 62
40
  6
CONTINUOUS
 10
585.0319036801
 20
130.8068447285
 11
585.1091599463
 21
130.7907927367
  0
LINE
  5
301
100
AcDbEntity
  8
03___PRT_ALL_CURVES
100
AcDbLine
 62
40
  6
CONTINUOUS
 10
575.0570280417
 20
130.7853236476
 11
575.0053731413
 21
130.7963371872
  0
LINE
  5
302
100
AcDbEntity
  8
03___PRT_ALL_CURVES
100
AcDbLine
 62
40
  6
CONTINUOUS
 10
583.3911769552
 20
129.7953431621
 11
583.4352741774
 21
129.7858691496
  0
LINE
  5
303
100
AcDbEntity
  8
03___PRT_ALL_CURVES
100
AcDbLine
 62
40
  6
CONTINUOUS
 10
583.2837330398
 20
130.8085457444
 11
583.3434946805
 21
130.7936564723
  0
LINE
  5
304
100
AcDbEntity
  8
03___PRT_ALL_CURVES
100
AcDbLine
 62
40
  6
CONTINUOUS
 10
575.1263605886
 20
130.7673660874
 11
575.0780646561
 21
130.7802851955
  0
LINE
  5
305
100
AcDbEntity
  8
03___PRT_ALL_CURVES
100
AcDbLine
 62
40
  6
CONTINUOUS
 10
575.0570280417
 20
130.7853236476
 11
575.1600686945
 21
130.7571688777
  0
LINE
  5
306
100
AcDbEntity
  8
03___PRT_ALL_CURVES
100
AcDbLine
 62
40
  6
CONTINUOUS
 10
585.1091599463
 20
130.7907927367
 11
585.1822175025
 21
130.768959444
  0
LINE
  5
307
100
AcDbEntity
  8
03___PRT_ALL_CURVES
100
AcDbLine
 62
40
  6
CONTINUOUS
 10
575.1724387408
 20
130.7531658344
 11
575.1263605886
 21
130.7673660874
  0
LINE
  5
308
100
AcDbEntity
  8
03___PRT_ALL_CURVES
100
AcDbLine
 62
40
  6
CONTINUOUS
 10
574.9405622825
 20
130.4519891276
 11
574.8580737774
 21
130.4783010443
  0
LINE
  5
309
100
AcDbEntity
  8
03___PRT_ALL_CURVES
100
AcDbLine
 62
40
  6
CONTINUOUS
 10
583.3434946805
 20
130.7936564723
 11
583.392479632
 21
130.7776583101
  0
LINE
  5
30A
100
AcDbEntity
  8
03___PRT_ALL_CURVES
100
AcDbLine
 62
40
  6
CONTINUOUS
 10
575.2163744741
 20
130.7377167344
 11
575.1724387408
 21
130.7531658344
  0
LINE
  5
30B
100
AcDbEntity
  8
03___PRT_ALL_CURVES
100
AcDbLine
 62
40
  6
CONTINUOUS
 10
575.1602194176
 20
130.7571276942
 11
575.2582754481
 21
130.721040319
  0
LINE
  5
30C
100
AcDbEntity
  8
03___PRT_ALL_CURVES
100
AcDbLine
 62
40
  6
CONTINUOUS
 10
575.2582754481
 20
130.721040319
 11
575.2163744741
 21
130.7377167344
  0
LINE
  5
30D
100
AcDbEntity
  8
03___PRT_ALL_CURVES
100
AcDbLine
 62
40
  6
CONTINUOUS
 10
563.9657055937
 20
137.4439560826
 11
564.6985439372
 21
137.4439560826
  0
LINE
  5
30E
100
AcDbEntity
  8
03___PRT_ALL_CURVES
100
AcDbLine
 62
40
  6
CONTINUOUS
 10
565.4219657536
 20
137.4439560826
 11
566.4351323836
 21
137.4439560826
  0
LINE
  5
30F
100
AcDbEntity
  8
03___PRT_ALL_CURVES
100
AcDbLine
 62
40
  6
CONTINUOUS
 10
585.9788901613
 20
137.4439560826
 11
586.7117141503
 21
137.4439560826
  0
LINE
  5
310
100
AcDbEntity
  8
03___PRT_ALL_CURVES
100
AcDbLine
 62
40
  6
CONTINUOUS
 10
587.4351503212
 20
137.4439560826
 11
588.4483169511
 21
137.4439560826
  0
LINE
  5
311
100
AcDbEntity
  8
03___PRT_ALL_CURVES
100
AcDbLine
 62
40
  6
CONTINUOUS
 10
567.5602494619
 20
137.4693634802
 11
568.039085602
 21
137.4693634802
  0
LINE
  5
312
100
AcDbEntity
  8
03___PRT_ALL_CURVES
100
AcDbLine
 62
40
  6
CONTINUOUS
 10
595.9219818945
 20
138.1001128906
 11
595.2239531211
 21
138.1001128906
  0
LINE
  5
313
100
AcDbEntity
  8
03___PRT_ALL_CURVES
100
AcDbLine
 62
40
  6
CONTINUOUS
 10
593.4271477071
 20
138.1001128906
 11
592.7596939376
 21
138.1001128906
  0
LINE
  5
314
100
AcDbEntity
  8
03___PRT_ALL_CURVES
100
AcDbLine
 62
40
  6
CONTINUOUS
 10
590.9882959211
 20
138.1001128906
 11
590.3368330223
 21
138.1001128906
  0
LINE
  5
315
100
AcDbEntity
  8
03___PRT_ALL_CURVES
100
AcDbLine
 62
40
  6
CONTINUOUS
 10
589.6388186034
 20
138.1001128906
 11
588.9168035242
 21
138.1001128906
  0
LINE
  5
316
100
AcDbEntity
  8
03___PRT_ALL_CURVES
100
AcDbLine
 62
40
  6
CONTINUOUS
 10
588.4483169511
 20
138.1001128906
 11
585.6990212176
 21
138.1001128906
  0
LINE
  5
317
100
AcDbEntity
  8
03___PRT_ALL_CURVES
100
AcDbLine
 62
40
  6
CONTINUOUS
 10
585.2611096484
 20
138.1001128908
 11
584.5936558789
 21
138.1001128908
  0
LINE
  5
318
100
AcDbEntity
  8
03___PRT_ALL_CURVES
100
AcDbLine
 62
40
  6
CONTINUOUS
 10
582.8227172052
 20
138.1001128908
 11
582.1703212662
 21
138.1001128908
  0
LINE
  5
319
100
AcDbEntity
  8
03___PRT_ALL_CURVES
100
AcDbLine
 62
40
  6
CONTINUOUS
 10
577.1308141997
 20
138.1001128906
 11
576.4897008678
 21
138.1001128906
  0
LINE
  5
31A
100
AcDbEntity
  8
03___PRT_ALL_CURVES
100
AcDbLine
 62
40
  6
CONTINUOUS
 10
574.5856532689
 20
138.1001128906
 11
573.9388986334
 21
138.1001128906
  0
LINE
  5
31B
100
AcDbEntity
  8
03___PRT_ALL_CURVES
100
AcDbLine
 62
40
  6
CONTINUOUS
 10
571.754522748
 20
138.1001128906
 11
571.0574270147
 21
138.1001128906
  0
LINE
  5
31C
100
AcDbEntity
  8
03___PRT_ALL_CURVES
100
AcDbLine
 62
40
  6
CONTINUOUS
 10
568.0997619124
 20
138.1001128906
 11
566.8730439528
 21
138.1001128906
  0
LINE
  5
31D
100
AcDbEntity
  8
03___PRT_ALL_CURVES
100
AcDbLine
 62
40
  6
CONTINUOUS
 10
566.4351323836
 20
138.1001128906
 11
563.6853773073
 21
138.1001128906
  0
LINE
  5
31E
100
AcDbEntity
  8
03___PRT_ALL_CURVES
100
AcDbLine
 62
40
  6
CONTINUOUS
 10
562.1730486192
 20
140.2194200002
 11
598.670717804
 21
140.2194200002
  0
LINE
  5
31F
100
AcDbEntity
  8
03___PRT_ALL_CURVES
100
AcDbLine
 62
40
  6
CONTINUOUS
 10
598.670717804
 20
140.5439743838
 11
562.1730486192
 21
140.5439743838
  0
LINE
  5
320
100
AcDbEntity
  8
03___PRT_ALL_CURVES
100
AcDbLine
 62
40
  6
CONTINUOUS
 10
585.1822175025
 20
130.768959444
 11
585.2281449317
 21
130.7507327357
  0
LINE
  5
321
100
AcDbEntity
  8
03___PRT_ALL_CURVES
100
AcDbLine
 62
40
  6
CONTINUOUS
 10
583.392479632
 20
130.7776583101
 11
583.440118843
 21
130.7580643296
  0
LINE
  5
322
100
AcDbEntity
  8
03___PRT_ALL_CURVES
100
AcDbLine
 62
40
  6
CONTINUOUS
 10
575.0191427573
 20
130.4155464769
 11
574.9405622825
 21
130.4519891276
  0
LINE
  5
323
100
AcDbEntity
  8
03___PRT_ALL_CURVES
100
AcDbLine
 62
40
  6
CONTINUOUS
 10
575.2582754481
 20
130.721040319
 11
575.3504748161
 21
130.6764693962
  0
LINE
  5
324
100
AcDbEntity
  8
03___PRT_ALL_CURVES
100
AcDbLine
 62
40
  6
CONTINUOUS
 10
585.2281449317
 20
130.7507327357
 11
585.271520837
 21
130.7292762504
  0
LINE
  5
325
100
AcDbEntity
  8
03___PRT_ALL_CURVES
100
AcDbLine
 62
40
  6
CONTINUOUS
 10
583.440118843
 20
130.7580643296
 11
583.4858524855
 21
130.7345838507
  0
LINE
  5
326
100
AcDbEntity
  8
03___PRT_ALL_CURVES
100
AcDbLine
 62
40
  6
CONTINUOUS
 10
585.271520837
 20
130.7292762504
 11
585.3120760704
 21
130.7043100741
  0
LINE
  5
327
100
AcDbEntity
  8
03___PRT_ALL_CURVES
100
AcDbLine
 62
40
  6
CONTINUOUS
 10
575.3504748161
 20
130.6764693962
 11
575.4360854344
 21
130.6228228028
  0
LINE
  5
328
100
AcDbEntity
  8
03___PRT_ALL_CURVES
100
AcDbLine
 62
40
  6
CONTINUOUS
 10
575.09268478
 20
130.3692099426
 11
575.0191427573
 21
130.4155464769
  0
LINE
  5
329
100
AcDbEntity
  8
03___PRT_ALL_CURVES
100
AcDbLine
 62
40
  6
CONTINUOUS
 10
583.4858524855
 20
130.7345838507
 11
583.5291422635
 21
130.7069046616
  0
LINE
  5
32A
100
AcDbEntity
  8
03___PRT_ALL_CURVES
100
AcDbLine
 62
40
  6
CONTINUOUS
 10
575.4360854344
 20
130.6228228028
 11
575.5143644674
 21
130.559529936
  0
LINE
  5
32B
100
AcDbEntity
  8
03___PRT_ALL_CURVES
100
AcDbLine
 62
40
  6
CONTINUOUS
 10
585.3120760704
 20
130.7043100741
 11
585.3495307179
 21
130.6755865905
  0
LINE
  5
32C
100
AcDbEntity
  8
03___PRT_ALL_CURVES
100
AcDbLine
 62
40
  6
CONTINUOUS
 10
583.5291422635
 20
130.7069046616
 11
583.5694175829
 21
130.6747253166
  0
LINE
  5
32D
100
AcDbEntity
  8
03___PRT_ALL_CURVES
100
AcDbLine
 62
40
  6
CONTINUOUS
 10
575.1600686945
 20
130.3132056091
 11
575.09268478
 21
130.3692099426
  0
LINE
  5
32E
100
AcDbEntity
  8
03___PRT_ALL_CURVES
100
AcDbLine
 62
40
  6
CONTINUOUS
 10
585.3495307179
 20
130.6755865905
 11
585.3836048654
 21
130.6428366515
  0
LINE
  5
32F
100
AcDbEntity
  8
03___PRT_ALL_CURVES
100
AcDbLine
 62
40
  6
CONTINUOUS
 10
583.5694175829
 20
130.6747253166
 11
583.6061401476
 21
130.6377443697
  0
LINE
  5
330
100
AcDbEntity
  8
03___PRT_ALL_CURVES
100
AcDbLine
 62
40
  6
CONTINUOUS
 10
575.5143644674
 20
130.559529936
 11
575.584547522
 21
130.4860094453
  0
LINE
  5
331
100
AcDbEntity
  8
03___PRT_ALL_CURVES
100
AcDbLine
 62
40
  6
CONTINUOUS
 10
575.2058884644
 20
130.2650065701
 11
575.1602194175
 21
130.3130470596
  0
LINE
  5
332
100
AcDbEntity
  8
03___PRT_ALL_CURVES
100
AcDbLine
 62
40
  6
CONTINUOUS
 10
585.3836048654
 20
130.6428366515
 11
585.4140293649
 21
130.6057911091
  0
LINE
  5
333
100
AcDbEntity
  8
03___PRT_ALL_CURVES
100
AcDbLine
 62
40
  6
CONTINUOUS
 10
575.2471434829
 20
130.2115968241
 11
575.2058884644
 21
130.2650065701
  0
LINE
  5
334
100
AcDbEntity
  8
03___PRT_ALL_CURVES
100
AcDbLine
 62
40
  6
CONTINUOUS
 10
575.584547522
 20
130.4860094453
 11
575.6458809875
 21
130.4017337971
  0
LINE
  5
335
100
AcDbEntity
  8
03___PRT_ALL_CURVES
100
AcDbLine
 62
40
  6
CONTINUOUS
 10
575.2833708151
 20
130.1530624987
 11
575.2471434829
 21
130.2115968241
  0
LINE
  5
336
100
AcDbEntity
  8
03___PRT_ALL_CURVES
100
AcDbLine
 62
40
  6
CONTINUOUS
 10
569.5202794622
 20
134.4298492359
 11
568.6797252366
 21
135.9162107025
  0
LINE
  5
337
100
AcDbEntity
  8
03___PRT_ALL_CURVES
100
AcDbLine
 62
40
  6
CONTINUOUS
 10
568.0339179957
 20
135.7845085145
 11
568.6185752289
 21
134.6386923022
  0
LINE
  5
338
100
AcDbEntity
  8
03___PRT_ALL_CURVES
100
AcDbLine
 62
40
  6
CONTINUOUS
 10
591.0028800544
 20
136.9801777731
 11
592.5974167458
 21
134.6843107821
  0
LINE
  5
339
100
AcDbEntity
  8
03___PRT_ALL_CURVES
100
AcDbLine
 62
40
  6
CONTINUOUS
 10
582.8377750357
 20
136.9801777733
 11
584.4313786871
 21
134.6843107823
  0
LINE
  5
33A
100
AcDbEntity
  8
03___PRT_ALL_CURVES
100
AcDbLine
 62
40
  6
CONTINUOUS
 10
592.7596939376
 20
135.5041658736
 11
590.9882959211
 21
138.1001128906
  0
LINE
  5
33B
100
AcDbEntity
  8
03___PRT_ALL_CURVES
100
AcDbLine
 62
40
  6
CONTINUOUS
 10
584.5936558789
 20
135.5041658738
 11
582.8227172052
 21
138.1001128908
  0
LINE
  5
33C
100
AcDbEntity
  8
03___PRT_ALL_CURVES
100
AcDbLine
 62
40
  6
CONTINUOUS
 10
585.4140293649
 20
130.6057911091
 11
585.4405350683
 21
130.5641915811
  0
LINE
  5
33D
100
AcDbEntity
  8
03___PRT_ALL_CURVES
100
AcDbLine
 62
40
  6
CONTINUOUS
 10
575.6458809875
 20
130.4017337971
 11
575.6976220153
 21
130.3062077589
  0
LINE
  5
33E
100
AcDbEntity
  8
03___PRT_ALL_CURVES
100
AcDbLine
 62
40
  6
CONTINUOUS
 10
579.8183976186
 20
130.2721336114
 11
580.5775244087
 21
128.7911408919
  0
LINE
  5
33F
100
AcDbEntity
  8
03___PRT_ALL_CURVES
100
AcDbLine
 62
40
  6
CONTINUOUS
 10
579.8895173085
 20
130.8121307967
 11
580.6476966974
 21
129.3269178353
  0
LINE
  5
340
100
AcDbEntity
  8
03___PRT_ALL_CURVES
100
AcDbLine
 62
40
  6
CONTINUOUS
 10
575.3140859945
 20
130.0894574233
 11
575.2833708151
 21
130.1530624987
  0
LINE
  5
341
100
AcDbEntity
  8
03___PRT_ALL_CURVES
100
AcDbLine
 62
40
  6
CONTINUOUS
 10
572.9773530885
 20
130.8121307967
 11
573.7708124084
 21
128.791130126
  0
LINE
  5
342
100
AcDbEntity
  8
03___PRT_ALL_CURVES
100
AcDbLine
 62
40
  6
CONTINUOUS
 10
575.6976220153
 20
130.3062077589
 11
575.7390492886
 21
130.1988930347
  0
LINE
  5
343
100
AcDbEntity
  8
03___PRT_ALL_CURVES
100
AcDbLine
 62
40
  6
CONTINUOUS
 10
573.1703176798
 20
134.4298492359
 11
571.754522748
 21
138.1001128906
  0
LINE
  5
344
100
AcDbEntity
  8
03___PRT_ALL_CURVES
100
AcDbLine
 62
40
  6
CONTINUOUS
 10
573.16321599
 20
129.2591355817
 11
573.3388189664
 21
128.7911408919
  0
LINE
  5
345
100
AcDbEntity
  8
03___PRT_ALL_CURVES
100
AcDbLine
 62
40
  6
CONTINUOUS
 10
572.1411601794
 20
135.239340406
 11
572.3448212848
 21
134.679616873
  0
LINE
  5
346
100
AcDbEntity
  8
03___PRT_ALL_CURVES
100
AcDbLine
 62
40
  6
CONTINUOUS
 10
571.3979866233
 20
137.3113208547
 11
571.9125653736
 21
135.8804537379
  0
LINE
  5
347
100
AcDbEntity
  8
03___PRT_ALL_CURVES
100
AcDbLine
 62
40
  6
CONTINUOUS
 10
573.0576776433
 20
129.5611412647
 11
572.7551444302
 21
130.4221459878
  0
LINE
  5
348
100
AcDbEntity
  8
03___PRT_ALL_CURVES
100
AcDbLine
 62
40
  6
CONTINUOUS
 10
570.1309613689
 20
128.791130126
 11
569.6124529665
 21
130.3571305766
  0
LINE
  5
349
100
AcDbEntity
  8
03___PRT_ALL_CURVES
100
AcDbLine
 62
40
  6
CONTINUOUS
 10
585.6362810874
 20
128.7711378062
 11
585.2993399831
 21
129.5926423565
  0
LINE
  5
34A
100
AcDbEntity
  8
03___PRT_ALL_CURVES
100
AcDbLine
 62
40
  6
CONTINUOUS
 10
586.9530504116
 20
130.8121307967
 11
587.7465204973
 21
128.791130126
  0
LINE
  5
34B
100
AcDbEntity
  8
03___PRT_ALL_CURVES
100
AcDbLine
 62
40
  6
CONTINUOUS
 10
584.9043597857
 20
129.4327791601
 11
585.1592753197
 21
128.7711378062
  0
LINE
  5
34C
100
AcDbEntity
  8
03___PRT_ALL_CURVES
100
AcDbLine
 62
40
  6
CONTINUOUS
 10
584.9075249671
 20
129.424640122
 11
585.1592753197
 21
128.7711378062
  0
LINE
  5
34D
100
AcDbEntity
  8
03___PRT_ALL_CURVES
100
AcDbLine
 62
40
  6
CONTINUOUS
 10
574.3918680332
 20
136.9496027692
 11
575.14022355
 21
135.0003960331
  0
LINE
  5
34E
100
AcDbEntity
  8
03___PRT_ALL_CURVES
100
AcDbLine
 62
40
  6
CONTINUOUS
 10
575.5372105483
 20
135.6062404522
 11
574.5856532689
 21
138.1001128906
  0
LINE
  5
34F
100
AcDbEntity
  8
03___PRT_ALL_CURVES
100
AcDbLine
 62
40
  6
CONTINUOUS
 10
587.1389240789
 20
129.2591355817
 11
587.3145162894
 21
128.7911408919
  0
LINE
  5
350
100
AcDbEntity
  8
03___PRT_ALL_CURVES
100
AcDbLine
 62
40
  6
CONTINUOUS
 10
575.3388153206
 20
130.0208461935
 11
575.3140859945
 21
130.0894574233
  0
LINE
  5
351
100
AcDbEntity
  8
03___PRT_ALL_CURVES
100
AcDbLine
 62
40
  6
CONTINUOUS
 10
586.7335439996
 20
130.4221352219
 11
587.0360772127
 21
129.5611412647
  0
LINE
  5
352
100
AcDbEntity
  8
03___PRT_ALL_CURVES
100
AcDbLine
 62
40
  6
CONTINUOUS
 10
569.8244770619
 20
130.8121307967
 11
570.3105262053
 21
129.2661334319
  0
LINE
  5
353
100
AcDbEntity
  8
03___PRT_ALL_CURVES
100
AcDbLine
 62
40
  6
CONTINUOUS
 10
583.6893607354
 20
130.4949774597
 11
583.7026135871
 21
130.4511493855
  0
LINE
  5
354
100
AcDbEntity
  8
03___PRT_ALL_CURVES
100
AcDbLine
 62
40
  6
CONTINUOUS
 10
575.7390492886
 20
130.1988930347
 11
575.7694737881
 21
130.0793159239
  0
LINE
  5
355
100
AcDbEntity
  8
03___PRT_ALL_CURVES
100
AcDbLine
 62
40
  6
CONTINUOUS
 10
575.3570850926
 20
129.947422596
 11
575.3388153206
 21
130.0208461935
  0
LINE
  5
356
100
AcDbEntity
  8
03___PRT_ALL_CURVES
100
AcDbLine
 62
40
  6
CONTINUOUS
 10
575.762454406
 20
130.1124749674
 11
575.7514623982
 21
130.1566690829
  0
LINE
  5
357
100
AcDbEntity
  8
03___PRT_ALL_CURVES
100
AcDbLine
 62
40
  6
CONTINUOUS
 10
575.7882280266
 20
129.9469058326
 11
575.7827051079
 21
129.9975379701
  0
LINE
  5
358
100
AcDbEntity
  8
03___PRT_ALL_CURVES
100
AcDbLine
 62
40
  6
CONTINUOUS
 10
560.4218760395
 20
138.7927874497
 11
560.4218760395
 21
134.1554493422
  0
LINE
  5
359
100
AcDbEntity
  8
03___PRT_ALL_CURVES
100
AcDbLine
 62
40
  6
CONTINUOUS
 10
560.7464304231
 20
134.1554493422
 11
560.7464304231
 21
138.7927874497
  0
LINE
  5
35A
100
AcDbEntity
  8
03___PRT_ALL_CURVES
100
AcDbLine
 62
40
  6
CONTINUOUS
 10
563.6853773073
 20
138.1001128906
 11
563.6853773073
 21
137.7233513291
  0
LINE
  5
35B
100
AcDbEntity
  8
03___PRT_ALL_CURVES
100
AcDbLine
 62
40
  6
CONTINUOUS
 10
564.6985439372
 20
137.4439560826
 11
564.6985439372
 21
134.7101775224
  0
LINE
  5
35C
100
AcDbEntity
  8
03___PRT_ALL_CURVES
100
AcDbLine
 62
40
  6
CONTINUOUS
 10
565.4219657536
 20
134.4298492359
 11
565.4219657536
 21
137.4439560826
  0
LINE
  5
35D
100
AcDbEntity
  8
03___PRT_ALL_CURVES
100
AcDbLine
 62
40
  6
CONTINUOUS
 10
566.4351323836
 20
137.4439560826
 11
566.4351323836
 21
138.1001128906
  0
LINE
  5
35E
100
AcDbEntity
  8
03___PRT_ALL_CURVES
100
AcDbLine
 62
40
  6
CONTINUOUS
 10
566.8730439528
 20
138.1001128906
 11
566.8730439528
 21
134.7101775224
  0
LINE
  5
35F
100
AcDbEntity
  8
03___PRT_ALL_CURVES
100
AcDbLine
 62
40
  6
CONTINUOUS
 10
597.3368437863
 20
134.4298492359
 11
595.9219818945
 21
138.1001128906
  0
LINE
  5
360
100
AcDbEntity
  8
03___PRT_ALL_CURVES
100
AcDbLine
 62
40
  6
CONTINUOUS
 10
596.3076719313
 20
135.239340406
 11
596.5122660768
 21
134.679616873
  0
LINE
  5
361
100
AcDbEntity
  8
03___PRT_ALL_CURVES
100
AcDbLine
 62
40
  6
CONTINUOUS
 10
595.5649720725
 20
137.3113208547
 11
596.0786034283
 21
135.8804537379
  0
LINE
  5
362
100
AcDbEntity
  8
03___PRT_ALL_CURVES
100
AcDbLine
 62
40
  6
CONTINUOUS
 10
583.7026135871
 20
130.4511493855
 11
583.7123782796
 21
130.4038223863
  0
LINE
  5
363
100
AcDbEntity
  8
03___PRT_ALL_CURVES
100
AcDbLine
 62
40
  6
CONTINUOUS
 10
575.7694737881
 20
130.0793159239
 11
575.7803581366
 21
130.0149141704
  0
LINE
  5
364
100
AcDbEntity
  8
03___PRT_ALL_CURVES
100
AcDbLine
 62
40
  6
CONTINUOUS
 10
577.7013609969
 20
134.4298492359
 11
577.1308141997
 21
138.1001128906
  0
LINE
  5
365
100
AcDbEntity
  8
03___PRT_ALL_CURVES
100
AcDbLine
 62
40
  6
CONTINUOUS
 10
575.7827051079
 20
129.9975379701
 11
575.775524237
 21
130.0461138163
  0
LINE
  5
366
100
AcDbEntity
  8
03___PRT_ALL_CURVES
100
AcDbLine
 62
40
  6
CONTINUOUS
 10
575.368410844
 20
129.8691543329
 11
575.3570850926
 21
129.947422596
  0
LINE
  5
367
100
AcDbEntity
  8
03___PRT_ALL_CURVES
100
AcDbLine
 62
40
  6
CONTINUOUS
 10
576.6519780596
 20
136.9096255928
 11
576.9473641766
 21
134.6993686126
  0
LINE
  5
368
100
AcDbEntity
  8
03___PRT_ALL_CURVES
100
AcDbLine
 62
40
  6
CONTINUOUS
 10
575.7803581366
 20
130.0149141704
 11
575.7882280266
 21
129.9469058326
  0
LINE
  5
369
100
AcDbEntity
  8
03___PRT_ALL_CURVES
100
AcDbLine
 62
40
  6
CONTINUOUS
 10
575.7920714613
 20
129.8939482559
 11
575.7882280266
 21
129.9469058326
  0
LINE
  5
36A
100
AcDbEntity
  8
03___PRT_ALL_CURVES
100
AcDbLine
 62
40
  6
CONTINUOUS
 10
575.7882280266
 20
129.9469058326
 11
575.7930080966
 21
129.8750863583
  0
LINE
  5
36B
100
AcDbEntity
  8
03___PRT_ALL_CURVES
100
AcDbLine
 62
40
  6
CONTINUOUS
 10
575.7942246459
 20
129.8381484757
 11
575.7920714613
 21
129.8939482559
  0
LINE
  5
36C
100
AcDbEntity
  8
03___PRT_ALL_CURVES
100
AcDbLine
 62
40
  6
CONTINUOUS
 10
567.5602494619
 20
134.4298492359
 11
567.5602494619
 21
135.7845085145
  0
LINE
  5
36D
100
AcDbEntity
  8
03___PRT_ALL_CURVES
100
AcDbLine
 62
40
  6
CONTINUOUS
 10
567.5602494619
 20
136.4096166214
 11
567.5602494619
 21
137.4693634802
  0
LINE
  5
36E
100
AcDbEntity
  8
03___PRT_ALL_CURVES
100
AcDbLine
 62
40
  6
CONTINUOUS
 10
569.1864776758
 20
128.791130126
 11
569.1864776758
 21
130.8121307967
  0
LINE
  5
36F
100
AcDbEntity
  8
03___PRT_ALL_CURVES
100
AcDbLine
 62
40
  6
CONTINUOUS
 10
569.5584833926
 20
128.791130126
 11
569.5584833926
 21
130.3571413425
  0
LINE
  5
370
100
AcDbEntity
  8
03___PRT_ALL_CURVES
100
AcDbLine
 62
40
  6
CONTINUOUS
 10
571.0814739792
 20
128.791130126
 11
571.0814739792
 21
130.3571413425
  0
LINE
  5
371
100
AcDbEntity
  8
03___PRT_ALL_CURVES
100
AcDbLine
 62
40
  6
CONTINUOUS
 10
571.453479696
 20
130.8121307967
 11
571.453479696
 21
128.791130126
  0
LINE
  5
372
100
AcDbEntity
  8
03___PRT_ALL_CURVES
100
AcDbLine
 62
40
  6
CONTINUOUS
 10
574.0389269644
 20
128.7711270403
 11
574.0389269644
 21
130.8311326516
  0
LINE
  5
373
100
AcDbEntity
  8
03___PRT_ALL_CURVES
100
AcDbLine
 62
40
  6
CONTINUOUS
 10
574.4679274797
 20
130.4996391045
 11
574.4679274797
 21
129.0726374908
  0
LINE
  5
374
100
AcDbEntity
  8
03___PRT_ALL_CURVES
100
AcDbLine
 62
40
  6
CONTINUOUS
 10
576.1699230745
 20
128.791130126
 11
576.1699230745
 21
130.8121307967
  0
LINE
  5
375
100
AcDbEntity
  8
03___PRT_ALL_CURVES
100
AcDbLine
 62
40
  6
CONTINUOUS
 10
576.5599294153
 20
130.5101358797
 11
576.5599294153
 21
129.9456354526
  0
LINE
  5
376
100
AcDbEntity
  8
03___PRT_ALL_CURVES
100
AcDbLine
 62
40
  6
CONTINUOUS
 10
576.5599294153
 20
129.6436405356
 11
576.5599294153
 21
129.0931358089
  0
LINE
  5
377
100
AcDbEntity
  8
03___PRT_ALL_CURVES
100
AcDbLine
 62
40
  6
CONTINUOUS
 10
577.287921155
 20
129.9456354526
 11
577.287921155
 21
129.6436405356
  0
LINE
  5
378
100
AcDbEntity
  8
03___PRT_ALL_CURVES
100
AcDbLine
 62
40
  6
CONTINUOUS
 10
577.3549282622
 20
130.8121307967
 11
577.3549282622
 21
130.5101358797
  0
LINE
  5
379
100
AcDbEntity
  8
03___PRT_ALL_CURVES
100
AcDbLine
 62
40
  6
CONTINUOUS
 10
577.3609248815
 20
129.0931358089
 11
577.3609248815
 21
128.791130126
  0
LINE
  5
37A
100
AcDbEntity
  8
03___PRT_ALL_CURVES
100
AcDbLine
 62
40
  6
CONTINUOUS
 10
578.5744705322
 20
128.791130126
 11
578.5744705322
 21
130.8121415626
  0
LINE
  5
37B
100
AcDbEntity
  8
03___PRT_ALL_CURVES
100
AcDbLine
 62
40
  6
CONTINUOUS
 10
578.9644768729
 20
130.8121307967
 11
578.9644768729
 21
128.791130126
  0
LINE
  5
37C
100
AcDbEntity
  8
03___PRT_ALL_CURVES
100
AcDbLine
 62
40
  6
CONTINUOUS
 10
579.4025207639
 20
128.791130126
 11
579.4025207639
 21
130.8121415626
  0
LINE
  5
37D
100
AcDbEntity
  8
03___PRT_ALL_CURVES
100
AcDbLine
 62
40
  6
CONTINUOUS
 10
579.7745264807
 20
130.2721336114
 11
579.7745264807
 21
128.791130126
  0
LINE
  5
37E
100
AcDbEntity
  8
03___PRT_ALL_CURVES
100
AcDbLine
 62
40
  6
CONTINUOUS
 10
580.6895223098
 20
130.8121415626
 11
580.6895223098
 21
129.3269178352
  0
LINE
  5
37F
100
AcDbEntity
  8
03___PRT_ALL_CURVES
100
AcDbLine
 62
40
  6
CONTINUOUS
 10
581.0615172607
 20
130.8121307967
 11
581.0615172607
 21
128.791130126
  0
LINE
  5
380
100
AcDbEntity
  8
03___PRT_ALL_CURVES
100
AcDbLine
 62
40
  6
CONTINUOUS
 10
582.1703212662
 20
138.1001128908
 11
582.1703212662
 21
134.7101775226
  0
LINE
  5
381
100
AcDbEntity
  8
03___PRT_ALL_CURVES
100
AcDbLine
 62
40
  6
CONTINUOUS
 10
582.3295169518
 20
128.7711270403
 11
582.3295169518
 21
130.8311326516
  0
LINE
  5
382
100
AcDbEntity
  8
03___PRT_ALL_CURVES
100
AcDbLine
 62
40
  6
CONTINUOUS
 10
575.368410844
 20
129.7031222624
 11
575.3722865764
 21
129.7861382976
  0
LINE
  5
383
100
AcDbEntity
  8
03___PRT_ALL_CURVES
100
AcDbLine
 62
40
  6
CONTINUOUS
 10
583.7123782796
 20
130.4038223863
 11
583.7184287286
 21
130.3528672709
  0
LINE
  5
384
100
AcDbEntity
  8
03___PRT_ALL_CURVES
100
AcDbLine
 62
40
  6
CONTINUOUS
 10
582.7585174671
 20
129.6436405356
 11
582.7585174671
 21
129.0726374908
  0
LINE
  5
385
100
AcDbEntity
  8
03___PRT_ALL_CURVES
100
AcDbLine
 62
40
  6
CONTINUOUS
 10
582.7585174671
 20
130.4996391045
 11
582.7585174671
 21
130.0156354866
  0
LINE
  5
386
100
AcDbEntity
  8
03___PRT_ALL_CURVES
100
AcDbLine
 62
40
  6
CONTINUOUS
 10
582.8377750357
 20
134.4298492361
 11
582.8377750357
 21
136.9801777733
  0
LINE
  5
387
100
AcDbEntity
  8
03___PRT_ALL_CURVES
100
AcDbLine
 62
40
  6
CONTINUOUS
 10
584.0815202609
 20
130.8311326516
 11
584.0815202609
 21
128.7806333507
  0
LINE
  5
388
100
AcDbEntity
  8
03___PRT_ALL_CURVES
100
AcDbLine
 62
40
  6
CONTINUOUS
 10
584.5105207762
 20
130.4996391045
 11
584.5105207762
 21
129.9696326959
  0
LINE
  5
389
100
AcDbEntity
  8
03___PRT_ALL_CURVES
100
AcDbLine
 62
40
  6
CONTINUOUS
 10
584.5105207762
 20
129.6286328384
 11
584.5105207762
 21
128.7806333507
  0
LINE
  5
38A
100
AcDbEntity
  8
03___PRT_ALL_CURVES
100
AcDbLine
 62
40
  6
CONTINUOUS
 10
584.5936558789
 20
138.1001128908
 11
584.5936558789
 21
135.5041658738
  0
LINE
  5
38B
100
AcDbEntity
  8
03___PRT_ALL_CURVES
100
AcDbLine
 62
40
  6
CONTINUOUS
 10
585.2611096484
 20
134.4298492361
 11
585.2611096484
 21
138.1001128908
  0
LINE
  5
38C
100
AcDbEntity
  8
03___PRT_ALL_CURVES
100
AcDbLine
 62
40
  6
CONTINUOUS
 10
585.6990212176
 20
138.1001128906
 11
585.6990212176
 21
137.7233513291
  0
LINE
  5
38D
100
AcDbEntity
  8
03___PRT_ALL_CURVES
100
AcDbLine
 62
40
  6
CONTINUOUS
 10
586.7117141503
 20
137.4439560826
 11
586.7117141503
 21
134.7101775224
  0
LINE
  5
38E
100
AcDbEntity
  8
03___PRT_ALL_CURVES
100
AcDbLine
 62
40
  6
CONTINUOUS
 10
587.4351503212
 20
134.4298492359
 11
587.4351503212
 21
137.4439560826
  0
LINE
  5
38F
100
AcDbEntity
  8
03___PRT_ALL_CURVES
100
AcDbLine
 62
40
  6
CONTINUOUS
 10
587.9035199581
 20
128.791130126
 11
587.9035199581
 21
129.1111364328
  0
LINE
  5
390
100
AcDbEntity
  8
03___PRT_ALL_CURVES
100
AcDbLine
 62
40
  6
CONTINUOUS
 10
587.9425248986
 20
130.8121415626
 11
587.9425248986
 21
130.5101358797
  0
LINE
  5
391
100
AcDbEntity
  8
03___PRT_ALL_CURVES
100
AcDbLine
 62
40
  6
CONTINUOUS
 10
588.4483169511
 20
137.4439560826
 11
588.4483169511
 21
138.1001128906
  0
LINE
  5
392
100
AcDbEntity
  8
03___PRT_ALL_CURVES
100
AcDbLine
 62
40
  6
CONTINUOUS
 10
588.9168035242
 20
138.1001128906
 11
588.9168035242
 21
134.7101775224
  0
LINE
  5
393
100
AcDbEntity
  8
03___PRT_ALL_CURVES
100
AcDbLine
 62
40
  6
CONTINUOUS
 10
589.2795233927
 20
130.8121307967
 11
589.2795233927
 21
130.4921352558
  0
LINE
  5
394
100
AcDbEntity
  8
03___PRT_ALL_CURVES
100
AcDbLine
 62
40
  6
CONTINUOUS
 10
589.2995264784
 20
129.0931358089
 11
589.2995264784
 21
128.791130126
  0
LINE
  5
395
100
AcDbEntity
  8
03___PRT_ALL_CURVES
100
AcDbLine
 62
40
  6
CONTINUOUS
 10
589.6275211004
 20
128.791130126
 11
589.6275211004
 21
130.8121415626
  0
LINE
  5
396
100
AcDbEntity
  8
03___PRT_ALL_CURVES
100
AcDbLine
 62
40
  6
CONTINUOUS
 10
589.6388186034
 20
134.4298492359
 11
589.6388186034
 21
138.1001128906
  0
LINE
  5
397
100
AcDbEntity
  8
03___PRT_ALL_CURVES
100
AcDbLine
 62
40
  6
CONTINUOUS
 10
590.0175166753
 20
130.8121307967
 11
590.0175166753
 21
128.791130126
  0
LINE
  5
398
100
AcDbEntity
  8
03___PRT_ALL_CURVES
100
AcDbLine
 62
40
  6
CONTINUOUS
 10
590.3368330223
 20
138.1001128906
 11
590.3368330223
 21
134.7101775224
  0
LINE
  5
399
100
AcDbEntity
  8
03___PRT_ALL_CURVES
100
AcDbLine
 62
40
  6
CONTINUOUS
 10
590.4755205882
 20
128.791130126
 11
590.4755205882
 21
130.8121415626
  0
LINE
  5
39A
100
AcDbEntity
  8
03___PRT_ALL_CURVES
100
AcDbLine
 62
40
  6
CONTINUOUS
 10
590.8655269289
 20
129.0931358089
 11
590.8655269289
 21
130.8121415626
  0
LINE
  5
39B
100
AcDbEntity
  8
03___PRT_ALL_CURVES
100
AcDbLine
 62
40
  6
CONTINUOUS
 10
591.0028800544
 20
134.4298492359
 11
591.0028800544
 21
136.9801777731
  0
LINE
  5
39C
100
AcDbEntity
  8
03___PRT_ALL_CURVES
100
AcDbLine
 62
40
  6
CONTINUOUS
 10
591.6575220831
 20
129.0931358089
 11
591.6575220831
 21
128.791130126
  0
LINE
  5
39D
100
AcDbEntity
  8
03___PRT_ALL_CURVES
100
AcDbLine
 62
40
  6
CONTINUOUS
 10
592.7596939376
 20
138.1001128906
 11
592.7596939376
 21
135.5041658736
  0
LINE
  5
39E
100
AcDbEntity
  8
03___PRT_ALL_CURVES
100
AcDbLine
 62
40
  6
CONTINUOUS
 10
593.4271477071
 20
134.4298492359
 11
593.4271477071
 21
138.1001128906
  0
LINE
  5
39F
100
AcDbEntity
  8
03___PRT_ALL_CURVES
100
AcDbLine
 62
40
  6
CONTINUOUS
 10
583.7791162387
 20
129.3174438228
 11
583.7721399204
 21
129.2586618811
  0
LINE
  5
3A0
100
AcDbEntity
  8
03___PRT_ALL_CURVES
100
AcDbLine
 62
40
  6
CONTINUOUS
 10
574.0611986488
 20
134.4298492359
 11
574.3918680332
 21
136.9496027692
  0
LINE
  5
3A1
100
AcDbEntity
  8
03___PRT_ALL_CURVES
100
AcDbLine
 62
40
  6
CONTINUOUS
 10
575.3570850926
 20
129.6248539993
 11
575.368410844
 21
129.7031222624
  0
LINE
  5
3A2
100
AcDbEntity
  8
03___PRT_ALL_CURVES
100
AcDbLine
 62
40
  6
CONTINUOUS
 10
575.775524237
 20
129.5561135785
 11
575.7827051079
 21
129.6047001907
  0
LINE
  5
3A3
100
AcDbEntity
  8
03___PRT_ALL_CURVES
100
AcDbLine
 62
40
  6
CONTINUOUS
 10
573.9388986334
 20
138.1001128906
 11
573.368811179
 21
134.4298492359
  0
LINE
  5
3A4
100
AcDbEntity
  8
03___PRT_ALL_CURVES
100
AcDbLine
 62
40
  6
CONTINUOUS
 10
600.0973216456
 20
138.7927874497
 11
600.0973216456
 21
134.1554493422
  0
LINE
  5
3A5
100
AcDbEntity
  8
03___PRT_ALL_CURVES
100
AcDbLine
 62
40
  6
CONTINUOUS
 10
600.4218760292
 20
134.1554493422
 11
600.4218760292
 21
138.7927874497
  0
LINE
  5
3A6
100
AcDbEntity
  8
03___PRT_ALL_CURVES
100
AcDbLine
 62
40
  6
CONTINUOUS
 10
583.7184071967
 20
130.2464353522
 11
583.7120660678
 21
130.1967721476
  0
LINE
  5
3A7
100
AcDbEntity
  8
03___PRT_ALL_CURVES
100
AcDbLine
 62
40
  6
CONTINUOUS
 10
585.502557553
 20
130.2327087999
 11
585.4967116566
 21
130.1879656223
  0
LINE
  5
3A8
100
AcDbEntity
  8
03___PRT_ALL_CURVES
100
AcDbLine
 62
40
  6
CONTINUOUS
 10
583.7721399204
 20
129.2586618811
 11
583.7608679986
 21
129.2041324791
  0
LINE
  5
3A9
100
AcDbEntity
  8
03___PRT_ALL_CURVES
100
AcDbLine
 62
40
  6
CONTINUOUS
 10
583.7120660678
 20
130.1967721476
 11
583.7016015903
 21
130.1492728936
  0
LINE
  5
3AA
100
AcDbEntity
  8
03___PRT_ALL_CURVES
100
AcDbLine
 62
40
  6
CONTINUOUS
 10
575.7514623982
 20
129.4455367793
 11
575.762454406
 21
129.4897416608
  0
LINE
  5
3AB
100
AcDbEntity
  8
03___PRT_ALL_CURVES
100
AcDbLine
 62
40
  6
CONTINUOUS
 10
575.3388153206
 20
129.5514304018
 11
575.3570850926
 21
129.6248539993
  0
LINE
  5
3AC
100
AcDbEntity
  8
03___PRT_ALL_CURVES
100
AcDbLine
 62
40
  6
CONTINUOUS
 10
570.8154803099
 20
130.8121415626
 11
570.3302493768
 21
129.2661334319
  0
LINE
  5
3AD
100
AcDbEntity
  8
03___PRT_ALL_CURVES
100
AcDbLine
 62
40
  6
CONTINUOUS
 10
571.0256419005
 20
130.3571413425
 11
570.5089637051
 21
128.791130126
  0
LINE
  5
3AE
100
AcDbEntity
  8
03___PRT_ALL_CURVES
100
AcDbLine
 62
40
  6
CONTINUOUS
 10
572.7354212584
 20
130.4221459878
 11
572.433480171
 21
129.5611412647
  0
LINE
  5
3AF
100
AcDbEntity
  8
03___PRT_ALL_CURVES
100
AcDbLine
 62
40
  6
CONTINUOUS
 10
570.3697621629
 20
134.4298492359
 11
570.6547987128
 21
135.239340406
  0
LINE
  5
3B0
100
AcDbEntity
  8
03___PRT_ALL_CURVES
100
AcDbLine
 62
40
  6
CONTINUOUS
 10
570.8843409131
 20
135.8804537379
 11
571.3979866233
 21
137.3113208547
  0
LINE
  5
3B1
100
AcDbEntity
  8
03___PRT_ALL_CURVES
100
AcDbLine
 62
40
  6
CONTINUOUS
 10
572.3222143524
 20
129.2591355817
 11
572.1439198953
 21
128.791130126
  0
LINE
  5
3B2
100
AcDbEntity
  8
03___PRT_ALL_CURVES
100
AcDbLine
 62
40
  6
CONTINUOUS
 10
571.0574270147
 20
138.1001128906
 11
569.6519816501
 21
134.4298492359
  0
LINE
  5
3B3
100
AcDbEntity
  8
03___PRT_ALL_CURVES
100
AcDbLine
 62
40
  6
CONTINUOUS
 10
583.7608679986
 20
129.2041324791
 11
583.7455911533
 21
129.153694128
  0
LINE
  5
3B4
100
AcDbEntity
  8
03___PRT_ALL_CURVES
100
AcDbLine
 62
40
  6
CONTINUOUS
 10
583.7016015903
 20
130.1492728936
 11
583.6871321893
 21
130.1040237176
  0
LINE
  5
3B5
100
AcDbEntity
  8
03___PRT_ALL_CURVES
100
AcDbLine
 62
40
  6
CONTINUOUS
 10
586.7138208278
 20
130.4221459878
 11
586.4118797404
 21
129.5611412647
  0
LINE
  5
3B6
100
AcDbEntity
  8
03___PRT_ALL_CURVES
100
AcDbLine
 62
40
  6
CONTINUOUS
 10
575.3140859945
 20
129.482819172
 11
575.3388153206
 21
129.5514304018
  0
LINE
  5
3B7
100
AcDbEntity
  8
03___PRT_ALL_CURVES
100
AcDbLine
 62
40
  6
CONTINUOUS
 10
575.827429059
 20
134.7351112227
 11
576.6519780596
 21
136.9096255928
  0
LINE
  5
3B8
100
AcDbEntity
  8
03___PRT_ALL_CURVES
100
AcDbLine
 62
40
  6
CONTINUOUS
 10
586.2979224413
 20
129.2591355817
 11
586.1196279842
 21
128.791130126
  0
LINE
  5
3B9
100
AcDbEntity
  8
03___PRT_ALL_CURVES
100
AcDbLine
 62
40
  6
CONTINUOUS
 10
576.4897008678
 20
138.1001128906
 11
575.5372105483
 21
135.6062404522
  0
LINE
  5
3BA
100
AcDbEntity
  8
03___PRT_ALL_CURVES
100
AcDbLine
 62
40
  6
CONTINUOUS
 10
575.7390492886
 20
129.4033128278
 11
575.6976220153
 21
129.2959981034
  0
LINE
  5
3BB
100
AcDbEntity
  8
03___PRT_ALL_CURVES
100
AcDbLine
 62
40
  6
CONTINUOUS
 10
571.740919085
 20
128.791130126
 11
572.5283494877
 21
130.8121415626
  0
LINE
  5
3BC
100
AcDbEntity
  8
03___PRT_ALL_CURVES
100
AcDbLine
 62
40
  6
CONTINUOUS
 10
585.7166271739
 20
128.791130126
 11
586.5040575766
 21
130.8121415626
  0
LINE
  5
3BD
100
AcDbEntity
  8
03___PRT_ALL_CURVES
100
AcDbLine
 62
40
  6
CONTINUOUS
 10
583.7455911533
 20
129.153694128
 11
583.7266215963
 21
129.1072176367
  0
LINE
  5
3BE
100
AcDbEntity
  8
03___PRT_ALL_CURVES
100
AcDbLine
 62
40
  6
CONTINUOUS
 10
583.6871321893
 20
130.1040237176
 11
583.668754758
 21
130.0611645766
  0
LINE
  5
3BF
100
AcDbEntity
  8
03___PRT_ALL_CURVES
100
AcDbLine
 62
40
  6
CONTINUOUS
 10
575.2833708151
 20
129.4192140966
 11
575.3140859945
 21
129.482819172
  0
LINE
  5
3C0
100
AcDbEntity
  8
03___PRT_ALL_CURVES
100
AcDbLine
 62
40
  6
CONTINUOUS
 10
594.5367476121
 20
134.4298492359
 11
594.8222578593
 21
135.239340406
  0
LINE
  5
3C1
100
AcDbEntity
  8
03___PRT_ALL_CURVES
100
AcDbLine
 62
40
  6
CONTINUOUS
 10
595.0508526651
 20
135.8804537379
 11
595.5649720725
 21
137.3113208547
  0
LINE
  5
3C2
100
AcDbEntity
  8
03___PRT_ALL_CURVES
100
AcDbLine
 62
40
  6
CONTINUOUS
 10
595.2239531211
 20
138.1001128906
 11
593.8184934019
 21
134.4298492359
  0
LINE
  5
3C3
100
AcDbEntity
  8
03___PRT_ALL_CURVES
100
AcDbLine
 62
40
  6
CONTINUOUS
 10
575.6976220153
 20
129.2959981034
 11
575.6458809875
 21
129.2004720651
  0
LINE
  5
3C4
100
AcDbEntity
  8
03___PRT_ALL_CURVES
100
AcDbLine
 62
40
  6
CONTINUOUS
 10
583.668754758
 20
130.0611645766
 11
583.6465877218
 21
130.0208031298
  0
LINE
  5
3C5
100
AcDbEntity
  8
03___PRT_ALL_CURVES
100
AcDbLine
 62
40
  6
CONTINUOUS
 10
575.2471434829
 20
129.3606797711
 11
575.2833708151
 21
129.4192140966
  0
LINE
  5
3C6
100
AcDbEntity
  8
03___PRT_ALL_CURVES
100
AcDbLine
 62
40
  6
CONTINUOUS
 10
575.6458809875
 20
129.2004720651
 11
575.584547522
 21
129.1161964168
  0
LINE
  5
3C7
100
AcDbEntity
  8
03___PRT_ALL_CURVES
100
AcDbLine
 62
40
  6
CONTINUOUS
 10
583.7042500075
 20
129.0645307505
 11
583.6733087436
 21
129.0180973229
  0
LINE
  5
3C8
100
AcDbEntity
  8
03___PRT_ALL_CURVES
100
AcDbLine
 62
40
  6
CONTINUOUS
 10
588.8725176589
 20
130.5101358797
 11
587.9035199581
 21
129.1111364328
  0
LINE
  5
3C9
100
AcDbEntity
  8
03___PRT_ALL_CURVES
100
AcDbLine
 62
40
  6
CONTINUOUS
 10
589.2795233927
 20
130.4921352558
 11
588.3025266109
 21
129.0931358089
  0
LINE
  5
3CA
100
AcDbEntity
  8
03___PRT_ALL_CURVES
100
AcDbLine
 62
40
  6
CONTINUOUS
 10
575.2058884644
 20
129.3072700252
 11
575.2471434829
 21
129.3606797711
  0
LINE
  5
3CB
100
AcDbEntity
  8
03___PRT_ALL_CURVES
100
AcDbLine
 62
40
  6
CONTINUOUS
 10
583.6207279738
 20
129.9830578024
 11
583.5912939392
 21
129.9480362536
  0
LINE
  5
3CC
100
AcDbEntity
  8
03___PRT_ALL_CURVES
100
AcDbLine
 62
40
  6
CONTINUOUS
 10
583.6733087436
 20
129.0180973229
 11
583.6383840881
 21
128.9766485178
  0
LINE
  5
3CD
100
AcDbEntity
  8
03___PRT_ALL_CURVES
100
AcDbLine
 62
40
  6
CONTINUOUS
 10
575.1600686945
 20
129.2590602202
 11
575.2058884644
 21
129.3072700252
  0
LINE
  5
3CE
100
AcDbEntity
  8
03___PRT_ALL_CURVES
100
AcDbLine
 62
40
  6
CONTINUOUS
 10
575.584547522
 20
129.1161964168
 11
575.5143644674
 21
129.042675926
  0
LINE
  5
3CF
100
AcDbEntity
  8
03___PRT_ALL_CURVES
100
AcDbLine
 62
40
  6
CONTINUOUS
 10
583.5912939392
 20
129.9480362536
 11
583.5583825114
 21
129.9158569086
  0
LINE
  5
3D0
100
AcDbEntity
  8
03___PRT_ALL_CURVES
100
AcDbLine
 62
40
  6
CONTINUOUS
 10
583.6383840881
 20
128.9766485178
 11
583.5999928053
 21
128.9399151872
  0
LINE
  5
3D1
100
AcDbEntity
  8
03___PRT_ALL_CURVES
100
AcDbLine
 62
40
  6
CONTINUOUS
 10
575.09268478
 20
129.2030666527
 11
575.1600686945
 21
129.2590602202
  0
LINE
  5
3D2
100
AcDbEntity
  8
03___PRT_ALL_CURVES
100
AcDbLine
 62
40
  6
CONTINUOUS
 10
575.5143644674
 20
129.042675926
 11
575.4360854384
 21
128.9793830624
  0
LINE
  5
3D3
100
AcDbEntity
  8
03___PRT_ALL_CURVES
100
AcDbLine
 62
40
  6
CONTINUOUS
 10
583.5583825114
 20
129.9158569086
 11
583.5221121155
 21
129.8866381925
  0
LINE
  5
3D4
100
AcDbEntity
  8
03___PRT_ALL_CURVES
100
AcDbLine
 62
40
  6
CONTINUOUS
 10
583.5999928053
 20
128.9399151872
 11
583.5586301277
 21
128.9076389489
  0
LINE
  5
3D5
100
AcDbEntity
  8
03___PRT_ALL_CURVES
100
AcDbLine
 62
40
  6
CONTINUOUS
 10
575.0191427573
 20
129.1567301184
 11
575.09268478
 21
129.2030666527
  0
LINE
  5
3D6
100
AcDbEntity
  8
03___PRT_ALL_CURVES
100
AcDbLine
 62
40
  6
CONTINUOUS
 10
575.4360854384
 20
128.9793830624
 11
575.3504640497
 21
128.925747232
  0
LINE
  5
3D7
100
AcDbEntity
  8
03___PRT_ALL_CURVES
100
AcDbLine
 62
40
  6
CONTINUOUS
 10
583.5221121155
 20
129.8866381925
 11
583.4825796448
 21
129.8604877646
  0
LINE
  5
3D8
100
AcDbEntity
  8
03___PRT_ALL_CURVES
100
AcDbLine
 62
40
  6
CONTINUOUS
 10
583.5586301277
 20
128.9076389489
 11
583.5148020535
 21
128.8795506548
  0
LINE
  5
3D9
100
AcDbEntity
  8
03___PRT_ALL_CURVES
100
AcDbLine
 62
40
  6
CONTINUOUS
 10
583.4825796448
 20
129.8604877646
 11
583.4399035245
 21
129.8375348159
  0
LINE
  5
3DA
100
AcDbEntity
  8
03___PRT_ALL_CURVES
100
AcDbLine
 62
40
  6
CONTINUOUS
 10
583.5148020535
 20
128.8795506548
 11
583.4573227886
 21
128.8499335995
  0
LINE
  5
3DB
100
AcDbEntity
  8
03___PRT_ALL_CURVES
100
AcDbLine
 62
40
  6
CONTINUOUS
 10
575.3504640497
 20
128.925747232
 11
575.2582646817
 21
128.8811870751
  0
LINE
  5
3DC
100
AcDbEntity
  8
03___PRT_ALL_CURVES
100
AcDbLine
 62
40
  6
CONTINUOUS
 10
574.9405622825
 20
129.1202874677
 11
575.0191427573
 21
129.1567301184
  0
LINE
  5
3DD
100
AcDbEntity
  8
03___PRT_ALL_CURVES
100
AcDbLine
 62
40
  6
CONTINUOUS
 10
583.4399035245
 20
129.8375348159
 11
583.3941806479
 21
129.8178762398
  0
LINE
  5
3DE
100
AcDbEntity
  8
03___PRT_ALL_CURVES
100
AcDbLine
 62
40
  6
CONTINUOUS
 10
583.4573227886
 20
128.8499335995
 11
583.3977872322
 21
128.8259363563
  0
LINE
  5
3DF
100
AcDbEntity
  8
03___PRT_ALL_CURVES
100
AcDbLine
 62
40
  6
CONTINUOUS
 10
575.2163744738
 20
128.8645214257
 11
575.2582646817
 21
128.8811870751
  0
LINE
  5
3E0
100
AcDbEntity
  8
03___PRT_ALL_CURVES
100
AcDbLine
 62
40
  6
CONTINUOUS
 10
575.2582646817
 20
128.8811870751
 11
575.1602194174
 21
128.8451104658
  0
LINE
  5
3E1
100
AcDbEntity
  8
03___PRT_ALL_CURVES
100
AcDbLine
 62
40
  6
CONTINUOUS
 10
575.1724387405
 20
128.8490723257
 11
575.2163744738
 21
128.8645214257
  0
LINE
  5
3E2
100
AcDbEntity
  8
03___PRT_ALL_CURVES
100
AcDbLine
 62
40
  6
CONTINUOUS
 10
583.3941806479
 20
129.8178762398
 11
583.3455186741
 21
129.8016412273
  0
LINE
  5
3E3
100
AcDbEntity
  8
03___PRT_ALL_CURVES
100
AcDbLine
 62
40
  6
CONTINUOUS
 10
574.8580737774
 20
129.093975551
 11
574.9405622825
 21
129.1202874677
  0
LINE
  5
3E4
100
AcDbEntity
  8
03___PRT_ALL_CURVES
100
AcDbLine
 62
40
  6
CONTINUOUS
 10
575.1263605884
 20
128.8348720727
 11
575.1724387405
 21
128.8490723257
  0
LINE
  5
3E5
100
AcDbEntity
  8
03___PRT_ALL_CURVES
100
AcDbLine
 62
40
  6
CONTINUOUS
 10
583.3977872322
 20
128.8259363563
 11
583.3371643176
 21
128.8070529267
  0
ARC
  5
3E6
100
AcDbEntity
  8
0
100
AcDbCircle
 62
7
  6
CONTINUOUS
 10
481.8036574327
 20
504.3417408663
 40
7.0
100
AcDbArc
 50
183.0
 51
268.2130412157
  0
ARC
  5
3E7
100
AcDbEntity
  8
0
100
AcDbCircle
 62
7
  6
CONTINUOUS
 10
482.1760196461
 20
496.1417408663
 40
0.3
100
AcDbArc
 50
180.0
 51
270.0
  0
ARC
  5
3E8
100
AcDbEntity
  8
0
100
AcDbCircle
 62
7
  6
CONTINUOUS
 10
481.5760196461
 20
497.0452909735
 40
0.3
100
AcDbArc
 50
0.0
 51
88.2130412157
  0
ARC
  5
3E9
100
AcDbEntity
  8
0
100
AcDbCircle
 62
7
  6
CONTINUOUS
 10
439.8760196461
 20
726.3417408663
 40
2.7
100
AcDbArc
 50
180.0
 51
270.0
  0
ARC
  5
3EA
100
AcDbEntity
  8
0
100
AcDbCircle
 62
7
  6
CONTINUOUS
 10
426.2171739193
 20
728.1417408663
 40
2.2
100
AcDbArc
 50
90.0
 51
119.9999999989
  0
ARC
  5
3EB
100
AcDbEntity
  8
0
100
AcDbCircle
 62
7
  6
CONTINUOUS
 10
440.2686599542
 20
721.6417408663
 40
2.0
100
AcDbArc
 50
2.0
 51
90.0
  0
ARC
  5
3EC
100
AcDbEntity
  8
0
100
AcDbCircle
 62
7
  6
CONTINUOUS
 10
435.1760196461
 20
727.6417408663
 40
2.0
100
AcDbArc
 50
0.0
 51
5.7665597098
  0
ARC
  5
3ED
100
AcDbEntity
  8
0
100
AcDbCircle
 62
7
  6
CONTINUOUS
 10
464.6820947723
 20
678.3915780144
 40
2.0
100
AcDbArc
 50
183.0
 51
267.5
  0
ARC
  5
3EE
100
AcDbEntity
  8
0
100
AcDbCircle
 62
7
  6
CONTINUOUS
 10
465.3043675244
 20
675.8620272864
 40
0.5
100
AcDbArc
 50
3.0
 51
87.5
  0
ARC
  5
3EF
100
AcDbEntity
  8
0
100
AcDbCircle
 62
7
  6
CONTINUOUS
 10
446.3667390519
 20
710.3417408663
 40
3.7
100
AcDbArc
 50
182.0
 51
270.0
  0
ARC
  5
3F0
100
AcDbEntity
  8
0
100
AcDbCircle
 62
7
  6
CONTINUOUS
 10
452.6760196461
 20
704.6417408663
 40
2.0
100
AcDbArc
 50
0.0
 51
90.0
  0
ARC
  5
3F1
100
AcDbEntity
  8
0
100
AcDbCircle
 62
7
  6
CONTINUOUS
 10
456.3760196461
 20
703.3417408663
 40
1.7
100
AcDbArc
 50
180.0
 51
233.9681209275
  0
ARC
  5
3F2
100
AcDbEntity
  8
02___PRT_ALL_AXES
100
AcDbCircle
 62
7
  6
CONTINUOUS
 10
456.3760196461
 20
703.3417408663
 40
1.7
100
AcDbArc
 50
180.0
 51
233.9681209275
  0
ARC
  5
3F3
100
AcDbEntity
  8
0
100
AcDbCircle
 62
7
  6
CONTINUOUS
 10
678.9483818596
 20
504.3417408663
 40
7.0
100
AcDbArc
 50
271.7869587843
 51
357.0
  0
ARC
  5
3F4
100
AcDbEntity
  8
0
100
AcDbCircle
 62
7
  6
CONTINUOUS
 10
678.5760196461
 20
496.1417408663
 40
0.3
100
AcDbArc
 50
270.0
 51
360.0
  0
ARC
  5
3F5
100
AcDbEntity
  8
0
100
AcDbCircle
 62
7
  6
CONTINUOUS
 10
679.1760196461
 20
497.0452909735
 40
0.3
100
AcDbArc
 50
91.7869587842
 51
180.0
  0
ARC
  5
3F6
100
AcDbEntity
  8
02___PRT_ALL_AXES
100
AcDbCircle
 62
7
  6
CONTINUOUS
 10
580.3760196461
 20
698.2167408663
 40
33.125
100
AcDbArc
 50
75.8858365728
 51
104.1141634272
  0
ARC
  5
3F7
100
AcDbEntity
  8
0
100
AcDbCircle
 62
7
  6
CONTINUOUS
 10
696.06994452
 20
678.3915780144
 40
2.0
100
AcDbArc
 50
272.5
 51
357.0
  0
ARC
  5
3F8
100
AcDbEntity
  8
0
100
AcDbCircle
 62
7
  6
CONTINUOUS
 10
695.4476717679
 20
675.8620272864
 40
0.5
100
AcDbArc
 50
92.5
 51
177.0
  0
ARC
  5
3F9
100
AcDbEntity
  8
0
100
AcDbCircle
 62
7
  6
CONTINUOUS
 10
714.3853002404
 20
710.3417408663
 40
3.7
100
AcDbArc
 50
270.0
 51
358.0
  0
ARC
  5
3FA
100
AcDbEntity
  8
0
100
AcDbCircle
 62
7
  6
CONTINUOUS
 10
708.0760196461
 20
704.6417408663
 40
2.0
100
AcDbArc
 50
90.0
 51
180.0
  0
ARC
  5
3FB
100
AcDbEntity
  8
0
100
AcDbCircle
 62
7
  6
CONTINUOUS
 10
704.3760196461
 20
703.3417408663
 40
1.7
100
AcDbArc
 50
306.0318790725
 51
360.0
  0
ARC
  5
3FC
100
AcDbEntity
  8
02___PRT_ALL_AXES
100
AcDbCircle
 62
7
  6
CONTINUOUS
 10
704.3760196461
 20
703.3417408663
 40
1.7
100
AcDbArc
 50
306.0318790725
 51
360.0
  0
ARC
  5
3FD
100
AcDbEntity
  8
0
100
AcDbCircle
 62
7
  6
CONTINUOUS
 10
720.8760196461
 20
726.3417408663
 40
2.7
100
AcDbArc
 50
270.0
 51
360.0
  0
ARC
  5
3FE
100
AcDbEntity
  8
0
100
AcDbCircle
 62
7
  6
CONTINUOUS
 10
734.534865373
 20
728.1417408663
 40
2.2
100
AcDbArc
 50
60.0000000011
 51
90.0
  0
ARC
  5
3FF
100
AcDbEntity
  8
0
100
AcDbCircle
 62
7
  6
CONTINUOUS
 10
720.4833793381
 20
721.6417408663
 40
2.0
100
AcDbArc
 50
90.0
 51
178.0
  0
ARC
  5
400
100
AcDbEntity
  8
0
100
AcDbCircle
 62
7
  6
CONTINUOUS
 10
725.5760196461
 20
727.6417408663
 40
2.0
100
AcDbArc
 50
174.2334402902
 51
180.0
  0
CIRCLE
  5
401
100
AcDbEntity
  8
0
100
AcDbCircle
 62
7
  6
CONTINUOUS
 10
580.3760196461
 20
239.4042624081
 40
158.0
  0
CIRCLE
  5
402
100
AcDbEntity
  8
0
100
AcDbCircle
 62
7
  6
CONTINUOUS
 10
580.3760196461
 20
239.4042624081
 40
157.7499987188
  0
CIRCLE
  5
403
100
AcDbEntity
  8
0
100
AcDbCircle
 62
7
  6
CONTINUOUS
 10
580.3760196461
 20
239.4042624081
 40
155.2588457546
  0
CIRCLE
  5
404
100
AcDbEntity
  8
0
100
AcDbCircle
 62
7
  6
CONTINUOUS
 10
580.3760196461
 20
239.4042624081
 40
154.1588457708
  0
CIRCLE
  5
405
100
AcDbEntity
  8
0
100
AcDbCircle
 62
7
  6
CONTINUOUS
 10
580.3760196461
 20
239.4042624081
 40
145.1999985784
  0
CIRCLE
  5
406
100
AcDbEntity
  8
0
100
AcDbCircle
 62
7
  6
CONTINUOUS
 10
580.3760196461
 20
239.4042624081
 40
142.5
  0
CIRCLE
  5
407
100
AcDbEntity
  8
0
100
AcDbCircle
 62
7
  6
CONTINUOUS
 10
580.3760196461
 20
239.4042624081
 40
142.0
  0
CIRCLE
  5
408
100
AcDbEntity
  8
0
100
AcDbCircle
 62
7
  6
CONTINUOUS
 10
580.3760196461
 20
239.4042624081
 40
140.2
  0
CIRCLE
  5
409
100
AcDbEntity
  8
0
100
AcDbCircle
 62
7
  6
CONTINUOUS
 10
580.3760196461
 20
239.4042624081
 40
60.3938512783
  0
CIRCLE
  5
40A
100
AcDbEntity
  8
0
100
AcDbCircle
 62
7
  6
CONTINUOUS
 10
580.3760196461
 20
239.4042624081
 40
54.9938512783
  0
CIRCLE
  5
40B
100
AcDbEntity
  8
0
100
AcDbCircle
 62
7
  6
CONTINUOUS
 10
580.3760196461
 20
239.4042624081
 40
26.9115427319
  0
CIRCLE
  5
40C
100
AcDbEntity
  8
0
100
AcDbCircle
 62
7
  6
CONTINUOUS
 10
580.3760196461
 20
239.4042624081
 40
21.9115427319
  0
CIRCLE
  5
40D
100
AcDbEntity
  8
0
100
AcDbCircle
 62
7
  6
CONTINUOUS
 10
580.3760196461
 20
239.4042624081
 40
16.9842021594
  0
CIRCLE
  5
40E
100
AcDbEntity
  8
0
100
AcDbCircle
 62
7
  6
CONTINUOUS
 10
580.3760196461
 20
239.4042624081
 40
15.6665860091
  0
LINE
  5
40F
100
AcDbEntity
  8
0
100
AcDbLine
 62
7
  6
CONTINUOUS
 10
699.2914055628
 20
701.9669681577
 11
699.1591834363
 21
699.444376841
  0
LINE
  5
410
100
AcDbEntity
  8
0
100
AcDbLine
 62
7
  6
CONTINUOUS
 10
461.592855856
 20
699.444376841
 11
461.4606337295
 21
701.9669681577
  0
SPLINE
  5
411
100
AcDbEntity
  8
0
100
AcDbSpline
 62
7
  6
CONTINUOUS
 70
0
 71
3
 72
21
 73
17
 74
0
 42
0.0000001
 43
0.0000001
 44
0.0000000001
 40
0.0
 40
0.0
 40
0.0
 40
0.0
 40
0.1139305293
 40
0.2284269356
 40
0.2873536553
 40
0.3501616436
 40
0.4204458498
 40
0.4597252143
 40
0.5024182988
 40
0.5441089267
 40
0.5825194037
 40
0.6514575268
 40
0.7134038017
 40
0.7718567913
 40
0.886080954
 40
1.0
 40
1.0
 40
1.0
 40
1.0
 10
577.1405179174
 20
556.0973831815
 30
0.0
 10
577.1405174532
 20
556.3115016677
 30
0.0
 10
577.1899601969
 20
556.7431603179
 30
0.0
 10
577.422746084
 20
557.2470112678
 30
0.0
 10
577.7362383375
 20
557.5673912017
 30
0.0
 10
578.0479911036
 20
557.7566148746
 30
0.0
 10
578.3606196921
 20
557.8527335164
 30
0.0
 10
578.6442460165
 20
557.8931137972
 30
0.0
 10
578.8767909493
 20
557.9031781023
 30
0.0
 10
579.1077105651
 20
557.8931396573
 30
0.0
 10
579.3852300318
 20
557.8526366851
 30
0.0
 10
579.6917412278
 20
557.7561958111
 30
0.0
 10
579.9974312775
 20
557.5667536612
 30
0.0
 10
580.3058845951
 20
557.2458200855
 30
0.0
 10
580.535291439
 20
556.7424848805
 30
0.0
 10
580.5846935083
 20
556.3114800863
 30
0.0
 10
580.5846939725
 20
556.0973831815
 30
0.0
  0
SPLINE
  5
412
100
AcDbEntity
  8
0
100
AcDbSpline
 62
7
  6
CONTINUOUS
 70
0
 71
3
 72
25
 73
21
 74
0
 42
0.0000001
 43
0.0000001
 44
0.0000000001
 40
0.0
 40
0.0
 40
0.0
 40
0.0
 40
0.0312608488
 40
0.0625216976
 40
0.1250433952
 40
0.2500867905
 40
0.3126084881
 40
0.3751301857
 40
0.4376518834
 40
0.4689127322
 40
0.500173581
 40
0.5314344298
 40
0.5626952786
 40
0.6252169762
 40
0.6877386738
 40
0.7502603715
 40
0.8127820691
 40
0.8753037667
 40
0.9378254643
 40
1.0
 40
1.0
 40
1.0
 40
1.0
 10
581.0631567249
 20
590.5923269947
 30
0.0
 10
580.9296064361
 20
590.5923243702
 30
0.0
 10
580.6624387923
 20
590.6053702316
 30
0.0
 10
580.1458382329
 20
590.6811416646
 30
0.0
 10
579.2856825138
 20
590.9376728021
 30
0.0
 10
578.439641707
 20
591.4843621672
 30
0.0
 10
577.795019871
 20
592.2251466469
 30
0.0
 10
577.4287254007
 20
592.8627666023
 30
0.0
 10
577.2346926127
 20
593.4505811386
 30
0.0
 10
577.1543601071
 20
593.9461600275
 30
0.0
 10
577.1335968175
 20
594.3314973963
 30
0.0
 10
577.1543601273
 20
594.7170315837
 30
0.0
 10
577.234692498
 20
595.2133320987
 30
0.0
 10
577.4287263324
 20
595.8027869068
 30
0.0
 10
577.7950164685
 20
596.4431615717
 30
0.0
 10
578.2784989264
 20
597.0019014383
 30
0.0
 10
578.8626147993
 20
597.4635819315
 30
0.0
 10
579.5319293096
 20
597.8129879287
 30
0.0
 10
580.2654526697
 20
598.0344167792
 30
0.0
 10
580.7948502205
 20
598.0872533207
 30
0.0
 10
581.0587363745
 20
598.0875258563
 30
0.0
  0
LINE
  5
413
100
AcDbEntity
  8
0
100
AcDbLine
 62
7
  6
CONTINUOUS
 10
578.7303708951
 20
604.1931065818
 11
586.1919359381
 21
609.3723165901
  0
LINE
  5
414
100
AcDbEntity
  8
0
100
AcDbLine
 62
7
  6
CONTINUOUS
 10
583.5274078469
 20
609.8997172742
 11
575.0905830692
 21
604.1441686501
  0
LINE
  5
415
100
AcDbEntity
  8
0
100
AcDbLine
 62
7
  6
CONTINUOUS
 10
578.7303708951
 20
630.7296883698
 11
586.1919359381
 21
635.9119307571
  0
LINE
  5
416
100
AcDbEntity
  8
0
100
AcDbLine
 62
7
  6
CONTINUOUS
 10
583.5274078469
 20
636.4393314412
 11
575.0905830693
 21
630.6822899536
  0
LINE
  5
417
100
AcDbEntity
  8
0
100
AcDbLine
 62
7
  6
CONTINUOUS
 10
587.0189356662
 20
651.315063111
 11
575.0905830692
 21
646.7167636128
  0
LINE
  5
418
100
AcDbEntity
  8
0
100
AcDbLine
 62
7
  6
CONTINUOUS
 10
575.0905830692
 20
644.4481709136
 11
587.0189356662
 21
639.8804284653
  0
SPLINE
  5
419
100
AcDbEntity
  8
0
100
AcDbSpline
 62
7
  6
CONTINUOUS
 70
0
 71
3
 72
9
 73
5
 74
0
 42
0.0000001
 43
0.0000001
 44
0.0000000001
 40
0.0
 40
0.0
 40
0.0
 40
0.0
 40
0.4826488091
 40
1.0
 40
1.0
 40
1.0
 40
1.0
 10
582.1882626336
 20
558.179461247
 30
0.0
 10
581.9051648714
 20
558.7620923528
 30
0.0
 10
580.9750547652
 20
559.8416135523
 30
0.0
 10
579.5898146689
 20
560.1973476873
 30
0.0
 10
578.895472268
 20
560.1973461818
 30
0.0
  0
LINE
  5
41A
100
AcDbEntity
  8
0
100
AcDbLine
 62
7
  6
CONTINUOUS
 10
587.0189356662
 20
572.7738814506
 11
575.0905830692
 21
568.1725495735
  0
LINE
  5
41B
100
AcDbEntity
  8
0
100
AcDbLine
 62
7
  6
CONTINUOUS
 10
575.0905830692
 20
565.9069892532
 11
587.0189356662
 21
561.3392934569
  0
LINE
  5
41C
100
AcDbEntity
  8
0
100
AcDbLine
 62
7
  6
CONTINUOUS
 10
587.0189356662
 20
587.4997669463
 11
575.0905830692
 21
585.6454905209
  0
LINE
  5
41D
100
AcDbEntity
  8
0
100
AcDbLine
 62
7
  6
CONTINUOUS
 10
578.9596653986
 20
584.089273624
 11
586.1429980064
 21
585.0492781598
  0
LINE
  5
41E
100
AcDbEntity
  8
0
100
AcDbLine
 62
7
  6
CONTINUOUS
 10
586.0268345652
 20
581.4094903339
 11
578.9596653986
 21
584.089273624
  0
LINE
  5
41F
100
AcDbEntity
  8
0
100
AcDbLine
 62
7
  6
CONTINUOUS
 10
578.8297396219
 20
576.7439186743
 11
585.1646592408
 21
579.176073231
  0
LINE
  5
420
100
AcDbEntity
  8
0
100
AcDbLine
 62
7
  6
CONTINUOUS
 10
587.0189356662
 20
575.6692435608
 11
578.8297396219
 21
576.7439186743
  0
LINE
  5
421
100
AcDbEntity
  8
0
100
AcDbLine
 62
7
  6
CONTINUOUS
 10
575.0905830692
 20
575.2717686533
 11
587.0189356662
 21
573.4189850914
  0
LINE
  5
422
100
AcDbEntity
  8
0
100
AcDbLine
 62
7
  6
CONTINUOUS
 10
583.1956655856
 20
580.4662805126
 11
575.0905830692
 21
577.3737204642
  0
LINE
  5
423
100
AcDbEntity
  8
0
100
AcDbLine
 62
7
  6
CONTINUOUS
 10
575.0905830692
 20
583.5618729399
 11
583.1956655856
 21
580.4662805126
  0
SPLINE
  5
424
100
AcDbEntity
  8
0
100
AcDbSpline
 62
7
  6
CONTINUOUS
 70
0
 71
3
 72
28
 73
24
 74
0
 42
0.0000001
 43
0.0000001
 44
0.0000000001
 40
0.0
 40
0.0
 40
0.0
 40
0.0
 40
0.0045615427
 40
0.0355849041
 40
0.0666082656
 40
0.1286549885
 40
0.1907017113
 40
0.2527484342
 40
0.3147951571
 40
0.37684188
 40
0.4388886029
 40
0.4699119644
 40
0.5009353258
 40
0.5321268679
 40
0.5633184101
 40
0.6257014944
 40
0.6880845786
 40
0.7504676629
 40
0.8128507472
 40
0.8752338315
 40
0.9376169157
 40
0.9688084579
 40
1.0
 40
1.0
 40
1.0
 40
1.0
 10
581.1392158143
 20
600.50370517
 30
0.0
 10
581.1082750569
 20
600.5041600012
 30
0.0
 10
580.8667924939
 20
600.5059217659
 30
0.0
 10
580.4144501794
 20
600.4829228615
 30
0.0
 10
579.6004116675
 20
600.3581724462
 30
0.0
 10
578.6328302539
 20
600.0566561331
 30
0.0
 10
577.5807544053
 20
599.4865063375
 30
0.0
 10
576.6620946977
 20
598.7327544793
 30
0.0
 10
575.9025026581
 20
597.8200111071
 30
0.0
 10
575.327281671
 20
596.7732240975
 30
0.0
 10
575.0227723262
 20
595.8089620359
 30
0.0
 10
574.8966924963
 20
594.9965414841
 30
0.0
 10
574.8641806277
 20
594.364052853
 30
0.0
 10
574.8966091182
 20
593.7302576794
 30
0.0
 10
575.0219844291
 20
592.9128242878
 30
0.0
 10
575.3253521764
 20
591.9419518962
 30
0.0
 10
575.8994743971
 20
590.8871655326
 30
0.0
 10
576.6592359144
 20
589.9668216186
 30
0.0
 10
577.5803474792
 20
589.2063158052
 30
0.0
 10
578.6377965646
 20
588.6307568139
 30
0.0
 10
579.6140540486
 20
588.3262479659
 30
0.0
 10
580.435847234
 20
588.2001585102
 30
0.0
 10
580.8651429735
 20
588.1786151579
 30
0.0
 10
581.0769190603
 20
588.1785066679
 30
0.0
  0
SPLINE
  5
425
100
AcDbEntity
  8
0
100
AcDbSpline
 62
7
  6
CONTINUOUS
 70
0
 71
3
 72
9
 73
5
 74
0
 42
0.0000001
 43
0.0000001
 44
0.0000000001
 40
0.0
 40
0.0
 40
0.0
 40
0.0
 40
0.5015076899
 40
1.0
 40
1.0
 40
1.0
 40
1.0
 10
586.1078690621
 20
623.9499420794
 30
0.0
 10
586.3498809274
 20
623.9499420794
 30
0.0
 10
586.913887043
 20
624.0525352309
 30
0.0
 10
587.0189356662
 20
624.6158800513
 30
0.0
 10
587.0189356662
 20
624.856436789
 30
0.0
  0
SPLINE
  5
426
100
AcDbEntity
  8
0
100
AcDbSpline
 62
7
  6
CONTINUOUS
 70
0
 71
3
 72
9
 73
5
 74
0
 42
0.0000001
 43
0.0000001
 44
0.0000000001
 40
0.0
 40
0.0
 40
0.0
 40
0.0
 40
0.500236779
 40
1.0
 40
1.0
 40
1.0
 40
1.0
 10
586.1078690621
 20
545.2406266671
 30
0.0
 10
586.3499389873
 20
545.2406271919
 30
0.0
 10
586.9155563613
 20
545.3444000931
 30
0.0
 10
587.0189361906
 20
545.9098991577
 30
0.0
 10
587.0189356662
 20
546.1517399232
 30
0.0
  0
LINE
  5
427
100
AcDbEntity
  8
0
100
AcDbLine
 62
7
  6
CONTINUOUS
 10
587.0189356662
 20
546.1517399232
 11
587.0189356662
 21
547.5917467268
  0
LINE
  5
428
100
AcDbEntity
  8
0
100
AcDbLine
 62
7
  6
CONTINUOUS
 10
575.0905830693
 20
550.8845370924
 11
575.0905830692
 21
541.9478363015
  0
SPLINE
  5
429
100
AcDbEntity
  8
0
100
AcDbSpline
 62
7
  6
CONTINUOUS
 70
0
 71
3
 72
9
 73
5
 74
0
 42
0.0000001
 43
0.0000001
 44
0.0000000001
 40
0.0
 40
0.0
 40
0.0
 40
0.0
 40
0.4991667323
 40
1.0
 40
1.0
 40
1.0
 40
1.0
 10
576.3150577048
 20
541.9478363015
 30
0.0
 10
576.556100681
 20
541.9478368241
 30
0.0
 10
577.1197423299
 20
542.0530565042
 30
0.0
 10
577.2230924543
 20
542.6170551748
 30
0.0
 10
577.2230919299
 20
542.8589029056
 30
0.0
  0
LINE
  5
42A
100
AcDbEntity
  8
0
100
AcDbLine
 62
7
  6
CONTINUOUS
 10
577.2230919299
 20
542.8589029056
 11
577.2230919299
 21
545.2406266671
  0
SPLINE
  5
42B
100
AcDbEntity
  8
0
100
AcDbSpline
 62
7
  6
CONTINUOUS
 70
0
 71
3
 72
9
 73
5
 74
0
 42
0.0000001
 43
0.0000001
 44
0.0000000001
 40
0.0
 40
0.0
 40
0.0
 40
0.0
 40
0.500244346
 40
1.0
 40
1.0
 40
1.0
 40
1.0
 10
586.1078690621
 20
616.783404186
 30
0.0
 10
586.3499407489
 20
616.783404186
 30
0.0
 10
586.9155456226
 20
616.8871999484
 30
0.0
 10
587.0189356662
 20
617.4526822367
 30
0.0
 10
587.0189356662
 20
617.694517442
 30
0.0
  0
LINE
  5
42C
100
AcDbEntity
  8
0
100
AcDbLine
 62
7
  6
CONTINUOUS
 10
575.0905830693
 20
622.4273612633
 11
575.0905830692
 21
613.4921533359
  0
SPLINE
  5
42D
100
AcDbEntity
  8
0
100
AcDbSpline
 62
7
  6
CONTINUOUS
 70
0
 71
3
 72
9
 73
5
 74
0
 42
0.0000001
 43
0.0000001
 44
0.0000000001
 40
0.0
 40
0.0
 40
0.0
 40
0.0
 40
0.499326291
 40
1.0
 40
1.0
 40
1.0
 40
1.0
 10
576.3150577048
 20
613.4921533359
 30
0.0
 10
576.5560235587
 20
613.4921533359
 30
0.0
 10
577.1195681861
 20
613.5962615224
 30
0.0
 10
577.2230919299
 20
614.1601109828
 30
0.0
 10
577.2230919299
 20
614.4017270764
 30
0.0
  0
SPLINE
  5
42E
100
AcDbEntity
  8
0
100
AcDbSpline
 62
7
  6
CONTINUOUS
 70
0
 71
3
 72
9
 73
5
 74
0
 42
0.0000001
 43
0.0000001
 44
0.0000000001
 40
0.0
 40
0.0
 40
0.0
 40
0.0
 40
0.5132550299
 40
1.0
 40
1.0
 40
1.0
 40
1.0
 10
586.207191137
 20
648.6352331689
 30
0.0
 10
586.4370208996
 20
648.7189223702
 30
0.0
 10
586.8921727107
 20
648.9666565454
 30
0.0
 10
587.0189371503
 20
649.4764561146
 30
0.0
 10
587.0189356662
 20
649.7084154189
 30
0.0
  0
LINE
  5
42F
100
AcDbEntity
  8
0
100
AcDbLine
 62
7
  6
CONTINUOUS
 10
587.0189356662
 20
649.7084154189
 11
587.0189356662
 21
651.315063111
  0
LINE
  5
430
100
AcDbEntity
  8
0
100
AcDbLine
 62
7
  6
CONTINUOUS
 10
587.0189356662
 20
642.2147538106
 11
584.3880903078
 21
643.1426617811
  0
LINE
  5
431
100
AcDbEntity
  8
0
100
AcDbLine
 62
7
  6
CONTINUOUS
 10
584.3880903078
 20
643.1426617811
 11
584.3880903078
 21
647.9702557827
  0
SPLINE
  5
432
100
AcDbEntity
  8
0
100
AcDbSpline
 62
7
  6
CONTINUOUS
 70
0
 71
3
 72
10
 73
6
 74
0
 42
0.0000001
 43
0.0000001
 44
0.0000000001
 40
0.0
 40
0.0
 40
0.0
 40
0.0
 40
0.3394946111
 40
0.6728300356
 40
1.0
 40
1.0
 40
1.0
 40
1.0
 10
584.3880903078
 20
647.9702557827
 30
0.0
 10
584.59394863
 20
648.0455078671
 30
0.0
 10
585.0019145956
 20
648.1946904809
 30
0.0
 10
585.6081579525
 20
648.4166874717
 30
0.0
 10
586.0087155279
 20
648.5629611315
 30
0.0
 10
586.207191137
 20
648.6352331689
 30
0.0
  0
SPLINE
  5
433
100
AcDbEntity
  8
0
100
AcDbSpline
 62
7
  6
CONTINUOUS
 70
0
 71
3
 72
9
 73
5
 74
0
 42
0.0000001
 43
0.0000001
 44
0.0000000001
 40
0.0
 40
0.0
 40
0.0
 40
0.0
 40
0.5127231677
 40
1.0
 40
1.0
 40
1.0
 40
1.0
 10
586.207191137
 20
570.0910191295
 30
0.0
 10
586.4371877294
 20
570.1747674128
 30
0.0
 10
586.8927045356
 20
570.4238951763
 30
0.0
 10
587.0189356662
 20
570.9346119209
 30
0.0
 10
587.0189356662
 20
571.1672337585
 30
0.0
  0
LINE
  5
434
100
AcDbEntity
  8
0
100
AcDbLine
 62
7
  6
CONTINUOUS
 10
587.0189356662
 20
563.6720792867
 11
584.3880903078
 21
564.5984477417
  0
LINE
  5
435
100
AcDbEntity
  8
0
100
AcDbLine
 62
7
  6
CONTINUOUS
 10
584.3880903078
 20
564.5984477417
 11
584.3880903078
 21
569.4291207743
  0
LINE
  5
436
100
AcDbEntity
  8
0
100
AcDbLine
 62
7
  6
CONTINUOUS
 10
584.3880903078
 20
569.4291207743
 11
586.207191137
 21
570.0910191295
  0
SPLINE
  5
437
100
AcDbEntity
  8
0
100
AcDbSpline
 62
7
  6
CONTINUOUS
 70
0
 71
3
 72
9
 73
5
 74
0
 42
0.0000001
 43
0.0000001
 44
0.0000000001
 40
0.0
 40
0.0
 40
0.0
 40
0.0
 40
0.4998221412
 40
1.0
 40
1.0
 40
1.0
 40
1.0
 10
586.1078690621
 20
602.0238826094
 30
0.0
 10
586.3499601345
 20
602.0238826094
 30
0.0
 10
586.9161008028
 20
602.1280731392
 30
0.0
 10
587.0189356662
 20
602.6942720152
 30
0.0
 10
587.0189356662
 20
602.936535381
 30
0.0
  0
SPLINE
  5
438
100
AcDbEntity
  8
0
100
AcDbSpline
 62
7
  6
CONTINUOUS
 70
0
 71
3
 72
9
 73
5
 74
0
 42
0.0000001
 43
0.0000001
 44
0.0000000001
 40
0.0
 40
0.0
 40
0.0
 40
0.0
 40
0.5271800953
 40
1.0
 40
1.0
 40
1.0
 40
1.0
 10
586.1919359381
 20
609.3723165901
 30
0.0
 10
586.4385001755
 20
609.5434613779
 30
0.0
 10
586.8971033177
 20
609.930626417
 30
0.0
 10
587.0189356662
 20
610.5247974483
 30
0.0
 10
587.0189356662
 20
610.7939891639
 30
0.0
  0
SPLINE
  5
439
100
AcDbEntity
  8
0
100
AcDbSpline
 62
7
  6
CONTINUOUS
 70
0
 71
3
 72
9
 73
5
 74
0
 42
0.0000001
 43
0.0000001
 44
0.0000000001
 40
0.0
 40
0.0
 40
0.0
 40
0.0
 40
0.5010780659
 40
1.0
 40
1.0
 40
1.0
 40
1.0
 10
586.1078690621
 20
628.5650362919
 30
0.0
 10
586.3499026103
 20
628.5650362919
 30
0.0
 10
586.9144501151
 20
628.6680563097
 30
0.0
 10
587.0189356662
 20
629.2321250878
 30
0.0
 10
587.0189356662
 20
629.4731171689
 30
0.0
  0
SPLINE
  5
43A
100
AcDbEntity
  8
0
100
AcDbSpline
 62
7
  6
CONTINUOUS
 70
0
 71
3
 72
9
 73
5
 74
0
 42
0.0000001
 43
0.0000001
 44
0.0000000001
 40
0.0
 40
0.0
 40
0.0
 40
0.0
 40
0.5266141227
 40
1.0
 40
1.0
 40
1.0
 40
1.0
 10
586.1919359381
 20
635.9119307571
 30
0.0
 10
586.4382374601
 20
636.0829936716
 30
0.0
 10
586.8978597213
 20
636.4693531838
 30
0.0
 10
587.0189356662
 20
637.0640823451
 30
0.0
 10
587.0189356662
 20
637.3336499828
 30
0.0
  0
SPLINE
  5
43B
100
AcDbEntity
  8
0
100
AcDbSpline
 62
7
  6
CONTINUOUS
 70
0
 71
3
 72
11
 73
7
 74
0
 42
0.0000001
 43
0.0000001
 44
0.0000000001
 40
0.0
 40
0.0
 40
0.0
 40
0.0
 40
0.2646008886
 40
0.5018601467
 40
0.7395408454
 40
1.0
 40
1.0
 40
1.0
 40
1.0
 10
578.895472268
 20
560.1973461818
 30
0.0
 10
578.3578385172
 20
560.1973450162
 30
0.0
 10
577.3205339747
 20
560.0316963565
 30
0.0
 10
576.0308202863
 20
559.1697866473
 30
0.0
 10
575.2434733775
 20
557.8489297718
 30
0.0
 10
575.0905819218
 20
556.8237994188
 30
0.0
 10
575.0905830693
 20
556.2945811197
 30
0.0
  0
LINE
  5
43C
100
AcDbEntity
  8
0
100
AcDbLine
 62
7
  6
CONTINUOUS
 10
575.0905830693
 20
556.2945811197
 11
575.0905830693
 21
552.3077491816
  0
SPLINE
  5
43D
100
AcDbEntity
  8
0
100
AcDbSpline
 62
7
  6
CONTINUOUS
 70
0
 71
3
 72
9
 73
5
 74
0
 42
0.0000001
 43
0.0000001
 44
0.0000000001
 40
0.0
 40
0.0
 40
0.0
 40
0.0
 40
0.4999947619
 40
1.0
 40
1.0
 40
1.0
 40
1.0
 10
586.1078690621
 20
552.3077491816
 30
0.0
 10
586.3498826847
 20
552.3077497064
 30
0.0
 10
586.9159082787
 20
552.4108159245
 30
0.0
 10
587.0189361909
 20
552.9768437443
 30
0.0
 10
587.0189356662
 20
553.2188624377
 30
0.0
  0
LINE
  5
43E
100
AcDbEntity
  8
0
100
AcDbLine
 62
7
  6
CONTINUOUS
 10
587.0189356662
 20
553.2188624377
 11
587.0189356662
 21
554.5411662846
  0
LINE
  5
43F
100
AcDbEntity
  8
0
100
AcDbLine
 62
7
  6
CONTINUOUS
 10
582.6162945908
 20
556.0805884671
 11
586.3401959446
 21
557.9807237933
  0
SPLINE
  5
440
100
AcDbEntity
  8
0
100
AcDbSpline
 62
7
  6
CONTINUOUS
 70
0
 71
3
 72
9
 73
5
 74
0
 42
0.0000001
 43
0.0000001
 44
0.0000000001
 40
0.0
 40
0.0
 40
0.0
 40
0.0
 40
0.4961386944
 40
1.0
 40
1.0
 40
1.0
 40
1.0
 10
586.3401959446
 20
557.9807237933
 30
0.0
 10
586.5471539216
 20
558.083891859
 30
0.0
 10
586.9523727774
 20
558.3879366972
 30
0.0
 10
587.0189361754
 20
558.8862849208
 30
0.0
 10
587.0189356662
 20
559.1211315528
 30
0.0
  0
LINE
  5
441
100
AcDbEntity
  8
0
100
AcDbLine
 62
7
  6
CONTINUOUS
 10
587.0189356662
 20
559.1211315528
 11
587.0189356662
 21
560.9112614997
  0
LINE
  5
442
100
AcDbEntity
  8
0
100
AcDbLine
 62
7
  6
CONTINUOUS
 10
587.0189356662
 20
560.9112614997
 11
582.1882626336
 21
558.179461247
  0
SPLINE
  5
443
100
AcDbEntity
  8
0
100
AcDbSpline
 62
7
  6
CONTINUOUS
 70
0
 71
3
 72
9
 73
5
 74
0
 42
0.0000001
 43
0.0000001
 44
0.0000000001
 40
0.0
 40
0.0
 40
0.0
 40
0.0
 40
0.5081443578
 40
1.0
 40
1.0
 40
1.0
 40
1.0
 10
586.1429980064
 20
585.0492781598
 30
0.0
 10
586.3957467237
 20
585.0826586425
 30
0.0
 10
586.9134186287
 20
585.3337043042
 30
0.0
 10
587.0189356662
 20
585.8787216102
 30
0.0
 10
587.0189356662
 20
586.1254927888
 30
0.0
  0
SPLINE
  5
444
100
AcDbEntity
  8
0
100
AcDbSpline
 62
7
  6
CONTINUOUS
 70
0
 71
3
 72
9
 73
5
 74
0
 42
0.0000001
 43
0.0000001
 44
0.0000000001
 40
0.0
 40
0.0
 40
0.0
 40
0.0
 40
0.5162113359
 40
1.0
 40
1.0
 40
1.0
 40
1.0
 10
585.1646592408
 20
579.176073231
 30
0.0
 10
585.4088976011
 20
579.2737528836
 30
0.0
 10
585.8894558183
 20
579.5434654697
 30
0.0
 10
586.0268345652
 20
580.0867504593
 30
0.0
 10
586.0268345652
 20
580.3332757049
 30
0.0
  0
SPLINE
  5
445
100
AcDbEntity
  8
0
100
AcDbSpline
 62
7
  6
CONTINUOUS
 70
0
 71
3
 72
11
 73
7
 74
0
 42
0.0000001
 43
0.0000001
 44
0.0000000001
 40
0.0
 40
0.0
 40
0.0
 40
0.0
 40
0.2634729294
 40
0.4999550307
 40
0.736451983
 40
1.0
 40
1.0
 40
1.0
 40
1.0
 10
567.1490157584
 20
655.6504320248
 30
0.0
 10
567.1490106927
 20
656.4421576369
 30
0.0
 10
567.3770964866
 20
657.9671302518
 30
0.0
 10
568.5880675721
 20
659.9021478139
 30
0.0
 10
570.5230956041
 20
661.1135996325
 30
0.0
 10
572.0483733527
 20
661.3417408663
 30
0.0
 10
572.8403245999
 20
661.3417408663
 30
0.0
  0
SPLINE
  5
446
100
AcDbEntity
  8
0
100
AcDbSpline
 62
7
  6
CONTINUOUS
 70
0
 71
3
 72
11
 73
7
 74
0
 42
0.0000001
 43
0.0000001
 44
0.0000000001
 40
0.0
 40
0.0
 40
0.0
 40
0.0
 40
0.2636102072
 40
0.5000688208
 40
0.7365159587
 40
1.0
 40
1.0
 40
1.0
 40
1.0
 10
587.9117146924
 20
661.3417408663
 30
0.0
 10
588.7037937861
 20
661.3417408663
 30
0.0
 10
590.2290753064
 20
661.1138049063
 30
0.0
 10
592.1638647943
 20
659.9021538961
 30
0.0
 10
593.3738154707
 20
657.9668873763
 30
0.0
 10
593.6014789529
 20
656.4421320233
 30
0.0
 10
593.6014840184
 20
655.6504320248
 30
0.0
  0
LINE
  5
447
100
AcDbEntity
  8
0
100
AcDbLine
 62
7
  6
CONTINUOUS
 10
593.6014840184
 20
655.6504320248
 11
593.6014840184
 21
537.0330963929
  0
SPLINE
  5
448
100
AcDbEntity
  8
0
100
AcDbSpline
 62
7
  6
CONTINUOUS
 70
0
 71
3
 72
11
 73
7
 74
0
 42
0.0000001
 43
0.0000001
 44
0.0000000001
 40
0.0
 40
0.0
 40
0.0
 40
0.0
 40
0.263483944
 40
0.499931778
 40
0.7363905493
 40
1.0
 40
1.0
 40
1.0
 40
1.0
 10
593.6014840184
 20
537.0330963929
 30
0.0
 10
593.6014840184
 20
536.2413940002
 30
0.0
 10
593.3738113806
 20
534.7166324074
 30
0.0
 10
592.1638670047
 20
532.7813535653
 30
0.0
 10
590.2290795056
 20
531.5696831545
 30
0.0
 10
588.7037942009
 20
531.3417408994
 30
0.0
 10
587.9117146924
 20
531.3417408994
 30
0.0
  0
SPLINE
  5
449
100
AcDbEntity
  8
0
100
AcDbSpline
 62
7
  6
CONTINUOUS
 70
0
 71
3
 72
11
 73
7
 74
0
 42
0.0000001
 43
0.0000001
 44
0.0000000001
 40
0.0
 40
0.0
 40
0.0
 40
0.0
 40
0.2635472609
 40
0.5000443707
 40
0.7365271677
 40
1.0
 40
1.0
 40
1.0
 40
1.0
 10
572.8403245999
 20
531.3417408994
 30
0.0
 10
572.048372938
 20
531.3417408994
 30
0.0
 10
570.5230910626
 20
531.5698884308
 30
0.0
 10
568.5880664364
 20
532.781359646
 30
0.0
 10
567.3770963757
 20
534.7163895343
 30
0.0
 10
567.1490157584
 20
536.2413683866
 30
0.0
 10
567.1490157584
 20
537.0330963929
 30
0.0
  0
LINE
  5
44A
100
AcDbEntity
  8
0
100
AcDbLine
 62
7
  6
CONTINUOUS
 10
567.1490157584
 20
537.0330963929
 11
567.1490157584
 21
655.6504320248
  0
SPLINE
  5
44B
100
AcDbEntity
  8
0
100
AcDbSpline
 62
7
  6
CONTINUOUS
 70
0
 71
3
 72
25
 73
21
 74
0
 42
0.0000001
 43
0.0000001
 44
0.0000000001
 40
0.0
 40
0.0
 40
0.0
 40
0.0
 40
0.0628254643
 40
0.1253037667
 40
0.1877820691
 40
0.2502603715
 40
0.3127386738
 40
0.3752169762
 40
0.4376952786
 40
0.4689344298
 40
0.500173581
 40
0.5314127322
 40
0.5626518834
 40
0.6251301857
 40
0.6876084881
 40
0.7500867905
 40
0.8750433952
 40
0.9375216976
 40
0.9687608488
 40
1.0
 40
1.0
 40
1.0
 40
1.0
 10
581.0587363745
 20
598.0875258563
 30
0.0
 10
581.3253852522
 20
598.0878012453
 30
0.0
 10
581.8570554285
 20
598.0352556805
 30
0.0
 10
582.5907754735
 20
597.8129832729
 30
0.0
 10
583.2568115705
 20
597.463583179
 30
0.0
 10
583.8373061856
 20
597.001901104
 30
0.0
 10
584.3172372338
 20
596.4431616614
 30
0.0
 10
584.6804592804
 20
595.8027868822
 30
0.0
 10
584.8726835262
 20
595.2133321017
 30
0.0
 10
584.9522231778
 20
594.7170315831
 30
0.0
 10
584.9727710866
 20
594.3314973964
 30
0.0
 10
584.9522231981
 20
593.9461600277
 30
0.0
 10
584.8726834115
 20
593.4505811376
 30
0.0
 10
584.6804602114
 20
592.8627666104
 30
0.0
 10
584.3172338336
 20
592.2251466171
 30
0.0
 10
583.6773471958
 20
591.484362325
 30
0.0
 10
582.8361813886
 20
590.9376718164
 30
0.0
 10
581.9789675671
 20
590.6811430161
 30
0.0
 10
581.4634625331
 20
590.6053678624
 30
0.0
 10
581.1966143187
 20
590.5923296174
 30
0.0
 10
581.0631567249
 20
590.5923269947
 30
0.0
  0
SPLINE
  5
44C
100
AcDbEntity
  8
0
100
AcDbSpline
 62
7
  6
CONTINUOUS
 70
0
 71
3
 72
26
 73
22
 74
0
 42
0.0000001
 43
0.0000001
 44
0.0000000001
 40
0.0
 40
0.0
 40
0.0
 40
0.0
 40
0.0626300545
 40
0.1252601089
 40
0.1878901634
 40
0.2505202179
 40
0.3131502724
 40
0.3757803268
 40
0.4384103813
 40
0.4697254085
 40
0.5010404358
 40
0.532510505
 40
0.5639805741
 40
0.6269207125
 40
0.6898608509
 40
0.7528009892
 40
0.8157411276
 40
0.8786812659
 40
0.9416214043
 40
0.9730914735
 40
1.0
 40
1.0
 40
1.0
 40
1.0
 10
581.0769190603
 20
588.1785066679
 30
0.0
 10
581.5021480469
 20
588.1782888289
 30
0.0
 10
582.3294494898
 20
588.2638354135
 30
0.0
 10
583.4892848713
 20
588.6230561622
 30
0.0
 10
584.5393702596
 20
589.1897714462
 30
0.0
 10
585.4556227441
 20
589.9396313857
 30
0.0
 10
586.2127398624
 20
590.8485474128
 30
0.0
 10
586.7857549814
 20
591.8920995795
 30
0.0
 10
587.0889360301
 20
592.8545920493
 30
0.0
 10
587.2144252324
 20
593.6664074319
 30
0.0
 10
587.2467771696
 20
594.2988259863
 30
0.0
 10
587.2145113847
 20
594.9329510876
 30
0.0
 10
587.0897224121
 20
595.7512264987
 30
0.0
 10
586.7876842416
 20
596.7240314409
 30
0.0
 10
586.2157708321
 20
597.7820690482
 30
0.0
 10
585.4584709266
 20
598.7061366039
 30
0.0
 10
584.5398168798
 20
599.4703554303
 30
0.0
 10
583.4841704771
 20
600.0491709675
 30
0.0
 10
582.5095488586
 20
600.3556694392
 30
0.0
 10
581.716634724
 20
600.4779131533
 30
0.0
 10
581.321735249
 20
600.501022122
 30
0.0
 10
581.1392158143
 20
600.50370517
 30
0.0
  0
SPLINE
  5
44D
100
AcDbEntity
  8
03___PRT_ALL_CURVES
100
AcDbSpline
 62
40
  6
CONTINUOUS
 70
0
 71
3
 72
11
 73
7
 74
0
 42
0.0000001
 43
0.0000001
 44
0.0000000001
 40
0.0
 40
0.0
 40
0.0
 40
0.0
 40
0.2505202179
 40
0.5010404358
 40
0.7528009892
 40
1.0
 40
1.0
 40
1.0
 40
1.0
 10
577.9102040631
 20
136.2581626939
 30
0.0
 10
577.9086128636
 20
135.7602299631
 30
0.0
 10
578.3164990239
 20
134.7757746481
 30
0.0
 10
579.7932403095
 20
134.1576026306
 30
0.0
 10
581.2771783636
 20
134.7684104556
 30
0.0
 10
581.6958275897
 20
135.7490629491
 30
0.0
 10
581.7026118485
 20
136.24036242
 30
0.0
  0
SPLINE
  5
44E
100
AcDbEntity
  8
03___PRT_ALL_CURVES
100
AcDbSpline
 62
40
  6
CONTINUOUS
 70
0
 71
3
 72
12
 73
8
 74
0
 42
0.0000001
 43
0.0000001
 44
0.0000000001
 40
0.0
 40
0.0
 40
0.0
 40
0.0
 40
0.0045615427
 40
0.2527484342
 40
0.5009353258
 40
0.7504676629
 40
1.0
 40
1.0
 40
1.0
 40
1.0
 10
581.7026118485
 20
136.24036242
 30
0.0
 10
581.7027370378
 20
136.2494283281
 30
0.0
 10
581.7058883401
 20
136.7518600222
 30
0.0
 10
581.294119701
 20
137.7537816619
 30
0.0
 10
579.8117751804
 20
138.3718838919
 30
0.0
 10
578.3227918413
 20
137.7573907016
 30
0.0
 10
577.911788988
 20
136.7541319177
 30
0.0
 10
577.9102040631
 20
136.2581626939
 30
0.0
  0
SPLINE
  5
44F
100
AcDbEntity
  8
03___PRT_ALL_CURVES
100
AcDbSpline
 62
40
  6
CONTINUOUS
 70
0
 71
3
 72
11
 73
7
 74
0
 42
0.0000001
 43
0.0000001
 44
0.0000000001
 40
0.0
 40
0.0
 40
0.0
 40
0.0
 40
0.2500867905
 40
0.500173581
 40
0.7502603715
 40
1.0
 40
1.0
 40
1.0
 40
1.0
 10
578.6529182763
 20
136.2623972601
 30
0.0
 10
578.6528679892
 20
136.5762575465
 30
0.0
 10
578.901144861
 20
137.2052988106
 30
0.0
 10
579.8027968655
 20
137.601395815
 30
0.0
 10
580.7079051827
 20
137.2054820933
 30
0.0
 10
580.9588372269
 20
136.5771305843
 30
0.0
 10
580.9591343206
 20
136.2637043341
 30
0.0
  0
SPLINE
  5
450
100
AcDbEntity
  8
03___PRT_ALL_CURVES
100
AcDbSpline
 62
40
  6
CONTINUOUS
 70
0
 71
3
 72
11
 73
7
 74
0
 42
0.0000001
 43
0.0000001
 44
0.0000000001
 40
0.0
 40
0.0
 40
0.0
 40
0.0
 40
0.2502603715
 40
0.500173581
 40
0.7500867905
 40
1.0
 40
1.0
 40
1.0
 40
1.0
 10
580.9591343206
 20
136.2637043341
 30
0.0
 10
580.9594320337
 20
135.9496245453
 30
0.0
 10
580.7087871394
 20
135.3229702436
 30
0.0
 10
579.8027967195
 20
134.9309246642
 30
0.0
 10
578.9011018145
 20
135.3227887945
 30
0.0
 10
578.6529685285
 20
135.9487548187
 30
0.0
 10
578.6529182763
 20
136.2623972601
 30
0.0
  0
SPLINE
  5
451
100
AcDbEntity
  8
03___PRT_ALL_CURVES
100
AcDbSpline
 62
40
  6
CONTINUOUS
 70
0
 71
3
 72
9
 73
5
 74
0
 42
0.0000001
 43
0.0000001
 44
0.0000000001
 40
0.0
 40
0.0
 40
0.0
 40
0.0
 40
0.4999965288
 40
1.0
 40
1.0
 40
1.0
 40
1.0
 10
598.670717804
 20
140.2194200002
 30
0.0
 10
599.0412171063
 20
140.2194223708
 30
0.0
 10
599.8588111035
 20
139.9808862628
 30
0.0
 10
600.097319275
 20
139.1632918963
 30
0.0
 10
600.0973216456
 20
138.7927874497
 30
0.0
  0
SPLINE
  5
452
100
AcDbEntity
  8
03___PRT_ALL_CURVES
100
AcDbSpline
 62
40
  6
CONTINUOUS
 70
0
 71
3
 72
9
 73
5
 74
0
 42
0.0000001
 43
0.0000001
 44
0.0000000001
 40
0.0
 40
0.0
 40
0.0
 40
0.0
 40
0.5000034712
 40
1.0
 40
1.0
 40
1.0
 40
1.0
 10
600.0973216456
 20
134.1554493422
 30
0.0
 10
600.0973240162
 20
133.7849448956
 30
0.0
 10
599.858808733
 20
132.9673493437
 30
0.0
 10
599.0412171063
 20
132.7288167917
 30
0.0
 10
598.670717804
 20
132.7288167917
 30
0.0
  0
SPLINE
  5
453
100
AcDbEntity
  8
03___PRT_ALL_CURVES
100
AcDbSpline
 62
40
  6
CONTINUOUS
 70
0
 71
3
 72
9
 73
5
 74
0
 42
0.0000001
 43
0.0000001
 44
0.0000000001
 40
0.0
 40
0.0
 40
0.0
 40
0.0
 40
0.4999974874
 40
1.0
 40
1.0
 40
1.0
 40
1.0
 10
562.1730486192
 20
132.7288167917
 30
0.0
 10
561.8025470713
 20
132.7288167917
 30
0.0
 10
560.9849524753
 20
132.9673477314
 30
0.0
 10
560.7464304231
 20
133.7849440706
 30
0.0
 10
560.7464304231
 20
134.1554493422
 30
0.0
  0
SPLINE
  5
454
100
AcDbEntity
  8
03___PRT_ALL_CURVES
100
AcDbSpline
 62
40
  6
CONTINUOUS
 70
0
 71
3
 72
9
 73
5
 74
0
 42
0.0000001
 43
0.0000001
 44
0.0000000001
 40
0.0
 40
0.0
 40
0.0
 40
0.0
 40
0.5000025126
 40
1.0
 40
1.0
 40
1.0
 40
1.0
 10
560.7464304231
 20
138.7927874497
 30
0.0
 10
560.7464304231
 20
139.1632927213
 30
0.0
 10
560.9849524753
 20
139.9808894622
 30
0.0
 10
561.8025470713
 20
140.2194191969
 30
0.0
 10
562.1730486192
 20
140.2194200002
 30
0.0
  0
SPLINE
  5
455
100
AcDbEntity
  8
03___PRT_ALL_CURVES
100
AcDbSpline
 62
40
  6
CONTINUOUS
 70
0
 71
3
 72
9
 73
5
 74
0
 42
0.0000001
 43
0.0000001
 44
0.0000000001
 40
0.0
 40
0.0
 40
0.0
 40
0.0
 40
0.4999571576
 40
1.0
 40
1.0
 40
1.0
 40
1.0
 10
562.1730486192
 20
140.5439743838
 30
0.0
 10
561.7198924583
 20
140.5439734013
 30
0.0
 10
560.7301848618
 20
140.2357528817
 30
0.0
 10
560.4218760395
 20
139.2460212744
 30
0.0
 10
560.4218760395
 20
138.7927874497
 30
0.0
  0
SPLINE
  5
456
100
AcDbEntity
  8
03___PRT_ALL_CURVES
100
AcDbSpline
 62
40
  6
CONTINUOUS
 70
0
 71
3
 72
9
 73
5
 74
0
 42
0.0000001
 43
0.0000001
 44
0.0000000001
 40
0.0
 40
0.0
 40
0.0
 40
0.0
 40
0.5001269667
 40
1.0
 40
1.0
 40
1.0
 40
1.0
 10
560.4218760395
 20
134.1554493422
 30
0.0
 10
560.4218760395
 20
133.7021046737
 30
0.0
 10
560.7299456057
 20
132.7120476089
 30
0.0
 10
561.7199341311
 20
132.4042624081
 30
0.0
 10
562.1730486192
 20
132.4042624081
 30
0.0
  0
SPLINE
  5
457
100
AcDbEntity
  8
03___PRT_ALL_CURVES
100
AcDbSpline
 62
40
  6
CONTINUOUS
 70
0
 71
3
 72
9
 73
5
 74
0
 42
0.0000001
 43
0.0000001
 44
0.0000000001
 40
0.0
 40
0.0
 40
0.0
 40
0.0
 40
0.499872262
 40
1.0
 40
1.0
 40
1.0
 40
1.0
 10
598.670717804
 20
132.4042624081
 30
0.0
 10
599.1238300527
 20
132.4042653072
 30
0.0
 10
600.1138153098
 20
132.7120477394
 30
0.0
 10
600.4218789299
 20
133.7021055158
 30
0.0
 10
600.4218760292
 20
134.1554493422
 30
0.0
  0
SPLINE
  5
458
100
AcDbEntity
  8
03___PRT_ALL_CURVES
100
AcDbSpline
 62
40
  6
CONTINUOUS
 70
0
 71
3
 72
9
 73
5
 74
0
 42
0.0000001
 43
0.0000001
 44
0.0000000001
 40
0.0
 40
0.0
 40
0.0
 40
0.0
 40
0.5000436131
 40
1.0
 40
1.0
 40
1.0
 40
1.0
 10
600.4218760292
 20
138.7927874497
 30
0.0
 10
600.4218731293
 20
139.2460204321
 30
0.0
 10
600.1135789535
 20
140.2357493607
 30
0.0
 10
599.1238717256
 20
140.5439772832
 30
0.0
 10
598.670717804
 20
140.5439743838
 30
0.0
  0
SPLINE
  5
459
100
AcDbEntity
  8
03___PRT_ALL_CURVES
100
AcDbSpline
 62
40
  6
CONTINUOUS
 70
0
 71
3
 72
8
 73
4
 74
0
 42
0.0000001
 43
0.0000001
 44
0.0000000001
 40
0.0
 40
0.0
 40
0.0
 40
0.0
 40
1.0
 40
1.0
 40
1.0
 40
1.0
 10
576.9473641766
 20
134.6993686126
 30
0.0
 10
576.9659986259
 20
134.5582731955
 30
0.0
 10
577.1361866363
 20
134.4298492359
 30
0.0
 10
577.2785072582
 20
134.4298492359
 30
0.0
  0
SPLINE
  5
45A
100
AcDbEntity
  8
03___PRT_ALL_CURVES
100
AcDbSpline
 62
40
  6
CONTINUOUS
 70
0
 71
3
 72
8
 73
4
 74
0
 42
0.0000001
 43
0.0000001
 44
0.0000000001
 40
0.0
 40
0.0
 40
0.0
 40
0.0
 40
1.0
 40
1.0
 40
1.0
 40
1.0
 10
575.14022355
 20
135.0003960331
 30
0.0
 10
575.1951846142
 20
134.8629712999
 30
0.0
 10
575.3482782889
 20
134.7351112227
 30
0.0
 10
575.4962859774
 20
134.7351112227
 30
0.0
  0
SPLINE
  5
45B
100
AcDbEntity
  8
03___PRT_ALL_CURVES
100
AcDbSpline
 62
40
  6
CONTINUOUS
 70
0
 71
3
 72
8
 73
4
 74
0
 42
0.0000001
 43
0.0000001
 44
0.0000000001
 40
0.0
 40
0.0
 40
0.0
 40
0.0
 40
1.0
 40
1.0
 40
1.0
 40
1.0
 10
569.3006131317
 20
136.9293773324
 30
0.0
 10
569.3006119196
 20
137.4884107639
 30
0.0
 10
568.658795344
 20
138.1001141027
 30
0.0
 10
568.0997619124
 20
138.1001128906
 30
0.0
  0
SPLINE
  5
45C
100
AcDbEntity
  8
03___PRT_ALL_CURVES
100
AcDbSpline
 62
40
  6
CONTINUOUS
 70
0
 71
3
 72
8
 73
4
 74
0
 42
0.0000001
 43
0.0000001
 44
0.0000000001
 40
0.0
 40
0.0
 40
0.0
 40
0.0
 40
1.0
 40
1.0
 40
1.0
 40
1.0
 10
566.8730439528
 20
134.7101775224
 30
0.0
 10
566.8730439528
 20
134.5780261174
 30
0.0
 10
567.0212351888
 20
134.4298489494
 30
0.0
 10
567.1533865937
 20
134.4298492359
 30
0.0
  0
SPLINE
  5
45D
100
AcDbEntity
  8
03___PRT_ALL_CURVES
100
AcDbSpline
 62
40
  6
CONTINUOUS
 70
0
 71
3
 72
8
 73
4
 74
0
 42
0.0000001
 43
0.0000001
 44
0.0000000001
 40
0.0
 40
0.0
 40
0.0
 40
0.0
 40
1.0
 40
1.0
 40
1.0
 40
1.0
 10
568.6185752289
 20
134.6386923022
 30
0.0
 10
568.6793007
 20
134.5168753373
 30
0.0
 10
568.8333562897
 20
134.4298492359
 30
0.0
 10
568.9694700501
 20
134.4298492359
 30
0.0
  0
SPLINE
  5
45E
100
AcDbEntity
  8
03___PRT_ALL_CURVES
100
AcDbSpline
 62
40
  6
CONTINUOUS
 70
0
 71
3
 72
8
 73
4
 74
0
 42
0.0000001
 43
0.0000001
 44
0.0000000001
 40
0.0
 40
0.0
 40
0.0
 40
0.0
 40
1.0
 40
1.0
 40
1.0
 40
1.0
 10
568.6797252366
 20
135.9162107025
 30
0.0
 10
569.0359889415
 20
136.0893175904
 30
0.0
 10
569.3006139905
 20
136.5332841337
 30
0.0
 10
569.3006131317
 20
136.9293773324
 30
0.0
  0
SPLINE
  5
45F
100
AcDbEntity
  8
03___PRT_ALL_CURVES
100
AcDbSpline
 62
40
  6
CONTINUOUS
 70
0
 71
3
 72
8
 73
4
 74
0
 42
0.0000001
 43
0.0000001
 44
0.0000000001
 40
0.0
 40
0.0
 40
0.0
 40
0.0
 40
1.0
 40
1.0
 40
1.0
 40
1.0
 10
590.3368330223
 20
134.7101775224
 30
0.0
 10
590.3368330223
 20
134.5782458594
 30
0.0
 10
590.4843109602
 20
134.4298492359
 30
0.0
 10
590.6162426232
 20
134.4298492359
 30
0.0
  0
SPLINE
  5
460
100
AcDbEntity
  8
03___PRT_ALL_CURVES
100
AcDbSpline
 62
40
  6
CONTINUOUS
 70
0
 71
3
 72
8
 73
4
 74
0
 42
0.0000001
 43
0.0000001
 44
0.0000000001
 40
0.0
 40
0.0
 40
0.0
 40
0.0
 40
1.0
 40
1.0
 40
1.0
 40
1.0
 10
592.5974167458
 20
134.6843107821
 30
0.0
 10
592.6936468151
 20
134.545757506
 30
0.0
 10
592.866176244
 20
134.4298482845
 30
0.0
 10
593.0348689722
 20
134.4298492359
 30
0.0
  0
SPLINE
  5
461
100
AcDbEntity
  8
03___PRT_ALL_CURVES
100
AcDbSpline
 62
40
  6
CONTINUOUS
 70
0
 71
3
 72
8
 73
4
 74
0
 42
0.0000001
 43
0.0000001
 44
0.0000000001
 40
0.0
 40
0.0
 40
0.0
 40
0.0
 40
1.0
 40
1.0
 40
1.0
 40
1.0
 10
582.1703212662
 20
134.7101775226
 30
0.0
 10
582.1703212662
 20
134.5779144161
 30
0.0
 10
582.3188744979
 20
134.4298492361
 30
0.0
 10
582.4511376044
 20
134.4298492361
 30
0.0
  0
SPLINE
  5
462
100
AcDbEntity
  8
03___PRT_ALL_CURVES
100
AcDbSpline
 62
40
  6
CONTINUOUS
 70
0
 71
3
 72
8
 73
4
 74
0
 42
0.0000001
 43
0.0000001
 44
0.0000000001
 40
0.0
 40
0.0
 40
0.0
 40
0.0
 40
1.0
 40
1.0
 40
1.0
 40
1.0
 10
584.4313786871
 20
134.6843107823
 30
0.0
 10
584.5275679542
 20
134.5457342112
 30
0.0
 10
584.7001279669
 20
134.4298497572
 30
0.0
 10
584.8688165591
 20
134.4298492361
 30
0.0
  0
SPLINE
  5
463
100
AcDbEntity
  8
03___PRT_ALL_CURVES
100
AcDbSpline
 62
40
  6
CONTINUOUS
 70
0
 71
3
 72
8
 73
4
 74
0
 42
0.0000001
 43
0.0000001
 44
0.0000000001
 40
0.0
 40
0.0
 40
0.0
 40
0.0
 40
1.0
 40
1.0
 40
1.0
 40
1.0
 10
572.3448212848
 20
134.679616873
 30
0.0
 10
572.3921267401
 20
134.5497026457
 30
0.0
 10
572.5377055057
 20
134.4298492359
 30
0.0
 10
572.6759643664
 20
134.4298492359
 30
0.0
  0
SPLINE
  5
464
100
AcDbEntity
  8
03___PRT_ALL_CURVES
100
AcDbSpline
 62
40
  6
CONTINUOUS
 70
0
 71
3
 72
8
 73
4
 74
0
 42
0.0000001
 43
0.0000001
 44
0.0000000001
 40
0.0
 40
0.0
 40
0.0
 40
0.0
 40
1.0
 40
1.0
 40
1.0
 40
1.0
 10
596.5122660768
 20
134.679616873
 30
0.0
 10
596.5594874484
 20
134.5499361442
 30
0.0
 10
596.7044654328
 20
134.4298483529
 30
0.0
 10
596.8424761184
 20
134.4298492359
 30
0.0
  0
SPLINE
  5
465
100
AcDbEntity
  8
03___PRT_ALL_CURVES
100
AcDbSpline
 62
40
  6
CONTINUOUS
 70
0
 71
3
 72
8
 73
4
 74
0
 42
0.0000001
 43
0.0000001
 44
0.0000000001
 40
0.0
 40
0.0
 40
0.0
 40
0.0
 40
1.0
 40
1.0
 40
1.0
 40
1.0
 10
586.7117141503
 20
134.7101775224
 30
0.0
 10
586.7117141503
 20
134.5780261174
 30
0.0
 10
586.8599053863
 20
134.4298481113
 30
0.0
 10
586.9920567912
 20
134.4298492359
 30
0.0
  0
SPLINE
  5
466
100
AcDbEntity
  8
03___PRT_ALL_CURVES
100
AcDbSpline
 62
40
  6
CONTINUOUS
 70
0
 71
3
 72
8
 73
4
 74
0
 42
0.0000001
 43
0.0000001
 44
0.0000000001
 40
0.0
 40
0.0
 40
0.0
 40
0.0
 40
1.0
 40
1.0
 40
1.0
 40
1.0
 10
585.6990212176
 20
137.7233513291
 30
0.0
 10
585.6990214607
 20
137.591531448
 30
0.0
 10
585.8470702802
 20
137.4439560826
 30
0.0
 10
585.9788901613
 20
137.4439560826
 30
0.0
  0
SPLINE
  5
467
100
AcDbEntity
  8
03___PRT_ALL_CURVES
100
AcDbSpline
 62
40
  6
CONTINUOUS
 70
0
 71
3
 72
8
 73
4
 74
0
 42
0.0000001
 43
0.0000001
 44
0.0000000001
 40
0.0
 40
0.0
 40
0.0
 40
0.0
 40
1.0
 40
1.0
 40
1.0
 40
1.0
 10
564.6985439372
 20
134.7101775224
 30
0.0
 10
564.6985439372
 20
134.5780261174
 30
0.0
 10
564.8467351732
 20
134.4298492359
 30
0.0
 10
564.9788865781
 20
134.4298492359
 30
0.0
  0
SPLINE
  5
468
100
AcDbEntity
  8
03___PRT_ALL_CURVES
100
AcDbSpline
 62
40
  6
CONTINUOUS
 70
0
 71
3
 72
8
 73
4
 74
0
 42
0.0000001
 43
0.0000001
 44
0.0000000001
 40
0.0
 40
0.0
 40
0.0
 40
0.0
 40
1.0
 40
1.0
 40
1.0
 40
1.0
 10
563.6853773073
 20
137.7233513291
 30
0.0
 10
563.6853775934
 20
137.5914230439
 30
0.0
 10
563.8337773085
 20
137.4439557965
 30
0.0
 10
563.9657055937
 20
137.4439560826
 30
0.0
  0
SPLINE
  5
469
100
AcDbEntity
  8
03___PRT_ALL_CURVES
100
AcDbSpline
 62
40
  6
CONTINUOUS
 70
0
 71
3
 72
8
 73
4
 74
0
 42
0.0000001
 43
0.0000001
 44
0.0000000001
 40
0.0
 40
0.0
 40
0.0
 40
0.0
 40
1.0
 40
1.0
 40
1.0
 40
1.0
 10
588.9168035242
 20
134.7101775224
 30
0.0
 10
588.9168035242
 20
134.578360655
 30
0.0
 10
589.063908206
 20
134.4298492359
 30
0.0
 10
589.1957250734
 20
134.4298492359
 30
0.0
  0
SPLINE
  5
46A
100
AcDbEntity
  8
03___PRT_ALL_CURVES
100
AcDbSpline
 62
40
  6
CONTINUOUS
 70
0
 71
3
 72
11
 73
7
 74
0
 42
0.0000001
 43
0.0000001
 44
0.0000000001
 40
0.0
 40
0.0
 40
0.0
 40
0.0
 40
0.2311729515
 40
0.502453622
 40
0.7690366214
 40
1.0
 40
1.0
 40
1.0
 40
1.0
 10
568.039085602
 20
137.4693634802
 30
0.0
 10
568.1694420674
 20
137.4693637628
 30
0.0
 10
568.479621176
 20
137.4008368411
 30
0.0
 10
568.6557343604
 20
136.936897548
 30
0.0
 10
568.4769323477
 20
136.4757895312
 30
0.0
 10
568.169323891
 20
136.4096166214
 30
0.0
 10
568.039085602
 20
136.4096166214
 30
0.0
  0
ENDSEC
  0
SECTION
  2
OBJECTS
  0
DICTIONARY
  5
C
100
AcDbDictionary
280
0
281
1
  3
ACAD_GROUP
350
D
  3
ACAD_MLINESTYLE
350
17
  3
ACAD_LAYOUT
350
1A
  3
ACAD_PLOTSETTINGS
350
19
  3
ACAD_PLOTSTYLENAME
350
E
  0
DICTIONARY
  5
D
102
{ACAD_REACTORS
330
C
102
}
100
AcDbDictionary
280
0
281
1
  0
ACDBDICTIONARYWDFLT
  5
E
102
{ACAD_REACTORS
330
C
102
}
100
AcDbDictionary
281
1
  3
Normal
350
F
100
AcDbDictionaryWithDefault
340
F
  0
DICTIONARY
  5
17
102
{ACAD_REACTORS
330
C
102
}
100
AcDbDictionary
280
0
281
1
  3
Standard
350
18
  0
DICTIONARY
  5
19
102
{ACAD_REACTORS
330
C
102
}
100
AcDbDictionary
281
1
  0
DICTIONARY
  5
1A
102
{ACAD_REACTORS
330
C
102
}
100
AcDbDictionary
281
1
  3
Model
350
46B
  3
Layout1
350
46C
  0
ACDBPLACEHOLDER
  5
F
102
{ACAD_REACTORS
330
E
102
}
  0
MLINESTYLE
  5
18
102
{ACAD_REACTORS
330
17
102
}
100
AcDbMlineStyle
  2
STANDARD
 70
0
  3

 62
256
 51
90.0
 52
90.0
 71
2
 49
0.5
 62
256
  6
BYLAYER
 49
-0.5
 62
256
  6
BYLAYER
  0
LAYOUT
  5
46B
102
{ACAD_REACTORS
330
1A
102
}
100
AcDbPlotSettings
  1

  2
none_device
  4
ISO_A0_(1189.00_x_841.00_MM)
  6

 40
0.0
 41
0.0
 42
0.0
 43
0.0
 44
1189.0
 45
841.0
 46
0.0
 47
0.0
 48
0.0
 49
0.0
140
0.0
141
0.0
142
1.0
143
1.0
 70
1024
 72
1
 73
0
 74
0
  7

 75
0
147
1.0
148
0.0
149
0.0
100
AcDbLayout
  1
Model
 70
0
 71
0
 10
0.0
 20
0.0
 11
1189.0
 21
841.0
 12
0.0
 22
0.0
 32
0.0
 14
0.0
 24
0.0
 34
0.0
 15
0.0
 25
0.0
 35
0.0
146
0.0
 13
0.0
 23
0.0
 33
0.0
 16
1.0
 26
0.0
 36
0.0
 17
0.0
 27
1.0
 37
0.0
 76
0
330
216
345
0
346
0
  0
LAYOUT
  5
46C
102
{ACAD_REACTORS
330
1A
102
}
100
AcDbPlotSettings
  1

  2
none_device
  4
ISO_A0_(1189.00_x_841.00_MM)
  6

 40
0.0
 41
0.0
 42
0.0
 43
0.0
 44
1189.0
 45
841.0
 46
0.0
 47
0.0
 48
0.0
 49
0.0
140
0.0
141
0.0
142
1.0
143
1.0
 70
0
 72
1
 73
0
 74
0
  7

 75
0
147
1.0
148
0.0
149
0.0
100
AcDbLayout
  1
Layout1
 70
0
 71
1
 10
0.0
 20
0.0
 11
1189.0
 21
841.0
 12
0.0
 22
0.0
 32
0.0
 14
0.0
 24
0.0
 34
0.0
 15
0.0
 25
0.0
 35
0.0
146
0.0
 13
0.0
 23
0.0
 33
0.0
 16
1.0
 26
0.0
 36
0.0
 17
0.0
 27
1.0
 37
0.0
 76
0
330
217
345
0
346
0
  0
ENDSEC
  0
EOF
