  0
SECTION
  2
HEADER
  9
$ACADVER
  1
AC1032
  9
$ACADMAINTVER
 90
      197
  9
$DWGCODEPAGE
  3
ANSI_1252
  9
$REQUIREDVERSIONS
160
                 0
  9
$INSBASE
 10
0.0
 20
0.0
 30
0.0
  9
$EXTMIN
 10
1.000000000000000E+20
 20
1.000000000000000E+20
 30
1.000000000000000E+20
  9
$EXTMAX
 10
-1.000000000000000E+20
 20
-1.000000000000000E+20
 30
-1.000000000000000E+20
  9
$LIMMIN
 10
0.0
 20
0.0
  9
$LIMMAX
 10
12.0
 20
9.0
  9
$ORTHOMODE
 70
     0
  9
$REGENMODE
 70
     1
  9
$FILLMODE
 70
     1
  9
$QTEXTMODE
 70
     0
  9
$MIRRTEXT
 70
     0
  9
$LTSCALE
 40
1.0
  9
$ATTMODE
 70
     1
  9
$TEXTSIZE
 40
0.2
  9
$TRACEWID
 40
0.05
  9
$TEXTSTYLE
  7
Standard
  9
$CLAYER
  8
0
  9
$CELTYPE
  6
ByLayer
  9
$CECOLOR
 62
   256
  9
$CELTSCALE
 40
1.0
  9
$DISPSILH
 70
     0
  9
$DIMSCALE
 40
1.0
  9
$DIMASZ
 40
0.18
  9
$DIMEXO
 40
0.0625
  9
$DIMDLI
 40
0.38
  9
$DIMRND
 40
0.0
  9
$DIMDLE
 40
0.0
  9
$DIMEXE
 40
0.18
  9
$DIMTP
 40
0.0
  9
$DIMTM
 40
0.0
  9
$DIMTXT
 40
0.18
  9
$DIMCEN
 40
0.09
  9
$DIMTSZ
 40
0.0
  9
$DIMTOL
 70
     0
  9
$DIMLIM
 70
     0
  9
$DIMTIH
 70
     1
  9
$DIMTOH
 70
     1
  9
$DIMSE1
 70
     0
  9
$DIMSE2
 70
     0
  9
$DIMTAD
 70
     0
  9
$DIMZIN
 70
     0
  9
$DIMBLK
  1

  9
$DIMASO
 70
     1
  9
$DIMSHO
 70
     1
  9
$DIMPOST
  1

  9
$DIMAPOST
  1

  9
$DIMALT
 70
     0
  9
$DIMALTD
 70
     2
  9
$DIMALTF
 40
25.4
  9
$DIMLFAC
 40
1.0
  9
$DIMTOFL
 70
     0
  9
$DIMTVP
 40
0.0
  9
$DIMTIX
 70
     0
  9
$DIMSOXD
 70
     0
  9
$DIMSAH
 70
     0
  9
$DIMBLK1
  1

  9
$DIMBLK2
  1

  9
$DIMSTYLE
  2
Standard
  9
$DIMCLRD
 70
     0
  9
$DIMCLRE
 70
     0
  9
$DIMCLRT
 70
     0
  9
$DIMTFAC
 40
1.0
  9
$DIMGAP
 40
0.09
  9
$DIMJUST
 70
     0
  9
$DIMSD1
 70
     0
  9
$DIMSD2
 70
     0
  9
$DIMTOLJ
 70
     1
  9
$DIMTZIN
 70
     0
  9
$DIMALTZ
 70
     0
  9
$DIMALTTZ
 70
     0
  9
$DIMUPT
 70
     0
  9
$DIMDEC
 70
     4
  9
$DIMTDEC
 70
     4
  9
$DIMALTU
 70
     2
  9
$DIMALTTD
 70
     2
  9
$DIMTXSTY
  7
Standard
  9
$DIMAUNIT
 70
     0
  9
$DIMADEC
 70
     0
  9
$DIMALTRND
 40
0.0
  9
$DIMAZIN
 70
     0
  9
$DIMDSEP
 70
    46
  9
$DIMATFIT
 70
     3
  9
$DIMFRAC
 70
     0
  9
$DIMLDRBLK
  1

  9
$DIMLUNIT
 70
     2
  9
$DIMLWD
 70
    -2
  9
$DIMLWE
 70
    -2
  9
$DIMTMOVE
 70
     0
  9
$DIMFXL
 40
1.0
  9
$DIMFXLON
 70
     0
  9
$DIMJOGANG
 40
0.7853981633974483
  9
$DIMTFILL
 70
     0
  9
$DIMTFILLCLR
 70
     0
  9
$DIMARCSYM
 70
     0
  9
$DIMLTYPE
  6

  9
$DIMLTEX1
  6

  9
$DIMLTEX2
  6

  9
$DIMTXTDIRECTION
 70
     0
  9
$LUNITS
 70
     2
  9
$LUPREC
 70
     4
  9
$SKETCHINC
 40
0.1
  9
$FILLETRAD
 40
0.0
  9
$AUNITS
 70
     0
  9
$AUPREC
 70
     0
  9
$MENU
  1
.
  9
$ELEVATION
 40
0.0
  9
$PELEVATION
 40
0.0
  9
$THICKNESS
 40
0.0
  9
$LIMCHECK
 70
     0
  9
$CHAMFERA
 40
0.0
  9
$CHAMFERB
 40
0.0
  9
$CHAMFERC
 40
0.0
  9
$CHAMFERD
 40
0.0
  9
$SKPOLY
 70
     0
  9
$TDCREATE
 40
2459565.627060185
  9
$TDUCREATE
 40
2459565.752060185
  9
$TDUPDATE
 40
2459565.627060185
  9
$TDUUPDATE
 40
2459565.752060185
  9
$TDINDWG
 40
0.0000000000
  9
$TDUSRTIMER
 40
0.0000000000
  9
$USRTIMER
 70
     1
  9
$ANGBASE
 50
0.0
  9
$ANGDIR
 70
     0
  9
$PDMODE
 70
     0
  9
$PDSIZE
 40
0.0
  9
$PLINEWID
 40
0.0
  9
$SPLFRAME
 70
     0
  9
$SPLINETYPE
 70
     6
  9
$SPLINESEGS
 70
     8
  9
$HANDSEED
  5
2F3
  9
$SURFTAB1
 70
     6
  9
$SURFTAB2
 70
     6
  9
$SURFTYPE
 70
     6
  9
$SURFU
 70
     6
  9
$SURFV
 70
     6
  9
$UCSBASE
  2

  9
$UCSNAME
  2

  9
$UCSORG
 10
0.0
 20
0.0
 30
0.0
  9
$UCSXDIR
 10
1.0
 20
0.0
 30
0.0
  9
$UCSYDIR
 10
0.0
 20
1.0
 30
0.0
  9
$UCSORTHOREF
  2

  9
$UCSORTHOVIEW
 70
     0
  9
$UCSORGTOP
 10
0.0
 20
0.0
 30
0.0
  9
$UCSORGBOTTOM
 10
0.0
 20
0.0
 30
0.0
  9
$UCSORGLEFT
 10
0.0
 20
0.0
 30
0.0
  9
$UCSORGRIGHT
 10
0.0
 20
0.0
 30
0.0
  9
$UCSORGFRONT
 10
0.0
 20
0.0
 30
0.0
  9
$UCSORGBACK
 10
0.0
 20
0.0
 30
0.0
  9
$PUCSBASE
  2

  9
$PUCSNAME
  2

  9
$PUCSORG
 10
0.0
 20
0.0
 30
0.0
  9
$PUCSXDIR
 10
1.0
 20
0.0
 30
0.0
  9
$PUCSYDIR
 10
0.0
 20
1.0
 30
0.0
  9
$PUCSORTHOREF
  2

  9
$PUCSORTHOVIEW
 70
     0
  9
$PUCSORGTOP
 10
0.0
 20
0.0
 30
0.0
  9
$PUCSORGBOTTOM
 10
0.0
 20
0.0
 30
0.0
  9
$PUCSORGLEFT
 10
0.0
 20
0.0
 30
0.0
  9
$PUCSORGRIGHT
 10
0.0
 20
0.0
 30
0.0
  9
$PUCSORGFRONT
 10
0.0
 20
0.0
 30
0.0
  9
$PUCSORGBACK
 10
0.0
 20
0.0
 30
0.0
  9
$USERI1
 70
     0
  9
$USERI2
 70
     0
  9
$USERI3
 70
     0
  9
$USERI4
 70
     0
  9
$USERI5
 70
     0
  9
$USERR1
 40
0.0
  9
$USERR2
 40
0.0
  9
$USERR3
 40
0.0
  9
$USERR4
 40
0.0
  9
$USERR5
 40
0.0
  9
$WORLDVIEW
 70
     1
  9
$SHADEDGE
 70
     3
  9
$SHADEDIF
 70
    70
  9
$TILEMODE
 70
     1
  9
$MAXACTVP
 70
    64
  9
$PINSBASE
 10
0.0
 20
0.0
 30
0.0
  9
$PLIMCHECK
 70
     0
  9
$PEXTMIN
 10
1.000000000000000E+20
 20
1.000000000000000E+20
 30
1.000000000000000E+20
  9
$PEXTMAX
 10
-1.000000000000000E+20
 20
-1.000000000000000E+20
 30
-1.000000000000000E+20
  9
$PLIMMIN
 10
0.0
 20
0.0
  9
$PLIMMAX
 10
12.0
 20
9.0
  9
$UNITMODE
 70
     0
  9
$VISRETAIN
 70
     1
  9
$PLINEGEN
 70
     0
  9
$PSLTSCALE
 70
     1
  9
$TREEDEPTH
 70
  3020
  9
$CMLSTYLE
  2
Standard
  9
$CMLJUST
 70
     0
  9
$CMLSCALE
 40
1.0
  9
$PROXYGRAPHICS
 70
     1
  9
$MEASUREMENT
 70
     0
  9
$CELWEIGHT
370
    -1
  9
$ENDCAPS
280
     0
  9
$JOINSTYLE
280
     0
  9
$LWDISPLAY
290
     1
  9
$INSUNITS
 70
     0
  9
$HYPERLINKBASE
  1

  9
$STYLESHEET
  1

  9
$XEDIT
290
     1
  9
$CEPSNTYPE
380
     0
  9
$PSTYLEMODE
290
     1
  9
$FINGERPRINTGUID
  2
{6CBE714A-3302-CD48-BE3E-F154DC4FDF66}
  9
$VERSIONGUID
  2
{A285E5D9-03EE-6943-898A-AB9CAF0F687A}
  9
$EXTNAMES
290
     1
  9
$PSVPSCALE
 40
0.0
  9
$OLESTARTUP
290
     0
  9
$SORTENTS
280
   127
  9
$INDEXCTL
280
     0
  9
$HIDETEXT
280
     1
  9
$XCLIPFRAME
280
     2
  9
$HALOGAP
280
     0
  9
$OBSCOLOR
 70
   257
  9
$OBSLTYPE
280
     0
  9
$INTERSECTIONDISPLAY
280
     0
  9
$INTERSECTIONCOLOR
 70
   257
  9
$DIMASSOC
280
     2
  9
$PROJECTNAME
  1

  9
$CAMERADISPLAY
290
     0
  9
$LENSLENGTH
 40
50.0
  9
$CAMERAHEIGHT
 40
0.0
  9
$STEPSPERSEC
 40
2.0
  9
$STEPSIZE
 40
6.0
  9
$3DDWFPREC
 40
2.0
  9
$PSOLWIDTH
 40
0.25
  9
$PSOLHEIGHT
 40
4.0
  9
$LOFTANG1
 40
1.570796326794896
  9
$LOFTANG2
 40
1.570796326794896
  9
$LOFTMAG1
 40
0.0
  9
$LOFTMAG2
 40
0.0
  9
$LOFTPARAM
 70
     7
  9
$LOFTNORMALS
280
     1
  9
$LATITUDE
 40
37.795
  9
$LONGITUDE
 40
-122.394
  9
$NORTHDIRECTION
 40
0.0
  9
$TIMEZONE
 70
 -8000
  9
$LIGHTGLYPHDISPLAY
280
     1
  9
$TILEMODELIGHTSYNCH
280
     1
  9
$CMATERIAL
347
11
  9
$SOLIDHIST
280
     0
  9
$SHOWHIST
280
     1
  9
$DWFFRAME
280
     2
  9
$DGNFRAME
280
     0
  9
$REALWORLDSCALE
290
     1
  9
$INTERFERECOLOR
 62
     1
  9
$INTERFEREOBJVS
345
33
  9
$INTERFEREVPVS
346
30
  9
$CSHADOW
280
     0
  9
$SHADOWPLANELOCATION
 40
0.0
  0
ENDSEC
  0
SECTION
  2
CLASSES
  0
CLASS
  1
ACDBDICTIONARYWDFLT
  2
AcDbDictionaryWithDefault
  3
ObjectDBX Classes
 90
        0
 91
        1
280
     0
281
     0
  0
CLASS
  1
MATERIAL
  2
AcDbMaterial
  3
ObjectDBX Classes
 90
     1153
 91
        3
280
     0
281
     0
  0
CLASS
  1
VISUALSTYLE
  2
AcDbVisualStyle
  3
ObjectDBX Classes
 90
     4095
 91
       24
280
     0
281
     0
  0
CLASS
  1
SCALE
  2
AcDbScale
  3
ObjectDBX Classes
 90
     1153
 91
       17
280
     0
281
     0
  0
CLASS
  1
TABLESTYLE
  2
AcDbTableStyle
  3
ObjectDBX Classes
 90
     4095
 91
        1
280
     0
281
     0
  0
CLASS
  1
MLEADERSTYLE
  2
AcDbMLeaderStyle
  3
ACDB_MLEADERSTYLE_CLASS
 90
     4095
 91
        1
280
     0
281
     0
  0
CLASS
  1
ACDBSECTIONVIEWSTYLE
  2
AcDbSectionViewStyle
  3
ObjectDBX Classes
 90
     1025
 91
        1
280
     0
281
     0
  0
CLASS
  1
ACDBDETAILVIEWSTYLE
  2
AcDbDetailViewStyle
  3
ObjectDBX Classes
 90
     1025
 91
        1
280
     0
281
     0
  0
CLASS
  1
DICTIONARYVAR
  2
AcDbDictionaryVar
  3
ObjectDBX Classes
 90
        0
 91
        5
280
     0
281
     0
  0
CLASS
  1
CELLSTYLEMAP
  2
AcDbCellStyleMap
  3
ObjectDBX Classes
 90
     1152
 91
        1
280
     0
281
     0
  0
ENDSEC
  0
SECTION
  2
TABLES
  0
TABLE
  2
VPORT
  5
8
330
0
100
AcDbSymbolTable
 70
     1
  0
VPORT
  5
57
330
8
100
AcDbSymbolTableRecord
100
AcDbViewportTableRecord
  2
*Active
 70
     0
 10
0.0
 20
0.0
 11
1.0
 21
1.0
 12
0.0
 22
0.0
 13
0.0
 23
0.0
 14
1.0
 24
1.0
 15
0.0
 25
0.0
 16
0.0
 26
0.0
 36
1.0
 17
450.0
 27
246.584783642053
 37
0.0
 40
700.3159080503181
 41
1.310836994344045
 42
50.0
 43
0.0
 44
0.0
 50
0.0
 51
0.0
 71
     0
 72
   100
 73
     1
 74
     1
 75
     0
 76
     0
 77
     0
 78
     0
281
     0
 65
     1
110
0.0
120
0.0
130
0.0
111
1.0
121
0.0
131
0.0
112
0.0
122
1.0
132
0.0
 79
     0
146
0.0
 60
     3
 61
     5
292
     1
282
     1
141
0.0
142
0.0
 63
   250
421
  3355443
  0
ENDTAB
  0
TABLE
  2
LTYPE
  5
5
330
0
100
AcDbSymbolTable
 70
     1
  0
LTYPE
  5
5B
330
5
100
AcDbSymbolTableRecord
100
AcDbLinetypeTableRecord
  2
ByBlock
 70
     0
  3

 72
    65
 73
     0
 40
0.0
  0
LTYPE
  5
5C
330
5
100
AcDbSymbolTableRecord
100
AcDbLinetypeTableRecord
  2
ByLayer
 70
     0
  3

 72
    65
 73
     0
 40
0.0
  0
LTYPE
  5
5D
330
5
100
AcDbSymbolTableRecord
100
AcDbLinetypeTableRecord
  2
Continuous
 70
     0
  3
Solid line
 72
    65
 73
     0
 40
0.0
  0
ENDTAB
  0
TABLE
  2
LAYER
  5
2
330
0
100
AcDbSymbolTable
 70
     6
  0
LAYER
  5
54
330
2
100
AcDbSymbolTableRecord
100
AcDbLayerTableRecord
  2
0
 70
     0
 62
     7
  6
Continuous
370
     0
390
F
347
21
348
0
  0
LAYER
  5
7F
330
2
100
AcDbSymbolTableRecord
100
AcDbLayerTableRecord
  2
1
 70
     0
 62
     7
  6
Continuous
370
     0
390
F
347
21
348
0
  0
LAYER
  5
1B6
330
2
100
AcDbSymbolTableRecord
100
AcDbLayerTableRecord
  2
Right$1
 70
     0
 62
     7
  6
Continuous
370
     0
390
F
347
21
348
0
  0
LAYER
  5
232
330
2
100
AcDbSymbolTableRecord
100
AcDbLayerTableRecord
  2
ORTHO$2
 70
     0
 62
     7
  6
Continuous
370
     0
390
F
347
21
348
0
  0
LAYER
  5
250
330
2
100
AcDbSymbolTableRecord
100
AcDbLayerTableRecord
  2
Right$1_0
 70
     0
 62
     7
  6
Continuous
370
     0
390
F
347
21
348
0
  0
LAYER
  5
2CC
330
2
100
AcDbSymbolTableRecord
100
AcDbLayerTableRecord
  2
ORTHO$2_1
 70
     0
 62
     7
  6
Continuous
370
     0
390
F
347
21
348
0
  0
ENDTAB
  0
TABLE
  2
STYLE
  5
3
330
0
100
AcDbSymbolTable
 70
     2
  0
STYLE
  5
55
330
3
100
AcDbSymbolTableRecord
100
AcDbTextStyleTableRecord
  2
Standard
 70
     0
 40
0.0
 41
1.0
 50
0.0
 71
     0
 42
0.2
  3
txt
  4

  0
STYLE
  5
5A
330
3
100
AcDbSymbolTableRecord
100
AcDbTextStyleTableRecord
  2
Annotative
 70
     0
 40
0.0
 41
1.0
 50
0.0
 71
     0
 42
0.2
  3
txt
  4

1001
AcadAnnotative
1000
AnnotativeData
1002
{
1070
     1
1070
     1
1002
}
  0
ENDTAB
  0
TABLE
  2
VIEW
  5
6
330
0
100
AcDbSymbolTable
 70
     0
  0
ENDTAB
  0
TABLE
  2
UCS
  5
7
330
0
100
AcDbSymbolTable
 70
     0
  0
ENDTAB
  0
TABLE
  2
APPID
  5
9
330
0
100
AcDbSymbolTable
 70
     2
  0
APPID
  5
56
330
9
100
AcDbSymbolTableRecord
100
AcDbRegAppTableRecord
  2
ACAD
 70
     0
  0
APPID
  5
5E
330
9
100
AcDbSymbolTableRecord
100
AcDbRegAppTableRecord
  2
AcadAnnotative
 70
     0
  0
ENDTAB
  0
TABLE
  2
DIMSTYLE
  5
A
330
0
100
AcDbSymbolTable
 70
     2
100
AcDbDimStyleTable
 71
     0
  0
DIMSTYLE
105
58
330
A
100
AcDbSymbolTableRecord
100
AcDbDimStyleTableRecord
  2
Standard
 70
     0
340
55
  0
DIMSTYLE
105
59
330
A
100
AcDbSymbolTableRecord
100
AcDbDimStyleTableRecord
  2
Annotative
 70
     0
340
55
1001
AcadAnnotative
1000
AnnotativeData
1002
{
1070
     1
1070
     1
1002
}
  0
ENDTAB
  0
TABLE
  2
BLOCK_RECORD
  5
1
330
0
100
AcDbSymbolTable
 70
     9
  0
BLOCK_RECORD
  5
70
330
1
100
AcDbSymbolTableRecord
100
AcDbBlockTableRecord
  2
*Model_Space
340
73
 70
     0
280
     1
281
     0
  0
BLOCK_RECORD
  5
6C
330
1
100
AcDbSymbolTableRecord
100
AcDbBlockTableRecord
  2
*Paper_Space
340
6F
 70
     0
280
     1
281
     0
  0
BLOCK_RECORD
  5
74
330
1
100
AcDbSymbolTableRecord
100
AcDbBlockTableRecord
  2
*Paper_Space0
340
77
 70
     0
280
     1
281
     0
  0
BLOCK_RECORD
  5
79
330
1
100
AcDbSymbolTableRecord
100
AcDbBlockTableRecord
  2
Block_0
340
0
102
{BLKREFS
331
7A
102
}
 70
     0
280
     1
281
     0
  0
BLOCK_RECORD
  5
88
330
1
100
AcDbSymbolTableRecord
100
AcDbBlockTableRecord
  2
Block_1
340
0
102
{BLKREFS
331
89
102
}
 70
     0
280
     1
281
     0
  0
BLOCK_RECORD
  5
102
330
1
100
AcDbSymbolTableRecord
100
AcDbBlockTableRecord
  2
Block_2
340
0
102
{BLKREFS
331
103
102
}
 70
     0
280
     1
281
     0
  0
BLOCK_RECORD
  5
179
330
1
100
AcDbSymbolTableRecord
100
AcDbBlockTableRecord
  2
Block_3
340
0
102
{BLKREFS
331
17A
102
}
 70
     0
280
     1
281
     0
  0
BLOCK_RECORD
  5
185
330
1
100
AcDbSymbolTableRecord
100
AcDbBlockTableRecord
  2
Block_4
340
0
102
{BLKREFS
331
186
102
}
 70
     0
280
     1
281
     0
  0
BLOCK_RECORD
  5
191
330
1
100
AcDbSymbolTableRecord
100
AcDbBlockTableRecord
  2
Block_5
340
0
102
{BLKREFS
331
192
102
}
 70
     0
280
     1
281
     0
  0
BLOCK_RECORD
  5
19D
330
1
100
AcDbSymbolTableRecord
100
AcDbBlockTableRecord
  2
Block_6
340
0
102
{BLKREFS
331
19E
102
}
 70
     0
280
     1
281
     0
  0
BLOCK_RECORD
  5
1A9
330
1
100
AcDbSymbolTableRecord
100
AcDbBlockTableRecord
  2
Block_7
340
0
102
{BLKREFS
331
1AA
102
}
 70
     0
280
     1
281
     0
  0
ENDTAB
  0
ENDSEC
  0
SECTION
  2
BLOCKS
  0
BLOCK
  5
71
330
70
100
AcDbEntity
  8
0
100
AcDbBlockBegin
  2
*Model_Space
 70
     0
 10
0.0
 20
0.0
 30
0.0
  3
*Model_Space
  1

  0
ENDBLK
  5
72
330
70
100
AcDbEntity
  8
0
100
AcDbBlockEnd
  0
BLOCK
  5
6D
330
6C
100
AcDbEntity
 67
     1
  8
0
100
AcDbBlockBegin
  2
*Paper_Space
 70
     0
 10
0.0
 20
0.0
 30
0.0
  3
*Paper_Space
  1

  0
ENDBLK
  5
6E
330
6C
100
AcDbEntity
 67
     1
  8
0
100
AcDbBlockEnd
  0
BLOCK
  5
75
330
74
100
AcDbEntity
 67
     1
  8
0
100
AcDbBlockBegin
  2
*Paper_Space0
 70
     0
 10
0.0
 20
0.0
 30
0.0
  3
*Paper_Space0
  1

  0
ENDBLK
  5
76
330
74
100
AcDbEntity
 67
     1
  8
0
100
AcDbBlockEnd
  0
BLOCK
  5
7B
330
79
100
AcDbEntity
  8
0
100
AcDbBlockBegin
  2
Block_0
 70
     0
 10
0.0
 20
0.0
 30
0.0
  3
Block_0
  1

  0
ENDBLK
  5
7C
330
79
100
AcDbEntity
  8
0
100
AcDbBlockEnd
  0
BLOCK
  5
8A
330
88
100
AcDbEntity
  8
0
100
AcDbBlockBegin
  2
Block_1
 70
     0
 10
0.0
 20
0.0
 30
0.0
  3
Block_1
  1

  0
LWPOLYLINE
  5
8C
330
88
100
AcDbEntity
  8
1
 62
     7
370
    35
100
AcDbPolyline
 90
        3
 70
     1
 43
0.0
 10
469.5556524217336
 20
140.1099856626042
 10
466.7549019285034
 20
139.7412596867434
 10
466.7548992196898
 20
140.478711638465
  0
SPLINE
  5
8D
330
88
100
AcDbEntity
  8
1
 62
     7
370
     0
100
AcDbSpline
210
0.0
220
0.0
230
1.0
 70
    24
 71
     3
 72
     8
 73
     4
 74
     0
 42
0.0000000001
 43
0.0000000001
 40
0.0
 40
0.0
 40
0.0
 40
0.0
 40
1.0
 40
1.0
 40
1.0
 40
1.0
 10
469.5294693914457
 20
140.1065385996062
 30
0.0
 10
469.5294693914457
 20
140.1065385996062
 30
0.0
 10
469.5355614763102
 20
140.1126306844689
 30
0.0
 10
469.5355614763102
 20
140.1126306844689
 30
0.0
  0
SPLINE
  5
8E
330
88
100
AcDbEntity
  8
1
 62
     7
370
     0
100
AcDbSpline
210
0.0
220
0.0
230
1.0
 70
    24
 71
     3
 72
     8
 73
     4
 74
     0
 42
0.0000000001
 43
0.0000000001
 40
0.0
 40
0.0
 40
0.0
 40
0.0
 40
1.0
 40
1.0
 40
1.0
 40
1.0
 10
469.497401272256
 20
140.1023167495805
 30
0.0
 10
469.497401272256
 20
140.1023167495805
 30
0.0
 10
469.5109547434204
 20
140.1158702207449
 30
0.0
 10
469.5109547434204
 20
140.1158702207449
 30
0.0
  0
SPLINE
  5
8F
330
88
100
AcDbEntity
  8
1
 62
     7
370
     0
100
AcDbSpline
210
0.0
220
0.0
230
1.0
 70
    24
 71
     3
 72
     8
 73
     4
 74
     0
 42
0.0000000001
 43
0.0000000001
 40
0.0
 40
0.0
 40
0.0
 40
0.0
 40
1.0
 40
1.0
 40
1.0
 40
1.0
 10
469.4653331530644
 20
140.0980948995548
 30
0.0
 10
469.4653331530644
 20
140.0980948995548
 30
0.0
 10
469.4863480105304
 20
140.1191097570208
 30
0.0
 10
469.4863480105304
 20
140.1191097570208
 30
0.0
  0
SPLINE
  5
90
330
88
100
AcDbEntity
  8
1
 62
     7
370
     0
100
AcDbSpline
210
0.0
220
0.0
230
1.0
 70
    24
 71
     3
 72
     8
 73
     4
 74
     0
 42
0.0000000001
 43
0.0000000001
 40
0.0
 40
0.0
 40
0.0
 40
0.0
 40
1.0
 40
1.0
 40
1.0
 40
1.0
 10
469.4332650338728
 20
140.0938730495272
 30
0.0
 10
469.4332650338728
 20
140.0938730495272
 30
0.0
 10
469.4617412776424
 20
140.1223492932968
 30
0.0
 10
469.4617412776424
 20
140.1223492932968
 30
0.0
  0
SPLINE
  5
91
330
88
100
AcDbEntity
  8
1
 62
     7
370
     0
100
AcDbSpline
210
0.0
220
0.0
230
1.0
 70
    24
 71
     3
 72
     8
 73
     4
 74
     0
 42
0.0000000001
 43
0.0000000001
 40
0.0
 40
0.0
 40
0.0
 40
0.0
 40
1.0
 40
1.0
 40
1.0
 40
1.0
 10
469.4011969146813
 20
140.0896511995015
 30
0.0
 10
469.4011969146813
 20
140.0896511995015
 30
0.0
 10
469.4371345447525
 20
140.1255888295727
 30
0.0
 10
469.4371345447525
 20
140.1255888295727
 30
0.0
  0
SPLINE
  5
92
330
88
100
AcDbEntity
  8
1
 62
     7
370
     0
100
AcDbSpline
210
0.0
220
0.0
230
1.0
 70
    24
 71
     3
 72
     8
 73
     4
 74
     0
 42
0.0000000001
 43
0.0000000001
 40
0.0
 40
0.0
 40
0.0
 40
0.0
 40
1.0
 40
1.0
 40
1.0
 40
1.0
 10
469.3691287954898
 20
140.0854293494758
 30
0.0
 10
469.3691287954898
 20
140.0854293494758
 30
0.0
 10
469.4125278118626
 20
140.1288283658468
 30
0.0
 10
469.4125278118626
 20
140.1288283658468
 30
0.0
  0
SPLINE
  5
93
330
88
100
AcDbEntity
  8
1
 62
     7
370
     0
100
AcDbSpline
210
0.0
220
0.0
230
1.0
 70
    24
 71
     3
 72
     8
 73
     4
 74
     0
 42
0.0000000001
 43
0.0000000001
 40
0.0
 40
0.0
 40
0.0
 40
0.0
 40
1.0
 40
1.0
 40
1.0
 40
1.0
 10
469.3370606763001
 20
140.0812074994501
 30
0.0
 10
469.3370606763001
 20
140.0812074994501
 30
0.0
 10
469.3879210789727
 20
140.1320679021228
 30
0.0
 10
469.3879210789727
 20
140.1320679021228
 30
0.0
  0
SPLINE
  5
94
330
88
100
AcDbEntity
  8
1
 62
     7
370
     0
100
AcDbSpline
210
0.0
220
0.0
230
1.0
 70
    24
 71
     3
 72
     8
 73
     4
 74
     0
 42
0.0000000001
 43
0.0000000001
 40
0.0
 40
0.0
 40
0.0
 40
0.0
 40
1.0
 40
1.0
 40
1.0
 40
1.0
 10
469.3049925571085
 20
140.0769856494244
 30
0.0
 10
469.3049925571085
 20
140.0769856494244
 30
0.0
 10
469.3633143460847
 20
140.1353074383987
 30
0.0
 10
469.3633143460847
 20
140.1353074383987
 30
0.0
  0
SPLINE
  5
95
330
88
100
AcDbEntity
  8
1
 62
     7
370
     0
100
AcDbSpline
210
0.0
220
0.0
230
1.0
 70
    24
 71
     3
 72
     8
 73
     4
 74
     0
 42
0.0000000001
 43
0.0000000001
 40
0.0
 40
0.0
 40
0.0
 40
0.0
 40
1.0
 40
1.0
 40
1.0
 40
1.0
 10
469.272924437917
 20
140.0727637993987
 30
0.0
 10
469.272924437917
 20
140.0727637993987
 30
0.0
 10
469.3387076131948
 20
140.1385469746747
 30
0.0
 10
469.3387076131948
 20
140.1385469746747
 30
0.0
  0
SPLINE
  5
96
330
88
100
AcDbEntity
  8
1
 62
     7
370
     0
100
AcDbSpline
210
0.0
220
0.0
230
1.0
 70
    24
 71
     3
 72
     8
 73
     4
 74
     0
 42
0.0000000001
 43
0.0000000001
 40
0.0
 40
0.0
 40
0.0
 40
0.0
 40
1.0
 40
1.0
 40
1.0
 40
1.0
 10
469.2408563187255
 20
140.0685419493711
 30
0.0
 10
469.2408563187255
 20
140.0685419493711
 30
0.0
 10
469.3141008803049
 20
140.1417865109506
 30
0.0
 10
469.3141008803049
 20
140.1417865109506
 30
0.0
  0
SPLINE
  5
97
330
88
100
AcDbEntity
  8
1
 62
     7
370
     0
100
AcDbSpline
210
0.0
220
0.0
230
1.0
 70
    24
 71
     3
 72
     8
 73
     4
 74
     0
 42
0.0000000001
 43
0.0000000001
 40
0.0
 40
0.0
 40
0.0
 40
0.0
 40
1.0
 40
1.0
 40
1.0
 40
1.0
 10
469.2087881995357
 20
140.0643200993454
 30
0.0
 10
469.2087881995357
 20
140.0643200993454
 30
0.0
 10
469.2894941474169
 20
140.1450260472265
 30
0.0
 10
469.2894941474169
 20
140.1450260472265
 30
0.0
  0
SPLINE
  5
98
330
88
100
AcDbEntity
  8
1
 62
     7
370
     0
100
AcDbSpline
210
0.0
220
0.0
230
1.0
 70
    24
 71
     3
 72
     8
 73
     4
 74
     0
 42
0.0000000001
 43
0.0000000001
 40
0.0
 40
0.0
 40
0.0
 40
0.0
 40
1.0
 40
1.0
 40
1.0
 40
1.0
 10
469.1767200803442
 20
140.0600982493197
 30
0.0
 10
469.1767200803442
 20
140.0600982493197
 30
0.0
 10
469.264887414527
 20
140.1482655835025
 30
0.0
 10
469.264887414527
 20
140.1482655835025
 30
0.0
  0
SPLINE
  5
99
330
88
100
AcDbEntity
  8
1
 62
     7
370
     0
100
AcDbSpline
210
0.0
220
0.0
230
1.0
 70
    24
 71
     3
 72
     8
 73
     4
 74
     0
 42
0.0000000001
 43
0.0000000001
 40
0.0
 40
0.0
 40
0.0
 40
0.0
 40
1.0
 40
1.0
 40
1.0
 40
1.0
 10
469.1446519611527
 20
140.055876399294
 30
0.0
 10
469.1446519611527
 20
140.055876399294
 30
0.0
 10
469.2402806816371
 20
140.1515051197784
 30
0.0
 10
469.2402806816371
 20
140.1515051197784
 30
0.0
  0
SPLINE
  5
9A
330
88
100
AcDbEntity
  8
1
 62
     7
370
     0
100
AcDbSpline
210
0.0
220
0.0
230
1.0
 70
    24
 71
     3
 72
     8
 73
     4
 74
     0
 42
0.0000000001
 43
0.0000000001
 40
0.0
 40
0.0
 40
0.0
 40
0.0
 40
1.0
 40
1.0
 40
1.0
 40
1.0
 10
469.1125838419611
 20
140.0516545492683
 30
0.0
 10
469.1125838419611
 20
140.0516545492683
 30
0.0
 10
469.2156739487472
 20
140.1547446560544
 30
0.0
 10
469.2156739487472
 20
140.1547446560544
 30
0.0
  0
SPLINE
  5
9B
330
88
100
AcDbEntity
  8
1
 62
     7
370
     0
100
AcDbSpline
210
0.0
220
0.0
230
1.0
 70
    24
 71
     3
 72
     8
 73
     4
 74
     0
 42
0.0000000001
 43
0.0000000001
 40
0.0
 40
0.0
 40
0.0
 40
0.0
 40
1.0
 40
1.0
 40
1.0
 40
1.0
 10
469.0805157227696
 20
140.0474326992407
 30
0.0
 10
469.0805157227696
 20
140.0474326992407
 30
0.0
 10
469.1910672158591
 20
140.1579841923303
 30
0.0
 10
469.1910672158591
 20
140.1579841923303
 30
0.0
  0
SPLINE
  5
9C
330
88
100
AcDbEntity
  8
1
 62
     7
370
     0
100
AcDbSpline
210
0.0
220
0.0
230
1.0
 70
    24
 71
     3
 72
     8
 73
     4
 74
     0
 42
0.0000000001
 43
0.0000000001
 40
0.0
 40
0.0
 40
0.0
 40
0.0
 40
1.0
 40
1.0
 40
1.0
 40
1.0
 10
469.0484476035781
 20
140.043210849215
 30
0.0
 10
469.0484476035781
 20
140.043210849215
 30
0.0
 10
469.1664604829693
 20
140.1612237286062
 30
0.0
 10
469.1664604829693
 20
140.1612237286062
 30
0.0
  0
SPLINE
  5
9D
330
88
100
AcDbEntity
  8
1
 62
     7
370
     0
100
AcDbSpline
210
0.0
220
0.0
230
1.0
 70
    24
 71
     3
 72
     8
 73
     4
 74
     0
 42
0.0000000001
 43
0.0000000001
 40
0.0
 40
0.0
 40
0.0
 40
0.0
 40
1.0
 40
1.0
 40
1.0
 40
1.0
 10
469.0163794843884
 20
140.0389889991893
 30
0.0
 10
469.0163794843884
 20
140.0389889991893
 30
0.0
 10
469.1418537500794
 20
140.1644632648822
 30
0.0
 10
469.1418537500794
 20
140.1644632648822
 30
0.0
  0
SPLINE
  5
9E
330
88
100
AcDbEntity
  8
1
 62
     7
370
     0
100
AcDbSpline
210
0.0
220
0.0
230
1.0
 70
    24
 71
     3
 72
     8
 73
     4
 74
     0
 42
0.0000000001
 43
0.0000000001
 40
0.0
 40
0.0
 40
0.0
 40
0.0
 40
1.0
 40
1.0
 40
1.0
 40
1.0
 10
468.9843113651968
 20
140.0347671491636
 30
0.0
 10
468.9843113651968
 20
140.0347671491636
 30
0.0
 10
469.1172470171895
 20
140.1677028011563
 30
0.0
 10
469.1172470171895
 20
140.1677028011563
 30
0.0
  0
SPLINE
  5
9F
330
88
100
AcDbEntity
  8
1
 62
     7
370
     0
100
AcDbSpline
210
0.0
220
0.0
230
1.0
 70
    24
 71
     3
 72
     8
 73
     4
 74
     0
 42
0.0000000001
 43
0.0000000001
 40
0.0
 40
0.0
 40
0.0
 40
0.0
 40
1.0
 40
1.0
 40
1.0
 40
1.0
 10
468.9522432460052
 20
140.0305452991378
 30
0.0
 10
468.9522432460052
 20
140.0305452991378
 30
0.0
 10
469.0926402843015
 20
140.1709423374323
 30
0.0
 10
469.0926402843015
 20
140.1709423374323
 30
0.0
  0
SPLINE
  5
A0
330
88
100
AcDbEntity
  8
1
 62
     7
370
     0
100
AcDbSpline
210
0.0
220
0.0
230
1.0
 70
    24
 71
     3
 72
     8
 73
     4
 74
     0
 42
0.0000000001
 43
0.0000000001
 40
0.0
 40
0.0
 40
0.0
 40
0.0
 40
1.0
 40
1.0
 40
1.0
 40
1.0
 10
468.9201751268138
 20
140.0263234491121
 30
0.0
 10
468.9201751268138
 20
140.0263234491121
 30
0.0
 10
469.0680335514116
 20
140.1741818737082
 30
0.0
 10
469.0680335514116
 20
140.1741818737082
 30
0.0
  0
SPLINE
  5
A1
330
88
100
AcDbEntity
  8
1
 62
     7
370
     0
100
AcDbSpline
210
0.0
220
0.0
230
1.0
 70
    24
 71
     3
 72
     8
 73
     4
 74
     0
 42
0.0000000001
 43
0.0000000001
 40
0.0
 40
0.0
 40
0.0
 40
0.0
 40
1.0
 40
1.0
 40
1.0
 40
1.0
 10
468.8881070076241
 20
140.0221015990864
 30
0.0
 10
468.8881070076241
 20
140.0221015990864
 30
0.0
 10
469.0434268185217
 20
140.1774214099841
 30
0.0
 10
469.0434268185217
 20
140.1774214099841
 30
0.0
  0
SPLINE
  5
A2
330
88
100
AcDbEntity
  8
1
 62
     7
370
     0
100
AcDbSpline
210
0.0
220
0.0
230
1.0
 70
    24
 71
     3
 72
     8
 73
     4
 74
     0
 42
0.0000000001
 43
0.0000000001
 40
0.0
 40
0.0
 40
0.0
 40
0.0
 40
1.0
 40
1.0
 40
1.0
 40
1.0
 10
468.8560388884325
 20
140.0178797490589
 30
0.0
 10
468.8560388884325
 20
140.0178797490589
 30
0.0
 10
469.0188200856336
 20
140.1806609462601
 30
0.0
 10
469.0188200856336
 20
140.1806609462601
 30
0.0
  0
SPLINE
  5
A3
330
88
100
AcDbEntity
  8
1
 62
     7
370
     0
100
AcDbSpline
210
0.0
220
0.0
230
1.0
 70
    24
 71
     3
 72
     8
 73
     4
 74
     0
 42
0.0000000001
 43
0.0000000001
 40
0.0
 40
0.0
 40
0.0
 40
0.0
 40
1.0
 40
1.0
 40
1.0
 40
1.0
 10
468.8239707692409
 20
140.0136578990332
 30
0.0
 10
468.8239707692409
 20
140.0136578990332
 30
0.0
 10
468.9942133527438
 20
140.183900482536
 30
0.0
 10
468.9942133527438
 20
140.183900482536
 30
0.0
  0
SPLINE
  5
A4
330
88
100
AcDbEntity
  8
1
 62
     7
370
     0
100
AcDbSpline
210
0.0
220
0.0
230
1.0
 70
    24
 71
     3
 72
     8
 73
     4
 74
     0
 42
0.0000000001
 43
0.0000000001
 40
0.0
 40
0.0
 40
0.0
 40
0.0
 40
1.0
 40
1.0
 40
1.0
 40
1.0
 10
468.7919026500494
 20
140.0094360490075
 30
0.0
 10
468.7919026500494
 20
140.0094360490075
 30
0.0
 10
468.9696066198539
 20
140.187140018812
 30
0.0
 10
468.9696066198539
 20
140.187140018812
 30
0.0
  0
SPLINE
  5
A5
330
88
100
AcDbEntity
  8
1
 62
     7
370
     0
100
AcDbSpline
210
0.0
220
0.0
230
1.0
 70
    24
 71
     3
 72
     8
 73
     4
 74
     0
 42
0.0000000001
 43
0.0000000001
 40
0.0
 40
0.0
 40
0.0
 40
0.0
 40
1.0
 40
1.0
 40
1.0
 40
1.0
 10
468.7598345308597
 20
140.0052141989799
 30
0.0
 10
468.7598345308597
 20
140.0052141989799
 30
0.0
 10
468.944999886964
 20
140.1903795550861
 30
0.0
 10
468.944999886964
 20
140.1903795550861
 30
0.0
  0
SPLINE
  5
A6
330
88
100
AcDbEntity
  8
1
 62
     7
370
     0
100
AcDbSpline
210
0.0
220
0.0
230
1.0
 70
    24
 71
     3
 72
     8
 73
     4
 74
     0
 42
0.0000000001
 43
0.0000000001
 40
0.0
 40
0.0
 40
0.0
 40
0.0
 40
1.0
 40
1.0
 40
1.0
 40
1.0
 10
468.7277664116663
 20
140.0009923489542
 30
0.0
 10
468.7277664116663
 20
140.0009923489542
 30
0.0
 10
468.920393154076
 20
140.193619091362
 30
0.0
 10
468.920393154076
 20
140.193619091362
 30
0.0
  0
SPLINE
  5
A7
330
88
100
AcDbEntity
  8
1
 62
     7
370
     0
100
AcDbSpline
210
0.0
220
0.0
230
1.0
 70
    24
 71
     3
 72
     8
 73
     4
 74
     0
 42
0.0000000001
 43
0.0000000001
 40
0.0
 40
0.0
 40
0.0
 40
0.0
 40
1.0
 40
1.0
 40
1.0
 40
1.0
 10
468.6956982924766
 20
139.9967704989285
 30
0.0
 10
468.6956982924766
 20
139.9967704989285
 30
0.0
 10
468.8957864211861
 20
140.196858627638
 30
0.0
 10
468.8957864211861
 20
140.196858627638
 30
0.0
  0
SPLINE
  5
A8
330
88
100
AcDbEntity
  8
1
 62
     7
370
     0
100
AcDbSpline
210
0.0
220
0.0
230
1.0
 70
    24
 71
     3
 72
     8
 73
     4
 74
     0
 42
0.0000000001
 43
0.0000000001
 40
0.0
 40
0.0
 40
0.0
 40
0.0
 40
1.0
 40
1.0
 40
1.0
 40
1.0
 10
468.6636301732851
 20
139.9925486489028
 30
0.0
 10
468.6636301732851
 20
139.9925486489028
 30
0.0
 10
468.8711796882962
 20
140.2000981639139
 30
0.0
 10
468.8711796882962
 20
140.2000981639139
 30
0.0
  0
SPLINE
  5
A9
330
88
100
AcDbEntity
  8
1
 62
     7
370
     0
100
AcDbSpline
210
0.0
220
0.0
230
1.0
 70
    24
 71
     3
 72
     8
 73
     4
 74
     0
 42
0.0000000001
 43
0.0000000001
 40
0.0
 40
0.0
 40
0.0
 40
0.0
 40
1.0
 40
1.0
 40
1.0
 40
1.0
 10
468.6315620540936
 20
139.9883267988771
 30
0.0
 10
468.6315620540936
 20
139.9883267988771
 30
0.0
 10
468.8465729554081
 20
140.2033377001899
 30
0.0
 10
468.8465729554081
 20
140.2033377001899
 30
0.0
  0
SPLINE
  5
AA
330
88
100
AcDbEntity
  8
1
 62
     7
370
     0
100
AcDbSpline
210
0.0
220
0.0
230
1.0
 70
    24
 71
     3
 72
     8
 73
     4
 74
     0
 42
0.0000000001
 43
0.0000000001
 40
0.0
 40
0.0
 40
0.0
 40
0.0
 40
1.0
 40
1.0
 40
1.0
 40
1.0
 10
468.599493934902
 20
139.9841049488514
 30
0.0
 10
468.599493934902
 20
139.9841049488514
 30
0.0
 10
468.8219662225183
 20
140.2065772364658
 30
0.0
 10
468.8219662225183
 20
140.2065772364658
 30
0.0
  0
SPLINE
  5
AB
330
88
100
AcDbEntity
  8
1
 62
     7
370
     0
100
AcDbSpline
210
0.0
220
0.0
230
1.0
 70
    24
 71
     3
 72
     8
 73
     4
 74
     0
 42
0.0000000001
 43
0.0000000001
 40
0.0
 40
0.0
 40
0.0
 40
0.0
 40
1.0
 40
1.0
 40
1.0
 40
1.0
 10
468.5674258157123
 20
139.9798830988256
 30
0.0
 10
468.5674258157123
 20
139.9798830988256
 30
0.0
 10
468.7973594896284
 20
140.2098167727399
 30
0.0
 10
468.7973594896284
 20
140.2098167727399
 30
0.0
  0
SPLINE
  5
AC
330
88
100
AcDbEntity
  8
1
 62
     7
370
     0
100
AcDbSpline
210
0.0
220
0.0
230
1.0
 70
    24
 71
     3
 72
     8
 73
     4
 74
     0
 42
0.0000000001
 43
0.0000000001
 40
0.0
 40
0.0
 40
0.0
 40
0.0
 40
1.0
 40
1.0
 40
1.0
 40
1.0
 10
468.5353576965208
 20
139.9756612487999
 30
0.0
 10
468.5353576965208
 20
139.9756612487999
 30
0.0
 10
468.7727527567385
 20
140.2130563090159
 30
0.0
 10
468.7727527567385
 20
140.2130563090159
 30
0.0
  0
SPLINE
  5
AD
330
88
100
AcDbEntity
  8
1
 62
     7
370
     0
100
AcDbSpline
210
0.0
220
0.0
230
1.0
 70
    24
 71
     3
 72
     8
 73
     4
 74
     0
 42
0.0000000001
 43
0.0000000001
 40
0.0
 40
0.0
 40
0.0
 40
0.0
 40
1.0
 40
1.0
 40
1.0
 40
1.0
 10
468.5032895773292
 20
139.9714393987724
 30
0.0
 10
468.5032895773292
 20
139.9714393987724
 30
0.0
 10
468.7481460238505
 20
140.2162958452936
 30
0.0
 10
468.7481460238505
 20
140.2162958452936
 30
0.0
  0
SPLINE
  5
AE
330
88
100
AcDbEntity
  8
1
 62
     7
370
     0
100
AcDbSpline
210
0.0
220
0.0
230
1.0
 70
    24
 71
     3
 72
     8
 73
     4
 74
     0
 42
0.0000000001
 43
0.0000000001
 40
0.0
 40
0.0
 40
0.0
 40
0.0
 40
1.0
 40
1.0
 40
1.0
 40
1.0
 10
468.4712214581377
 20
139.9672175487467
 30
0.0
 10
468.4712214581377
 20
139.9672175487467
 30
0.0
 10
468.7235392909606
 20
140.2195353815696
 30
0.0
 10
468.7235392909606
 20
140.2195353815696
 30
0.0
  0
SPLINE
  5
AF
330
88
100
AcDbEntity
  8
1
 62
     7
370
     0
100
AcDbSpline
210
0.0
220
0.0
230
1.0
 70
    24
 71
     3
 72
     8
 73
     4
 74
     0
 42
0.0000000001
 43
0.0000000001
 40
0.0
 40
0.0
 40
0.0
 40
0.0
 40
1.0
 40
1.0
 40
1.0
 40
1.0
 10
468.4391533389462
 20
139.9629956987191
 30
0.0
 10
468.4391533389462
 20
139.9629956987191
 30
0.0
 10
468.6989325580707
 20
140.2227749178455
 30
0.0
 10
468.6989325580707
 20
140.2227749178455
 30
0.0
  0
SPLINE
  5
B0
330
88
100
AcDbEntity
  8
1
 62
     7
370
     0
100
AcDbSpline
210
0.0
220
0.0
230
1.0
 70
    24
 71
     3
 72
     8
 73
     4
 74
     0
 42
0.0000000001
 43
0.0000000001
 40
0.0
 40
0.0
 40
0.0
 40
0.0
 40
1.0
 40
1.0
 40
1.0
 40
1.0
 10
468.4070852197565
 20
139.9587738486934
 30
0.0
 10
468.4070852197565
 20
139.9587738486934
 30
0.0
 10
468.6743258251826
 20
140.2260144541214
 30
0.0
 10
468.6743258251826
 20
140.2260144541214
 30
0.0
  0
SPLINE
  5
B1
330
88
100
AcDbEntity
  8
1
 62
     7
370
     0
100
AcDbSpline
210
0.0
220
0.0
230
1.0
 70
    24
 71
     3
 72
     8
 73
     4
 74
     0
 42
0.0000000001
 43
0.0000000001
 40
0.0
 40
0.0
 40
0.0
 40
0.0
 40
1.0
 40
1.0
 40
1.0
 40
1.0
 10
468.3750171005649
 20
139.9545519986677
 30
0.0
 10
468.3750171005649
 20
139.9545519986677
 30
0.0
 10
468.6497190922928
 20
140.2292539903956
 30
0.0
 10
468.6497190922928
 20
140.2292539903956
 30
0.0
  0
SPLINE
  5
B2
330
88
100
AcDbEntity
  8
1
 62
     7
370
     0
100
AcDbSpline
210
0.0
220
0.0
230
1.0
 70
    24
 71
     3
 72
     8
 73
     4
 74
     0
 42
0.0000000001
 43
0.0000000001
 40
0.0
 40
0.0
 40
0.0
 40
0.0
 40
1.0
 40
1.0
 40
1.0
 40
1.0
 10
468.3429489813733
 20
139.950330148642
 30
0.0
 10
468.3429489813733
 20
139.950330148642
 30
0.0
 10
468.6251123594029
 20
140.2324935266715
 30
0.0
 10
468.6251123594029
 20
140.2324935266715
 30
0.0
  0
SPLINE
  5
B3
330
88
100
AcDbEntity
  8
1
 62
     7
370
     0
100
AcDbSpline
210
0.0
220
0.0
230
1.0
 70
    24
 71
     3
 72
     8
 73
     4
 74
     0
 42
0.0000000001
 43
0.0000000001
 40
0.0
 40
0.0
 40
0.0
 40
0.0
 40
1.0
 40
1.0
 40
1.0
 40
1.0
 10
468.3108808621819
 20
139.9461082986163
 30
0.0
 10
468.3108808621819
 20
139.9461082986163
 30
0.0
 10
468.600505626513
 20
140.2357330629475
 30
0.0
 10
468.600505626513
 20
140.2357330629475
 30
0.0
  0
SPLINE
  5
B4
330
88
100
AcDbEntity
  8
1
 62
     7
370
     0
100
AcDbSpline
210
0.0
220
0.0
230
1.0
 70
    24
 71
     3
 72
     8
 73
     4
 74
     0
 42
0.0000000001
 43
0.0000000001
 40
0.0
 40
0.0
 40
0.0
 40
0.0
 40
1.0
 40
1.0
 40
1.0
 40
1.0
 10
468.2788127429922
 20
139.9418864485906
 30
0.0
 10
468.2788127429922
 20
139.9418864485906
 30
0.0
 10
468.575898893625
 20
140.2389725992234
 30
0.0
 10
468.575898893625
 20
140.2389725992234
 30
0.0
  0
SPLINE
  5
B5
330
88
100
AcDbEntity
  8
1
 62
     7
370
     0
100
AcDbSpline
210
0.0
220
0.0
230
1.0
 70
    24
 71
     3
 72
     8
 73
     4
 74
     0
 42
0.0000000001
 43
0.0000000001
 40
0.0
 40
0.0
 40
0.0
 40
0.0
 40
1.0
 40
1.0
 40
1.0
 40
1.0
 10
468.2467446237987
 20
139.9376645985649
 30
0.0
 10
468.2467446237987
 20
139.9376645985649
 30
0.0
 10
468.5512921607351
 20
140.2422121354993
 30
0.0
 10
468.5512921607351
 20
140.2422121354993
 30
0.0
  0
SPLINE
  5
B6
330
88
100
AcDbEntity
  8
1
 62
     7
370
     0
100
AcDbSpline
210
0.0
220
0.0
230
1.0
 70
    24
 71
     3
 72
     8
 73
     4
 74
     0
 42
0.0000000001
 43
0.0000000001
 40
0.0
 40
0.0
 40
0.0
 40
0.0
 40
1.0
 40
1.0
 40
1.0
 40
1.0
 10
468.214676504609
 20
139.9334427485391
 30
0.0
 10
468.214676504609
 20
139.9334427485391
 30
0.0
 10
468.5266854278451
 20
140.2454516717753
 30
0.0
 10
468.5266854278451
 20
140.2454516717753
 30
0.0
  0
SPLINE
  5
B7
330
88
100
AcDbEntity
  8
1
 62
     7
370
     0
100
AcDbSpline
210
0.0
220
0.0
230
1.0
 70
    24
 71
     3
 72
     8
 73
     4
 74
     0
 42
0.0000000001
 43
0.0000000001
 40
0.0
 40
0.0
 40
0.0
 40
0.0
 40
1.0
 40
1.0
 40
1.0
 40
1.0
 10
468.1826083854175
 20
139.9292208985134
 30
0.0
 10
468.1826083854175
 20
139.9292208985134
 30
0.0
 10
468.5020786949553
 20
140.2486912080494
 30
0.0
 10
468.5020786949553
 20
140.2486912080494
 30
0.0
  0
SPLINE
  5
B8
330
88
100
AcDbEntity
  8
1
 62
     7
370
     0
100
AcDbSpline
210
0.0
220
0.0
230
1.0
 70
    24
 71
     3
 72
     8
 73
     4
 74
     0
 42
0.0000000001
 43
0.0000000001
 40
0.0
 40
0.0
 40
0.0
 40
0.0
 40
1.0
 40
1.0
 40
1.0
 40
1.0
 10
468.1505402662278
 20
139.9249990484877
 30
0.0
 10
468.1505402662278
 20
139.9249990484877
 30
0.0
 10
468.4774719620673
 20
140.2519307443253
 30
0.0
 10
468.4774719620673
 20
140.2519307443253
 30
0.0
  0
SPLINE
  5
B9
330
88
100
AcDbEntity
  8
1
 62
     7
370
     0
100
AcDbSpline
210
0.0
220
0.0
230
1.0
 70
    24
 71
     3
 72
     8
 73
     4
 74
     0
 42
0.0000000001
 43
0.0000000001
 40
0.0
 40
0.0
 40
0.0
 40
0.0
 40
1.0
 40
1.0
 40
1.0
 40
1.0
 10
468.1184721470344
 20
139.9207771984584
 30
0.0
 10
468.1184721470344
 20
139.9207771984584
 30
0.0
 10
468.4528652291773
 20
140.2551702806013
 30
0.0
 10
468.4528652291773
 20
140.2551702806013
 30
0.0
  0
SPLINE
  5
BA
330
88
100
AcDbEntity
  8
1
 62
     7
370
     0
100
AcDbSpline
210
0.0
220
0.0
230
1.0
 70
    24
 71
     3
 72
     8
 73
     4
 74
     0
 42
0.0000000001
 43
0.0000000001
 40
0.0
 40
0.0
 40
0.0
 40
0.0
 40
1.0
 40
1.0
 40
1.0
 40
1.0
 10
468.0864040278447
 20
139.9165553484326
 30
0.0
 10
468.0864040278447
 20
139.9165553484326
 30
0.0
 10
468.4282584962875
 20
140.2584098168772
 30
0.0
 10
468.4282584962875
 20
140.2584098168772
 30
0.0
  0
SPLINE
  5
BB
330
88
100
AcDbEntity
  8
1
 62
     7
370
     0
100
AcDbSpline
210
0.0
220
0.0
230
1.0
 70
    24
 71
     3
 72
     8
 73
     4
 74
     0
 42
0.0000000001
 43
0.0000000001
 40
0.0
 40
0.0
 40
0.0
 40
0.0
 40
1.0
 40
1.0
 40
1.0
 40
1.0
 10
468.0543359086532
 20
139.9123334984069
 30
0.0
 10
468.0543359086532
 20
139.9123334984069
 30
0.0
 10
468.4036517633995
 20
140.2616493531532
 30
0.0
 10
468.4036517633995
 20
140.2616493531532
 30
0.0
  0
SPLINE
  5
BC
330
88
100
AcDbEntity
  8
1
 62
     7
370
     0
100
AcDbSpline
210
0.0
220
0.0
230
1.0
 70
    24
 71
     3
 72
     8
 73
     4
 74
     0
 42
0.0000000001
 43
0.0000000001
 40
0.0
 40
0.0
 40
0.0
 40
0.0
 40
1.0
 40
1.0
 40
1.0
 40
1.0
 10
468.0222677894617
 20
139.9081116483812
 30
0.0
 10
468.0222677894617
 20
139.9081116483812
 30
0.0
 10
468.3790450305095
 20
140.2648888894291
 30
0.0
 10
468.3790450305095
 20
140.2648888894291
 30
0.0
  0
SPLINE
  5
BD
330
88
100
AcDbEntity
  8
1
 62
     7
370
     0
100
AcDbSpline
210
0.0
220
0.0
230
1.0
 70
    24
 71
     3
 72
     8
 73
     4
 74
     0
 42
0.0000000001
 43
0.0000000001
 40
0.0
 40
0.0
 40
0.0
 40
0.0
 40
1.0
 40
1.0
 40
1.0
 40
1.0
 10
467.9901996702701
 20
139.9038897983555
 30
0.0
 10
467.9901996702701
 20
139.9038897983555
 30
0.0
 10
468.3544382976196
 20
140.2681284257032
 30
0.0
 10
468.3544382976196
 20
140.2681284257032
 30
0.0
  0
SPLINE
  5
BE
330
88
100
AcDbEntity
  8
1
 62
     7
370
     0
100
AcDbSpline
210
0.0
220
0.0
230
1.0
 70
    24
 71
     3
 72
     8
 73
     4
 74
     0
 42
0.0000000001
 43
0.0000000001
 40
0.0
 40
0.0
 40
0.0
 40
0.0
 40
1.0
 40
1.0
 40
1.0
 40
1.0
 10
467.9581315510804
 20
139.8996679483298
 30
0.0
 10
467.9581315510804
 20
139.8996679483298
 30
0.0
 10
468.3298315647298
 20
140.2713679619792
 30
0.0
 10
468.3298315647298
 20
140.2713679619792
 30
0.0
  0
SPLINE
  5
BF
330
88
100
AcDbEntity
  8
1
 62
     7
370
     0
100
AcDbSpline
210
0.0
220
0.0
230
1.0
 70
    24
 71
     3
 72
     8
 73
     4
 74
     0
 42
0.0000000001
 43
0.0000000001
 40
0.0
 40
0.0
 40
0.0
 40
0.0
 40
1.0
 40
1.0
 40
1.0
 40
1.0
 10
467.9260634318889
 20
139.8954460983041
 30
0.0
 10
467.9260634318889
 20
139.8954460983041
 30
0.0
 10
468.3052248318417
 20
140.2746074982551
 30
0.0
 10
468.3052248318417
 20
140.2746074982551
 30
0.0
  0
SPLINE
  5
C0
330
88
100
AcDbEntity
  8
1
 62
     7
370
     0
100
AcDbSpline
210
0.0
220
0.0
230
1.0
 70
    24
 71
     3
 72
     8
 73
     4
 74
     0
 42
0.0000000001
 43
0.0000000001
 40
0.0
 40
0.0
 40
0.0
 40
0.0
 40
1.0
 40
1.0
 40
1.0
 40
1.0
 10
467.8939953126973
 20
139.8912242482784
 30
0.0
 10
467.8939953126973
 20
139.8912242482784
 30
0.0
 10
468.28061809895
 20
140.277847034531
 30
0.0
 10
468.28061809895
 20
140.277847034531
 30
0.0
  0
SPLINE
  5
C1
330
88
100
AcDbEntity
  8
1
 62
     7
370
     0
100
AcDbSpline
210
0.0
220
0.0
230
1.0
 70
    24
 71
     3
 72
     8
 73
     4
 74
     0
 42
0.0000000001
 43
0.0000000001
 40
0.0
 40
0.0
 40
0.0
 40
0.0
 40
1.0
 40
1.0
 40
1.0
 40
1.0
 10
467.8619271935058
 20
139.8870023982526
 30
0.0
 10
467.8619271935058
 20
139.8870023982526
 30
0.0
 10
468.256011366062
 20
140.281086570807
 30
0.0
 10
468.256011366062
 20
140.281086570807
 30
0.0
  0
SPLINE
  5
C2
330
88
100
AcDbEntity
  8
1
 62
     7
370
     0
100
AcDbSpline
210
0.0
220
0.0
230
1.0
 70
    24
 71
     3
 72
     8
 73
     4
 74
     0
 42
0.0000000001
 43
0.0000000001
 40
0.0
 40
0.0
 40
0.0
 40
0.0
 40
1.0
 40
1.0
 40
1.0
 40
1.0
 10
467.829859074316
 20
139.8827805482269
 30
0.0
 10
467.829859074316
 20
139.8827805482269
 30
0.0
 10
468.2314046331739
 20
140.2843261070848
 30
0.0
 10
468.2314046331739
 20
140.2843261070848
 30
0.0
  0
SPLINE
  5
C3
330
88
100
AcDbEntity
  8
1
 62
     7
370
     0
100
AcDbSpline
210
0.0
220
0.0
230
1.0
 70
    24
 71
     3
 72
     8
 73
     4
 74
     0
 42
0.0000000001
 43
0.0000000001
 40
0.0
 40
0.0
 40
0.0
 40
0.0
 40
1.0
 40
1.0
 40
1.0
 40
1.0
 10
467.7977909551246
 20
139.8785586982012
 30
0.0
 10
467.7977909551246
 20
139.8785586982012
 30
0.0
 10
468.2067979002822
 20
140.2875656433607
 30
0.0
 10
468.2067979002822
 20
140.2875656433607
 30
0.0
  0
SPLINE
  5
C4
330
88
100
AcDbEntity
  8
1
 62
     7
370
     0
100
AcDbSpline
210
0.0
220
0.0
230
1.0
 70
    24
 71
     3
 72
     8
 73
     4
 74
     0
 42
0.0000000001
 43
0.0000000001
 40
0.0
 40
0.0
 40
0.0
 40
0.0
 40
1.0
 40
1.0
 40
1.0
 40
1.0
 10
467.765722835933
 20
139.8743368481737
 30
0.0
 10
467.765722835933
 20
139.8743368481737
 30
0.0
 10
468.1821911673941
 20
140.2908051796348
 30
0.0
 10
468.1821911673941
 20
140.2908051796348
 30
0.0
  0
SPLINE
  5
C5
330
88
100
AcDbEntity
  8
1
 62
     7
370
     0
100
AcDbSpline
210
0.0
220
0.0
230
1.0
 70
    24
 71
     3
 72
     8
 73
     4
 74
     0
 42
0.0000000001
 43
0.0000000001
 40
0.0
 40
0.0
 40
0.0
 40
0.0
 40
1.0
 40
1.0
 40
1.0
 40
1.0
 10
467.7336547167414
 20
139.8701149981461
 30
0.0
 10
467.7336547167414
 20
139.8701149981461
 30
0.0
 10
468.1575844345043
 20
140.2940447159108
 30
0.0
 10
468.1575844345043
 20
140.2940447159108
 30
0.0
  0
SPLINE
  5
C6
330
88
100
AcDbEntity
  8
1
 62
     7
370
     0
100
AcDbSpline
210
0.0
220
0.0
230
1.0
 70
    24
 71
     3
 72
     8
 73
     4
 74
     0
 42
0.0000000001
 43
0.0000000001
 40
0.0
 40
0.0
 40
0.0
 40
0.0
 40
1.0
 40
1.0
 40
1.0
 40
1.0
 10
467.70158659755
 20
139.8658931481204
 30
0.0
 10
467.70158659755
 20
139.8658931481204
 30
0.0
 10
468.1329777016144
 20
140.2972842521867
 30
0.0
 10
468.1329777016144
 20
140.2972842521867
 30
0.0
  0
SPLINE
  5
C7
330
88
100
AcDbEntity
  8
1
 62
     7
370
     0
100
AcDbSpline
210
0.0
220
0.0
230
1.0
 70
    24
 71
     3
 72
     8
 73
     4
 74
     0
 42
0.0000000001
 43
0.0000000001
 40
0.0
 40
0.0
 40
0.0
 40
0.0
 40
1.0
 40
1.0
 40
1.0
 40
1.0
 10
467.6695184783603
 20
139.8616712980947
 30
0.0
 10
467.6695184783603
 20
139.8616712980947
 30
0.0
 10
468.1083709687263
 20
140.3005237884626
 30
0.0
 10
468.1083709687263
 20
140.3005237884626
 30
0.0
  0
SPLINE
  5
C8
330
88
100
AcDbEntity
  8
1
 62
     7
370
     0
100
AcDbSpline
210
0.0
220
0.0
230
1.0
 70
    24
 71
     3
 72
     8
 73
     4
 74
     0
 42
0.0000000001
 43
0.0000000001
 40
0.0
 40
0.0
 40
0.0
 40
0.0
 40
1.0
 40
1.0
 40
1.0
 40
1.0
 10
467.6374503591687
 20
139.857449448069
 30
0.0
 10
467.6374503591687
 20
139.857449448069
 30
0.0
 10
468.0837642358365
 20
140.3037633247386
 30
0.0
 10
468.0837642358365
 20
140.3037633247386
 30
0.0
  0
SPLINE
  5
C9
330
88
100
AcDbEntity
  8
1
 62
     7
370
     0
100
AcDbSpline
210
0.0
220
0.0
230
1.0
 70
    24
 71
     3
 72
     8
 73
     4
 74
     0
 42
0.0000000001
 43
0.0000000001
 40
0.0
 40
0.0
 40
0.0
 40
0.0
 40
1.0
 40
1.0
 40
1.0
 40
1.0
 10
467.6053822399771
 20
139.8532275980433
 30
0.0
 10
467.6053822399771
 20
139.8532275980433
 30
0.0
 10
468.0591575029466
 20
140.3070028610145
 30
0.0
 10
468.0591575029466
 20
140.3070028610145
 30
0.0
  0
SPLINE
  5
CA
330
88
100
AcDbEntity
  8
1
 62
     7
370
     0
100
AcDbSpline
210
0.0
220
0.0
230
1.0
 70
    24
 71
     3
 72
     8
 73
     4
 74
     0
 42
0.0000000001
 43
0.0000000001
 40
0.0
 40
0.0
 40
0.0
 40
0.0
 40
1.0
 40
1.0
 40
1.0
 40
1.0
 10
467.5733141207856
 20
139.8490057480176
 30
0.0
 10
467.5733141207856
 20
139.8490057480176
 30
0.0
 10
468.0345507700567
 20
140.3102423972887
 30
0.0
 10
468.0345507700567
 20
140.3102423972887
 30
0.0
  0
SPLINE
  5
CB
330
88
100
AcDbEntity
  8
1
 62
     7
370
     0
100
AcDbSpline
210
0.0
220
0.0
230
1.0
 70
    24
 71
     3
 72
     8
 73
     4
 74
     0
 42
0.0000000001
 43
0.0000000001
 40
0.0
 40
0.0
 40
0.0
 40
0.0
 40
1.0
 40
1.0
 40
1.0
 40
1.0
 10
467.5412460015941
 20
139.8447838979919
 30
0.0
 10
467.5412460015941
 20
139.8447838979919
 30
0.0
 10
468.0099440371686
 20
140.3134819335646
 30
0.0
 10
468.0099440371686
 20
140.3134819335646
 30
0.0
  0
SPLINE
  5
CC
330
88
100
AcDbEntity
  8
1
 62
     7
370
     0
100
AcDbSpline
210
0.0
220
0.0
230
1.0
 70
    24
 71
     3
 72
     8
 73
     4
 74
     0
 42
0.0000000001
 43
0.0000000001
 40
0.0
 40
0.0
 40
0.0
 40
0.0
 40
1.0
 40
1.0
 40
1.0
 40
1.0
 10
467.5091778824025
 20
139.8405620479661
 30
0.0
 10
467.5091778824025
 20
139.8405620479661
 30
0.0
 10
467.9853373042788
 20
140.3167214698405
 30
0.0
 10
467.9853373042788
 20
140.3167214698405
 30
0.0
  0
SPLINE
  5
CD
330
88
100
AcDbEntity
  8
1
 62
     7
370
     0
100
AcDbSpline
210
0.0
220
0.0
230
1.0
 70
    24
 71
     3
 72
     8
 73
     4
 74
     0
 42
0.0000000001
 43
0.0000000001
 40
0.0
 40
0.0
 40
0.0
 40
0.0
 40
1.0
 40
1.0
 40
1.0
 40
1.0
 10
467.4771097632128
 20
139.8363401979404
 30
0.0
 10
467.4771097632128
 20
139.8363401979404
 30
0.0
 10
467.9607305713889
 20
140.3199610061165
 30
0.0
 10
467.9607305713889
 20
140.3199610061165
 30
0.0
  0
SPLINE
  5
CE
330
88
100
AcDbEntity
  8
1
 62
     7
370
     0
100
AcDbSpline
210
0.0
220
0.0
230
1.0
 70
    24
 71
     3
 72
     8
 73
     4
 74
     0
 42
0.0000000001
 43
0.0000000001
 40
0.0
 40
0.0
 40
0.0
 40
0.0
 40
1.0
 40
1.0
 40
1.0
 40
1.0
 10
467.4450416440213
 20
139.8321183479129
 30
0.0
 10
467.4450416440213
 20
139.8321183479129
 30
0.0
 10
467.936123838499
 20
140.3232005423924
 30
0.0
 10
467.936123838499
 20
140.3232005423924
 30
0.0
  0
SPLINE
  5
CF
330
88
100
AcDbEntity
  8
1
 62
     7
370
     0
100
AcDbSpline
210
0.0
220
0.0
230
1.0
 70
    24
 71
     3
 72
     8
 73
     4
 74
     0
 42
0.0000000001
 43
0.0000000001
 40
0.0
 40
0.0
 40
0.0
 40
0.0
 40
1.0
 40
1.0
 40
1.0
 40
1.0
 10
467.4129735248298
 20
139.8278964978872
 30
0.0
 10
467.4129735248298
 20
139.8278964978872
 30
0.0
 10
467.911517105611
 20
140.3264400786684
 30
0.0
 10
467.911517105611
 20
140.3264400786684
 30
0.0
  0
SPLINE
  5
D0
330
88
100
AcDbEntity
  8
1
 62
     7
370
     0
100
AcDbSpline
210
0.0
220
0.0
230
1.0
 70
    24
 71
     3
 72
     8
 73
     4
 74
     0
 42
0.0000000001
 43
0.0000000001
 40
0.0
 40
0.0
 40
0.0
 40
0.0
 40
1.0
 40
1.0
 40
1.0
 40
1.0
 10
467.3809054056382
 20
139.8236746478596
 30
0.0
 10
467.3809054056382
 20
139.8236746478596
 30
0.0
 10
467.8869103727211
 20
140.3296796149425
 30
0.0
 10
467.8869103727211
 20
140.3296796149425
 30
0.0
  0
SPLINE
  5
D1
330
88
100
AcDbEntity
  8
1
 62
     7
370
     0
100
AcDbSpline
210
0.0
220
0.0
230
1.0
 70
    24
 71
     3
 72
     8
 73
     4
 74
     0
 42
0.0000000001
 43
0.0000000001
 40
0.0
 40
0.0
 40
0.0
 40
0.0
 40
1.0
 40
1.0
 40
1.0
 40
1.0
 10
467.3488372864485
 20
139.8194527978339
 30
0.0
 10
467.3488372864485
 20
139.8194527978339
 30
0.0
 10
467.8623036398312
 20
140.3329191512184
 30
0.0
 10
467.8623036398312
 20
140.3329191512184
 30
0.0
  0
SPLINE
  5
D2
330
88
100
AcDbEntity
  8
1
 62
     7
370
     0
100
AcDbSpline
210
0.0
220
0.0
230
1.0
 70
    24
 71
     3
 72
     8
 73
     4
 74
     0
 42
0.0000000001
 43
0.0000000001
 40
0.0
 40
0.0
 40
0.0
 40
0.0
 40
1.0
 40
1.0
 40
1.0
 40
1.0
 10
467.316769167257
 20
139.8152309478082
 30
0.0
 10
467.316769167257
 20
139.8152309478082
 30
0.0
 10
467.8376969069431
 20
140.3361586874944
 30
0.0
 10
467.8376969069431
 20
140.3361586874944
 30
0.0
  0
SPLINE
  5
D3
330
88
100
AcDbEntity
  8
1
 62
     7
370
     0
100
AcDbSpline
210
0.0
220
0.0
230
1.0
 70
    24
 71
     3
 72
     8
 73
     4
 74
     0
 42
0.0000000001
 43
0.0000000001
 40
0.0
 40
0.0
 40
0.0
 40
0.0
 40
1.0
 40
1.0
 40
1.0
 40
1.0
 10
467.2847010480654
 20
139.8110090977825
 30
0.0
 10
467.2847010480654
 20
139.8110090977825
 30
0.0
 10
467.8130901740533
 20
140.3393982237703
 30
0.0
 10
467.8130901740533
 20
140.3393982237703
 30
0.0
  0
SPLINE
  5
D4
330
88
100
AcDbEntity
  8
1
 62
     7
370
     0
100
AcDbSpline
210
0.0
220
0.0
230
1.0
 70
    24
 71
     3
 72
     8
 73
     4
 74
     0
 42
0.0000000001
 43
0.0000000001
 40
0.0
 40
0.0
 40
0.0
 40
0.0
 40
1.0
 40
1.0
 40
1.0
 40
1.0
 10
467.2526329288739
 20
139.8067872477568
 30
0.0
 10
467.2526329288739
 20
139.8067872477568
 30
0.0
 10
467.7884834411634
 20
140.3426377600462
 30
0.0
 10
467.7884834411634
 20
140.3426377600462
 30
0.0
  0
SPLINE
  5
D5
330
88
100
AcDbEntity
  8
1
 62
     7
370
     0
100
AcDbSpline
210
0.0
220
0.0
230
1.0
 70
    24
 71
     3
 72
     8
 73
     4
 74
     0
 42
0.0000000001
 43
0.0000000001
 40
0.0
 40
0.0
 40
0.0
 40
0.0
 40
1.0
 40
1.0
 40
1.0
 40
1.0
 10
467.2205648096824
 20
139.8025653977311
 30
0.0
 10
467.2205648096824
 20
139.8025653977311
 30
0.0
 10
467.7638767082735
 20
140.3458772963222
 30
0.0
 10
467.7638767082735
 20
140.3458772963222
 30
0.0
  0
SPLINE
  5
D6
330
88
100
AcDbEntity
  8
1
 62
     7
370
     0
100
AcDbSpline
210
0.0
220
0.0
230
1.0
 70
    24
 71
     3
 72
     8
 73
     4
 74
     0
 42
0.0000000001
 43
0.0000000001
 40
0.0
 40
0.0
 40
0.0
 40
0.0
 40
1.0
 40
1.0
 40
1.0
 40
1.0
 10
467.1884966904908
 20
139.7983435477053
 30
0.0
 10
467.1884966904908
 20
139.7983435477053
 30
0.0
 10
467.7392699753855
 20
140.3491168325963
 30
0.0
 10
467.7392699753855
 20
140.3491168325963
 30
0.0
  0
SPLINE
  5
D7
330
88
100
AcDbEntity
  8
1
 62
     7
370
     0
100
AcDbSpline
210
0.0
220
0.0
230
1.0
 70
    24
 71
     3
 72
     8
 73
     4
 74
     0
 42
0.0000000001
 43
0.0000000001
 40
0.0
 40
0.0
 40
0.0
 40
0.0
 40
1.0
 40
1.0
 40
1.0
 40
1.0
 10
467.1564285713011
 20
139.7941216976796
 30
0.0
 10
467.1564285713011
 20
139.7941216976796
 30
0.0
 10
467.7146632424956
 20
140.3523563688723
 30
0.0
 10
467.7146632424956
 20
140.3523563688723
 30
0.0
  0
SPLINE
  5
D8
330
88
100
AcDbEntity
  8
1
 62
     7
370
     0
100
AcDbSpline
210
0.0
220
0.0
230
1.0
 70
    24
 71
     3
 72
     8
 73
     4
 74
     0
 42
0.0000000001
 43
0.0000000001
 40
0.0
 40
0.0
 40
0.0
 40
0.0
 40
1.0
 40
1.0
 40
1.0
 40
1.0
 10
467.1243604521095
 20
139.7898998476521
 30
0.0
 10
467.1243604521095
 20
139.7898998476521
 30
0.0
 10
467.6900565096056
 20
140.35559590515
 30
0.0
 10
467.6900565096056
 20
140.35559590515
 30
0.0
  0
SPLINE
  5
D9
330
88
100
AcDbEntity
  8
1
 62
     7
370
     0
100
AcDbSpline
210
0.0
220
0.0
230
1.0
 70
    24
 71
     3
 72
     8
 73
     4
 74
     0
 42
0.0000000001
 43
0.0000000001
 40
0.0
 40
0.0
 40
0.0
 40
0.0
 40
1.0
 40
1.0
 40
1.0
 40
1.0
 10
467.0922923329181
 20
139.7856779976264
 30
0.0
 10
467.0922923329181
 20
139.7856779976264
 30
0.0
 10
467.6654497767158
 20
140.3588354414259
 30
0.0
 10
467.6654497767158
 20
140.3588354414259
 30
0.0
  0
SPLINE
  5
DA
330
88
100
AcDbEntity
  8
1
 62
     7
370
     0
100
AcDbSpline
210
0.0
220
0.0
230
1.0
 70
    24
 71
     3
 72
     8
 73
     4
 74
     0
 42
0.0000000001
 43
0.0000000001
 40
0.0
 40
0.0
 40
0.0
 40
0.0
 40
1.0
 40
1.0
 40
1.0
 40
1.0
 10
467.0602242137265
 20
139.7814561476007
 30
0.0
 10
467.0602242137265
 20
139.7814561476007
 30
0.0
 10
467.6408430438278
 20
140.3620749777019
 30
0.0
 10
467.6408430438278
 20
140.3620749777019
 30
0.0
  0
SPLINE
  5
DB
330
88
100
AcDbEntity
  8
1
 62
     7
370
     0
100
AcDbSpline
210
0.0
220
0.0
230
1.0
 70
    24
 71
     3
 72
     8
 73
     4
 74
     0
 42
0.0000000001
 43
0.0000000001
 40
0.0
 40
0.0
 40
0.0
 40
0.0
 40
1.0
 40
1.0
 40
1.0
 40
1.0
 10
467.0281560945368
 20
139.777234297575
 30
0.0
 10
467.0281560945368
 20
139.777234297575
 30
0.0
 10
467.6162363109378
 20
140.3653145139778
 30
0.0
 10
467.6162363109378
 20
140.3653145139778
 30
0.0
  0
SPLINE
  5
DC
330
88
100
AcDbEntity
  8
1
 62
     7
370
     0
100
AcDbSpline
210
0.0
220
0.0
230
1.0
 70
    24
 71
     3
 72
     8
 73
     4
 74
     0
 42
0.0000000001
 43
0.0000000001
 40
0.0
 40
0.0
 40
0.0
 40
0.0
 40
1.0
 40
1.0
 40
1.0
 40
1.0
 10
466.9960879753452
 20
139.7730124475474
 30
0.0
 10
466.9960879753452
 20
139.7730124475474
 30
0.0
 10
467.591629578048
 20
140.3685540502538
 30
0.0
 10
467.591629578048
 20
140.3685540502538
 30
0.0
  0
SPLINE
  5
DD
330
88
100
AcDbEntity
  8
1
 62
     7
370
     0
100
AcDbSpline
210
0.0
220
0.0
230
1.0
 70
    24
 71
     3
 72
     8
 73
     4
 74
     0
 42
0.0000000001
 43
0.0000000001
 40
0.0
 40
0.0
 40
0.0
 40
0.0
 40
1.0
 40
1.0
 40
1.0
 40
1.0
 10
466.9640198561537
 20
139.7687905975217
 30
0.0
 10
466.9640198561537
 20
139.7687905975217
 30
0.0
 10
467.56702284516
 20
140.3717935865279
 30
0.0
 10
467.56702284516
 20
140.3717935865279
 30
0.0
  0
SPLINE
  5
DE
330
88
100
AcDbEntity
  8
1
 62
     7
370
     0
100
AcDbSpline
210
0.0
220
0.0
230
1.0
 70
    24
 71
     3
 72
     8
 73
     4
 74
     0
 42
0.0000000001
 43
0.0000000001
 40
0.0
 40
0.0
 40
0.0
 40
0.0
 40
1.0
 40
1.0
 40
1.0
 40
1.0
 10
466.9319517369622
 20
139.764568747496
 30
0.0
 10
466.9319517369622
 20
139.764568747496
 30
0.0
 10
467.54241611227
 20
140.3750331228039
 30
0.0
 10
467.54241611227
 20
140.3750331228039
 30
0.0
  0
SPLINE
  5
DF
330
88
100
AcDbEntity
  8
1
 62
     7
370
     0
100
AcDbSpline
210
0.0
220
0.0
230
1.0
 70
    24
 71
     3
 72
     8
 73
     4
 74
     0
 42
0.0000000001
 43
0.0000000001
 40
0.0
 40
0.0
 40
0.0
 40
0.0
 40
1.0
 40
1.0
 40
1.0
 40
1.0
 10
466.8998836177706
 20
139.7603468974703
 30
0.0
 10
466.8998836177706
 20
139.7603468974703
 30
0.0
 10
467.5178093793801
 20
140.3782726590798
 30
0.0
 10
467.5178093793801
 20
140.3782726590798
 30
0.0
  0
SPLINE
  5
E0
330
88
100
AcDbEntity
  8
1
 62
     7
370
     0
100
AcDbSpline
210
0.0
220
0.0
230
1.0
 70
    24
 71
     3
 72
     8
 73
     4
 74
     0
 42
0.0000000001
 43
0.0000000001
 40
0.0
 40
0.0
 40
0.0
 40
0.0
 40
1.0
 40
1.0
 40
1.0
 40
1.0
 10
466.8678154985809
 20
139.7561250474446
 30
0.0
 10
466.8678154985809
 20
139.7561250474446
 30
0.0
 10
467.4932026464903
 20
140.3815121953557
 30
0.0
 10
467.4932026464903
 20
140.3815121953557
 30
0.0
  0
SPLINE
  5
E1
330
88
100
AcDbEntity
  8
1
 62
     7
370
     0
100
AcDbSpline
210
0.0
220
0.0
230
1.0
 70
    24
 71
     3
 72
     8
 73
     4
 74
     0
 42
0.0000000001
 43
0.0000000001
 40
0.0
 40
0.0
 40
0.0
 40
0.0
 40
1.0
 40
1.0
 40
1.0
 40
1.0
 10
466.8357473793894
 20
139.7519031974189
 30
0.0
 10
466.8357473793894
 20
139.7519031974189
 30
0.0
 10
467.4685959136022
 20
140.3847517316317
 30
0.0
 10
467.4685959136022
 20
140.3847517316317
 30
0.0
  0
SPLINE
  5
E2
330
88
100
AcDbEntity
  8
1
 62
     7
370
     0
100
AcDbSpline
210
0.0
220
0.0
230
1.0
 70
    24
 71
     3
 72
     8
 73
     4
 74
     0
 42
0.0000000001
 43
0.0000000001
 40
0.0
 40
0.0
 40
0.0
 40
0.0
 40
1.0
 40
1.0
 40
1.0
 40
1.0
 10
466.8036792601979
 20
139.7476813473931
 30
0.0
 10
466.8036792601979
 20
139.7476813473931
 30
0.0
 10
467.4439891807123
 20
140.3879912679076
 30
0.0
 10
467.4439891807123
 20
140.3879912679076
 30
0.0
  0
SPLINE
  5
E3
330
88
100
AcDbEntity
  8
1
 62
     7
370
     0
100
AcDbSpline
210
0.0
220
0.0
230
1.0
 70
    24
 71
     3
 72
     8
 73
     4
 74
     0
 42
0.0000000001
 43
0.0000000001
 40
0.0
 40
0.0
 40
0.0
 40
0.0
 40
1.0
 40
1.0
 40
1.0
 40
1.0
 10
466.7716111410063
 20
139.7434594973656
 30
0.0
 10
466.7716111410063
 20
139.7434594973656
 30
0.0
 10
467.4193824478225
 20
140.3912308041817
 30
0.0
 10
467.4193824478225
 20
140.3912308041817
 30
0.0
  0
SPLINE
  5
E4
330
88
100
AcDbEntity
  8
1
 62
     7
370
     0
100
AcDbSpline
210
0.0
220
0.0
230
1.0
 70
    24
 71
     3
 72
     8
 73
     4
 74
     0
 42
0.0000000001
 43
0.0000000001
 40
0.0
 40
0.0
 40
0.0
 40
0.0
 40
1.0
 40
1.0
 40
1.0
 40
1.0
 10
466.7549018795143
 20
139.7545965050376
 30
0.0
 10
466.7549018795143
 20
139.7545965050376
 30
0.0
 10
467.3947757149344
 20
140.3944703404577
 30
0.0
 10
467.3947757149344
 20
140.3944703404577
 30
0.0
  0
SPLINE
  5
E5
330
88
100
AcDbEntity
  8
1
 62
     7
370
     0
100
AcDbSpline
210
0.0
220
0.0
230
1.0
 70
    24
 71
     3
 72
     8
 73
     4
 74
     0
 42
0.0000000001
 43
0.0000000001
 40
0.0
 40
0.0
 40
0.0
 40
0.0
 40
1.0
 40
1.0
 40
1.0
 40
1.0
 10
466.7549017772289
 20
139.782442671918
 30
0.0
 10
466.7549017772289
 20
139.782442671918
 30
0.0
 10
467.3701689820445
 20
140.3977098767336
 30
0.0
 10
467.3701689820445
 20
140.3977098767336
 30
0.0
  0
SPLINE
  5
E6
330
88
100
AcDbEntity
  8
1
 62
     7
370
     0
100
AcDbSpline
210
0.0
220
0.0
230
1.0
 70
    24
 71
     3
 72
     8
 73
     4
 74
     0
 42
0.0000000001
 43
0.0000000001
 40
0.0
 40
0.0
 40
0.0
 40
0.0
 40
1.0
 40
1.0
 40
1.0
 40
1.0
 10
466.7549016749453
 20
139.8102888387984
 30
0.0
 10
466.7549016749453
 20
139.8102888387984
 30
0.0
 10
467.3455622491546
 20
140.4009494130096
 30
0.0
 10
467.3455622491546
 20
140.4009494130096
 30
0.0
  0
SPLINE
  5
E7
330
88
100
AcDbEntity
  8
1
 62
     7
370
     0
100
AcDbSpline
210
0.0
220
0.0
230
1.0
 70
    24
 71
     3
 72
     8
 73
     4
 74
     0
 42
0.0000000001
 43
0.0000000001
 40
0.0
 40
0.0
 40
0.0
 40
0.0
 40
1.0
 40
1.0
 40
1.0
 40
1.0
 10
466.7549015726599
 20
139.8381350056806
 30
0.0
 10
466.7549015726599
 20
139.8381350056806
 30
0.0
 10
467.3209555162648
 20
140.4041889492855
 30
0.0
 10
467.3209555162648
 20
140.4041889492855
 30
0.0
  0
SPLINE
  5
E8
330
88
100
AcDbEntity
  8
1
 62
     7
370
     0
100
AcDbSpline
210
0.0
220
0.0
230
1.0
 70
    24
 71
     3
 72
     8
 73
     4
 74
     0
 42
0.0000000001
 43
0.0000000001
 40
0.0
 40
0.0
 40
0.0
 40
0.0
 40
1.0
 40
1.0
 40
1.0
 40
1.0
 10
466.7549014703763
 20
139.8659811725611
 30
0.0
 10
466.7549014703763
 20
139.8659811725611
 30
0.0
 10
467.2963487833767
 20
140.4074284855614
 30
0.0
 10
467.2963487833767
 20
140.4074284855614
 30
0.0
  0
SPLINE
  5
E9
330
88
100
AcDbEntity
  8
1
 62
     7
370
     0
100
AcDbSpline
210
0.0
220
0.0
230
1.0
 70
    24
 71
     3
 72
     8
 73
     4
 74
     0
 42
0.0000000001
 43
0.0000000001
 40
0.0
 40
0.0
 40
0.0
 40
0.0
 40
1.0
 40
1.0
 40
1.0
 40
1.0
 10
466.7549013680909
 20
139.8938273394415
 30
0.0
 10
466.7549013680909
 20
139.8938273394415
 30
0.0
 10
467.2717420504868
 20
140.4106680218356
 30
0.0
 10
467.2717420504868
 20
140.4106680218356
 30
0.0
  0
SPLINE
  5
EA
330
88
100
AcDbEntity
  8
1
 62
     7
370
     0
100
AcDbSpline
210
0.0
220
0.0
230
1.0
 70
    24
 71
     3
 72
     8
 73
     4
 74
     0
 42
0.0000000001
 43
0.0000000001
 40
0.0
 40
0.0
 40
0.0
 40
0.0
 40
1.0
 40
1.0
 40
1.0
 40
1.0
 10
466.7549012658055
 20
139.9216735063219
 30
0.0
 10
466.7549012658055
 20
139.9216735063219
 30
0.0
 10
467.247135317597
 20
140.4139075581115
 30
0.0
 10
467.247135317597
 20
140.4139075581115
 30
0.0
  0
SPLINE
  5
EB
330
88
100
AcDbEntity
  8
1
 62
     7
370
     0
100
AcDbSpline
210
0.0
220
0.0
230
1.0
 70
    24
 71
     3
 72
     8
 73
     4
 74
     0
 42
0.0000000001
 43
0.0000000001
 40
0.0
 40
0.0
 40
0.0
 40
0.0
 40
1.0
 40
1.0
 40
1.0
 40
1.0
 10
466.7549011635219
 20
139.9495196732023
 30
0.0
 10
466.7549011635219
 20
139.9495196732023
 30
0.0
 10
467.2225285847089
 20
140.4171470943875
 30
0.0
 10
467.2225285847089
 20
140.4171470943875
 30
0.0
  0
SPLINE
  5
EC
330
88
100
AcDbEntity
  8
1
 62
     7
370
     0
100
AcDbSpline
210
0.0
220
0.0
230
1.0
 70
    24
 71
     3
 72
     8
 73
     4
 74
     0
 42
0.0000000001
 43
0.0000000001
 40
0.0
 40
0.0
 40
0.0
 40
0.0
 40
1.0
 40
1.0
 40
1.0
 40
1.0
 10
466.7549010612365
 20
139.9773658400827
 30
0.0
 10
466.7549010612365
 20
139.9773658400827
 30
0.0
 10
467.197921851819
 20
140.4203866306634
 30
0.0
 10
467.197921851819
 20
140.4203866306634
 30
0.0
  0
SPLINE
  5
ED
330
88
100
AcDbEntity
  8
1
 62
     7
370
     0
100
AcDbSpline
210
0.0
220
0.0
230
1.0
 70
    24
 71
     3
 72
     8
 73
     4
 74
     0
 42
0.0000000001
 43
0.0000000001
 40
0.0
 40
0.0
 40
0.0
 40
0.0
 40
1.0
 40
1.0
 40
1.0
 40
1.0
 10
466.7549009589529
 20
140.0052120069631
 30
0.0
 10
466.7549009589529
 20
140.0052120069631
 30
0.0
 10
467.1733151189291
 20
140.4236261669411
 30
0.0
 10
467.1733151189291
 20
140.4236261669411
 30
0.0
  0
SPLINE
  5
EE
330
88
100
AcDbEntity
  8
1
 62
     7
370
     0
100
AcDbSpline
210
0.0
220
0.0
230
1.0
 70
    24
 71
     3
 72
     8
 73
     4
 74
     0
 42
0.0000000001
 43
0.0000000001
 40
0.0
 40
0.0
 40
0.0
 40
0.0
 40
1.0
 40
1.0
 40
1.0
 40
1.0
 10
466.7549008566675
 20
140.0330581738435
 30
0.0
 10
466.7549008566675
 20
140.0330581738435
 30
0.0
 10
467.1487083860393
 20
140.4268657032171
 30
0.0
 10
467.1487083860393
 20
140.4268657032171
 30
0.0
  0
SPLINE
  5
EF
330
88
100
AcDbEntity
  8
1
 62
     7
370
     0
100
AcDbSpline
210
0.0
220
0.0
230
1.0
 70
    24
 71
     3
 72
     8
 73
     4
 74
     0
 42
0.0000000001
 43
0.0000000001
 40
0.0
 40
0.0
 40
0.0
 40
0.0
 40
1.0
 40
1.0
 40
1.0
 40
1.0
 10
466.754900754382
 20
140.0609043407239
 30
0.0
 10
466.754900754382
 20
140.0609043407239
 30
0.0
 10
467.1241016531512
 20
140.4301052394912
 30
0.0
 10
467.1241016531512
 20
140.4301052394912
 30
0.0
  0
SPLINE
  5
F0
330
88
100
AcDbEntity
  8
1
 62
     7
370
     0
100
AcDbSpline
210
0.0
220
0.0
230
1.0
 70
    24
 71
     3
 72
     8
 73
     4
 74
     0
 42
0.0000000001
 43
0.0000000001
 40
0.0
 40
0.0
 40
0.0
 40
0.0
 40
1.0
 40
1.0
 40
1.0
 40
1.0
 10
466.7549006520984
 20
140.0887505076043
 30
0.0
 10
466.7549006520984
 20
140.0887505076043
 30
0.0
 10
467.0994949202613
 20
140.4333447757672
 30
0.0
 10
467.0994949202613
 20
140.4333447757672
 30
0.0
  0
SPLINE
  5
F1
330
88
100
AcDbEntity
  8
1
 62
     7
370
     0
100
AcDbSpline
210
0.0
220
0.0
230
1.0
 70
    24
 71
     3
 72
     8
 73
     4
 74
     0
 42
0.0000000001
 43
0.0000000001
 40
0.0
 40
0.0
 40
0.0
 40
0.0
 40
1.0
 40
1.0
 40
1.0
 40
1.0
 10
466.7549005498131
 20
140.1165966744847
 30
0.0
 10
466.7549005498131
 20
140.1165966744847
 30
0.0
 10
467.0748881873715
 20
140.4365843120431
 30
0.0
 10
467.0748881873715
 20
140.4365843120431
 30
0.0
  0
SPLINE
  5
F2
330
88
100
AcDbEntity
  8
1
 62
     7
370
     0
100
AcDbSpline
210
0.0
220
0.0
230
1.0
 70
    24
 71
     3
 72
     8
 73
     4
 74
     0
 42
0.0000000001
 43
0.0000000001
 40
0.0
 40
0.0
 40
0.0
 40
0.0
 40
1.0
 40
1.0
 40
1.0
 40
1.0
 10
466.7549004475294
 20
140.1444428413633
 30
0.0
 10
466.7549004475294
 20
140.1444428413633
 30
0.0
 10
467.0502814544816
 20
140.4398238483191
 30
0.0
 10
467.0502814544816
 20
140.4398238483191
 30
0.0
  0
SPLINE
  5
F3
330
88
100
AcDbEntity
  8
1
 62
     7
370
     0
100
AcDbSpline
210
0.0
220
0.0
230
1.0
 70
    24
 71
     3
 72
     8
 73
     4
 74
     0
 42
0.0000000001
 43
0.0000000001
 40
0.0
 40
0.0
 40
0.0
 40
0.0
 40
1.0
 40
1.0
 40
1.0
 40
1.0
 10
466.7549003452441
 20
140.1722890082437
 30
0.0
 10
466.7549003452441
 20
140.1722890082437
 30
0.0
 10
467.0256747215935
 20
140.443063384595
 30
0.0
 10
467.0256747215935
 20
140.443063384595
 30
0.0
  0
SPLINE
  5
F4
330
88
100
AcDbEntity
  8
1
 62
     7
370
     0
100
AcDbSpline
210
0.0
220
0.0
230
1.0
 70
    24
 71
     3
 72
     8
 73
     4
 74
     0
 42
0.0000000001
 43
0.0000000001
 40
0.0
 40
0.0
 40
0.0
 40
0.0
 40
1.0
 40
1.0
 40
1.0
 40
1.0
 10
466.7549002429587
 20
140.2001351751241
 30
0.0
 10
466.7549002429587
 20
140.2001351751241
 30
0.0
 10
467.0010679887036
 20
140.4463029208709
 30
0.0
 10
467.0010679887036
 20
140.4463029208709
 30
0.0
  0
SPLINE
  5
F5
330
88
100
AcDbEntity
  8
1
 62
     7
370
     0
100
AcDbSpline
210
0.0
220
0.0
230
1.0
 70
    24
 71
     3
 72
     8
 73
     4
 74
     0
 42
0.0000000001
 43
0.0000000001
 40
0.0
 40
0.0
 40
0.0
 40
0.0
 40
1.0
 40
1.0
 40
1.0
 40
1.0
 10
466.7549001406751
 20
140.2279813420046
 30
0.0
 10
466.7549001406751
 20
140.2279813420046
 30
0.0
 10
466.9764612558138
 20
140.449542457145
 30
0.0
 10
466.9764612558138
 20
140.449542457145
 30
0.0
  0
SPLINE
  5
F6
330
88
100
AcDbEntity
  8
1
 62
     7
370
     0
100
AcDbSpline
210
0.0
220
0.0
230
1.0
 70
    24
 71
     3
 72
     8
 73
     4
 74
     0
 42
0.0000000001
 43
0.0000000001
 40
0.0
 40
0.0
 40
0.0
 40
0.0
 40
1.0
 40
1.0
 40
1.0
 40
1.0
 10
466.7549000383896
 20
140.255827508885
 30
0.0
 10
466.7549000383896
 20
140.255827508885
 30
0.0
 10
466.9518545229257
 20
140.452781993421
 30
0.0
 10
466.9518545229257
 20
140.452781993421
 30
0.0
  0
SPLINE
  5
F7
330
88
100
AcDbEntity
  8
1
 62
     7
370
     0
100
AcDbSpline
210
0.0
220
0.0
230
1.0
 70
    24
 71
     3
 72
     8
 73
     4
 74
     0
 42
0.0000000001
 43
0.0000000001
 40
0.0
 40
0.0
 40
0.0
 40
0.0
 40
1.0
 40
1.0
 40
1.0
 40
1.0
 10
466.754899936106
 20
140.2836736757654
 30
0.0
 10
466.754899936106
 20
140.2836736757654
 30
0.0
 10
466.9272477900358
 20
140.4560215296969
 30
0.0
 10
466.9272477900358
 20
140.4560215296969
 30
0.0
  0
SPLINE
  5
F8
330
88
100
AcDbEntity
  8
1
 62
     7
370
     0
100
AcDbSpline
210
0.0
220
0.0
230
1.0
 70
    24
 71
     3
 72
     8
 73
     4
 74
     0
 42
0.0000000001
 43
0.0000000001
 40
0.0
 40
0.0
 40
0.0
 40
0.0
 40
1.0
 40
1.0
 40
1.0
 40
1.0
 10
466.7548998338206
 20
140.3115198426458
 30
0.0
 10
466.7548998338206
 20
140.3115198426458
 30
0.0
 10
466.902641057146
 20
140.4592610659729
 30
0.0
 10
466.902641057146
 20
140.4592610659729
 30
0.0
  0
SPLINE
  5
F9
330
88
100
AcDbEntity
  8
1
 62
     7
370
     0
100
AcDbSpline
210
0.0
220
0.0
230
1.0
 70
    24
 71
     3
 72
     8
 73
     4
 74
     0
 42
0.0000000001
 43
0.0000000001
 40
0.0
 40
0.0
 40
0.0
 40
0.0
 40
1.0
 40
1.0
 40
1.0
 40
1.0
 10
466.7548997315352
 20
140.3393660095262
 30
0.0
 10
466.7548997315352
 20
140.3393660095262
 30
0.0
 10
466.878034324256
 20
140.4625006022488
 30
0.0
 10
466.878034324256
 20
140.4625006022488
 30
0.0
  0
SPLINE
  5
FA
330
88
100
AcDbEntity
  8
1
 62
     7
370
     0
100
AcDbSpline
210
0.0
220
0.0
230
1.0
 70
    24
 71
     3
 72
     8
 73
     4
 74
     0
 42
0.0000000001
 43
0.0000000001
 40
0.0
 40
0.0
 40
0.0
 40
0.0
 40
1.0
 40
1.0
 40
1.0
 40
1.0
 10
466.7548996292516
 20
140.3672121764084
 30
0.0
 10
466.7548996292516
 20
140.3672121764084
 30
0.0
 10
466.853427591368
 20
140.4657401385247
 30
0.0
 10
466.853427591368
 20
140.4657401385247
 30
0.0
  0
SPLINE
  5
FB
330
88
100
AcDbEntity
  8
1
 62
     7
370
     0
100
AcDbSpline
210
0.0
220
0.0
230
1.0
 70
    24
 71
     3
 72
     8
 73
     4
 74
     0
 42
0.0000000001
 43
0.0000000001
 40
0.0
 40
0.0
 40
0.0
 40
0.0
 40
1.0
 40
1.0
 40
1.0
 40
1.0
 10
466.7548995269662
 20
140.3950583432888
 30
0.0
 10
466.7548995269662
 20
140.3950583432888
 30
0.0
 10
466.8288208584781
 20
140.4689796748007
 30
0.0
 10
466.8288208584781
 20
140.4689796748007
 30
0.0
  0
SPLINE
  5
FC
330
88
100
AcDbEntity
  8
1
 62
     7
370
     0
100
AcDbSpline
210
0.0
220
0.0
230
1.0
 70
    24
 71
     3
 72
     8
 73
     4
 74
     0
 42
0.0000000001
 43
0.0000000001
 40
0.0
 40
0.0
 40
0.0
 40
0.0
 40
1.0
 40
1.0
 40
1.0
 40
1.0
 10
466.7548994246827
 20
140.4229045101692
 30
0.0
 10
466.7548994246827
 20
140.4229045101692
 30
0.0
 10
466.8042141255882
 20
140.4722192110748
 30
0.0
 10
466.8042141255882
 20
140.4722192110748
 30
0.0
  0
SPLINE
  5
FD
330
88
100
AcDbEntity
  8
1
 62
     7
370
     0
100
AcDbSpline
210
0.0
220
0.0
230
1.0
 70
    24
 71
     3
 72
     8
 73
     4
 74
     0
 42
0.0000000001
 43
0.0000000001
 40
0.0
 40
0.0
 40
0.0
 40
0.0
 40
1.0
 40
1.0
 40
1.0
 40
1.0
 10
466.7548993223972
 20
140.4507506770496
 30
0.0
 10
466.7548993223972
 20
140.4507506770496
 30
0.0
 10
466.7796073927002
 20
140.4754587473508
 30
0.0
 10
466.7796073927002
 20
140.4754587473508
 30
0.0
  0
SPLINE
  5
FE
330
88
100
AcDbEntity
  8
1
 62
     7
370
     0
100
AcDbSpline
210
0.0
220
0.0
230
1.0
 70
    24
 71
     3
 72
     8
 73
     4
 74
     0
 42
0.0000000001
 43
0.0000000001
 40
0.0
 40
0.0
 40
0.0
 40
0.0
 40
1.0
 40
1.0
 40
1.0
 40
1.0
 10
466.7548992201118
 20
140.47859684393
 30
0.0
 10
466.7548992201118
 20
140.47859684393
 30
0.0
 10
466.7550006598103
 20
140.4786982836267
 30
0.0
 10
466.7550006598103
 20
140.4786982836267
 30
0.0
  0
ENDBLK
  5
8B
330
88
100
AcDbEntity
  8
0
100
AcDbBlockEnd
  0
BLOCK
  5
104
330
102
100
AcDbEntity
  8
0
100
AcDbBlockBegin
  2
Block_2
 70
     0
 10
0.0
 20
0.0
 30
0.0
  3
Block_2
  1

  0
LWPOLYLINE
  5
106
330
102
100
AcDbEntity
  8
1
 62
     7
370
    35
100
AcDbPolyline
 90
        3
 70
     1
 43
0.0
 10
405.5384673329172
 20
140.1099856626042
 10
408.3392178261465
 20
140.478711638465
 10
408.3392205349591
 20
139.7412596867434
  0
SPLINE
  5
107
330
102
100
AcDbEntity
  8
1
 62
     7
370
     0
100
AcDbSpline
210
0.0
220
0.0
230
1.0
 70
    24
 71
     3
 72
     8
 73
     4
 74
     0
 42
0.0000000001
 43
0.0000000001
 40
0.0
 40
0.0
 40
0.0
 40
0.0
 40
1.0
 40
1.0
 40
1.0
 40
1.0
 10
408.3223176577421
 20
139.7434849916681
 30
0.0
 10
408.3223176577421
 20
139.7434849916681
 30
0.0
 10
408.339220464697
 20
139.7603877986239
 30
0.0
 10
408.339220464697
 20
139.7603877986239
 30
0.0
  0
SPLINE
  5
108
330
102
100
AcDbEntity
  8
1
 62
     7
370
     0
100
AcDbSpline
210
0.0
220
0.0
230
1.0
 70
    24
 71
     3
 72
     8
 73
     4
 74
     0
 42
0.0000000001
 43
0.0000000001
 40
0.0
 40
0.0
 40
0.0
 40
0.0
 40
1.0
 40
1.0
 40
1.0
 40
1.0
 10
408.2977109248531
 20
139.746724527944
 30
0.0
 10
408.2977109248531
 20
139.746724527944
 30
0.0
 10
408.3392203624125
 20
139.7882339655043
 30
0.0
 10
408.3392203624125
 20
139.7882339655043
 30
0.0
  0
SPLINE
  5
109
330
102
100
AcDbEntity
  8
1
 62
     7
370
     0
100
AcDbSpline
210
0.0
220
0.0
230
1.0
 70
    24
 71
     3
 72
     8
 73
     4
 74
     0
 42
0.0000000001
 43
0.0000000001
 40
0.0
 40
0.0
 40
0.0
 40
0.0
 40
1.0
 40
1.0
 40
1.0
 40
1.0
 10
408.2731041919632
 20
139.74996406422
 30
0.0
 10
408.2731041919632
 20
139.74996406422
 30
0.0
 10
408.339220260128
 20
139.8160801323847
 30
0.0
 10
408.339220260128
 20
139.8160801323847
 30
0.0
  0
SPLINE
  5
10A
330
102
100
AcDbEntity
  8
1
 62
     7
370
     0
100
AcDbSpline
210
0.0
220
0.0
230
1.0
 70
    24
 71
     3
 72
     8
 73
     4
 74
     0
 42
0.0000000001
 43
0.0000000001
 40
0.0
 40
0.0
 40
0.0
 40
0.0
 40
1.0
 40
1.0
 40
1.0
 40
1.0
 10
408.2484974590743
 20
139.7532036004959
 30
0.0
 10
408.2484974590743
 20
139.7532036004959
 30
0.0
 10
408.3392201578435
 20
139.8439262992651
 30
0.0
 10
408.3392201578435
 20
139.8439262992651
 30
0.0
  0
SPLINE
  5
10B
330
102
100
AcDbEntity
  8
1
 62
     7
370
     0
100
AcDbSpline
210
0.0
220
0.0
230
1.0
 70
    24
 71
     3
 72
     8
 73
     4
 74
     0
 42
0.0000000001
 43
0.0000000001
 40
0.0
 40
0.0
 40
0.0
 40
0.0
 40
1.0
 40
1.0
 40
1.0
 40
1.0
 10
408.2238907261844
 20
139.7564431367718
 30
0.0
 10
408.2238907261844
 20
139.7564431367718
 30
0.0
 10
408.3392200555581
 20
139.8717724661455
 30
0.0
 10
408.3392200555581
 20
139.8717724661455
 30
0.0
  0
SPLINE
  5
10C
330
102
100
AcDbEntity
  8
1
 62
     7
370
     0
100
AcDbSpline
210
0.0
220
0.0
230
1.0
 70
    24
 71
     3
 72
     8
 73
     4
 74
     0
 42
0.0000000001
 43
0.0000000001
 40
0.0
 40
0.0
 40
0.0
 40
0.0
 40
1.0
 40
1.0
 40
1.0
 40
1.0
 10
408.1992839932954
 20
139.7596826730478
 30
0.0
 10
408.1992839932954
 20
139.7596826730478
 30
0.0
 10
408.3392199532736
 20
139.899618633026
 30
0.0
 10
408.3392199532736
 20
139.899618633026
 30
0.0
  0
SPLINE
  5
10D
330
102
100
AcDbEntity
  8
1
 62
     7
370
     0
100
AcDbSpline
210
0.0
220
0.0
230
1.0
 70
    24
 71
     3
 72
     8
 73
     4
 74
     0
 42
0.0000000001
 43
0.0000000001
 40
0.0
 40
0.0
 40
0.0
 40
0.0
 40
1.0
 40
1.0
 40
1.0
 40
1.0
 10
408.1746772604065
 20
139.7629222093237
 30
0.0
 10
408.1746772604065
 20
139.7629222093237
 30
0.0
 10
408.3392198509891
 20
139.9274647999064
 30
0.0
 10
408.3392198509891
 20
139.9274647999064
 30
0.0
  0
SPLINE
  5
10E
330
102
100
AcDbEntity
  8
1
 62
     7
370
     0
100
AcDbSpline
210
0.0
220
0.0
230
1.0
 70
    24
 71
     3
 72
     8
 73
     4
 74
     0
 42
0.0000000001
 43
0.0000000001
 40
0.0
 40
0.0
 40
0.0
 40
0.0
 40
1.0
 40
1.0
 40
1.0
 40
1.0
 10
408.1500705275166
 20
139.7661617455997
 30
0.0
 10
408.1500705275166
 20
139.7661617455997
 30
0.0
 10
408.3392197487046
 20
139.9553109667868
 30
0.0
 10
408.3392197487046
 20
139.9553109667868
 30
0.0
  0
SPLINE
  5
10F
330
102
100
AcDbEntity
  8
1
 62
     7
370
     0
100
AcDbSpline
210
0.0
220
0.0
230
1.0
 70
    24
 71
     3
 72
     8
 73
     4
 74
     0
 42
0.0000000001
 43
0.0000000001
 40
0.0
 40
0.0
 40
0.0
 40
0.0
 40
1.0
 40
1.0
 40
1.0
 40
1.0
 10
408.1254637946276
 20
139.7694012818756
 30
0.0
 10
408.1254637946276
 20
139.7694012818756
 30
0.0
 10
408.3392196464201
 20
139.9831571336672
 30
0.0
 10
408.3392196464201
 20
139.9831571336672
 30
0.0
  0
SPLINE
  5
110
330
102
100
AcDbEntity
  8
1
 62
     7
370
     0
100
AcDbSpline
210
0.0
220
0.0
230
1.0
 70
    24
 71
     3
 72
     8
 73
     4
 74
     0
 42
0.0000000001
 43
0.0000000001
 40
0.0
 40
0.0
 40
0.0
 40
0.0
 40
1.0
 40
1.0
 40
1.0
 40
1.0
 10
408.1008570617377
 20
139.7726408181515
 30
0.0
 10
408.1008570617377
 20
139.7726408181515
 30
0.0
 10
408.3392195441356
 20
140.0110033005494
 30
0.0
 10
408.3392195441356
 20
140.0110033005494
 30
0.0
  0
SPLINE
  5
111
330
102
100
AcDbEntity
  8
1
 62
     7
370
     0
100
AcDbSpline
210
0.0
220
0.0
230
1.0
 70
    24
 71
     3
 72
     8
 73
     4
 74
     0
 42
0.0000000001
 43
0.0000000001
 40
0.0
 40
0.0
 40
0.0
 40
0.0
 40
1.0
 40
1.0
 40
1.0
 40
1.0
 10
408.0762503288488
 20
139.7758803544275
 30
0.0
 10
408.0762503288488
 20
139.7758803544275
 30
0.0
 10
408.3392194418502
 20
140.0388494674298
 30
0.0
 10
408.3392194418502
 20
140.0388494674298
 30
0.0
  0
SPLINE
  5
112
330
102
100
AcDbEntity
  8
1
 62
     7
370
     0
100
AcDbSpline
210
0.0
220
0.0
230
1.0
 70
    24
 71
     3
 72
     8
 73
     4
 74
     0
 42
0.0000000001
 43
0.0000000001
 40
0.0
 40
0.0
 40
0.0
 40
0.0
 40
1.0
 40
1.0
 40
1.0
 40
1.0
 10
408.0516435959589
 20
139.7791198907034
 30
0.0
 10
408.0516435959589
 20
139.7791198907034
 30
0.0
 10
408.3392193395657
 20
140.0666956343102
 30
0.0
 10
408.3392193395657
 20
140.0666956343102
 30
0.0
  0
SPLINE
  5
113
330
102
100
AcDbEntity
  8
1
 62
     7
370
     0
100
AcDbSpline
210
0.0
220
0.0
230
1.0
 70
    24
 71
     3
 72
     8
 73
     4
 74
     0
 42
0.0000000001
 43
0.0000000001
 40
0.0
 40
0.0
 40
0.0
 40
0.0
 40
1.0
 40
1.0
 40
1.0
 40
1.0
 10
408.0270368630699
 20
139.7823594269775
 30
0.0
 10
408.0270368630699
 20
139.7823594269775
 30
0.0
 10
408.3392192372811
 20
140.0945418011906
 30
0.0
 10
408.3392192372811
 20
140.0945418011906
 30
0.0
  0
SPLINE
  5
114
330
102
100
AcDbEntity
  8
1
 62
     7
370
     0
100
AcDbSpline
210
0.0
220
0.0
230
1.0
 70
    24
 71
     3
 72
     8
 73
     4
 74
     0
 42
0.0000000001
 43
0.0000000001
 40
0.0
 40
0.0
 40
0.0
 40
0.0
 40
1.0
 40
1.0
 40
1.0
 40
1.0
 10
408.002430130181
 20
139.7855989632535
 30
0.0
 10
408.002430130181
 20
139.7855989632535
 30
0.0
 10
408.3392191349966
 20
140.122387968071
 30
0.0
 10
408.3392191349966
 20
140.122387968071
 30
0.0
  0
SPLINE
  5
115
330
102
100
AcDbEntity
  8
1
 62
     7
370
     0
100
AcDbSpline
210
0.0
220
0.0
230
1.0
 70
    24
 71
     3
 72
     8
 73
     4
 74
     0
 42
0.0000000001
 43
0.0000000001
 40
0.0
 40
0.0
 40
0.0
 40
0.0
 40
1.0
 40
1.0
 40
1.0
 40
1.0
 10
407.9778233972911
 20
139.7888384995294
 30
0.0
 10
407.9778233972911
 20
139.7888384995294
 30
0.0
 10
408.3392190327121
 20
140.1502341349514
 30
0.0
 10
408.3392190327121
 20
140.1502341349514
 30
0.0
  0
SPLINE
  5
116
330
102
100
AcDbEntity
  8
1
 62
     7
370
     0
100
AcDbSpline
210
0.0
220
0.0
230
1.0
 70
    24
 71
     3
 72
     8
 73
     4
 74
     0
 42
0.0000000001
 43
0.0000000001
 40
0.0
 40
0.0
 40
0.0
 40
0.0
 40
1.0
 40
1.0
 40
1.0
 40
1.0
 10
407.9532166644021
 20
139.7920780358054
 30
0.0
 10
407.9532166644021
 20
139.7920780358054
 30
0.0
 10
408.3392189304268
 20
140.1780803018318
 30
0.0
 10
408.3392189304268
 20
140.1780803018318
 30
0.0
  0
SPLINE
  5
117
330
102
100
AcDbEntity
  8
1
 62
     7
370
     0
100
AcDbSpline
210
0.0
220
0.0
230
1.0
 70
    24
 71
     3
 72
     8
 73
     4
 74
     0
 42
0.0000000001
 43
0.0000000001
 40
0.0
 40
0.0
 40
0.0
 40
0.0
 40
1.0
 40
1.0
 40
1.0
 40
1.0
 10
407.9286099315122
 20
139.7953175720813
 30
0.0
 10
407.9286099315122
 20
139.7953175720813
 30
0.0
 10
408.3392188281423
 20
140.2059264687123
 30
0.0
 10
408.3392188281423
 20
140.2059264687123
 30
0.0
  0
SPLINE
  5
118
330
102
100
AcDbEntity
  8
1
 62
     7
370
     0
100
AcDbSpline
210
0.0
220
0.0
230
1.0
 70
    24
 71
     3
 72
     8
 73
     4
 74
     0
 42
0.0000000001
 43
0.0000000001
 40
0.0
 40
0.0
 40
0.0
 40
0.0
 40
1.0
 40
1.0
 40
1.0
 40
1.0
 10
407.9040031986233
 20
139.7985571083572
 30
0.0
 10
407.9040031986233
 20
139.7985571083572
 30
0.0
 10
408.3392187258578
 20
140.2337726355927
 30
0.0
 10
408.3392187258578
 20
140.2337726355927
 30
0.0
  0
SPLINE
  5
119
330
102
100
AcDbEntity
  8
1
 62
     7
370
     0
100
AcDbSpline
210
0.0
220
0.0
230
1.0
 70
    24
 71
     3
 72
     8
 73
     4
 74
     0
 42
0.0000000001
 43
0.0000000001
 40
0.0
 40
0.0
 40
0.0
 40
0.0
 40
1.0
 40
1.0
 40
1.0
 40
1.0
 10
407.8793964657334
 20
139.8017966446332
 30
0.0
 10
407.8793964657334
 20
139.8017966446332
 30
0.0
 10
408.3392186235732
 20
140.2616188024731
 30
0.0
 10
408.3392186235732
 20
140.2616188024731
 30
0.0
  0
SPLINE
  5
11A
330
102
100
AcDbEntity
  8
1
 62
     7
370
     0
100
AcDbSpline
210
0.0
220
0.0
230
1.0
 70
    24
 71
     3
 72
     8
 73
     4
 74
     0
 42
0.0000000001
 43
0.0000000001
 40
0.0
 40
0.0
 40
0.0
 40
0.0
 40
1.0
 40
1.0
 40
1.0
 40
1.0
 10
407.8547897328444
 20
139.8050361809073
 30
0.0
 10
407.8547897328444
 20
139.8050361809073
 30
0.0
 10
408.3392185212887
 20
140.2894649693517
 30
0.0
 10
408.3392185212887
 20
140.2894649693517
 30
0.0
  0
SPLINE
  5
11B
330
102
100
AcDbEntity
  8
1
 62
     7
370
     0
100
AcDbSpline
210
0.0
220
0.0
230
1.0
 70
    24
 71
     3
 72
     8
 73
     4
 74
     0
 42
0.0000000001
 43
0.0000000001
 40
0.0
 40
0.0
 40
0.0
 40
0.0
 40
1.0
 40
1.0
 40
1.0
 40
1.0
 10
407.8301829999545
 20
139.8082757171833
 30
0.0
 10
407.8301829999545
 20
139.8082757171833
 30
0.0
 10
408.3392184190033
 20
140.3173111362321
 30
0.0
 10
408.3392184190033
 20
140.3173111362321
 30
0.0
  0
SPLINE
  5
11C
330
102
100
AcDbEntity
  8
1
 62
     7
370
     0
100
AcDbSpline
210
0.0
220
0.0
230
1.0
 70
    24
 71
     3
 72
     8
 73
     4
 74
     0
 42
0.0000000001
 43
0.0000000001
 40
0.0
 40
0.0
 40
0.0
 40
0.0
 40
1.0
 40
1.0
 40
1.0
 40
1.0
 10
407.8055762670656
 20
139.8115152534592
 30
0.0
 10
407.8055762670656
 20
139.8115152534592
 30
0.0
 10
408.3392183167188
 20
140.3451573031125
 30
0.0
 10
408.3392183167188
 20
140.3451573031125
 30
0.0
  0
SPLINE
  5
11D
330
102
100
AcDbEntity
  8
1
 62
     7
370
     0
100
AcDbSpline
210
0.0
220
0.0
230
1.0
 70
    24
 71
     3
 72
     8
 73
     4
 74
     0
 42
0.0000000001
 43
0.0000000001
 40
0.0
 40
0.0
 40
0.0
 40
0.0
 40
1.0
 40
1.0
 40
1.0
 40
1.0
 10
407.7809695341766
 20
139.8147547897351
 30
0.0
 10
407.7809695341766
 20
139.8147547897351
 30
0.0
 10
408.3392182144343
 20
140.3730034699929
 30
0.0
 10
408.3392182144343
 20
140.3730034699929
 30
0.0
  0
SPLINE
  5
11E
330
102
100
AcDbEntity
  8
1
 62
     7
370
     0
100
AcDbSpline
210
0.0
220
0.0
230
1.0
 70
    24
 71
     3
 72
     8
 73
     4
 74
     0
 42
0.0000000001
 43
0.0000000001
 40
0.0
 40
0.0
 40
0.0
 40
0.0
 40
1.0
 40
1.0
 40
1.0
 40
1.0
 10
407.7563628012867
 20
139.8179943260111
 30
0.0
 10
407.7563628012867
 20
139.8179943260111
 30
0.0
 10
408.3392181121499
 20
140.4008496368733
 30
0.0
 10
408.3392181121499
 20
140.4008496368733
 30
0.0
  0
SPLINE
  5
11F
330
102
100
AcDbEntity
  8
1
 62
     7
370
     0
100
AcDbSpline
210
0.0
220
0.0
230
1.0
 70
    24
 71
     3
 72
     8
 73
     4
 74
     0
 42
0.0000000001
 43
0.0000000001
 40
0.0
 40
0.0
 40
0.0
 40
0.0
 40
1.0
 40
1.0
 40
1.0
 40
1.0
 10
407.7317560683978
 20
139.821233862287
 30
0.0
 10
407.7317560683978
 20
139.821233862287
 30
0.0
 10
408.3392180098654
 20
140.4286958037537
 30
0.0
 10
408.3392180098654
 20
140.4286958037537
 30
0.0
  0
SPLINE
  5
120
330
102
100
AcDbEntity
  8
1
 62
     7
370
     0
100
AcDbSpline
210
0.0
220
0.0
230
1.0
 70
    24
 71
     3
 72
     8
 73
     4
 74
     0
 42
0.0000000001
 43
0.0000000001
 40
0.0
 40
0.0
 40
0.0
 40
0.0
 40
1.0
 40
1.0
 40
1.0
 40
1.0
 10
407.7071493355078
 20
139.8244733985611
 30
0.0
 10
407.7071493355078
 20
139.8244733985611
 30
0.0
 10
408.3392179075799
 20
140.4565419706341
 30
0.0
 10
408.3392179075799
 20
140.4565419706341
 30
0.0
  0
SPLINE
  5
121
330
102
100
AcDbEntity
  8
1
 62
     7
370
     0
100
AcDbSpline
210
0.0
220
0.0
230
1.0
 70
    24
 71
     3
 72
     8
 73
     4
 74
     0
 42
0.0000000001
 43
0.0000000001
 40
0.0
 40
0.0
 40
0.0
 40
0.0
 40
1.0
 40
1.0
 40
1.0
 40
1.0
 10
407.6825426026188
 20
139.8277129348371
 30
0.0
 10
407.6825426026188
 20
139.8277129348371
 30
0.0
 10
408.3326806733348
 20
140.4778510055548
 30
0.0
 10
408.3326806733348
 20
140.4778510055548
 30
0.0
  0
SPLINE
  5
122
330
102
100
AcDbEntity
  8
1
 62
     7
370
     0
100
AcDbSpline
210
0.0
220
0.0
230
1.0
 70
    24
 71
     3
 72
     8
 73
     4
 74
     0
 42
0.0000000001
 43
0.0000000001
 40
0.0
 40
0.0
 40
0.0
 40
0.0
 40
1.0
 40
1.0
 40
1.0
 40
1.0
 10
407.657935869729
 20
139.8309524711148
 30
0.0
 10
407.657935869729
 20
139.8309524711148
 30
0.0
 10
408.3006125541442
 20
140.4736291555291
 30
0.0
 10
408.3006125541442
 20
140.4736291555291
 30
0.0
  0
SPLINE
  5
123
330
102
100
AcDbEntity
  8
1
 62
     7
370
     0
100
AcDbSpline
210
0.0
220
0.0
230
1.0
 70
    24
 71
     3
 72
     8
 73
     4
 74
     0
 42
0.0000000001
 43
0.0000000001
 40
0.0
 40
0.0
 40
0.0
 40
0.0
 40
1.0
 40
1.0
 40
1.0
 40
1.0
 10
407.63332913684
 20
139.8341920073908
 30
0.0
 10
407.63332913684
 20
139.8341920073908
 30
0.0
 10
408.2685444349526
 20
140.4694073055034
 30
0.0
 10
408.2685444349526
 20
140.4694073055034
 30
0.0
  0
SPLINE
  5
124
330
102
100
AcDbEntity
  8
1
 62
     7
370
     0
100
AcDbSpline
210
0.0
220
0.0
230
1.0
 70
    24
 71
     3
 72
     8
 73
     4
 74
     0
 42
0.0000000001
 43
0.0000000001
 40
0.0
 40
0.0
 40
0.0
 40
0.0
 40
1.0
 40
1.0
 40
1.0
 40
1.0
 10
407.6087224039501
 20
139.8374315436667
 30
0.0
 10
407.6087224039501
 20
139.8374315436667
 30
0.0
 10
408.236476315762
 20
140.4651854554759
 30
0.0
 10
408.236476315762
 20
140.4651854554759
 30
0.0
  0
SPLINE
  5
125
330
102
100
AcDbEntity
  8
1
 62
     7
370
     0
100
AcDbSpline
210
0.0
220
0.0
230
1.0
 70
    24
 71
     3
 72
     8
 73
     4
 74
     0
 42
0.0000000001
 43
0.0000000001
 40
0.0
 40
0.0
 40
0.0
 40
0.0
 40
1.0
 40
1.0
 40
1.0
 40
1.0
 10
407.5841156710612
 20
139.8406710799427
 30
0.0
 10
407.5841156710612
 20
139.8406710799427
 30
0.0
 10
408.2044081965705
 20
140.4609636054501
 30
0.0
 10
408.2044081965705
 20
140.4609636054501
 30
0.0
  0
SPLINE
  5
126
330
102
100
AcDbEntity
  8
1
 62
     7
370
     0
100
AcDbSpline
210
0.0
220
0.0
230
1.0
 70
    24
 71
     3
 72
     8
 73
     4
 74
     0
 42
0.0000000001
 43
0.0000000001
 40
0.0
 40
0.0
 40
0.0
 40
0.0
 40
1.0
 40
1.0
 40
1.0
 40
1.0
 10
407.5595089381722
 20
139.8439106162168
 30
0.0
 10
407.5595089381722
 20
139.8439106162168
 30
0.0
 10
408.1723400773799
 20
140.4567417554244
 30
0.0
 10
408.1723400773799
 20
140.4567417554244
 30
0.0
  0
SPLINE
  5
127
330
102
100
AcDbEntity
  8
1
 62
     7
370
     0
100
AcDbSpline
210
0.0
220
0.0
230
1.0
 70
    24
 71
     3
 72
     8
 73
     4
 74
     0
 42
0.0000000001
 43
0.0000000001
 40
0.0
 40
0.0
 40
0.0
 40
0.0
 40
1.0
 40
1.0
 40
1.0
 40
1.0
 10
407.5349022052823
 20
139.8471501524927
 30
0.0
 10
407.5349022052823
 20
139.8471501524927
 30
0.0
 10
408.1402719581883
 20
140.4525199053987
 30
0.0
 10
408.1402719581883
 20
140.4525199053987
 30
0.0
  0
SPLINE
  5
128
330
102
100
AcDbEntity
  8
1
 62
     7
370
     0
100
AcDbSpline
210
0.0
220
0.0
230
1.0
 70
    24
 71
     3
 72
     8
 73
     4
 74
     0
 42
0.0000000001
 43
0.0000000001
 40
0.0
 40
0.0
 40
0.0
 40
0.0
 40
1.0
 40
1.0
 40
1.0
 40
1.0
 10
407.5102954723933
 20
139.8503896887687
 30
0.0
 10
407.5102954723933
 20
139.8503896887687
 30
0.0
 10
408.1082038389967
 20
140.448298055373
 30
0.0
 10
408.1082038389967
 20
140.448298055373
 30
0.0
  0
SPLINE
  5
129
330
102
100
AcDbEntity
  8
1
 62
     7
370
     0
100
AcDbSpline
210
0.0
220
0.0
230
1.0
 70
    24
 71
     3
 72
     8
 73
     4
 74
     0
 42
0.0000000001
 43
0.0000000001
 40
0.0
 40
0.0
 40
0.0
 40
0.0
 40
1.0
 40
1.0
 40
1.0
 40
1.0
 10
407.4856887395035
 20
139.8536292250446
 30
0.0
 10
407.4856887395035
 20
139.8536292250446
 30
0.0
 10
408.0761357198062
 20
140.4440762053473
 30
0.0
 10
408.0761357198062
 20
140.4440762053473
 30
0.0
  0
SPLINE
  5
12A
330
102
100
AcDbEntity
  8
1
 62
     7
370
     0
100
AcDbSpline
210
0.0
220
0.0
230
1.0
 70
    24
 71
     3
 72
     8
 73
     4
 74
     0
 42
0.0000000001
 43
0.0000000001
 40
0.0
 40
0.0
 40
0.0
 40
0.0
 40
1.0
 40
1.0
 40
1.0
 40
1.0
 10
407.4610820066145
 20
139.8568687613206
 30
0.0
 10
407.4610820066145
 20
139.8568687613206
 30
0.0
 10
408.0440676006146
 20
140.4398543553216
 30
0.0
 10
408.0440676006146
 20
140.4398543553216
 30
0.0
  0
SPLINE
  5
12B
330
102
100
AcDbEntity
  8
1
 62
     7
370
     0
100
AcDbSpline
210
0.0
220
0.0
230
1.0
 70
    24
 71
     3
 72
     8
 73
     4
 74
     0
 42
0.0000000001
 43
0.0000000001
 40
0.0
 40
0.0
 40
0.0
 40
0.0
 40
1.0
 40
1.0
 40
1.0
 40
1.0
 10
407.4364752737246
 20
139.8601082975965
 30
0.0
 10
407.4364752737246
 20
139.8601082975965
 30
0.0
 10
408.011999481424
 20
140.435632505294
 30
0.0
 10
408.011999481424
 20
140.435632505294
 30
0.0
  0
SPLINE
  5
12C
330
102
100
AcDbEntity
  8
1
 62
     7
370
     0
100
AcDbSpline
210
0.0
220
0.0
230
1.0
 70
    24
 71
     3
 72
     8
 73
     4
 74
     0
 42
0.0000000001
 43
0.0000000001
 40
0.0
 40
0.0
 40
0.0
 40
0.0
 40
1.0
 40
1.0
 40
1.0
 40
1.0
 10
407.4118685408357
 20
139.8633478338706
 30
0.0
 10
407.4118685408357
 20
139.8633478338706
 30
0.0
 10
407.9799313622324
 20
140.4314106552683
 30
0.0
 10
407.9799313622324
 20
140.4314106552683
 30
0.0
  0
SPLINE
  5
12D
330
102
100
AcDbEntity
  8
1
 62
     7
370
     0
100
AcDbSpline
210
0.0
220
0.0
230
1.0
 70
    24
 71
     3
 72
     8
 73
     4
 74
     0
 42
0.0000000001
 43
0.0000000001
 40
0.0
 40
0.0
 40
0.0
 40
0.0
 40
1.0
 40
1.0
 40
1.0
 40
1.0
 10
407.3872618079467
 20
139.8665873701466
 30
0.0
 10
407.3872618079467
 20
139.8665873701466
 30
0.0
 10
407.9478632430409
 20
140.4271888052426
 30
0.0
 10
407.9478632430409
 20
140.4271888052426
 30
0.0
  0
SPLINE
  5
12E
330
102
100
AcDbEntity
  8
1
 62
     7
370
     0
100
AcDbSpline
210
0.0
220
0.0
230
1.0
 70
    24
 71
     3
 72
     8
 73
     4
 74
     0
 42
0.0000000001
 43
0.0000000001
 40
0.0
 40
0.0
 40
0.0
 40
0.0
 40
1.0
 40
1.0
 40
1.0
 40
1.0
 10
407.3626550750568
 20
139.8698269064225
 30
0.0
 10
407.3626550750568
 20
139.8698269064225
 30
0.0
 10
407.9157951238503
 20
140.4229669552169
 30
0.0
 10
407.9157951238503
 20
140.4229669552169
 30
0.0
  0
SPLINE
  5
12F
330
102
100
AcDbEntity
  8
1
 62
     7
370
     0
100
AcDbSpline
210
0.0
220
0.0
230
1.0
 70
    24
 71
     3
 72
     8
 73
     4
 74
     0
 42
0.0000000001
 43
0.0000000001
 40
0.0
 40
0.0
 40
0.0
 40
0.0
 40
1.0
 40
1.0
 40
1.0
 40
1.0
 10
407.3380483421678
 20
139.8730664426985
 30
0.0
 10
407.3380483421678
 20
139.8730664426985
 30
0.0
 10
407.8837270046587
 20
140.4187451051912
 30
0.0
 10
407.8837270046587
 20
140.4187451051912
 30
0.0
  0
SPLINE
  5
130
330
102
100
AcDbEntity
  8
1
 62
     7
370
     0
100
AcDbSpline
210
0.0
220
0.0
230
1.0
 70
    24
 71
     3
 72
     8
 73
     4
 74
     0
 42
0.0000000001
 43
0.0000000001
 40
0.0
 40
0.0
 40
0.0
 40
0.0
 40
1.0
 40
1.0
 40
1.0
 40
1.0
 10
407.313441609278
 20
139.8763059789744
 30
0.0
 10
407.313441609278
 20
139.8763059789744
 30
0.0
 10
407.8516588854673
 20
140.4145232551636
 30
0.0
 10
407.8516588854673
 20
140.4145232551636
 30
0.0
  0
SPLINE
  5
131
330
102
100
AcDbEntity
  8
1
 62
     7
370
     0
100
AcDbSpline
210
0.0
220
0.0
230
1.0
 70
    24
 71
     3
 72
     8
 73
     4
 74
     0
 42
0.0000000001
 43
0.0000000001
 40
0.0
 40
0.0
 40
0.0
 40
0.0
 40
1.0
 40
1.0
 40
1.0
 40
1.0
 10
407.288834876389
 20
139.8795455152503
 30
0.0
 10
407.288834876389
 20
139.8795455152503
 30
0.0
 10
407.8195907662766
 20
140.4103014051379
 30
0.0
 10
407.8195907662766
 20
140.4103014051379
 30
0.0
  0
SPLINE
  5
132
330
102
100
AcDbEntity
  8
1
 62
     7
370
     0
100
AcDbSpline
210
0.0
220
0.0
230
1.0
 70
    24
 71
     3
 72
     8
 73
     4
 74
     0
 42
0.0000000001
 43
0.0000000001
 40
0.0
 40
0.0
 40
0.0
 40
0.0
 40
1.0
 40
1.0
 40
1.0
 40
1.0
 10
407.2642281434991
 20
139.8827850515244
 30
0.0
 10
407.2642281434991
 20
139.8827850515244
 30
0.0
 10
407.787522647086
 20
140.4060795551122
 30
0.0
 10
407.787522647086
 20
140.4060795551122
 30
0.0
  0
SPLINE
  5
133
330
102
100
AcDbEntity
  8
1
 62
     7
370
     0
100
AcDbSpline
210
0.0
220
0.0
230
1.0
 70
    24
 71
     3
 72
     8
 73
     4
 74
     0
 42
0.0000000001
 43
0.0000000001
 40
0.0
 40
0.0
 40
0.0
 40
0.0
 40
1.0
 40
1.0
 40
1.0
 40
1.0
 10
407.2396214106102
 20
139.8860245878004
 30
0.0
 10
407.2396214106102
 20
139.8860245878004
 30
0.0
 10
407.7554545278944
 20
140.4018577050865
 30
0.0
 10
407.7554545278944
 20
140.4018577050865
 30
0.0
  0
SPLINE
  5
134
330
102
100
AcDbEntity
  8
1
 62
     7
370
     0
100
AcDbSpline
210
0.0
220
0.0
230
1.0
 70
    24
 71
     3
 72
     8
 73
     4
 74
     0
 42
0.0000000001
 43
0.0000000001
 40
0.0
 40
0.0
 40
0.0
 40
0.0
 40
1.0
 40
1.0
 40
1.0
 40
1.0
 10
407.2150146777203
 20
139.8892641240763
 30
0.0
 10
407.2150146777203
 20
139.8892641240763
 30
0.0
 10
407.7233864087029
 20
140.3976358550608
 30
0.0
 10
407.7233864087029
 20
140.3976358550608
 30
0.0
  0
SPLINE
  5
135
330
102
100
AcDbEntity
  8
1
 62
     7
370
     0
100
AcDbSpline
210
0.0
220
0.0
230
1.0
 70
    24
 71
     3
 72
     8
 73
     4
 74
     0
 42
0.0000000001
 43
0.0000000001
 40
0.0
 40
0.0
 40
0.0
 40
0.0
 40
1.0
 40
1.0
 40
1.0
 40
1.0
 10
407.1904079448313
 20
139.8925036603523
 30
0.0
 10
407.1904079448313
 20
139.8925036603523
 30
0.0
 10
407.6913182895123
 20
140.3934140050332
 30
0.0
 10
407.6913182895123
 20
140.3934140050332
 30
0.0
  0
SPLINE
  5
136
330
102
100
AcDbEntity
  8
1
 62
     7
370
     0
100
AcDbSpline
210
0.0
220
0.0
230
1.0
 70
    24
 71
     3
 72
     8
 73
     4
 74
     0
 42
0.0000000001
 43
0.0000000001
 40
0.0
 40
0.0
 40
0.0
 40
0.0
 40
1.0
 40
1.0
 40
1.0
 40
1.0
 10
407.1658012119423
 20
139.8957431966282
 30
0.0
 10
407.1658012119423
 20
139.8957431966282
 30
0.0
 10
407.6592501703216
 20
140.3891921550075
 30
0.0
 10
407.6592501703216
 20
140.3891921550075
 30
0.0
  0
SPLINE
  5
137
330
102
100
AcDbEntity
  8
1
 62
     7
370
     0
100
AcDbSpline
210
0.0
220
0.0
230
1.0
 70
    24
 71
     3
 72
     8
 73
     4
 74
     0
 42
0.0000000001
 43
0.0000000001
 40
0.0
 40
0.0
 40
0.0
 40
0.0
 40
1.0
 40
1.0
 40
1.0
 40
1.0
 10
407.1411944790525
 20
139.898982732906
 30
0.0
 10
407.1411944790525
 20
139.898982732906
 30
0.0
 10
407.6271820511292
 20
140.3849703049818
 30
0.0
 10
407.6271820511292
 20
140.3849703049818
 30
0.0
  0
SPLINE
  5
138
330
102
100
AcDbEntity
  8
1
 62
     7
370
     0
100
AcDbSpline
210
0.0
220
0.0
230
1.0
 70
    24
 71
     3
 72
     8
 73
     4
 74
     0
 42
0.0000000001
 43
0.0000000001
 40
0.0
 40
0.0
 40
0.0
 40
0.0
 40
1.0
 40
1.0
 40
1.0
 40
1.0
 10
407.1165877461635
 20
139.9022222691819
 30
0.0
 10
407.1165877461635
 20
139.9022222691819
 30
0.0
 10
407.5951139319386
 20
140.3807484549561
 30
0.0
 10
407.5951139319386
 20
140.3807484549561
 30
0.0
  0
SPLINE
  5
139
330
102
100
AcDbEntity
  8
1
 62
     7
370
     0
100
AcDbSpline
210
0.0
220
0.0
230
1.0
 70
    24
 71
     3
 72
     8
 73
     4
 74
     0
 42
0.0000000001
 43
0.0000000001
 40
0.0
 40
0.0
 40
0.0
 40
0.0
 40
1.0
 40
1.0
 40
1.0
 40
1.0
 10
407.0919810132736
 20
139.905461805456
 30
0.0
 10
407.0919810132736
 20
139.905461805456
 30
0.0
 10
407.563045812748
 20
140.3765266049304
 30
0.0
 10
407.563045812748
 20
140.3765266049304
 30
0.0
  0
SPLINE
  5
13A
330
102
100
AcDbEntity
  8
1
 62
     7
370
     0
100
AcDbSpline
210
0.0
220
0.0
230
1.0
 70
    24
 71
     3
 72
     8
 73
     4
 74
     0
 42
0.0000000001
 43
0.0000000001
 40
0.0
 40
0.0
 40
0.0
 40
0.0
 40
1.0
 40
1.0
 40
1.0
 40
1.0
 10
407.0673742803847
 20
139.908701341732
 30
0.0
 10
407.0673742803847
 20
139.908701341732
 30
0.0
 10
407.5309776935555
 20
140.3723047549047
 30
0.0
 10
407.5309776935555
 20
140.3723047549047
 30
0.0
  0
SPLINE
  5
13B
330
102
100
AcDbEntity
  8
1
 62
     7
370
     0
100
AcDbSpline
210
0.0
220
0.0
230
1.0
 70
    24
 71
     3
 72
     8
 73
     4
 74
     0
 42
0.0000000001
 43
0.0000000001
 40
0.0
 40
0.0
 40
0.0
 40
0.0
 40
1.0
 40
1.0
 40
1.0
 40
1.0
 10
407.0427675474948
 20
139.9119408780079
 30
0.0
 10
407.0427675474948
 20
139.9119408780079
 30
0.0
 10
407.4989095743648
 20
140.3680829048771
 30
0.0
 10
407.4989095743648
 20
140.3680829048771
 30
0.0
  0
SPLINE
  5
13C
330
102
100
AcDbEntity
  8
1
 62
     7
370
     0
100
AcDbSpline
210
0.0
220
0.0
230
1.0
 70
    24
 71
     3
 72
     8
 73
     4
 74
     0
 42
0.0000000001
 43
0.0000000001
 40
0.0
 40
0.0
 40
0.0
 40
0.0
 40
1.0
 40
1.0
 40
1.0
 40
1.0
 10
407.0181608146058
 20
139.9151804142839
 30
0.0
 10
407.0181608146058
 20
139.9151804142839
 30
0.0
 10
407.4668414551743
 20
140.3638610548514
 30
0.0
 10
407.4668414551743
 20
140.3638610548514
 30
0.0
  0
SPLINE
  5
13D
330
102
100
AcDbEntity
  8
1
 62
     7
370
     0
100
AcDbSpline
210
0.0
220
0.0
230
1.0
 70
    24
 71
     3
 72
     8
 73
     4
 74
     0
 42
0.0000000001
 43
0.0000000001
 40
0.0
 40
0.0
 40
0.0
 40
0.0
 40
1.0
 40
1.0
 40
1.0
 40
1.0
 10
406.993554081716
 20
139.9184199505598
 30
0.0
 10
406.993554081716
 20
139.9184199505598
 30
0.0
 10
407.4347733359827
 20
140.3596392048257
 30
0.0
 10
407.4347733359827
 20
140.3596392048257
 30
0.0
  0
SPLINE
  5
13E
330
102
100
AcDbEntity
  8
1
 62
     7
370
     0
100
AcDbSpline
210
0.0
220
0.0
230
1.0
 70
    24
 71
     3
 72
     8
 73
     4
 74
     0
 42
0.0000000001
 43
0.0000000001
 40
0.0
 40
0.0
 40
0.0
 40
0.0
 40
1.0
 40
1.0
 40
1.0
 40
1.0
 10
406.968947348827
 20
139.9216594868358
 30
0.0
 10
406.968947348827
 20
139.9216594868358
 30
0.0
 10
407.4027052167911
 20
140.3554173548
 30
0.0
 10
407.4027052167911
 20
140.3554173548
 30
0.0
  0
SPLINE
  5
13F
330
102
100
AcDbEntity
  8
1
 62
     7
370
     0
100
AcDbSpline
210
0.0
220
0.0
230
1.0
 70
    24
 71
     3
 72
     8
 73
     4
 74
     0
 42
0.0000000001
 43
0.0000000001
 40
0.0
 40
0.0
 40
0.0
 40
0.0
 40
1.0
 40
1.0
 40
1.0
 40
1.0
 10
406.944340615938
 20
139.9248990231099
 30
0.0
 10
406.944340615938
 20
139.9248990231099
 30
0.0
 10
407.3706370976005
 20
140.3511955047725
 30
0.0
 10
407.3706370976005
 20
140.3511955047725
 30
0.0
  0
SPLINE
  5
140
330
102
100
AcDbEntity
  8
1
 62
     7
370
     0
100
AcDbSpline
210
0.0
220
0.0
230
1.0
 70
    24
 71
     3
 72
     8
 73
     4
 74
     0
 42
0.0000000001
 43
0.0000000001
 40
0.0
 40
0.0
 40
0.0
 40
0.0
 40
1.0
 40
1.0
 40
1.0
 40
1.0
 10
406.9197338830481
 20
139.9281385593858
 30
0.0
 10
406.9197338830481
 20
139.9281385593858
 30
0.0
 10
407.338568978409
 20
140.3469736547467
 30
0.0
 10
407.338568978409
 20
140.3469736547467
 30
0.0
  0
SPLINE
  5
141
330
102
100
AcDbEntity
  8
1
 62
     7
370
     0
100
AcDbSpline
210
0.0
220
0.0
230
1.0
 70
    24
 71
     3
 72
     8
 73
     4
 74
     0
 42
0.0000000001
 43
0.0000000001
 40
0.0
 40
0.0
 40
0.0
 40
0.0
 40
1.0
 40
1.0
 40
1.0
 40
1.0
 10
406.8951271501592
 20
139.9313780956618
 30
0.0
 10
406.8951271501592
 20
139.9313780956618
 30
0.0
 10
407.3065008592184
 20
140.342751804721
 30
0.0
 10
407.3065008592184
 20
140.342751804721
 30
0.0
  0
SPLINE
  5
142
330
102
100
AcDbEntity
  8
1
 62
     7
370
     0
100
AcDbSpline
210
0.0
220
0.0
230
1.0
 70
    24
 71
     3
 72
     8
 73
     4
 74
     0
 42
0.0000000001
 43
0.0000000001
 40
0.0
 40
0.0
 40
0.0
 40
0.0
 40
1.0
 40
1.0
 40
1.0
 40
1.0
 10
406.8705204172692
 20
139.9346176319377
 30
0.0
 10
406.8705204172692
 20
139.9346176319377
 30
0.0
 10
407.2744327400268
 20
140.3385299546953
 30
0.0
 10
407.2744327400268
 20
140.3385299546953
 30
0.0
  0
SPLINE
  5
143
330
102
100
AcDbEntity
  8
1
 62
     7
370
     0
100
AcDbSpline
210
0.0
220
0.0
230
1.0
 70
    24
 71
     3
 72
     8
 73
     4
 74
     0
 42
0.0000000001
 43
0.0000000001
 40
0.0
 40
0.0
 40
0.0
 40
0.0
 40
1.0
 40
1.0
 40
1.0
 40
1.0
 10
406.8459136843803
 20
139.9378571682136
 30
0.0
 10
406.8459136843803
 20
139.9378571682136
 30
0.0
 10
407.2423646208354
 20
140.3343081046696
 30
0.0
 10
407.2423646208354
 20
140.3343081046696
 30
0.0
  0
SPLINE
  5
144
330
102
100
AcDbEntity
  8
1
 62
     7
370
     0
100
AcDbSpline
210
0.0
220
0.0
230
1.0
 70
    24
 71
     3
 72
     8
 73
     4
 74
     0
 42
0.0000000001
 43
0.0000000001
 40
0.0
 40
0.0
 40
0.0
 40
0.0
 40
1.0
 40
1.0
 40
1.0
 40
1.0
 10
406.8213069514904
 20
139.9410967044896
 30
0.0
 10
406.8213069514904
 20
139.9410967044896
 30
0.0
 10
407.2102965016447
 20
140.3300862546439
 30
0.0
 10
407.2102965016447
 20
140.3300862546439
 30
0.0
  0
SPLINE
  5
145
330
102
100
AcDbEntity
  8
1
 62
     7
370
     0
100
AcDbSpline
210
0.0
220
0.0
230
1.0
 70
    24
 71
     3
 72
     8
 73
     4
 74
     0
 42
0.0000000001
 43
0.0000000001
 40
0.0
 40
0.0
 40
0.0
 40
0.0
 40
1.0
 40
1.0
 40
1.0
 40
1.0
 10
406.7967002186014
 20
139.9443362407637
 30
0.0
 10
406.7967002186014
 20
139.9443362407637
 30
0.0
 10
407.1782283824541
 20
140.3258644046182
 30
0.0
 10
407.1782283824541
 20
140.3258644046182
 30
0.0
  0
SPLINE
  5
146
330
102
100
AcDbEntity
  8
1
 62
     7
370
     0
100
AcDbSpline
210
0.0
220
0.0
230
1.0
 70
    24
 71
     3
 72
     8
 73
     4
 74
     0
 42
0.0000000001
 43
0.0000000001
 40
0.0
 40
0.0
 40
0.0
 40
0.0
 40
1.0
 40
1.0
 40
1.0
 40
1.0
 10
406.7720934857125
 20
139.9475757770396
 30
0.0
 10
406.7720934857125
 20
139.9475757770396
 30
0.0
 10
407.1461602632625
 20
140.3216425545925
 30
0.0
 10
407.1461602632625
 20
140.3216425545925
 30
0.0
  0
SPLINE
  5
147
330
102
100
AcDbEntity
  8
1
 62
     7
370
     0
100
AcDbSpline
210
0.0
220
0.0
230
1.0
 70
    24
 71
     3
 72
     8
 73
     4
 74
     0
 42
0.0000000001
 43
0.0000000001
 40
0.0
 40
0.0
 40
0.0
 40
0.0
 40
1.0
 40
1.0
 40
1.0
 40
1.0
 10
406.7474867528225
 20
139.9508153133156
 30
0.0
 10
406.7474867528225
 20
139.9508153133156
 30
0.0
 10
407.114092144071
 20
140.3174207045649
 30
0.0
 10
407.114092144071
 20
140.3174207045649
 30
0.0
  0
SPLINE
  5
148
330
102
100
AcDbEntity
  8
1
 62
     7
370
     0
100
AcDbSpline
210
0.0
220
0.0
230
1.0
 70
    24
 71
     3
 72
     8
 73
     4
 74
     0
 42
0.0000000001
 43
0.0000000001
 40
0.0
 40
0.0
 40
0.0
 40
0.0
 40
1.0
 40
1.0
 40
1.0
 40
1.0
 10
406.7228800199336
 20
139.9540548495915
 30
0.0
 10
406.7228800199336
 20
139.9540548495915
 30
0.0
 10
407.0820240248804
 20
140.3131988545392
 30
0.0
 10
407.0820240248804
 20
140.3131988545392
 30
0.0
  0
SPLINE
  5
149
330
102
100
AcDbEntity
  8
1
 62
     7
370
     0
100
AcDbSpline
210
0.0
220
0.0
230
1.0
 70
    24
 71
     3
 72
     8
 73
     4
 74
     0
 42
0.0000000001
 43
0.0000000001
 40
0.0
 40
0.0
 40
0.0
 40
0.0
 40
1.0
 40
1.0
 40
1.0
 40
1.0
 10
406.6982732870437
 20
139.9572943858675
 30
0.0
 10
406.6982732870437
 20
139.9572943858675
 30
0.0
 10
407.0499559056888
 20
140.3089770045135
 30
0.0
 10
407.0499559056888
 20
140.3089770045135
 30
0.0
  0
SPLINE
  5
14A
330
102
100
AcDbEntity
  8
1
 62
     7
370
     0
100
AcDbSpline
210
0.0
220
0.0
230
1.0
 70
    24
 71
     3
 72
     8
 73
     4
 74
     0
 42
0.0000000001
 43
0.0000000001
 40
0.0
 40
0.0
 40
0.0
 40
0.0
 40
1.0
 40
1.0
 40
1.0
 40
1.0
 10
406.6736665541538
 20
139.9605339221434
 30
0.0
 10
406.6736665541538
 20
139.9605339221434
 30
0.0
 10
407.0178877864973
 20
140.3047551544859
 30
0.0
 10
407.0178877864973
 20
140.3047551544859
 30
0.0
  0
SPLINE
  5
14B
330
102
100
AcDbEntity
  8
1
 62
     7
370
     0
100
AcDbSpline
210
0.0
220
0.0
230
1.0
 70
    24
 71
     3
 72
     8
 73
     4
 74
     0
 42
0.0000000001
 43
0.0000000001
 40
0.0
 40
0.0
 40
0.0
 40
0.0
 40
1.0
 40
1.0
 40
1.0
 40
1.0
 10
406.649059821264
 20
139.9637734584175
 30
0.0
 10
406.649059821264
 20
139.9637734584175
 30
0.0
 10
406.9858196673067
 20
140.3005333044602
 30
0.0
 10
406.9858196673067
 20
140.3005333044602
 30
0.0
  0
SPLINE
  5
14C
330
102
100
AcDbEntity
  8
1
 62
     7
370
     0
100
AcDbSpline
210
0.0
220
0.0
230
1.0
 70
    24
 71
     3
 72
     8
 73
     4
 74
     0
 42
0.0000000001
 43
0.0000000001
 40
0.0
 40
0.0
 40
0.0
 40
0.0
 40
1.0
 40
1.0
 40
1.0
 40
1.0
 10
406.6244530883759
 20
139.9670129946935
 30
0.0
 10
406.6244530883759
 20
139.9670129946935
 30
0.0
 10
406.9537515481161
 20
140.2963114544345
 30
0.0
 10
406.9537515481161
 20
140.2963114544345
 30
0.0
  0
SPLINE
  5
14D
330
102
100
AcDbEntity
  8
1
 62
     7
370
     0
100
AcDbSpline
210
0.0
220
0.0
230
1.0
 70
    24
 71
     3
 72
     8
 73
     4
 74
     0
 42
0.0000000001
 43
0.0000000001
 40
0.0
 40
0.0
 40
0.0
 40
0.0
 40
1.0
 40
1.0
 40
1.0
 40
1.0
 10
406.599846355486
 20
139.9702525309712
 30
0.0
 10
406.599846355486
 20
139.9702525309712
 30
0.0
 10
406.9216834289236
 20
140.2920896044088
 30
0.0
 10
406.9216834289236
 20
140.2920896044088
 30
0.0
  0
SPLINE
  5
14E
330
102
100
AcDbEntity
  8
1
 62
     7
370
     0
100
AcDbSpline
210
0.0
220
0.0
230
1.0
 70
    24
 71
     3
 72
     8
 73
     4
 74
     0
 42
0.0000000001
 43
0.0000000001
 40
0.0
 40
0.0
 40
0.0
 40
0.0
 40
1.0
 40
1.0
 40
1.0
 40
1.0
 10
406.5752396225962
 20
139.9734920672472
 30
0.0
 10
406.5752396225962
 20
139.9734920672472
 30
0.0
 10
406.8896153097329
 20
140.2878677543831
 30
0.0
 10
406.8896153097329
 20
140.2878677543831
 30
0.0
  0
SPLINE
  5
14F
330
102
100
AcDbEntity
  8
1
 62
     7
370
     0
100
AcDbSpline
210
0.0
220
0.0
230
1.0
 70
    24
 71
     3
 72
     8
 73
     4
 74
     0
 42
0.0000000001
 43
0.0000000001
 40
0.0
 40
0.0
 40
0.0
 40
0.0
 40
1.0
 40
1.0
 40
1.0
 40
1.0
 10
406.5506328897063
 20
139.9767316035231
 30
0.0
 10
406.5506328897063
 20
139.9767316035231
 30
0.0
 10
406.8575471905424
 20
140.2836459043574
 30
0.0
 10
406.8575471905424
 20
140.2836459043574
 30
0.0
  0
SPLINE
  5
150
330
102
100
AcDbEntity
  8
1
 62
     7
370
     0
100
AcDbSpline
210
0.0
220
0.0
230
1.0
 70
    24
 71
     3
 72
     8
 73
     4
 74
     0
 42
0.0000000001
 43
0.0000000001
 40
0.0
 40
0.0
 40
0.0
 40
0.0
 40
1.0
 40
1.0
 40
1.0
 40
1.0
 10
406.5260261568182
 20
139.9799711397991
 30
0.0
 10
406.5260261568182
 20
139.9799711397991
 30
0.0
 10
406.8254790713508
 20
140.2794240543317
 30
0.0
 10
406.8254790713508
 20
140.2794240543317
 30
0.0
  0
SPLINE
  5
151
330
102
100
AcDbEntity
  8
1
 62
     7
370
     0
100
AcDbSpline
210
0.0
220
0.0
230
1.0
 70
    24
 71
     3
 72
     8
 73
     4
 74
     0
 42
0.0000000001
 43
0.0000000001
 40
0.0
 40
0.0
 40
0.0
 40
0.0
 40
1.0
 40
1.0
 40
1.0
 40
1.0
 10
406.5014194239283
 20
139.983210676075
 30
0.0
 10
406.5014194239283
 20
139.983210676075
 30
0.0
 10
406.7934109521592
 20
140.275202204306
 30
0.0
 10
406.7934109521592
 20
140.275202204306
 30
0.0
  0
SPLINE
  5
152
330
102
100
AcDbEntity
  8
1
 62
     7
370
     0
100
AcDbSpline
210
0.0
220
0.0
230
1.0
 70
    24
 71
     3
 72
     8
 73
     4
 74
     0
 42
0.0000000001
 43
0.0000000001
 40
0.0
 40
0.0
 40
0.0
 40
0.0
 40
1.0
 40
1.0
 40
1.0
 40
1.0
 10
406.4768126910385
 20
139.9864502123491
 30
0.0
 10
406.4768126910385
 20
139.9864502123491
 30
0.0
 10
406.7613428329686
 20
140.2709803542784
 30
0.0
 10
406.7613428329686
 20
140.2709803542784
 30
0.0
  0
SPLINE
  5
153
330
102
100
AcDbEntity
  8
1
 62
     7
370
     0
100
AcDbSpline
210
0.0
220
0.0
230
1.0
 70
    24
 71
     3
 72
     8
 73
     4
 74
     0
 42
0.0000000001
 43
0.0000000001
 40
0.0
 40
0.0
 40
0.0
 40
0.0
 40
1.0
 40
1.0
 40
1.0
 40
1.0
 10
406.4522059581504
 20
139.9896897486251
 30
0.0
 10
406.4522059581504
 20
139.9896897486251
 30
0.0
 10
406.7292747137771
 20
140.2667585042527
 30
0.0
 10
406.7292747137771
 20
140.2667585042527
 30
0.0
  0
SPLINE
  5
154
330
102
100
AcDbEntity
  8
1
 62
     7
370
     0
100
AcDbSpline
210
0.0
220
0.0
230
1.0
 70
    24
 71
     3
 72
     8
 73
     4
 74
     0
 42
0.0000000001
 43
0.0000000001
 40
0.0
 40
0.0
 40
0.0
 40
0.0
 40
1.0
 40
1.0
 40
1.0
 40
1.0
 10
406.4275992252605
 20
139.992929284901
 30
0.0
 10
406.4275992252605
 20
139.992929284901
 30
0.0
 10
406.6972065945856
 20
140.2625366542252
 30
0.0
 10
406.6972065945856
 20
140.2625366542252
 30
0.0
  0
SPLINE
  5
155
330
102
100
AcDbEntity
  8
1
 62
     7
370
     0
100
AcDbSpline
210
0.0
220
0.0
230
1.0
 70
    24
 71
     3
 72
     8
 73
     4
 74
     0
 42
0.0000000001
 43
0.0000000001
 40
0.0
 40
0.0
 40
0.0
 40
0.0
 40
1.0
 40
1.0
 40
1.0
 40
1.0
 10
406.4029924923707
 20
139.996168821177
 30
0.0
 10
406.4029924923707
 20
139.996168821177
 30
0.0
 10
406.6651384753949
 20
140.2583148041995
 30
0.0
 10
406.6651384753949
 20
140.2583148041995
 30
0.0
  0
SPLINE
  5
156
330
102
100
AcDbEntity
  8
1
 62
     7
370
     0
100
AcDbSpline
210
0.0
220
0.0
230
1.0
 70
    24
 71
     3
 72
     8
 73
     4
 74
     0
 42
0.0000000001
 43
0.0000000001
 40
0.0
 40
0.0
 40
0.0
 40
0.0
 40
1.0
 40
1.0
 40
1.0
 40
1.0
 10
406.3783857594808
 20
139.9994083574529
 30
0.0
 10
406.3783857594808
 20
139.9994083574529
 30
0.0
 10
406.6330703562043
 20
140.2540929541737
 30
0.0
 10
406.6330703562043
 20
140.2540929541737
 30
0.0
  0
SPLINE
  5
157
330
102
100
AcDbEntity
  8
1
 62
     7
370
     0
100
AcDbSpline
210
0.0
220
0.0
230
1.0
 70
    24
 71
     3
 72
     8
 73
     4
 74
     0
 42
0.0000000001
 43
0.0000000001
 40
0.0
 40
0.0
 40
0.0
 40
0.0
 40
1.0
 40
1.0
 40
1.0
 40
1.0
 10
406.3537790265918
 20
140.0026478937288
 30
0.0
 10
406.3537790265918
 20
140.0026478937288
 30
0.0
 10
406.6010022370128
 20
140.249871104148
 30
0.0
 10
406.6010022370128
 20
140.249871104148
 30
0.0
  0
SPLINE
  5
158
330
102
100
AcDbEntity
  8
1
 62
     7
370
     0
100
AcDbSpline
210
0.0
220
0.0
230
1.0
 70
    24
 71
     3
 72
     8
 73
     4
 74
     0
 42
0.0000000001
 43
0.0000000001
 40
0.0
 40
0.0
 40
0.0
 40
0.0
 40
1.0
 40
1.0
 40
1.0
 40
1.0
 10
406.3291722937028
 20
140.005887430003
 30
0.0
 10
406.3291722937028
 20
140.005887430003
 30
0.0
 10
406.5689341178212
 20
140.2456492541223
 30
0.0
 10
406.5689341178212
 20
140.2456492541223
 30
0.0
  0
SPLINE
  5
159
330
102
100
AcDbEntity
  8
1
 62
     7
370
     0
100
AcDbSpline
210
0.0
220
0.0
230
1.0
 70
    24
 71
     3
 72
     8
 73
     4
 74
     0
 42
0.0000000001
 43
0.0000000001
 40
0.0
 40
0.0
 40
0.0
 40
0.0
 40
1.0
 40
1.0
 40
1.0
 40
1.0
 10
406.304565560813
 20
140.0091269662789
 30
0.0
 10
406.304565560813
 20
140.0091269662789
 30
0.0
 10
406.5368659986306
 20
140.2414274040966
 30
0.0
 10
406.5368659986306
 20
140.2414274040966
 30
0.0
  0
SPLINE
  5
15A
330
102
100
AcDbEntity
  8
1
 62
     7
370
     0
100
AcDbSpline
210
0.0
220
0.0
230
1.0
 70
    24
 71
     3
 72
     8
 73
     4
 74
     0
 42
0.0000000001
 43
0.0000000001
 40
0.0
 40
0.0
 40
0.0
 40
0.0
 40
1.0
 40
1.0
 40
1.0
 40
1.0
 10
406.279958827924
 20
140.0123665025548
 30
0.0
 10
406.279958827924
 20
140.0123665025548
 30
0.0
 10
406.5047978794391
 20
140.2372055540709
 30
0.0
 10
406.5047978794391
 20
140.2372055540709
 30
0.0
  0
SPLINE
  5
15B
330
102
100
AcDbEntity
  8
1
 62
     7
370
     0
100
AcDbSpline
210
0.0
220
0.0
230
1.0
 70
    24
 71
     3
 72
     8
 73
     4
 74
     0
 42
0.0000000001
 43
0.0000000001
 40
0.0
 40
0.0
 40
0.0
 40
0.0
 40
1.0
 40
1.0
 40
1.0
 40
1.0
 10
406.2553520950341
 20
140.0156060388308
 30
0.0
 10
406.2553520950341
 20
140.0156060388308
 30
0.0
 10
406.4727297602476
 20
140.2329837040451
 30
0.0
 10
406.4727297602476
 20
140.2329837040451
 30
0.0
  0
SPLINE
  5
15C
330
102
100
AcDbEntity
  8
1
 62
     7
370
     0
100
AcDbSpline
210
0.0
220
0.0
230
1.0
 70
    24
 71
     3
 72
     8
 73
     4
 74
     0
 42
0.0000000001
 43
0.0000000001
 40
0.0
 40
0.0
 40
0.0
 40
0.0
 40
1.0
 40
1.0
 40
1.0
 40
1.0
 10
406.2307453621452
 20
140.0188455751067
 30
0.0
 10
406.2307453621452
 20
140.0188455751067
 30
0.0
 10
406.4406616410569
 20
140.2287618540194
 30
0.0
 10
406.4406616410569
 20
140.2287618540194
 30
0.0
  0
SPLINE
  5
15D
330
102
100
AcDbEntity
  8
1
 62
     7
370
     0
100
AcDbSpline
210
0.0
220
0.0
230
1.0
 70
    24
 71
     3
 72
     8
 73
     4
 74
     0
 42
0.0000000001
 43
0.0000000001
 40
0.0
 40
0.0
 40
0.0
 40
0.0
 40
1.0
 40
1.0
 40
1.0
 40
1.0
 10
406.2061386292553
 20
140.0220851113827
 30
0.0
 10
406.2061386292553
 20
140.0220851113827
 30
0.0
 10
406.4085935218654
 20
140.2245400039937
 30
0.0
 10
406.4085935218654
 20
140.2245400039937
 30
0.0
  0
SPLINE
  5
15E
330
102
100
AcDbEntity
  8
1
 62
     7
370
     0
100
AcDbSpline
210
0.0
220
0.0
230
1.0
 70
    24
 71
     3
 72
     8
 73
     4
 74
     0
 42
0.0000000001
 43
0.0000000001
 40
0.0
 40
0.0
 40
0.0
 40
0.0
 40
1.0
 40
1.0
 40
1.0
 40
1.0
 10
406.1815318963663
 20
140.0253246476568
 30
0.0
 10
406.1815318963663
 20
140.0253246476568
 30
0.0
 10
406.3765254026748
 20
140.2203181539644
 30
0.0
 10
406.3765254026748
 20
140.2203181539644
 30
0.0
  0
SPLINE
  5
15F
330
102
100
AcDbEntity
  8
1
 62
     7
370
     0
100
AcDbSpline
210
0.0
220
0.0
230
1.0
 70
    24
 71
     3
 72
     8
 73
     4
 74
     0
 42
0.0000000001
 43
0.0000000001
 40
0.0
 40
0.0
 40
0.0
 40
0.0
 40
1.0
 40
1.0
 40
1.0
 40
1.0
 10
406.1569251634764
 20
140.0285641839327
 30
0.0
 10
406.1569251634764
 20
140.0285641839327
 30
0.0
 10
406.3444572834832
 20
140.2160963039387
 30
0.0
 10
406.3444572834832
 20
140.2160963039387
 30
0.0
  0
SPLINE
  5
160
330
102
100
AcDbEntity
  8
1
 62
     7
370
     0
100
AcDbSpline
210
0.0
220
0.0
230
1.0
 70
    24
 71
     3
 72
     8
 73
     4
 74
     0
 42
0.0000000001
 43
0.0000000001
 40
0.0
 40
0.0
 40
0.0
 40
0.0
 40
1.0
 40
1.0
 40
1.0
 40
1.0
 10
406.1323184305875
 20
140.0318037202087
 30
0.0
 10
406.1323184305875
 20
140.0318037202087
 30
0.0
 10
406.3123891642917
 20
140.2118744539129
 30
0.0
 10
406.3123891642917
 20
140.2118744539129
 30
0.0
  0
SPLINE
  5
161
330
102
100
AcDbEntity
  8
1
 62
     7
370
     0
100
AcDbSpline
210
0.0
220
0.0
230
1.0
 70
    24
 71
     3
 72
     8
 73
     4
 74
     0
 42
0.0000000001
 43
0.0000000001
 40
0.0
 40
0.0
 40
0.0
 40
0.0
 40
1.0
 40
1.0
 40
1.0
 40
1.0
 10
406.1077116976985
 20
140.0350432564846
 30
0.0
 10
406.1077116976985
 20
140.0350432564846
 30
0.0
 10
406.2803210451011
 20
140.2076526038872
 30
0.0
 10
406.2803210451011
 20
140.2076526038872
 30
0.0
  0
SPLINE
  5
162
330
102
100
AcDbEntity
  8
1
 62
     7
370
     0
100
AcDbSpline
210
0.0
220
0.0
230
1.0
 70
    24
 71
     3
 72
     8
 73
     4
 74
     0
 42
0.0000000001
 43
0.0000000001
 40
0.0
 40
0.0
 40
0.0
 40
0.0
 40
1.0
 40
1.0
 40
1.0
 40
1.0
 10
406.0831049648085
 20
140.0382827927624
 30
0.0
 10
406.0831049648085
 20
140.0382827927624
 30
0.0
 10
406.2482529259105
 20
140.2034307538615
 30
0.0
 10
406.2482529259105
 20
140.2034307538615
 30
0.0
  0
SPLINE
  5
163
330
102
100
AcDbEntity
  8
1
 62
     7
370
     0
100
AcDbSpline
210
0.0
220
0.0
230
1.0
 70
    24
 71
     3
 72
     8
 73
     4
 74
     0
 42
0.0000000001
 43
0.0000000001
 40
0.0
 40
0.0
 40
0.0
 40
0.0
 40
1.0
 40
1.0
 40
1.0
 40
1.0
 10
406.0584982319197
 20
140.0415223290383
 30
0.0
 10
406.0584982319197
 20
140.0415223290383
 30
0.0
 10
406.216184806718
 20
140.1992089038358
 30
0.0
 10
406.216184806718
 20
140.1992089038358
 30
0.0
  0
SPLINE
  5
164
330
102
100
AcDbEntity
  8
1
 62
     7
370
     0
100
AcDbSpline
210
0.0
220
0.0
230
1.0
 70
    24
 71
     3
 72
     8
 73
     4
 74
     0
 42
0.0000000001
 43
0.0000000001
 40
0.0
 40
0.0
 40
0.0
 40
0.0
 40
1.0
 40
1.0
 40
1.0
 40
1.0
 10
406.0338914990297
 20
140.0447618653124
 30
0.0
 10
406.0338914990297
 20
140.0447618653124
 30
0.0
 10
406.1841166875273
 20
140.1949870538101
 30
0.0
 10
406.1841166875273
 20
140.1949870538101
 30
0.0
  0
SPLINE
  5
165
330
102
100
AcDbEntity
  8
1
 62
     7
370
     0
100
AcDbSpline
210
0.0
220
0.0
230
1.0
 70
    24
 71
     3
 72
     8
 73
     4
 74
     0
 42
0.0000000001
 43
0.0000000001
 40
0.0
 40
0.0
 40
0.0
 40
0.0
 40
1.0
 40
1.0
 40
1.0
 40
1.0
 10
406.0092847661407
 20
140.0480014015884
 30
0.0
 10
406.0092847661407
 20
140.0480014015884
 30
0.0
 10
406.1520485683367
 20
140.1907652037844
 30
0.0
 10
406.1520485683367
 20
140.1907652037844
 30
0.0
  0
SPLINE
  5
166
330
102
100
AcDbEntity
  8
1
 62
     7
370
     0
100
AcDbSpline
210
0.0
220
0.0
230
1.0
 70
    24
 71
     3
 72
     8
 73
     4
 74
     0
 42
0.0000000001
 43
0.0000000001
 40
0.0
 40
0.0
 40
0.0
 40
0.0
 40
1.0
 40
1.0
 40
1.0
 40
1.0
 10
405.9846780332509
 20
140.0512409378643
 30
0.0
 10
405.9846780332509
 20
140.0512409378643
 30
0.0
 10
406.1199804491462
 20
140.1865433537587
 30
0.0
 10
406.1199804491462
 20
140.1865433537587
 30
0.0
  0
SPLINE
  5
167
330
102
100
AcDbEntity
  8
1
 62
     7
370
     0
100
AcDbSpline
210
0.0
220
0.0
230
1.0
 70
    24
 71
     3
 72
     8
 73
     4
 74
     0
 42
0.0000000001
 43
0.0000000001
 40
0.0
 40
0.0
 40
0.0
 40
0.0
 40
1.0
 40
1.0
 40
1.0
 40
1.0
 10
405.9600713003619
 20
140.0544804741403
 30
0.0
 10
405.9600713003619
 20
140.0544804741403
 30
0.0
 10
406.0879123299537
 20
140.1823215037329
 30
0.0
 10
406.0879123299537
 20
140.1823215037329
 30
0.0
  0
SPLINE
  5
168
330
102
100
AcDbEntity
  8
1
 62
     7
370
     0
100
AcDbSpline
210
0.0
220
0.0
230
1.0
 70
    24
 71
     3
 72
     8
 73
     4
 74
     0
 42
0.0000000001
 43
0.0000000001
 40
0.0
 40
0.0
 40
0.0
 40
0.0
 40
1.0
 40
1.0
 40
1.0
 40
1.0
 10
405.935464567472
 20
140.0577200104162
 30
0.0
 10
405.935464567472
 20
140.0577200104162
 30
0.0
 10
406.055844210763
 20
140.1780996537054
 30
0.0
 10
406.055844210763
 20
140.1780996537054
 30
0.0
  0
SPLINE
  5
169
330
102
100
AcDbEntity
  8
1
 62
     7
370
     0
100
AcDbSpline
210
0.0
220
0.0
230
1.0
 70
    24
 71
     3
 72
     8
 73
     4
 74
     0
 42
0.0000000001
 43
0.0000000001
 40
0.0
 40
0.0
 40
0.0
 40
0.0
 40
1.0
 40
1.0
 40
1.0
 40
1.0
 10
405.910857834583
 20
140.0609595466922
 30
0.0
 10
405.910857834583
 20
140.0609595466922
 30
0.0
 10
406.0237760915724
 20
140.1738778036797
 30
0.0
 10
406.0237760915724
 20
140.1738778036797
 30
0.0
  0
SPLINE
  5
16A
330
102
100
AcDbEntity
  8
1
 62
     7
370
     0
100
AcDbSpline
210
0.0
220
0.0
230
1.0
 70
    24
 71
     3
 72
     8
 73
     4
 74
     0
 42
0.0000000001
 43
0.0000000001
 40
0.0
 40
0.0
 40
0.0
 40
0.0
 40
1.0
 40
1.0
 40
1.0
 40
1.0
 10
405.8862511016941
 20
140.0641990829663
 30
0.0
 10
405.8862511016941
 20
140.0641990829663
 30
0.0
 10
405.99170797238
 20
140.1696559536522
 30
0.0
 10
405.99170797238
 20
140.1696559536522
 30
0.0
  0
SPLINE
  5
16B
330
102
100
AcDbEntity
  8
1
 62
     7
370
     0
100
AcDbSpline
210
0.0
220
0.0
230
1.0
 70
    24
 71
     3
 72
     8
 73
     4
 74
     0
 42
0.0000000001
 43
0.0000000001
 40
0.0
 40
0.0
 40
0.0
 40
0.0
 40
1.0
 40
1.0
 40
1.0
 40
1.0
 10
405.8616443688042
 20
140.0674386192422
 30
0.0
 10
405.8616443688042
 20
140.0674386192422
 30
0.0
 10
405.9596398531893
 20
140.1654341036264
 30
0.0
 10
405.9596398531893
 20
140.1654341036264
 30
0.0
  0
SPLINE
  5
16C
330
102
100
AcDbEntity
  8
1
 62
     7
370
     0
100
AcDbSpline
210
0.0
220
0.0
230
1.0
 70
    24
 71
     3
 72
     8
 73
     4
 74
     0
 42
0.0000000001
 43
0.0000000001
 40
0.0
 40
0.0
 40
0.0
 40
0.0
 40
1.0
 40
1.0
 40
1.0
 40
1.0
 10
405.8370376359152
 20
140.0706781555182
 30
0.0
 10
405.8370376359152
 20
140.0706781555182
 30
0.0
 10
405.9275717339987
 20
140.1612122536007
 30
0.0
 10
405.9275717339987
 20
140.1612122536007
 30
0.0
  0
SPLINE
  5
16D
330
102
100
AcDbEntity
  8
1
 62
     7
370
     0
100
AcDbSpline
210
0.0
220
0.0
230
1.0
 70
    24
 71
     3
 72
     8
 73
     4
 74
     0
 42
0.0000000001
 43
0.0000000001
 40
0.0
 40
0.0
 40
0.0
 40
0.0
 40
1.0
 40
1.0
 40
1.0
 40
1.0
 10
405.8124309030254
 20
140.0739176917941
 30
0.0
 10
405.8124309030254
 20
140.0739176917941
 30
0.0
 10
405.8955036148072
 20
140.156990403575
 30
0.0
 10
405.8955036148072
 20
140.156990403575
 30
0.0
  0
SPLINE
  5
16E
330
102
100
AcDbEntity
  8
1
 62
     7
370
     0
100
AcDbSpline
210
0.0
220
0.0
230
1.0
 70
    24
 71
     3
 72
     8
 73
     4
 74
     0
 42
0.0000000001
 43
0.0000000001
 40
0.0
 40
0.0
 40
0.0
 40
0.0
 40
1.0
 40
1.0
 40
1.0
 40
1.0
 10
405.7878241701364
 20
140.07715722807
 30
0.0
 10
405.7878241701364
 20
140.07715722807
 30
0.0
 10
405.8634354956157
 20
140.1527685535493
 30
0.0
 10
405.8634354956157
 20
140.1527685535493
 30
0.0
  0
SPLINE
  5
16F
330
102
100
AcDbEntity
  8
1
 62
     7
370
     0
100
AcDbSpline
210
0.0
220
0.0
230
1.0
 70
    24
 71
     3
 72
     8
 73
     4
 74
     0
 42
0.0000000001
 43
0.0000000001
 40
0.0
 40
0.0
 40
0.0
 40
0.0
 40
1.0
 40
1.0
 40
1.0
 40
1.0
 10
405.7632174372465
 20
140.080396764346
 30
0.0
 10
405.7632174372465
 20
140.080396764346
 30
0.0
 10
405.831367376425
 20
140.1485467035236
 30
0.0
 10
405.831367376425
 20
140.1485467035236
 30
0.0
  0
SPLINE
  5
170
330
102
100
AcDbEntity
  8
1
 62
     7
370
     0
100
AcDbSpline
210
0.0
220
0.0
230
1.0
 70
    24
 71
     3
 72
     8
 73
     4
 74
     0
 42
0.0000000001
 43
0.0000000001
 40
0.0
 40
0.0
 40
0.0
 40
0.0
 40
1.0
 40
1.0
 40
1.0
 40
1.0
 10
405.7386107043575
 20
140.0836363006219
 30
0.0
 10
405.7386107043575
 20
140.0836363006219
 30
0.0
 10
405.7992992572335
 20
140.1443248534979
 30
0.0
 10
405.7992992572335
 20
140.1443248534979
 30
0.0
  0
SPLINE
  5
171
330
102
100
AcDbEntity
  8
1
 62
     7
370
     0
100
AcDbSpline
210
0.0
220
0.0
230
1.0
 70
    24
 71
     3
 72
     8
 73
     4
 74
     0
 42
0.0000000001
 43
0.0000000001
 40
0.0
 40
0.0
 40
0.0
 40
0.0
 40
1.0
 40
1.0
 40
1.0
 40
1.0
 10
405.7140039714686
 20
140.086875836896
 30
0.0
 10
405.7140039714686
 20
140.086875836896
 30
0.0
 10
405.767231138042
 20
140.1401030034721
 30
0.0
 10
405.767231138042
 20
140.1401030034721
 30
0.0
  0
SPLINE
  5
172
330
102
100
AcDbEntity
  8
1
 62
     7
370
     0
100
AcDbSpline
210
0.0
220
0.0
230
1.0
 70
    24
 71
     3
 72
     8
 73
     4
 74
     0
 42
0.0000000001
 43
0.0000000001
 40
0.0
 40
0.0
 40
0.0
 40
0.0
 40
1.0
 40
1.0
 40
1.0
 40
1.0
 10
405.6893972385787
 20
140.090115373172
 30
0.0
 10
405.6893972385787
 20
140.090115373172
 30
0.0
 10
405.7351630188513
 20
140.1358811534464
 30
0.0
 10
405.7351630188513
 20
140.1358811534464
 30
0.0
  0
SPLINE
  5
173
330
102
100
AcDbEntity
  8
1
 62
     7
370
     0
100
AcDbSpline
210
0.0
220
0.0
230
1.0
 70
    24
 71
     3
 72
     8
 73
     4
 74
     0
 42
0.0000000001
 43
0.0000000001
 40
0.0
 40
0.0
 40
0.0
 40
0.0
 40
1.0
 40
1.0
 40
1.0
 40
1.0
 10
405.6647905056897
 20
140.0933549094479
 30
0.0
 10
405.6647905056897
 20
140.0933549094479
 30
0.0
 10
405.7030948996598
 20
140.1316593034189
 30
0.0
 10
405.7030948996598
 20
140.1316593034189
 30
0.0
  0
SPLINE
  5
174
330
102
100
AcDbEntity
  8
1
 62
     7
370
     0
100
AcDbSpline
210
0.0
220
0.0
230
1.0
 70
    24
 71
     3
 72
     8
 73
     4
 74
     0
 42
0.0000000001
 43
0.0000000001
 40
0.0
 40
0.0
 40
0.0
 40
0.0
 40
1.0
 40
1.0
 40
1.0
 40
1.0
 10
405.6401837727999
 20
140.0965944457239
 30
0.0
 10
405.6401837727999
 20
140.0965944457239
 30
0.0
 10
405.6710267804692
 20
140.1274374533932
 30
0.0
 10
405.6710267804692
 20
140.1274374533932
 30
0.0
  0
SPLINE
  5
175
330
102
100
AcDbEntity
  8
1
 62
     7
370
     0
100
AcDbSpline
210
0.0
220
0.0
230
1.0
 70
    24
 71
     3
 72
     8
 73
     4
 74
     0
 42
0.0000000001
 43
0.0000000001
 40
0.0
 40
0.0
 40
0.0
 40
0.0
 40
1.0
 40
1.0
 40
1.0
 40
1.0
 10
405.6155770399109
 20
140.0998339819998
 30
0.0
 10
405.6155770399109
 20
140.0998339819998
 30
0.0
 10
405.6389586612777
 20
140.1232156033657
 30
0.0
 10
405.6389586612777
 20
140.1232156033657
 30
0.0
  0
SPLINE
  5
176
330
102
100
AcDbEntity
  8
1
 62
     7
370
     0
100
AcDbSpline
210
0.0
220
0.0
230
1.0
 70
    24
 71
     3
 72
     8
 73
     4
 74
     0
 42
0.0000000001
 43
0.0000000001
 40
0.0
 40
0.0
 40
0.0
 40
0.0
 40
1.0
 40
1.0
 40
1.0
 40
1.0
 10
405.590970307021
 20
140.1030735182757
 30
0.0
 10
405.590970307021
 20
140.1030735182757
 30
0.0
 10
405.6068905420861
 20
140.1189937533399
 30
0.0
 10
405.6068905420861
 20
140.1189937533399
 30
0.0
  0
SPLINE
  5
177
330
102
100
AcDbEntity
  8
1
 62
     7
370
     0
100
AcDbSpline
210
0.0
220
0.0
230
1.0
 70
    24
 71
     3
 72
     8
 73
     4
 74
     0
 42
0.0000000001
 43
0.0000000001
 40
0.0
 40
0.0
 40
0.0
 40
0.0
 40
1.0
 40
1.0
 40
1.0
 40
1.0
 10
405.566363574132
 20
140.1063130545499
 30
0.0
 10
405.566363574132
 20
140.1063130545499
 30
0.0
 10
405.5748224228954
 20
140.1147719033142
 30
0.0
 10
405.5748224228954
 20
140.1147719033142
 30
0.0
  0
SPLINE
  5
178
330
102
100
AcDbEntity
  8
1
 62
     7
370
     0
100
AcDbSpline
210
0.0
220
0.0
230
1.0
 70
    24
 71
     3
 72
     8
 73
     4
 74
     0
 42
0.0000000001
 43
0.0000000001
 40
0.0
 40
0.0
 40
0.0
 40
0.0
 40
1.0
 40
1.0
 40
1.0
 40
1.0
 10
405.5417568412422
 20
140.1095525908276
 30
0.0
 10
405.5417568412422
 20
140.1095525908276
 30
0.0
 10
405.542754303704
 20
140.1105500532885
 30
0.0
 10
405.542754303704
 20
140.1105500532885
 30
0.0
  0
ENDBLK
  5
105
330
102
100
AcDbEntity
  8
0
100
AcDbBlockEnd
  0
BLOCK
  5
17B
330
179
100
AcDbEntity
  8
0
100
AcDbBlockBegin
  2
Block_3
 70
     0
 10
0.0
 20
0.0
 30
0.0
  3
Block_3
  1

  0
MTEXT
  5
17D
330
179
100
AcDbEntity
  8
1
100
AcDbMText
 10
494.34814453125
 20
236.2666015624991
 30
0.0
 40
0.2
 41
0.0
 46
0.0
 71
     7
 72
     1
  1
\C16;\FMyriad Pro|b0|i0|c1;\H8.002148;\W1.000000;168
 11
0.0000000000000001
 21
1.0
 31
0.0
 73
     1
 44
1.0
  0
LINE
  5
17E
330
179
100
AcDbEntity
  8
1
 62
     7
370
    13
100
AcDbLine
 10
465.5545782150674
 20
160.8097106398872
 30
0.0
 11
499.5637077935007
 21
160.8097106398872
 31
0.0
  0
LINE
  5
17F
330
179
100
AcDbEntity
  8
1
 62
     7
370
    13
100
AcDbLine
 10
465.5545782150674
 20
328.8548214980265
 30
0.0
 11
499.5637077935007
 21
328.8548214980265
 31
0.0
  0
LINE
  5
180
330
179
100
AcDbEntity
  8
1
 62
     7
370
    13
100
AcDbLine
 10
497.5631707594748
 20
160.8097106398872
 30
0.0
 11
497.5631707594748
 21
328.8548214980265
 31
0.0
  0
LWPOLYLINE
  5
181
330
179
100
AcDbEntity
  8
1
 62
     7
370
    35
100
AcDbPolyline
 90
        4
 70
     1
 43
0.0
 10
497.5631707594748
 20
160.8097106398872
 10
497.1944447768546
 20
163.6104614872529
 10
497.9318967420949
 20
163.6104644880597
 10
497.9318967420949
 20
163.6104644880597
  0
HATCH
  5
182
330
179
100
AcDbEntity
  8
1
 62
    16
440
 33554687
100
AcDbHatch
 10
0.0
 20
0.0
 30
0.0
210
0.0
220
0.0
230
1.0
  2
SOLID
 70
     1
 71
     1
 91
        1
 92
        1
 93
        3
 72
     1
 10
497.5631707594748
 20
160.8097106398872
 11
497.1944447768546
 21
163.6104614872529
 72
     1
 10
497.1944447768546
 20
163.6104614872529
 11
497.9318967420949
 21
163.6104644880597
 72
     1
 10
497.9318967420949
 20
163.6104644880597
 11
497.5631707594748
 21
160.8097106398872
 97
        1
330
181
 75
     2
 76
     1
 98
        1
 10
0.0
 20
0.0
450
        0
451
        0
460
0.0
461
0.0
452
        0
462
0.0
453
        0
470

  0
LWPOLYLINE
  5
183
330
179
100
AcDbEntity
  8
1
 62
     7
370
    35
100
AcDbPolyline
 90
        4
 70
     1
 43
0.0
 10
497.5631707594748
 20
328.8548214980265
 10
497.9318967420949
 20
326.0540716509277
 10
497.1944447768546
 20
326.0540686501226
 10
497.1944447768546
 20
326.0540686501226
  0
HATCH
  5
184
330
179
100
AcDbEntity
  8
1
 62
    16
440
 33554687
100
AcDbHatch
 10
0.0
 20
0.0
 30
0.0
210
0.0
220
0.0
230
1.0
  2
SOLID
 70
     1
 71
     1
 91
        1
 92
        1
 93
        3
 72
     1
 10
497.5631707594748
 20
328.8548214980265
 11
497.9318967420949
 21
326.0540716509277
 72
     1
 10
497.9318967420949
 20
326.0540716509277
 11
497.1944447768546
 21
326.0540686501226
 72
     1
 10
497.1944447768546
 20
326.0540686501226
 11
497.5631707594748
 21
328.8548214980265
 97
        1
330
183
 75
     2
 76
     1
 98
        1
 10
0.0
 20
0.0
450
        0
451
        0
460
0.0
461
0.0
452
        0
462
0.0
453
        0
470

  0
ENDBLK
  5
17C
330
179
100
AcDbEntity
  8
0
100
AcDbBlockEnd
  0
BLOCK
  5
187
330
185
100
AcDbEntity
  8
0
100
AcDbBlockBegin
  2
Block_4
 70
     0
 10
0.0
 20
0.0
 30
0.0
  3
Block_4
  1

  0
MTEXT
  5
189
330
185
100
AcDbEntity
  8
1
100
AcDbMText
 10
522.3556671142578
 20
306.3124999999991
 30
0.0
 40
0.2
 41
0.0
 46
0.0
 71
     7
 72
     1
  1
\C16;\FMyriad Pro|b0|i0|c1;\H8.002148;\W1.000000;250
 11
0.0000000000000001
 21
1.0
 31
0.0
 73
     1
 44
1.0
  0
LINE
  5
18A
330
185
100
AcDbEntity
  8
1
 62
     7
370
    13
100
AcDbLine
 10
465.5545782150674
 20
160.8097106398872
 30
0.0
 11
527.5712262698561
 21
160.8097106398872
 31
0.0
  0
LINE
  5
18B
330
185
100
AcDbEntity
  8
1
 62
     7
370
    13
100
AcDbLine
 10
460.5532356300027
 20
410.9768667447724
 30
0.0
 11
527.5712262698561
 21
410.9768667447724
 31
0.0
  0
LINE
  5
18C
330
185
100
AcDbEntity
  8
1
 62
     7
370
    13
100
AcDbLine
 10
525.5706892358321
 20
160.8097106398872
 30
0.0
 11
525.5706892358321
 21
410.9768667447724
 31
0.0
  0
LWPOLYLINE
  5
18D
330
185
100
AcDbEntity
  8
1
 62
     7
370
    35
100
AcDbPolyline
 90
        4
 70
     1
 43
0.0
 10
525.5706892358321
 20
160.8097106398872
 10
525.2019632532101
 20
163.6104614872529
 10
525.9394152184523
 20
163.6104644880597
 10
525.9394152184523
 20
163.6104644880597
  0
HATCH
  5
18E
330
185
100
AcDbEntity
  8
1
 62
    16
440
 33554687
100
AcDbHatch
 10
0.0
 20
0.0
 30
0.0
210
0.0
220
0.0
230
1.0
  2
SOLID
 70
     1
 71
     1
 91
        1
 92
        1
 93
        3
 72
     1
 10
525.5706892358321
 20
160.8097106398872
 11
525.2019632532101
 21
163.6104614872529
 72
     1
 10
525.2019632532101
 20
163.6104614872529
 11
525.9394152184523
 21
163.6104644880597
 72
     1
 10
525.9394152184523
 20
163.6104644880597
 11
525.5706892358321
 21
160.8097106398872
 97
        1
330
18D
 75
     2
 76
     1
 98
        1
 10
0.0
 20
0.0
450
        0
451
        0
460
0.0
461
0.0
452
        0
462
0.0
453
        0
470

  0
LWPOLYLINE
  5
18F
330
185
100
AcDbEntity
  8
1
 62
     7
370
    35
100
AcDbPolyline
 90
        4
 70
     1
 43
0.0
 10
525.5706892358321
 20
410.9768667447724
 10
525.9394152184523
 20
408.1761168976736
 10
525.2019632532101
 20
408.1761138968686
 10
525.2019632532101
 20
408.1761138968686
  0
HATCH
  5
190
330
185
100
AcDbEntity
  8
1
 62
    16
440
 33554687
100
AcDbHatch
 10
0.0
 20
0.0
 30
0.0
210
0.0
220
0.0
230
1.0
  2
SOLID
 70
     1
 71
     1
 91
        1
 92
        1
 93
        3
 72
     1
 10
525.5706892358321
 20
410.9768667447724
 11
525.9394152184523
 21
408.1761168976736
 72
     1
 10
525.9394152184523
 20
408.1761168976736
 11
525.2019632532101
 21
408.1761138968686
 72
     1
 10
525.2019632532101
 20
408.1761138968686
 11
525.5706892358321
 21
410.9768667447724
 97
        1
330
18F
 75
     2
 76
     1
 98
        1
 10
0.0
 20
0.0
450
        0
451
        0
460
0.0
461
0.0
452
        0
462
0.0
453
        0
470

  0
ENDBLK
  5
188
330
185
100
AcDbEntity
  8
0
100
AcDbBlockEnd
  0
BLOCK
  5
193
330
191
100
AcDbEntity
  8
0
100
AcDbBlockBegin
  2
Block_5
 70
     0
 10
0.0
 20
0.0
 30
0.0
  3
Block_5
  1

  0
MTEXT
  5
195
330
191
100
AcDbEntity
  8
1
100
AcDbMText
 10
550.3631820678711
 20
307.3359374999991
 30
0.0
 40
0.2
 41
0.0
 46
0.0
 71
     7
 72
     1
  1
\C16;\FMyriad Pro|b0|i0|c1;\H8.002148;\W1.000000;310
 11
0.0000000000000001
 21
1.0
 31
0.0
 73
     1
 44
1.0
  0
LINE
  5
196
330
191
100
AcDbEntity
  8
1
 62
     7
370
    13
100
AcDbLine
 10
452.8011546231555
 20
470.992977765537
 30
0.0
 11
555.5787447462135
 21
470.992977765537
 31
0.0
  0
LINE
  5
197
330
191
100
AcDbEntity
  8
1
 62
     7
370
    13
100
AcDbLine
 10
438.5473282557232
 20
160.8097106398872
 30
0.0
 11
555.5787447462135
 21
160.8097106398872
 31
0.0
  0
LINE
  5
198
330
191
100
AcDbEntity
  8
1
 62
     7
370
    13
100
AcDbLine
 10
553.5782077121876
 20
470.992977765537
 30
0.0
 11
553.5782077121876
 21
160.8097106398872
 31
0.0
  0
LWPOLYLINE
  5
199
330
191
100
AcDbEntity
  8
1
 62
     7
370
    35
100
AcDbPolyline
 90
        4
 70
     1
 43
0.0
 10
553.5782077121876
 20
470.992977765537
 10
553.9469336948095
 20
468.1922279184382
 10
553.2094817295674
 20
468.1922249176323
 10
553.2094817295674
 20
468.1922249176323
  0
HATCH
  5
19A
330
191
100
AcDbEntity
  8
1
 62
    16
440
 33554687
100
AcDbHatch
 10
0.0
 20
0.0
 30
0.0
210
0.0
220
0.0
230
1.0
  2
SOLID
 70
     1
 71
     1
 91
        1
 92
        1
 93
        3
 72
     1
 10
553.5782077121876
 20
470.992977765537
 11
553.9469336948095
 21
468.1922279184382
 72
     1
 10
553.9469336948095
 20
468.1922279184382
 11
553.2094817295674
 21
468.1922249176323
 72
     1
 10
553.2094817295674
 20
468.1922249176323
 11
553.5782077121876
 21
470.992977765537
 97
        1
330
199
 75
     2
 76
     1
 98
        1
 10
0.0
 20
0.0
450
        0
451
        0
460
0.0
461
0.0
452
        0
462
0.0
453
        0
470

  0
LWPOLYLINE
  5
19B
330
191
100
AcDbEntity
  8
1
 62
     7
370
    35
100
AcDbPolyline
 90
        4
 70
     1
 43
0.0
 10
553.5782077121876
 20
160.8097106398872
 10
553.2094817295674
 20
163.6104614872529
 10
553.9469336948095
 20
163.6104644880597
 10
553.9469336948095
 20
163.6104644880597
  0
HATCH
  5
19C
330
191
100
AcDbEntity
  8
1
 62
    16
440
 33554687
100
AcDbHatch
 10
0.0
 20
0.0
 30
0.0
210
0.0
220
0.0
230
1.0
  2
SOLID
 70
     1
 71
     1
 91
        1
 92
        1
 93
        3
 72
     1
 10
553.5782077121876
 20
160.8097106398872
 11
553.2094817295674
 21
163.6104614872529
 72
     1
 10
553.2094817295674
 20
163.6104614872529
 11
553.9469336948095
 21
163.6104644880597
 72
     1
 10
553.9469336948095
 20
163.6104644880597
 11
553.5782077121876
 21
160.8097106398872
 97
        1
330
19B
 75
     2
 76
     1
 98
        1
 10
0.0
 20
0.0
450
        0
451
        0
460
0.0
461
0.0
452
        0
462
0.0
453
        0
470

  0
ENDBLK
  5
194
330
191
100
AcDbEntity
  8
0
100
AcDbBlockEnd
  0
BLOCK
  5
19F
330
19D
100
AcDbEntity
  8
0
100
AcDbBlockBegin
  2
Block_6
 70
     0
 10
0.0
 20
0.0
 30
0.0
  3
Block_6
  1

  0
MTEXT
  5
1A1
330
19D
100
AcDbEntity
  8
1
100
AcDbMText
 10
388.3742370605469
 20
481.9940795898437
 30
0.0
 40
0.2
 41
0.0
 46
0.0
 71
     7
 72
     1
  1
\C16;\FMyriad Pro|b0|i0|c1;\H8.002148;\W1.000000;107,5
 73
     1
 44
1.0
  0
LINE
  5
1A2
330
19D
100
AcDbEntity
  8
1
 62
     7
370
    13
100
AcDbLine
 10
347.7729603368171
 20
467.4920379559917
 30
0.0
 11
347.7729603368171
 21
479.9953944186518
 31
0.0
  0
LINE
  5
1A3
330
19D
100
AcDbEntity
  8
1
 62
     7
370
    13
100
AcDbLine
 10
455.3018259156869
 20
467.6530701842775
 30
0.0
 11
455.3018259156869
 21
479.9953944186518
 31
0.0
  0
LINE
  5
1A4
330
19D
100
AcDbEntity
  8
1
 62
     7
370
    13
100
AcDbLine
 10
347.7729603368171
 20
477.9948573846259
 30
0.0
 11
455.3018259156869
 21
477.9948573846259
 31
0.0
  0
LWPOLYLINE
  5
1A5
330
19D
100
AcDbEntity
  8
1
 62
     7
370
    35
100
AcDbPolyline
 90
        4
 70
     1
 43
0.0
 10
347.7729603368171
 20
477.9948573846259
 10
350.5737111841845
 20
478.363583367247
 10
350.5737131847218
 20
477.6261324022734
 10
350.5737131847218
 20
477.6261324022734
  0
HATCH
  5
1A6
330
19D
100
AcDbEntity
  8
1
 62
    16
440
 33554687
100
AcDbHatch
 10
0.0
 20
0.0
 30
0.0
210
0.0
220
0.0
230
1.0
  2
SOLID
 70
     1
 71
     1
 91
        1
 92
        1
 93
        3
 72
     1
 10
347.7729603368171
 20
477.9948573846259
 11
350.5737111841845
 21
478.363583367247
 72
     1
 10
350.5737111841845
 20
478.363583367247
 11
350.5737131847218
 21
477.6261324022734
 72
     1
 10
350.5737131847218
 20
477.6261324022734
 11
347.7729603368171
 21
477.9948573846259
 97
        1
330
1A5
 75
     2
 76
     1
 98
        1
 10
0.0
 20
0.0
450
        0
451
        0
460
0.0
461
0.0
452
        0
462
0.0
453
        0
470

  0
LWPOLYLINE
  5
1A7
330
19D
100
AcDbEntity
  8
1
 62
     7
370
    35
100
AcDbPolyline
 90
        4
 70
     1
 43
0.0
 10
455.3018259156869
 20
477.9948573846259
 10
452.5010750683195
 20
477.6261324022734
 10
452.5010730677823
 20
478.363583367247
 10
452.5010730677823
 20
478.363583367247
  0
HATCH
  5
1A8
330
19D
100
AcDbEntity
  8
1
 62
    16
440
 33554687
100
AcDbHatch
 10
0.0
 20
0.0
 30
0.0
210
0.0
220
0.0
230
1.0
  2
SOLID
 70
     1
 71
     1
 91
        1
 92
        1
 93
        3
 72
     1
 10
455.3018259156869
 20
477.9948573846259
 11
452.5010750683195
 21
477.6261324022734
 72
     1
 10
452.5010750683195
 20
477.6261324022734
 11
452.5010730677823
 21
478.363583367247
 72
     1
 10
452.5010730677823
 20
478.363583367247
 11
455.3018259156869
 21
477.9948573846259
 97
        1
330
1A7
 75
     2
 76
     1
 98
        1
 10
0.0
 20
0.0
450
        0
451
        0
460
0.0
461
0.0
452
        0
462
0.0
453
        0
470

  0
ENDBLK
  5
1A0
330
19D
100
AcDbEntity
  8
0
100
AcDbBlockEnd
  0
BLOCK
  5
1AB
330
1A9
100
AcDbEntity
  8
0
100
AcDbBlockBegin
  2
Block_7
 70
     0
 10
0.0
 20
0.0
 30
0.0
  3
Block_7
  1

  0
MTEXT
  5
1AD
330
1A9
100
AcDbEntity
  8
1
100
AcDbMText
 10
419.7403564453124
 20
495.9978637695312
 30
0.0
 40
0.2
 41
0.0
 46
0.0
 71
     7
 72
     1
  1
\C16;\FArial|b0|i0|c1;\H8.002148;\W1.000000;□
 73
     1
 44
1.0
  0
MTEXT
  5
1AE
330
1A9
100
AcDbEntity
  8
1
100
AcDbMText
 10
434.4477233886719
 20
495.9978637695312
 30
0.0
 40
0.2
 41
0.0
 46
0.0
 71
     7
 72
     1
  1
\C16;\FMyriad Pro|b0|i0|c1;\H8.002148;\W1.000000;35,5
 73
     1
 44
1.0
  0
LINE
  5
1AF
330
1A9
100
AcDbEntity
  8
1
 62
     7
370
    13
100
AcDbLine
 10
455.3018259156869
 20
467.6530701842775
 30
0.0
 11
455.3018259156869
 21
493.9991536568295
 31
0.0
  0
LINE
  5
1B0
330
1A9
100
AcDbEntity
  8
1
 62
     7
370
    13
100
AcDbLine
 10
419.7922935617343
 20
467.6530701842775
 30
0.0
 11
419.7922935617343
 21
493.9991536568295
 31
0.0
  0
LINE
  5
1B1
330
1A9
100
AcDbEntity
  8
1
 62
     7
370
    13
100
AcDbLine
 10
455.3018259156869
 20
491.9986166228045
 30
0.0
 11
419.7922935617343
 21
491.9986166228045
 31
0.0
  0
LWPOLYLINE
  5
1B2
330
1A9
100
AcDbEntity
  8
1
 62
     7
370
    35
100
AcDbPolyline
 90
        4
 70
     1
 43
0.0
 10
455.3018259156869
 20
491.9986166228045
 10
452.5010750683195
 20
491.6298916404521
 10
452.5010730677823
 20
492.3673426054246
 10
452.5010730677823
 20
492.3673426054246
  0
HATCH
  5
1B3
330
1A9
100
AcDbEntity
  8
1
 62
    16
440
 33554687
100
AcDbHatch
 10
0.0
 20
0.0
 30
0.0
210
0.0
220
0.0
230
1.0
  2
SOLID
 70
     1
 71
     1
 91
        1
 92
        1
 93
        3
 72
     1
 10
455.3018259156869
 20
491.9986166228045
 11
452.5010750683195
 21
491.6298916404521
 72
     1
 10
452.5010750683195
 20
491.6298916404521
 11
452.5010730677823
 21
492.3673426054246
 72
     1
 10
452.5010730677823
 20
492.3673426054246
 11
455.3018259156869
 21
491.9986166228045
 97
        1
330
1B2
 75
     2
 76
     1
 98
        1
 10
0.0
 20
0.0
450
        0
451
        0
460
0.0
461
0.0
452
        0
462
0.0
453
        0
470

  0
LWPOLYLINE
  5
1B4
330
1A9
100
AcDbEntity
  8
1
 62
     7
370
    35
100
AcDbPolyline
 90
        4
 70
     1
 43
0.0
 10
419.7922935617343
 20
491.9986166228045
 10
422.5930444091018
 20
492.3673426054246
 10
422.5930464096381
 20
491.6298916404521
 10
422.5930464096381
 20
491.6298916404521
  0
HATCH
  5
1B5
330
1A9
100
AcDbEntity
  8
1
 62
    16
440
 33554687
100
AcDbHatch
 10
0.0
 20
0.0
 30
0.0
210
0.0
220
0.0
230
1.0
  2
SOLID
 70
     1
 71
     1
 91
        1
 92
        1
 93
        3
 72
     1
 10
419.7922935617343
 20
491.9986166228045
 11
422.5930444091018
 21
492.3673426054246
 72
     1
 10
422.5930444091018
 20
492.3673426054246
 11
422.5930464096381
 21
491.6298916404521
 72
     1
 10
422.5930464096381
 20
491.6298916404521
 11
419.7922935617343
 21
491.9986166228045
 97
        1
330
1B4
 75
     2
 76
     1
 98
        1
 10
0.0
 20
0.0
450
        0
451
        0
460
0.0
461
0.0
452
        0
462
0.0
453
        0
470

  0
ENDBLK
  5
1AC
330
1A9
100
AcDbEntity
  8
0
100
AcDbBlockEnd
  0
ENDSEC
  0
SECTION
  2
ENTITIES
  0
LWPOLYLINE
  5
78
330
70
100
AcDbEntity
  8
0
 62
     7
370
     0
100
AcDbPolyline
 90
        4
 70
     1
 43
0.0
 10
204.6109742633543
 20
-96.70732814731856
 10
204.6109742633543
 20
589.8768954314245
 10
719.5491419474128
 20
589.8768954314245
 10
719.5491419474128
 20
-96.70732814731856
  0
INSERT
  5
7A
330
70
100
AcDbEntity
  8
0
100
AcDbBlockReference
  2
Block_0
 10
0.0
 20
0.0
 30
0.0
  0
LWPOLYLINE
  5
7D
330
70
100
AcDbEntity
  8
0
 62
     7
370
     0
100
AcDbPolyline
 90
        4
 70
     1
 43
0.0
 10
341.4212552537865
 20
154.4580055568549
 10
341.4212552537865
 20
477.3446828485675
 10
475.9073573661498
 20
477.3446828485675
 10
475.9073573661498
 20
154.4580055568549
  0
LWPOLYLINE
  5
7E
330
70
100
AcDbEntity
  8
0
 62
     7
370
     0
100
AcDbPolyline
 90
        4
 70
     1
 43
0.0
 10
341.4212552537865
 20
47.0
 10
341.4212552537865
 20
123.7205952548775
 10
475.9073573661498
 20
123.7205952548775
 10
475.9073573661498
 20
47.0
  0
LINE
  5
80
330
70
100
AcDbEntity
  8
1
 62
     7
370
    13
100
AcDbLine
 10
405.5384671943029
 20
140.1099859037149
 30
0.0
 11
469.5556522831175
 21
140.1099859037149
 31
0.0
  0
LINE
  5
81
330
70
100
AcDbEntity
  8
1
 62
     7
370
    13
100
AcDbLine
 10
469.5556522831175
 20
164.8107847079373
 30
0.0
 11
469.5556522831175
 21
138.109448869689
 31
0.0
  0
LINE
  5
82
330
70
100
AcDbEntity
  8
1
 62
     7
370
    13
100
AcDbLine
 10
405.5384671943029
 20
164.8107847079373
 30
0.0
 11
405.5384671943029
 21
138.109448869689
 31
0.0
  0
MTEXT
  5
83
330
70
100
AcDbEntity
  8
1
100
AcDbMText
 10
428.81494140625
 20
145.546875
 30
0.0
 40
0.2
 41
0.0
 46
0.0
 71
     7
 72
     1
  1
\C7;\FMyriad Pro|b0|i0|c1;\H8.002148;\W1.132302;∅
 73
     1
 44
1.0
  0
MTEXT
  5
84
330
70
100
AcDbEntity
  8
1
100
AcDbMText
 10
436.8997497558593
 20
145.6977386474609
 30
0.0
 40
0.2
 41
0.0
 46
0.0
 71
     7
 72
     1
  1
\C16;\FMyriad Pro|b0|i0|c1;\H8.002148;\W1.000000;64
 73
     1
 44
1.0
  0
LINE
  5
85
330
70
100
AcDbEntity
  8
1
 62
     7
370
    25
100
AcDbLine
 10
469.5556522831175
 20
140.1099859037149
 30
0.0
 11
466.7549014357501
 21
139.7412599210929
 31
0.0
  0
LINE
  5
86
330
70
100
AcDbEntity
  8
1
 62
     7
370
    25
100
AcDbLine
 10
466.7549014357501
 20
139.7412599210929
 30
0.0
 11
466.7548994352146
 21
140.478711886335
 31
0.0
  0
LINE
  5
87
330
70
100
AcDbEntity
  8
1
 62
     7
370
    25
100
AcDbLine
 10
466.7548994352146
 20
140.478711886335
 30
0.0
 11
469.5556522831175
 21
140.1099859037149
 31
0.0
  0
INSERT
  5
89
330
70
100
AcDbEntity
  8
1
100
AcDbBlockReference
  2
Block_1
 10
0.0
 20
0.0
 30
0.0
  0
LINE
  5
FF
330
70
100
AcDbEntity
  8
1
 62
     7
370
    25
100
AcDbLine
 10
405.5384671943029
 20
140.1099859037149
 30
0.0
 11
408.3392180416703
 21
140.478711886335
 31
0.0
  0
LINE
  5
100
330
70
100
AcDbEntity
  8
1
 62
     7
370
    25
100
AcDbLine
 10
408.3392180416703
 20
140.478711886335
 30
0.0
 11
408.3392200422067
 21
139.7412599210929
 31
0.0
  0
LINE
  5
101
330
70
100
AcDbEntity
  8
1
 62
     7
370
    25
100
AcDbLine
 10
408.3392200422067
 20
139.7412599210929
 30
0.0
 11
405.5384671943029
 21
140.1099859037149
 31
0.0
  0
INSERT
  5
103
330
70
100
AcDbEntity
  8
1
100
AcDbBlockReference
  2
Block_2
 10
0.0
 20
0.0
 30
0.0
  0
INSERT
  5
17A
330
70
100
AcDbEntity
  8
1
100
AcDbBlockReference
  2
Block_3
 10
0.0
 20
0.0
 30
0.0
  0
INSERT
  5
186
330
70
100
AcDbEntity
  8
1
100
AcDbBlockReference
  2
Block_4
 10
0.0
 20
0.0
 30
0.0
  0
INSERT
  5
192
330
70
100
AcDbEntity
  8
1
100
AcDbBlockReference
  2
Block_5
 10
0.0
 20
0.0
 30
0.0
  0
INSERT
  5
19E
330
70
100
AcDbEntity
  8
1
100
AcDbBlockReference
  2
Block_6
 10
0.0
 20
0.0
 30
0.0
  0
INSERT
  5
1AA
330
70
100
AcDbEntity
  8
1
100
AcDbBlockReference
  2
Block_7
 10
0.0
 20
0.0
 30
0.0
  0
LINE
  5
1B7
330
70
100
AcDbEntity
  8
Right$1
 62
     7
370
    25
100
AcDbLine
 10
451.8008861061425
 20
470.992977765537
 30
0.0
 11
451.8008861061425
 21
470.992977765537
 31
0.0
  0
LINE
  5
1B8
330
70
100
AcDbEntity
  8
Right$1
 62
     7
370
    25
100
AcDbLine
 10
437.5470597387102
 20
160.8097106398872
 30
0.0
 11
437.5470597387102
 21
160.8097106398872
 31
0.0
  0
LINE
  5
1B9
330
70
100
AcDbEntity
  8
Right$1
 62
     7
370
    35
100
AcDbLine
 10
462.5037592381777
 20
375.0672269840152
 30
0.0
 11
462.5037592381777
 21
377.0677640180402
 31
0.0
  0
LINE
  5
1BA
330
70
100
AcDbEntity
  8
Right$1
 62
     7
370
    35
100
AcDbLine
 10
412.5903602392427
 20
377.0677640180402
 30
0.0
 11
412.5903602392427
 21
375.0672269840152
 31
0.0
  0
LINE
  5
1BB
330
70
100
AcDbEntity
  8
Right$1
 62
     7
370
    35
100
AcDbLine
 10
451.0506847183823
 20
420.2293505271399
 30
0.0
 11
451.0506847183823
 21
435.4834454115843
 31
0.0
  0
LINE
  5
1BC
330
70
100
AcDbEntity
  8
Right$1
 62
     7
370
    35
100
AcDbLine
 10
424.043434759038
 20
435.4834454115843
 30
0.0
 11
424.043434759038
 21
420.2293505271399
 31
0.0
  0
LINE
  5
1BD
330
70
100
AcDbEntity
  8
Right$1
 62
     7
370
    35
100
AcDbLine
 10
450.3004833306222
 20
343.958876104919
 30
0.0
 11
450.3004833306222
 21
362.7649244932754
 31
0.0
  0
LINE
  5
1BE
330
70
100
AcDbEntity
  8
Right$1
 62
     7
370
    35
100
AcDbLine
 10
450.3004833306222
 20
381.0678378175744
 30
0.0
 11
450.3004833306222
 21
407.9760611937344
 31
0.0
  0
LINE
  5
1BF
330
70
100
AcDbEntity
  8
Right$1
 62
     7
370
    35
100
AcDbLine
 10
424.7936361467982
 20
407.9760611937344
 30
0.0
 11
424.7936361467982
 21
381.0678378175744
 31
0.0
  0
LINE
  5
1C0
330
70
100
AcDbEntity
  8
Right$1
 62
     7
370
    35
100
AcDbLine
 10
424.7936361467982
 20
362.7649244932754
 30
0.0
 11
424.7936361467982
 21
343.958876104919
 31
0.0
  0
LINE
  5
1C1
330
70
100
AcDbEntity
  8
Right$1
 62
     7
370
    35
100
AcDbLine
 10
459.8030342422443
 20
377.5678982765466
 30
0.0
 11
459.8030342422443
 21
381.068838086092
 31
0.0
  0
LINE
  5
1C2
330
70
100
AcDbEntity
  8
Right$1
 62
     7
370
    35
100
AcDbLine
 10
415.2910852351769
 20
381.068838086092
 30
0.0
 11
415.2910852351769
 21
377.5678982765466
 31
0.0
  0
LINE
  5
1C3
330
70
100
AcDbEntity
  8
Right$1
 62
     7
370
    35
100
AcDbLine
 10
469.5556522831175
 20
165.8110532249502
 30
0.0
 11
469.5556522831175
 21
323.8534789129626
 31
0.0
  0
LINE
  5
1C4
330
70
100
AcDbEntity
  8
Right$1
 62
     7
370
    35
100
AcDbLine
 10
449.2001879619092
 20
330.9553853837533
 30
0.0
 11
449.2001879619092
 21
343.958876104919
 31
0.0
  0
LINE
  5
1C5
330
70
100
AcDbEntity
  8
Right$1
 62
     7
370
    35
100
AcDbLine
 10
425.8939315155121
 20
343.958876104919
 30
0.0
 11
425.8939315155121
 21
330.9553853837533
 31
0.0
  0
LINE
  5
1C6
330
70
100
AcDbEntity
  8
Right$1
 62
     7
370
    35
100
AcDbLine
 10
405.5384671943029
 20
323.8534789129626
 30
0.0
 11
405.5384671943029
 21
165.8110532249502
 31
0.0
  0
LINE
  5
1C7
330
70
100
AcDbEntity
  8
Right$1
 62
     7
370
    35
100
AcDbLine
 10
453.5320988414241
 20
361.563602004343
 30
0.0
 11
459.8530476680953
 21
361.563602004343
 31
0.0
  0
LINE
  5
1C8
330
70
100
AcDbEntity
  8
Right$1
 62
     7
370
    35
100
AcDbLine
 10
460.8533161851064
 20
362.563870521356
 30
0.0
 11
460.8533161851064
 21
374.0669584670022
 31
0.0
  0
LINE
  5
1C9
330
70
100
AcDbEntity
  8
Right$1
 62
     7
370
    35
100
AcDbLine
 10
452.5510874939008
 20
362.7639242247588
 30
0.0
 11
452.5442856679855
 21
362.7212217614988
 31
0.0
  0
LINE
  5
1CA
330
70
100
AcDbEntity
  8
Right$1
 62
     7
370
    35
100
AcDbLine
 10
452.4939921669502
 20
362.7639242247588
 30
0.0
 11
452.4872163480158
 21
362.7212217614988
 31
0.0
  0
LINE
  5
1CB
330
70
100
AcDbEntity
  8
Right$1
 62
     7
370
    35
100
AcDbLine
 10
415.2410718093261
 20
361.563602004343
 30
0.0
 11
415.3259525951434
 21
361.563602004343
 31
0.0
  0
LINE
  5
1CC
330
70
100
AcDbEntity
  8
Right$1
 62
     7
370
    35
100
AcDbLine
 10
421.6228489650529
 20
361.563602004343
 30
0.0
 11
415.3259525951434
 21
361.563602004343
 31
0.0
  0
LINE
  5
1CD
330
70
100
AcDbEntity
  8
Right$1
 62
     7
370
    35
100
AcDbLine
 10
422.6001273104702
 20
362.7639242247588
 30
0.0
 11
422.6069031294046
 21
362.7212217614988
 31
0.0
  0
LINE
  5
1CE
330
70
100
AcDbEntity
  8
Right$1
 62
     7
370
    35
100
AcDbLine
 10
414.3294911001057
 20
362.563870521356
 30
0.0
 11
414.3294911001057
 21
374.0669584670022
 31
0.0
  0
LINE
  5
1CF
330
70
100
AcDbEntity
  8
Right$1
 62
     7
370
    35
100
AcDbLine
 10
414.240803292314
 20
362.563870521356
 30
0.0
 11
414.240803292314
 21
374.0669584670022
 31
0.0
  0
LINE
  5
1D0
330
70
100
AcDbEntity
  8
Right$1
 62
     7
370
    35
100
AcDbLine
 10
452.5510874939008
 20
362.7639242247588
 30
0.0
 11
439.5784350511157
 21
362.7639242247588
 31
0.0
  0
LINE
  5
1D1
330
70
100
AcDbEntity
  8
Right$1
 62
     7
370
    35
100
AcDbLine
 10
452.5510874939008
 20
362.7639242247588
 30
0.0
 11
454.351570824525
 21
374.0669584670022
 31
0.0
  0
LINE
  5
1D2
330
70
100
AcDbEntity
  8
Right$1
 62
     7
370
    35
100
AcDbLine
 10
422.6001273104702
 20
362.7639242247588
 30
0.0
 11
420.8064948189202
 21
374.0669584670022
 31
0.0
  0
LINE
  5
1D3
330
70
100
AcDbEntity
  8
Right$1
 62
     7
370
    35
100
AcDbLine
 10
437.5470597387102
 20
362.7639242247588
 30
0.0
 11
422.6001273104702
 21
362.7639242247588
 31
0.0
  0
LINE
  5
1D4
330
70
100
AcDbEntity
  8
Right$1
 62
     7
370
    35
100
AcDbLine
 10
437.5470597387102
 20
361.563602004343
 30
0.0
 11
437.5470597387102
 21
362.563870521356
 31
0.0
  0
LINE
  5
1D5
330
70
100
AcDbEntity
  8
Right$1
 62
     7
370
    35
100
AcDbLine
 10
437.5470597387102
 20
361.563602004343
 30
0.0
 11
439.491154621126
 21
361.563602004343
 31
0.0
  0
LINE
  5
1D6
330
70
100
AcDbEntity
  8
Right$1
 62
     7
370
    35
100
AcDbLine
 10
439.578334023995
 20
362.563870521356
 30
0.0
 11
439.578334023995
 21
374.0669584670022
 31
0.0
  0
LINE
  5
1D7
330
70
100
AcDbEntity
  8
Right$1
 62
     7
370
    35
100
AcDbLine
 10
437.5470597387102
 20
362.563870521356
 30
0.0
 11
437.5470597387102
 21
374.0669584670022
 31
0.0
  0
LINE
  5
1D8
330
70
100
AcDbEntity
  8
Right$1
 62
     7
370
    35
100
AcDbLine
 10
462.0036249796721
 20
377.5678982765466
 30
0.0
 11
413.1137717464079
 21
377.5678982765466
 31
0.0
  0
LINE
  5
1D9
330
70
100
AcDbEntity
  8
Right$1
 62
     7
370
    35
100
AcDbLine
 10
413.1137717464079
 20
377.5678982765466
 30
0.0
 11
413.0904944977491
 21
377.5678982765466
 31
0.0
  0
LINE
  5
1DA
330
70
100
AcDbEntity
  8
Right$1
 62
     7
370
    35
100
AcDbLine
 10
461.5034907211647
 20
374.0669584670022
 30
0.0
 11
413.6134298771002
 21
374.0669584670022
 31
0.0
  0
LINE
  5
1DB
330
70
100
AcDbEntity
  8
Right$1
 62
     7
370
    35
100
AcDbLine
 10
413.6134298771002
 20
374.0669584670022
 30
0.0
 11
413.5906287562557
 21
374.0669584670022
 31
0.0
  0
LINE
  5
1DC
330
70
100
AcDbEntity
  8
Right$1
 62
     7
370
    35
100
AcDbLine
 10
458.302631466724
 20
417.4786121053548
 30
0.0
 11
459.5529671129916
 21
417.4786121053548
 31
0.0
  0
LINE
  5
1DD
330
70
100
AcDbEntity
  8
Right$1
 62
     7
370
    35
100
AcDbLine
 10
458.302631466724
 20
411.4770010032789
 30
0.0
 11
416.7914880106963
 21
411.4770010032789
 31
0.0
  0
LINE
  5
1DE
330
70
100
AcDbEntity
  8
Right$1
 62
     7
370
    35
100
AcDbLine
 10
415.5411523644306
 20
417.4786121053548
 30
0.0
 11
416.7914880106963
 21
417.4786121053548
 31
0.0
  0
LINE
  5
1DF
330
70
100
AcDbEntity
  8
Right$1
 62
     7
370
    35
100
AcDbLine
 10
460.5532356300027
 20
411.4770010032789
 30
0.0
 11
458.302631466724
 21
411.4770010032789
 31
0.0
  0
LINE
  5
1E0
330
70
100
AcDbEntity
  8
Right$1
 62
     7
370
    35
100
AcDbLine
 10
460.5532356300027
 20
416.4783435883427
 30
0.0
 11
460.5532356300027
 21
411.4770010032789
 31
0.0
  0
LINE
  5
1E1
330
70
100
AcDbEntity
  8
Right$1
 62
     7
370
    35
100
AcDbLine
 10
416.7914880106963
 20
411.4770010032789
 30
0.0
 11
414.5408838474176
 21
411.4770010032789
 31
0.0
  0
LINE
  5
1E2
330
70
100
AcDbEntity
  8
Right$1
 62
     7
370
    35
100
AcDbLine
 10
414.5408838474176
 20
411.4770010032789
 30
0.0
 11
414.5408838474176
 21
416.4783435883427
 31
0.0
  0
LINE
  5
1E3
330
70
100
AcDbEntity
  8
Right$1
 62
     7
370
    35
100
AcDbLine
 10
416.7914880106963
 20
417.4786121053548
 30
0.0
 11
458.302631466724
 21
417.4786121053548
 31
0.0
  0
LINE
  5
1E4
330
70
100
AcDbEntity
  8
Right$1
 62
     7
370
    35
100
AcDbLine
 10
424.7936361467982
 20
343.958876104919
 30
0.0
 11
437.5470597387102
 21
343.958876104919
 31
0.0
  0
LINE
  5
1E5
330
70
100
AcDbEntity
  8
Right$1
 62
     7
370
    35
100
AcDbLine
 10
437.5470597387102
 20
343.958876104919
 30
0.0
 11
450.3004833306222
 21
343.958876104919
 31
0.0
  0
LINE
  5
1E6
330
70
100
AcDbEntity
  8
Right$1
 62
     7
370
    35
100
AcDbLine
 10
459.8030342422443
 20
381.068838086092
 30
0.0
 11
415.2910852351769
 21
381.068838086092
 31
0.0
  0
LINE
  5
1E7
330
70
100
AcDbEntity
  8
Right$1
 62
     7
370
    35
100
AcDbLine
 10
455.3018259156869
 20
435.4834454115843
 30
0.0
 11
451.8008861061425
 21
435.4834454115843
 31
0.0
  0
LINE
  5
1E8
330
70
100
AcDbEntity
  8
Right$1
 62
     7
370
    35
100
AcDbLine
 10
347.7729603368171
 20
459.4898898198898
 30
0.0
 11
347.7729603368171
 21
465.4915009219666
 31
0.0
  0
LINE
  5
1E9
330
70
100
AcDbEntity
  8
Right$1
 62
     7
370
    35
100
AcDbLine
 10
347.7729603368171
 20
465.4915009219666
 30
0.0
 11
347.7729603368171
 21
466.4917694389796
 31
0.0
  0
LINE
  5
1EA
330
70
100
AcDbEntity
  8
Right$1
 62
     7
370
    35
100
AcDbLine
 10
347.7729603368171
 20
466.4917694389796
 30
0.0
 11
419.7922935617343
 21
466.4917694389796
 31
0.0
  0
LINE
  5
1EB
330
70
100
AcDbEntity
  8
Right$1
 62
     7
370
    35
100
AcDbLine
 10
347.7729603368171
 20
458.4896213028778
 30
0.0
 11
347.7729603368171
 21
459.4898898198898
 31
0.0
  0
LINE
  5
1EC
330
70
100
AcDbEntity
  8
Right$1
 62
     7
370
    35
100
AcDbLine
 10
419.7922935617343
 20
458.4896213028778
 30
0.0
 11
347.7729603368171
 21
458.4896213028778
 31
0.0
  0
LINE
  5
1ED
330
70
100
AcDbEntity
  8
Right$1
 62
     7
370
    35
100
AcDbLine
 10
459.5529671129916
 20
410.9768667447724
 30
0.0
 11
459.5529671129916
 21
411.4770010032789
 31
0.0
  0
LINE
  5
1EE
330
70
100
AcDbEntity
  8
Right$1
 62
     7
370
    35
100
AcDbLine
 10
415.5411523644306
 20
410.9768667447724
 30
0.0
 11
415.5411523644306
 21
411.4770010032789
 31
0.0
  0
LINE
  5
1EF
330
70
100
AcDbEntity
  8
Right$1
 62
     7
370
    35
100
AcDbLine
 10
416.7914880106963
 20
410.9768667447724
 30
0.0
 11
415.5411523644306
 21
410.9768667447724
 31
0.0
  0
LINE
  5
1F0
330
70
100
AcDbEntity
  8
Right$1
 62
     7
370
    35
100
AcDbLine
 10
458.302631466724
 20
410.9768667447724
 30
0.0
 11
416.7914880106963
 21
410.9768667447724
 31
0.0
  0
LINE
  5
1F1
330
70
100
AcDbEntity
  8
Right$1
 62
     7
370
    35
100
AcDbLine
 10
459.5529671129916
 20
410.9768667447724
 30
0.0
 11
458.302631466724
 21
410.9768667447724
 31
0.0
  0
LINE
  5
1F2
330
70
100
AcDbEntity
  8
Right$1
 62
     7
370
    35
100
AcDbLine
 10
448.8708765599331
 20
330.9553853837533
 30
0.0
 11
449.2001879619092
 21
330.9553853837533
 31
0.0
  0
LINE
  5
1F3
330
70
100
AcDbEntity
  8
Right$1
 62
     7
370
    35
100
AcDbLine
 10
448.8708765599331
 20
330.9553853837533
 30
0.0
 11
448.4071160657785
 21
330.9553853837533
 31
0.0
  0
LINE
  5
1F4
330
70
100
AcDbEntity
  8
Right$1
 62
     7
370
    35
100
AcDbLine
 10
448.8708765599331
 20
330.9553853837533
 30
0.0
 11
448.8708765599331
 21
343.958876104919
 31
0.0
  0
LINE
  5
1F5
330
70
100
AcDbEntity
  8
Right$1
 62
     7
370
    35
100
AcDbLine
 10
426.2232429174883
 20
330.9553853837533
 30
0.0
 11
425.8939315155121
 21
330.9553853837533
 31
0.0
  0
LINE
  5
1F6
330
70
100
AcDbEntity
  8
Right$1
 62
     7
370
    35
100
AcDbLine
 10
426.6870034116418
 20
330.9553853837533
 30
0.0
 11
426.2232429174883
 21
330.9553853837533
 31
0.0
  0
LINE
  5
1F7
330
70
100
AcDbEntity
  8
Right$1
 62
     7
370
    35
100
AcDbLine
 10
426.2232429174883
 20
330.9553853837533
 30
0.0
 11
426.2232429174883
 21
343.958876104919
 31
0.0
  0
LINE
  5
1F8
330
70
100
AcDbEntity
  8
Right$1
 62
     7
370
    35
100
AcDbLine
 10
448.4071160657785
 20
330.9553853837533
 30
0.0
 11
447.4992743602752
 21
330.9553853837533
 31
0.0
  0
LINE
  5
1F9
330
70
100
AcDbEntity
  8
Right$1
 62
     7
370
    35
100
AcDbLine
 10
448.4071160657785
 20
330.9553853837533
 30
0.0
 11
448.4071160657785
 21
343.958876104919
 31
0.0
  0
LINE
  5
1FA
330
70
100
AcDbEntity
  8
Right$1
 62
     7
370
    35
100
AcDbLine
 10
427.5948451171461
 20
330.9553853837533
 30
0.0
 11
426.6870034116418
 21
330.9553853837533
 31
0.0
  0
LINE
  5
1FB
330
70
100
AcDbEntity
  8
Right$1
 62
     7
370
    35
100
AcDbLine
 10
426.6870034116418
 20
330.9553853837533
 30
0.0
 11
426.6870034116418
 21
343.958876104919
 31
0.0
  0
LINE
  5
1FC
330
70
100
AcDbEntity
  8
Right$1
 62
     7
370
    35
100
AcDbLine
 10
447.4992733600065
 20
330.9553853837533
 30
0.0
 11
443.609142073983
 21
330.9553853837533
 31
0.0
  0
LINE
  5
1FD
330
70
100
AcDbEntity
  8
Right$1
 62
     7
370
    35
100
AcDbLine
 10
447.4992733600065
 20
330.9553853837533
 30
0.0
 11
447.4992733600065
 21
343.958876104919
 31
0.0
  0
LINE
  5
1FE
330
70
100
AcDbEntity
  8
Right$1
 62
     7
370
    35
100
AcDbLine
 10
443.609142073983
 20
330.9553853837533
 30
0.0
 11
443.2812130430966
 21
330.9553853837533
 31
0.0
  0
LINE
  5
1FF
330
70
100
AcDbEntity
  8
Right$1
 62
     7
370
    35
100
AcDbLine
 10
443.609142073983
 20
330.9553853837533
 30
0.0
 11
443.609142073983
 21
343.958876104919
 31
0.0
  0
LINE
  5
200
330
70
100
AcDbEntity
  8
Right$1
 62
     7
370
    35
100
AcDbLine
 10
431.4849774034382
 20
330.9553853837533
 30
0.0
 11
427.5948461174148
 21
330.9553853837533
 31
0.0
  0
LINE
  5
201
330
70
100
AcDbEntity
  8
Right$1
 62
     7
370
    35
100
AcDbLine
 10
427.5948461174148
 20
330.9553853837533
 30
0.0
 11
427.5948461174148
 21
343.958876104919
 31
0.0
  0
LINE
  5
202
330
70
100
AcDbEntity
  8
Right$1
 62
     7
370
    35
100
AcDbLine
 10
431.8129064343238
 20
330.9553853837533
 30
0.0
 11
431.4849774034382
 21
330.9553853837533
 31
0.0
  0
LINE
  5
203
330
70
100
AcDbEntity
  8
Right$1
 62
     7
370
    35
100
AcDbLine
 10
431.4849774034382
 20
330.9553853837533
 30
0.0
 11
431.4849774034382
 21
343.958876104919
 31
0.0
  0
LINE
  5
204
330
70
100
AcDbEntity
  8
Right$1
 62
     7
370
    35
100
AcDbLine
 10
443.2812130430966
 20
330.9553853837533
 30
0.0
 11
440.2977981604954
 21
330.9553853837533
 31
0.0
  0
LINE
  5
205
330
70
100
AcDbEntity
  8
Right$1
 62
     7
370
    35
100
AcDbLine
 10
443.2812130430966
 20
330.9553853837533
 30
0.0
 11
443.2812130430966
 21
343.958876104919
 31
0.0
  0
LINE
  5
206
330
70
100
AcDbEntity
  8
Right$1
 62
     7
370
    35
100
AcDbLine
 10
434.796321316925
 20
330.9553853837533
 30
0.0
 11
431.8129064343238
 21
330.9553853837533
 31
0.0
  0
LINE
  5
207
330
70
100
AcDbEntity
  8
Right$1
 62
     7
370
    35
100
AcDbLine
 10
431.8129064343238
 20
330.9553853837533
 30
0.0
 11
431.8129064343238
 21
343.958876104919
 31
0.0
  0
LINE
  5
208
330
70
100
AcDbEntity
  8
Right$1
 62
     7
370
    35
100
AcDbLine
 10
434.796321316925
 20
330.9553853837533
 30
0.0
 11
434.796321316925
 21
343.958876104919
 31
0.0
  0
LINE
  5
209
330
70
100
AcDbEntity
  8
Right$1
 62
     7
370
    35
100
AcDbLine
 10
440.2977981604954
 20
330.9553853837533
 30
0.0
 11
434.796321316925
 21
330.9553853837533
 31
0.0
  0
LINE
  5
20A
330
70
100
AcDbEntity
  8
Right$1
 62
     7
370
    35
100
AcDbLine
 10
440.2977981604954
 20
330.9553853837533
 30
0.0
 11
440.2977981604954
 21
343.958876104919
 31
0.0
  0
LINE
  5
20B
330
70
100
AcDbEntity
  8
Right$1
 62
     7
370
    35
100
AcDbLine
 10
452.5510874939008
 20
407.9760611937344
 30
0.0
 11
422.5430319835195
 21
407.9760611937344
 31
0.0
  0
LINE
  5
20C
330
70
100
AcDbEntity
  8
Right$1
 62
     7
370
    35
100
AcDbLine
 10
423.2932333712787
 20
470.992977765537
 30
0.0
 11
451.8008861061425
 21
470.992977765537
 31
0.0
  0
LINE
  5
20D
330
70
100
AcDbEntity
  8
Right$1
 62
     7
370
    35
100
AcDbLine
 10
421.7594736412547
 20
470.1820710817482
 30
0.0
 11
420.0886221096307
 21
467.6423773138303
 31
0.0
  0
LINE
  5
20E
330
70
100
AcDbEntity
  8
Right$1
 62
     7
370
    35
100
AcDbLine
 10
453.3346458361665
 20
470.1820710817482
 30
0.0
 11
455.0054973677906
 21
467.6423773138303
 31
0.0
  0
LINE
  5
20F
330
70
100
AcDbEntity
  8
Right$1
 62
     7
370
    35
100
AcDbLine
 10
423.2932333712787
 20
435.4834454115843
 30
0.0
 11
419.7922935617343
 21
435.4834454115843
 31
0.0
  0
LINE
  5
210
330
70
100
AcDbEntity
  8
Right$1
 62
     7
370
    35
100
AcDbLine
 10
422.5430319835195
 20
407.9760611937344
 30
0.0
 11
422.5430319835195
 21
410.9768587426242
 31
0.0
  0
LINE
  5
211
330
70
100
AcDbEntity
  8
Right$1
 62
     7
370
    35
100
AcDbLine
 10
452.5510874939008
 20
407.9760611937344
 30
0.0
 11
452.5510874939008
 21
410.9768587426242
 31
0.0
  0
LINE
  5
212
330
70
100
AcDbEntity
  8
Right$1
 62
     7
370
    35
100
AcDbLine
 10
423.2636304245179
 20
470.992977765537
 30
0.0
 11
423.2932333712787
 21
470.992977765537
 31
0.0
  0
LINE
  5
213
330
70
100
AcDbEntity
  8
Right$1
 62
     7
370
    35
100
AcDbLine
 10
451.8008861061425
 20
470.992977765537
 30
0.0
 11
451.8304890529034
 21
470.992977765537
 31
0.0
  0
LINE
  5
214
330
70
100
AcDbEntity
  8
Right$1
 62
     7
370
    35
100
AcDbLine
 10
423.2932333712787
 20
435.4834454115843
 30
0.0
 11
451.8008861061425
 21
435.4834454115843
 31
0.0
  0
LINE
  5
215
330
70
100
AcDbEntity
  8
Right$1
 62
     7
370
    35
100
AcDbLine
 10
419.7922935617343
 20
435.4834454115843
 30
0.0
 11
419.7922935617343
 21
466.6528016672645
 31
0.0
  0
LINE
  5
216
330
70
100
AcDbEntity
  8
Right$1
 62
     7
370
    35
100
AcDbLine
 10
455.3018259156869
 20
466.6528016672645
 30
0.0
 11
455.3018259156869
 21
435.4834454115843
 31
0.0
  0
LINE
  5
217
330
70
100
AcDbEntity
  8
Right$1
 62
     7
370
    35
100
AcDbLine
 10
410.5398097793668
 20
328.8548214980265
 30
0.0
 11
464.5543096980545
 21
328.8548214980265
 31
0.0
  0
LINE
  5
218
330
70
100
AcDbEntity
  8
Right$1
 62
     7
370
    35
100
AcDbLine
 10
464.5543096980545
 20
160.8097106398872
 30
0.0
 11
410.5398097793668
 21
160.8097106398872
 31
0.0
  0
SPLINE
  5
219
330
70
100
AcDbEntity
  8
Right$1
 62
     7
370
    35
100
AcDbSpline
210
0.0
220
0.0
230
1.0
 70
     8
 71
     3
 72
     8
 73
     4
 74
     0
 42
0.0000000001
 43
0.0000000001
 40
0.0
 40
0.0
 40
0.0
 40
0.0
 40
1.0
 40
1.0
 40
1.0
 40
1.0
 10
462.5037592381777
 20
377.0677640180402
 30
0.0
 10
462.5037592381777
 20
377.3439805418821
 30
0.0
 10
462.2798415035122
 20
377.5678982765466
 30
0.0
 10
462.0036249796721
 20
377.5678982765466
 30
0.0
  0
SPLINE
  5
21A
330
70
100
AcDbEntity
  8
Right$1
 62
     7
370
    35
100
AcDbSpline
210
0.0
220
0.0
230
1.0
 70
     8
 71
     3
 72
     8
 73
     4
 74
     0
 42
0.0000000001
 43
0.0000000001
 40
0.0
 40
0.0
 40
0.0
 40
0.0
 40
1.0
 40
1.0
 40
1.0
 40
1.0
 10
413.0904944977491
 20
377.5678982765466
 30
0.0
 10
412.8142779739082
 20
377.5678982765466
 30
0.0
 10
412.5903602392427
 20
377.3439805418821
 30
0.0
 10
412.5903602392427
 20
377.0677640180402
 30
0.0
  0
SPLINE
  5
21B
330
70
100
AcDbEntity
  8
Right$1
 62
     7
370
    35
100
AcDbSpline
210
0.0
220
0.0
230
1.0
 70
     8
 71
     3
 72
     8
 73
     4
 74
     0
 42
0.0000000001
 43
0.0000000001
 40
0.0
 40
0.0
 40
0.0
 40
0.0
 40
1.0
 40
1.0
 40
1.0
 40
1.0
 10
461.5034907211647
 20
374.0669584670022
 30
0.0
 10
462.0559237688467
 20
374.0669584670022
 30
0.0
 10
462.5037592381777
 20
374.5147939363333
 30
0.0
 10
462.5037592381777
 20
375.0672269840152
 30
0.0
  0
SPLINE
  5
21C
330
70
100
AcDbEntity
  8
Right$1
 62
     7
370
    35
100
AcDbSpline
210
0.0
220
0.0
230
1.0
 70
     8
 71
     3
 72
     8
 73
     4
 74
     0
 42
0.0000000001
 43
0.0000000001
 40
0.0
 40
0.0
 40
0.0
 40
0.0
 40
1.0
 40
1.0
 40
1.0
 40
1.0
 10
412.5903602392427
 20
375.0672269840152
 30
0.0
 10
412.5903602392427
 20
374.5147939363333
 30
0.0
 10
413.0381957085737
 20
374.0669584670022
 30
0.0
 10
413.5906287562557
 20
374.0669584670022
 30
0.0
  0
SPLINE
  5
21D
330
70
100
AcDbEntity
  8
Right$1
 62
     7
370
    35
100
AcDbSpline
210
0.0
220
0.0
230
1.0
 70
     8
 71
     3
 72
     8
 73
     4
 74
     0
 42
0.0000000001
 43
0.0000000001
 40
0.0
 40
0.0
 40
0.0
 40
0.0
 40
1.0
 40
1.0
 40
1.0
 40
1.0
 10
424.043434759038
 20
420.2293505271399
 30
0.0
 10
424.043434759038
 20
418.7101596460151
 30
0.0
 10
422.8118872183785
 20
417.4786121053548
 30
0.0
 10
421.2926963372537
 20
417.4786121053548
 30
0.0
  0
SPLINE
  5
21E
330
70
100
AcDbEntity
  8
Right$1
 62
     7
370
    35
100
AcDbSpline
210
0.0
220
0.0
230
1.0
 70
     8
 71
     3
 72
     8
 73
     4
 74
     0
 42
0.0000000001
 43
0.0000000001
 40
0.0
 40
0.0
 40
0.0
 40
0.0
 40
1.0
 40
1.0
 40
1.0
 40
1.0
 10
453.8014231401667
 20
417.4786121053548
 30
0.0
 10
452.2822322590418
 20
417.4786121053548
 30
0.0
 10
451.0506847183823
 20
418.7101596460151
 30
0.0
 10
451.0506847183823
 20
420.2293505271399
 30
0.0
  0
SPLINE
  5
21F
330
70
100
AcDbEntity
  8
Right$1
 62
     7
370
    35
100
AcDbSpline
210
0.0
220
0.0
230
1.0
 70
     8
 71
     3
 72
     8
 73
     4
 74
     0
 42
0.0000000001
 43
0.0000000001
 40
0.0
 40
0.0
 40
0.0
 40
0.0
 40
1.0
 40
1.0
 40
1.0
 40
1.0
 10
428.2695692434172
 20
330.9553853837533
 30
0.0
 10
428.2695692434172
 20
329.7952759836207
 30
0.0
 10
427.3291147578229
 20
328.8548214980265
 30
0.0
 10
426.1690053576903
 20
328.8548214980265
 30
0.0
  0
SPLINE
  5
220
330
70
100
AcDbEntity
  8
Right$1
 62
     7
370
    35
100
AcDbSpline
210
0.0
220
0.0
230
1.0
 70
     8
 71
     3
 72
     8
 73
     4
 74
     0
 42
0.0000000001
 43
0.0000000001
 40
0.0
 40
0.0
 40
0.0
 40
0.0
 40
1.0
 40
1.0
 40
1.0
 40
1.0
 10
448.925114119731
 20
328.8548214980265
 30
0.0
 10
447.7650047195984
 20
328.8548214980265
 30
0.0
 10
446.8245502340032
 20
329.7952759836207
 30
0.0
 10
446.8245502340032
 20
330.9553853837533
 30
0.0
  0
SPLINE
  5
221
330
70
100
AcDbEntity
  8
Right$1
 62
     7
370
    35
100
AcDbSpline
210
0.0
220
0.0
230
1.0
 70
     8
 71
     3
 72
     8
 73
     4
 74
     0
 42
0.0000000001
 43
0.0000000001
 40
0.0
 40
0.0
 40
0.0
 40
0.0
 40
1.0
 40
1.0
 40
1.0
 40
1.0
 10
405.5384671943029
 20
165.8110532249502
 30
0.0
 10
405.5384671943029
 20
163.0488879865406
 30
0.0
 10
407.7776445409563
 20
160.8097106398872
 30
0.0
 10
410.5398097793668
 20
160.8097106398872
 30
0.0
  0
SPLINE
  5
222
330
70
100
AcDbEntity
  8
Right$1
 62
     7
370
    35
100
AcDbSpline
210
0.0
220
0.0
230
1.0
 70
     8
 71
     3
 72
     8
 73
     4
 74
     0
 42
0.0000000001
 43
0.0000000001
 40
0.0
 40
0.0
 40
0.0
 40
0.0
 40
1.0
 40
1.0
 40
1.0
 40
1.0
 10
459.8530476680953
 20
361.563602004343
 30
0.0
 10
460.4054807157772
 20
361.563602004343
 30
0.0
 10
460.8533161851064
 20
362.011437473674
 30
0.0
 10
460.8533161851064
 20
362.563870521356
 30
0.0
  0
SPLINE
  5
223
330
70
100
AcDbEntity
  8
Right$1
 62
     7
370
    35
100
AcDbSpline
210
0.0
220
0.0
230
1.0
 70
     8
 71
     3
 72
    11
 73
     7
 74
     0
 42
0.0000000001
 43
0.0000000001
 40
0.0
 40
0.0
 40
0.0
 40
0.0
 40
1.0
 40
1.0
 40
1.0
 40
2.0
 40
2.0
 40
2.0
 40
2.0
 10
452.544285170159
 20
362.721221342229
 30
0.0
 10
452.4573827114181
 20
362.1756663634815
 30
0.0
 10
452.8291940420731
 20
361.6629583085633
 30
0.0
 10
453.3747490208206
 20
361.5760558498223
 30
0.0
 10
453.4267889416005
 20
361.5677663148626
 30
0.0
 10
453.4794025546544
 20
361.5636020714837
 30
0.0
 10
453.5320985672606
 20
361.5636020043439
 30
0.0
  0
SPLINE
  5
224
330
70
100
AcDbEntity
  8
Right$1
 62
     7
370
    35
100
AcDbSpline
210
0.0
220
0.0
230
1.0
 70
     8
 71
     3
 72
     8
 73
     4
 74
     0
 42
0.0000000001
 43
0.0000000001
 40
0.0
 40
0.0
 40
0.0
 40
0.0
 40
1.0
 40
1.0
 40
1.0
 40
1.0
 10
415.2410718093261
 20
361.563602004343
 30
0.0
 10
414.6886387616441
 20
361.563602004343
 30
0.0
 10
414.240803292314
 20
362.011437473674
 30
0.0
 10
414.240803292314
 20
362.563870521356
 30
0.0
  0
SPLINE
  5
225
330
70
100
AcDbEntity
  8
Right$1
 62
     7
370
    35
100
AcDbSpline
210
0.0
220
0.0
230
1.0
 70
     8
 71
     3
 72
     8
 73
     4
 74
     0
 42
0.0000000001
 43
0.0000000001
 40
0.0
 40
0.0
 40
0.0
 40
0.0
 40
1.0
 40
1.0
 40
1.0
 40
1.0
 10
460.5532356300027
 20
416.4783435883427
 30
0.0
 10
460.5532356300027
 20
417.0307766360247
 30
0.0
 10
460.1054001606735
 20
417.4786121053548
 30
0.0
 10
459.5529671129916
 20
417.4786121053548
 30
0.0
  0
SPLINE
  5
226
330
70
100
AcDbEntity
  8
Right$1
 62
     7
370
    35
100
AcDbSpline
210
0.0
220
0.0
230
1.0
 70
     8
 71
     3
 72
     8
 73
     4
 74
     0
 42
0.0000000001
 43
0.0000000001
 40
0.0
 40
0.0
 40
0.0
 40
0.0
 40
1.0
 40
1.0
 40
1.0
 40
1.0
 10
415.5411523644306
 20
417.4786121053548
 30
0.0
 10
414.9887193167487
 20
417.4786121053548
 30
0.0
 10
414.5408838474176
 20
417.0307766360247
 30
0.0
 10
414.5408838474176
 20
416.4783435883427
 30
0.0
  0
SPLINE
  5
227
330
70
100
AcDbEntity
  8
Right$1
 62
     7
370
    35
100
AcDbSpline
210
0.0
220
0.0
230
1.0
 70
     8
 71
     3
 72
     8
 73
     4
 74
     0
 42
0.0000000001
 43
0.0000000001
 40
0.0
 40
0.0
 40
0.0
 40
0.0
 40
1.0
 40
1.0
 40
1.0
 40
1.0
 10
420.0886229429015
 20
467.6423768996264
 30
0.0
 10
419.8953106913722
 20
467.3485426531806
 30
0.0
 10
419.792293641538
 20
467.0045228277204
 30
0.0
 10
419.7922935617343
 20
466.6528010755127
 30
0.0
  0
SPLINE
  5
228
330
70
100
AcDbEntity
  8
Right$1
 62
     7
370
    35
100
AcDbSpline
210
0.0
220
0.0
230
1.0
 70
     8
 71
     3
 72
     8
 73
     4
 74
     0
 42
0.0000000001
 43
0.0000000001
 40
0.0
 40
0.0
 40
0.0
 40
0.0
 40
1.0
 40
1.0
 40
1.0
 40
1.0
 10
421.7594738196839
 20
470.1820711925929
 30
0.0
 10
422.0924802410999
 20
470.6882399208398
 30
0.0
 10
422.657739597329
 20
470.992977765537
 30
0.0
 10
423.263627423712
 20
470.992977765537
 30
0.0
  0
SPLINE
  5
229
330
70
100
AcDbEntity
  8
Right$1
 62
     7
370
    35
100
AcDbSpline
210
0.0
220
0.0
230
1.0
 70
     8
 71
     3
 72
     8
 73
     4
 74
     0
 42
0.0000000001
 43
0.0000000001
 40
0.0
 40
0.0
 40
0.0
 40
0.0
 40
1.0
 40
1.0
 40
1.0
 40
1.0
 10
451.8304920537084
 20
470.992977765537
 30
0.0
 10
452.4363798800914
 20
470.992977765537
 30
0.0
 10
453.0016392363213
 20
470.6882399208398
 30
0.0
 10
453.3346456577365
 20
470.1820711925929
 30
0.0
  0
SPLINE
  5
22A
330
70
100
AcDbEntity
  8
Right$1
 62
     7
370
    35
100
AcDbSpline
210
0.0
220
0.0
230
1.0
 70
     8
 71
     3
 72
     8
 73
     4
 74
     0
 42
0.0000000001
 43
0.0000000001
 40
0.0
 40
0.0
 40
0.0
 40
0.0
 40
1.0
 40
1.0
 40
1.0
 40
1.0
 10
455.3018259156869
 20
466.6528010755127
 30
0.0
 10
455.3018258358824
 20
467.0045228277204
 30
0.0
 10
455.1988087860482
 20
467.3485426531806
 30
0.0
 10
455.0054965345188
 20
467.6423768996264
 30
0.0
  0
SPLINE
  5
22B
330
70
100
AcDbEntity
  8
Right$1
 62
     7
370
    35
100
AcDbSpline
210
0.0
220
0.0
230
1.0
 70
     8
 71
     3
 72
     8
 73
     4
 74
     0
 42
0.0000000001
 43
0.0000000001
 40
0.0
 40
0.0
 40
0.0
 40
0.0
 40
1.0
 40
1.0
 40
1.0
 40
1.0
 10
410.5398097793668
 20
328.8548214980265
 30
0.0
 10
407.7776445409563
 20
328.8548214980265
 30
0.0
 10
405.5384671943029
 20
326.6156441513731
 30
0.0
 10
405.5384671943029
 20
323.8534789129626
 30
0.0
  0
SPLINE
  5
22C
330
70
100
AcDbEntity
  8
Right$1
 62
     7
370
    35
100
AcDbSpline
210
0.0
220
0.0
230
1.0
 70
     8
 71
     3
 72
     8
 73
     4
 74
     0
 42
0.0000000001
 43
0.0000000001
 40
0.0
 40
0.0
 40
0.0
 40
0.0
 40
1.0
 40
1.0
 40
1.0
 40
1.0
 10
469.5556522831175
 20
323.8534789129626
 30
0.0
 10
469.5556522831175
 20
326.6156441513731
 30
0.0
 10
467.3164749364641
 20
328.8548214980265
 30
0.0
 10
464.5543096980545
 20
328.8548214980265
 30
0.0
  0
SPLINE
  5
22D
330
70
100
AcDbEntity
  8
Right$1
 62
     7
370
    35
100
AcDbSpline
210
0.0
220
0.0
230
1.0
 70
     8
 71
     3
 72
     8
 73
     4
 74
     0
 42
0.0000000001
 43
0.0000000001
 40
0.0
 40
0.0
 40
0.0
 40
0.0
 40
1.0
 40
1.0
 40
1.0
 40
1.0
 10
464.5543096980545
 20
160.8097106398872
 30
0.0
 10
467.3164749364641
 20
160.8097106398872
 30
0.0
 10
469.5556522831175
 20
163.0488879865406
 30
0.0
 10
469.5556522831175
 20
165.8110532249502
 30
0.0
  0
SPLINE
  5
22E
330
70
100
AcDbEntity
  8
Right$1
 62
     7
370
    35
100
AcDbSpline
210
0.0
220
0.0
230
1.0
 70
     8
 71
     3
 72
    11
 73
     7
 74
     0
 42
0.0000000001
 43
0.0000000001
 40
0.0
 40
0.0
 40
0.0
 40
0.0
 40
1.0
 40
1.0
 40
1.0
 40
2.0
 40
2.0
 40
2.0
 40
2.0
 10
452.4872164759326
 20
362.7212213405655
 30
0.0
 10
452.4006446819621
 20
362.1756663616725
 30
0.0
 10
452.771041271364
 20
361.66295830738
 30
0.0
 10
453.3145204135617
 20
361.5760558495567
 30
0.0
 10
453.3663623200919
 20
361.5677663150636
 30
0.0
 10
453.4187757359377
 20
361.5636020717748
 30
0.0
 10
453.4712712378205
 20
361.5636020043439
 30
0.0
  0
SPLINE
  5
22F
330
70
100
AcDbEntity
  8
Right$1
 62
     7
370
    35
100
AcDbSpline
210
0.0
220
0.0
230
1.0
 70
     8
 71
     3
 72
    11
 73
     7
 74
     0
 42
0.0000000001
 43
0.0000000001
 40
0.0
 40
0.0
 40
0.0
 40
0.0
 40
1.0
 40
1.0
 40
1.0
 40
2.0
 40
2.0
 40
2.0
 40
2.0
 10
421.6228482395963
 20
361.5636020043439
 30
0.0
 10
422.1731792795317
 20
361.5636027112414
 30
0.0
 10
422.6193101640283
 20
362.0114387536251
 30
0.0
 10
422.6193094598202
 20
362.563871801307
 30
0.0
 10
422.6193093926467
 20
362.6165678115094
 30
0.0
 10
422.6151609943026
 20
362.6691814221458
 30
0.0
 10
422.6069030014878
 20
362.7212213405664
 30
0.0
  0
SPLINE
  5
230
330
70
100
AcDbEntity
  8
Right$1
 62
     7
370
    35
100
AcDbSpline
210
0.0
220
0.0
230
1.0
 70
     8
 71
     3
 72
     8
 73
     4
 74
     0
 42
0.0000000001
 43
0.0000000001
 40
0.0
 40
0.0
 40
0.0
 40
0.0
 40
1.0
 40
1.0
 40
1.0
 40
1.0
 10
414.329490099838
 20
362.563870521356
 30
0.0
 10
414.329490099838
 20
362.011437473674
 30
0.0
 10
414.7756215552071
 20
361.563602004343
 30
0.0
 10
415.3259525951434
 20
361.563602004343
 30
0.0
  0
SPLINE
  5
231
330
70
100
AcDbEntity
  8
Right$1
 62
     7
370
    35
100
AcDbSpline
210
0.0
220
0.0
230
1.0
 70
     8
 71
     3
 72
     8
 73
     4
 74
     0
 42
0.0000000001
 43
0.0000000001
 40
0.0
 40
0.0
 40
0.0
 40
0.0
 40
1.0
 40
1.0
 40
1.0
 40
1.0
 10
439.491154621126
 20
361.563602004343
 30
0.0
 10
439.5393024758305
 20
361.563602004343
 30
0.0
 10
439.578334023995
 20
362.011437473674
 30
0.0
 10
439.578334023995
 20
362.563870521356
 30
0.0
  0
LINE
  5
233
330
70
100
AcDbEntity
  8
ORTHO$2
 62
     7
370
    35
100
AcDbLine
 10
458.302631466724
 20
470.992977765537
 30
0.0
 11
416.7914880106963
 21
470.992977765537
 31
0.0
  0
LINE
  5
234
330
70
100
AcDbEntity
  8
ORTHO$2
 62
     7
370
    35
100
AcDbLine
 10
460.5532356300027
 20
470.992977765537
 30
0.0
 11
460.5532356300027
 21
470.992977765537
 31
0.0
  0
LINE
  5
235
330
70
100
AcDbEntity
  8
ORTHO$2
 62
     7
370
    35
100
AcDbLine
 10
416.7914880106963
 20
470.992977765537
 30
0.0
 11
458.302631466724
 21
470.992977765537
 31
0.0
  0
LINE
  5
236
330
70
100
AcDbEntity
  8
ORTHO$2
 62
     7
370
    35
100
AcDbLine
 10
414.5408838474176
 20
470.992977765537
 30
0.0
 11
414.5408838474176
 21
470.992977765537
 31
0.0
  0
LINE
  5
237
330
70
100
AcDbEntity
  8
ORTHO$2
 62
     7
370
    35
100
AcDbLine
 10
414.5408838474176
 20
470.992977765537
 30
0.0
 11
414.5408838474176
 21
470.992977765537
 31
0.0
  0
LINE
  5
238
330
70
100
AcDbEntity
  8
ORTHO$2
 62
     7
370
    35
100
AcDbLine
 10
347.7729603368171
 20
470.992977765537
 30
0.0
 11
347.7729603368171
 21
470.992977765537
 31
0.0
  0
LINE
  5
239
330
70
100
AcDbEntity
  8
ORTHO$2
 62
     7
370
    35
100
AcDbLine
 10
347.7729603368171
 20
470.992977765537
 30
0.0
 11
419.7922935617343
 21
470.992977765537
 31
0.0
  0
LINE
  5
23A
330
70
100
AcDbEntity
  8
ORTHO$2
 62
     7
370
    35
100
AcDbLine
 10
347.7729603368171
 20
470.992977765537
 30
0.0
 11
347.7729603368171
 21
470.992977765537
 31
0.0
  0
LINE
  5
23B
330
70
100
AcDbEntity
  8
ORTHO$2
 62
     7
370
    35
100
AcDbLine
 10
419.7922935617343
 20
470.992977765537
 30
0.0
 11
347.7729603368171
 21
470.992977765537
 31
0.0
  0
LINE
  5
23C
330
70
100
AcDbEntity
  8
ORTHO$2
 62
     7
370
    35
100
AcDbLine
 10
347.7729603368171
 20
470.992977765537
 30
0.0
 11
347.7729603368171
 21
470.992977765537
 31
0.0
  0
LINE
  5
23D
330
70
100
AcDbEntity
  8
ORTHO$2
 62
     7
370
    35
100
AcDbLine
 10
423.2932333712787
 20
470.992977765537
 30
0.0
 11
451.8008861061425
 21
470.992977765537
 31
0.0
  0
LINE
  5
23E
330
70
100
AcDbEntity
  8
ORTHO$2
 62
     7
370
    35
100
AcDbLine
 10
419.7922935617343
 20
470.992977765537
 30
0.0
 11
419.7922935617343
 21
470.992977765537
 31
0.0
  0
LINE
  5
23F
330
70
100
AcDbEntity
  8
ORTHO$2
 62
     7
370
    35
100
AcDbLine
 10
451.8008861061425
 20
470.992977765537
 30
0.0
 11
423.2932333712787
 21
470.992977765537
 31
0.0
  0
LINE
  5
240
330
70
100
AcDbEntity
  8
ORTHO$2
 62
     7
370
    35
100
AcDbLine
 10
455.3018259156869
 20
470.992977765537
 30
0.0
 11
455.3018259156869
 21
470.992977765537
 31
0.0
  0
LINE
  5
241
330
70
100
AcDbEntity
  8
ORTHO$2
 62
     7
370
    35
100
AcDbLine
 10
460.5532356300027
 20
470.992977765537
 30
0.0
 11
458.302631466724
 21
470.992977765537
 31
0.0
  0
LINE
  5
242
330
70
100
AcDbEntity
  8
ORTHO$2
 62
     7
370
    35
100
AcDbLine
 10
460.5532356300027
 20
470.992977765537
 30
0.0
 11
458.302631466724
 21
470.992977765537
 31
0.0
  0
LINE
  5
243
330
70
100
AcDbEntity
  8
ORTHO$2
 62
     7
370
    35
100
AcDbLine
 10
416.7914880106963
 20
470.992977765537
 30
0.0
 11
414.5408838474176
 21
470.992977765537
 31
0.0
  0
LINE
  5
244
330
70
100
AcDbEntity
  8
ORTHO$2
 62
     7
370
    35
100
AcDbLine
 10
416.7914880106963
 20
470.992977765537
 30
0.0
 11
414.5408838474176
 21
470.992977765537
 31
0.0
  0
LINE
  5
245
330
70
100
AcDbEntity
  8
ORTHO$2
 62
     7
370
    35
100
AcDbLine
 10
412.9133145575661
 20
470.992977765537
 30
0.0
 11
414.5414531762144
 21
470.992977765537
 31
0.0
  0
LINE
  5
246
330
70
100
AcDbEntity
  8
ORTHO$2
 62
     7
370
    35
100
AcDbLine
 10
427.8754477710718
 20
470.992977765537
 30
0.0
 11
447.2206793610857
 21
470.992977765537
 31
0.0
  0
LINE
  5
247
330
70
100
AcDbEntity
  8
ORTHO$2
 62
     7
370
    35
100
AcDbLine
 10
460.5535103961719
 20
470.992977765537
 30
0.0
 11
462.5037592381777
 21
470.992977765537
 31
0.0
  0
LINE
  5
248
330
70
100
AcDbEntity
  8
ORTHO$2
 62
     7
370
    35
100
AcDbLine
 10
427.8756987330934
 20
470.992977765537
 30
0.0
 11
447.2209303127474
 21
470.992977765537
 31
0.0
  0
LINE
  5
249
330
70
100
AcDbEntity
  8
ORTHO$2
 62
     7
370
    35
100
AcDbLine
 10
412.9133582133217
 20
470.992977765537
 30
0.0
 11
414.5415587004045
 21
470.992977765537
 31
0.0
  0
LINE
  5
24A
330
70
100
AcDbEntity
  8
ORTHO$2
 62
     7
370
    35
100
AcDbLine
 10
469.5556522831175
 20
470.992977765537
 30
0.0
 11
405.7896843292946
 21
470.992977765537
 31
0.0
  0
LINE
  5
24B
330
70
100
AcDbEntity
  8
ORTHO$2
 62
     7
370
    35
100
AcDbLine
 10
437.5470597387102
 20
470.992977765537
 30
0.0
 11
405.7892915488882
 21
470.992977765537
 31
0.0
  0
LINE
  5
24C
330
70
100
AcDbEntity
  8
ORTHO$2
 62
     7
370
    35
100
AcDbLine
 10
455.3018259156869
 20
470.992977765537
 30
0.0
 11
451.8008861061425
 21
470.992977765537
 31
0.0
  0
LINE
  5
24D
330
70
100
AcDbEntity
  8
ORTHO$2
 62
     7
370
    35
100
AcDbLine
 10
423.2932333712787
 20
470.992977765537
 30
0.0
 11
419.7922935617343
 21
470.992977765537
 31
0.0
  0
LINE
  5
24E
330
70
100
AcDbEntity
  8
ORTHO$2
 62
     7
370
    35
100
AcDbLine
 10
423.2932333712787
 20
470.992977765537
 30
0.0
 11
419.7922935617343
 21
470.992977765537
 31
0.0
  0
LINE
  5
24F
330
70
100
AcDbEntity
  8
ORTHO$2
 62
     7
370
    35
100
AcDbLine
 10
455.3018259156869
 20
470.992977765537
 30
0.0
 11
451.8008861061425
 21
470.992977765537
 31
0.0
  0
LINE
  5
251
330
70
100
AcDbEntity
  8
Right$1_0
 62
     7
370
    25
100
AcDbLine
 10
451.8008861061425
 20
85.36029762743783
 30
0.0
 11
451.8008861061425
 21
85.36029762743783
 31
0.0
  0
LINE
  5
252
330
70
100
AcDbEntity
  8
Right$1_0
 62
     7
370
    25
100
AcDbLine
 10
437.5470597387102
 20
85.36029762743783
 30
0.0
 11
437.5470597387102
 21
85.36029762743783
 31
0.0
  0
LINE
  5
253
330
70
100
AcDbEntity
  8
Right$1_0
 62
     7
370
    35
100
AcDbLine
 10
462.5037592381777
 20
85.36029762743783
 30
0.0
 11
462.5037592381777
 21
85.36029762743783
 31
0.0
  0
LINE
  5
254
330
70
100
AcDbEntity
  8
Right$1_0
 62
     7
370
    35
100
AcDbLine
 10
412.5903602392427
 20
85.36029762743783
 30
0.0
 11
412.5903602392427
 21
85.36029762743783
 31
0.0
  0
LINE
  5
255
330
70
100
AcDbEntity
  8
Right$1_0
 62
     7
370
    35
100
AcDbLine
 10
451.0506847183823
 20
85.36029762743783
 30
0.0
 11
451.0506847183823
 21
85.36029762743783
 31
0.0
  0
LINE
  5
256
330
70
100
AcDbEntity
  8
Right$1_0
 62
     7
370
    35
100
AcDbLine
 10
424.0434347590389
 20
85.36029762743783
 30
0.0
 11
424.0434347590389
 21
85.36029762743783
 31
0.0
  0
LINE
  5
257
330
70
100
AcDbEntity
  8
Right$1_0
 62
     7
370
    35
100
AcDbLine
 10
450.3004833306222
 20
85.36029762743783
 30
0.0
 11
450.3004833306222
 21
85.36029762743783
 31
0.0
  0
LINE
  5
258
330
70
100
AcDbEntity
  8
Right$1_0
 62
     7
370
    35
100
AcDbLine
 10
450.3004833306222
 20
85.36029762743783
 30
0.0
 11
450.3004833306222
 21
85.36029762743783
 31
0.0
  0
LINE
  5
259
330
70
100
AcDbEntity
  8
Right$1_0
 62
     7
370
    35
100
AcDbLine
 10
424.7936361467982
 20
85.36029762743783
 30
0.0
 11
424.7936361467982
 21
85.36029762743783
 31
0.0
  0
LINE
  5
25A
330
70
100
AcDbEntity
  8
Right$1_0
 62
     7
370
    35
100
AcDbLine
 10
424.7936361467982
 20
85.36029762743783
 30
0.0
 11
424.7936361467982
 21
85.36029762743783
 31
0.0
  0
LINE
  5
25B
330
70
100
AcDbEntity
  8
Right$1_0
 62
     7
370
    35
100
AcDbLine
 10
459.8030342422443
 20
85.36029762743783
 30
0.0
 11
459.8030342422443
 21
85.36029762743783
 31
0.0
  0
LINE
  5
25C
330
70
100
AcDbEntity
  8
Right$1_0
 62
     7
370
    35
100
AcDbLine
 10
415.2910852351769
 20
85.36029762743783
 30
0.0
 11
415.2910852351769
 21
85.36029762743783
 31
0.0
  0
LINE
  5
25D
330
70
100
AcDbEntity
  8
Right$1_0
 62
     7
370
    35
100
AcDbLine
 10
469.5556522831175
 20
85.36029762743783
 30
0.0
 11
469.5556522831175
 21
85.36029762743783
 31
0.0
  0
LINE
  5
25E
330
70
100
AcDbEntity
  8
Right$1_0
 62
     7
370
    35
100
AcDbLine
 10
449.2001879619092
 20
85.36029762743783
 30
0.0
 11
449.2001879619092
 21
85.36029762743783
 31
0.0
  0
LINE
  5
25F
330
70
100
AcDbEntity
  8
Right$1_0
 62
     7
370
    35
100
AcDbLine
 10
425.8939315155121
 20
85.36029762743783
 30
0.0
 11
425.8939315155121
 21
85.36029762743783
 31
0.0
  0
LINE
  5
260
330
70
100
AcDbEntity
  8
Right$1_0
 62
     7
370
    35
100
AcDbLine
 10
405.5384671943029
 20
85.36029762743783
 30
0.0
 11
405.5384671943029
 21
85.36029762743783
 31
0.0
  0
LINE
  5
261
330
70
100
AcDbEntity
  8
Right$1_0
 62
     7
370
    35
100
AcDbLine
 10
453.5320988414241
 20
85.36029762743783
 30
0.0
 11
459.8530476680953
 21
85.36029762743783
 31
0.0
  0
LINE
  5
262
330
70
100
AcDbEntity
  8
Right$1_0
 62
     7
370
    35
100
AcDbLine
 10
460.8533161851064
 20
85.36029762743783
 30
0.0
 11
460.8533161851064
 21
85.36029762743783
 31
0.0
  0
LINE
  5
263
330
70
100
AcDbEntity
  8
Right$1_0
 62
     7
370
    35
100
AcDbLine
 10
452.5510874939008
 20
85.36029762743783
 30
0.0
 11
452.5442856679855
 21
85.36029762743783
 31
0.0
  0
LINE
  5
264
330
70
100
AcDbEntity
  8
Right$1_0
 62
     7
370
    35
100
AcDbLine
 10
452.4939921669502
 20
85.36029762743783
 30
0.0
 11
452.4872163480158
 21
85.36029762743783
 31
0.0
  0
LINE
  5
265
330
70
100
AcDbEntity
  8
Right$1_0
 62
     7
370
    35
100
AcDbLine
 10
415.2410718093261
 20
85.36029762743783
 30
0.0
 11
415.3259525951434
 21
85.36029762743783
 31
0.0
  0
LINE
  5
266
330
70
100
AcDbEntity
  8
Right$1_0
 62
     7
370
    35
100
AcDbLine
 10
421.6228489650529
 20
85.36029762743783
 30
0.0
 11
415.3259525951434
 21
85.36029762743783
 31
0.0
  0
LINE
  5
267
330
70
100
AcDbEntity
  8
Right$1_0
 62
     7
370
    35
100
AcDbLine
 10
422.6001273104702
 20
85.36029762743783
 30
0.0
 11
422.6069031294046
 21
85.36029762743783
 31
0.0
  0
LINE
  5
268
330
70
100
AcDbEntity
  8
Right$1_0
 62
     7
370
    35
100
AcDbLine
 10
414.3294911001057
 20
85.36029762743783
 30
0.0
 11
414.3294911001057
 21
85.36029762743783
 31
0.0
  0
LINE
  5
269
330
70
100
AcDbEntity
  8
Right$1_0
 62
     7
370
    35
100
AcDbLine
 10
414.240803292314
 20
85.36029762743783
 30
0.0
 11
414.240803292314
 21
85.36029762743783
 31
0.0
  0
LINE
  5
26A
330
70
100
AcDbEntity
  8
Right$1_0
 62
     7
370
    35
100
AcDbLine
 10
452.5510874939008
 20
85.36029762743783
 30
0.0
 11
439.5784350511157
 21
85.36029762743783
 31
0.0
  0
LINE
  5
26B
330
70
100
AcDbEntity
  8
Right$1_0
 62
     7
370
    35
100
AcDbLine
 10
452.5510874939008
 20
85.36029762743783
 30
0.0
 11
454.351570824525
 21
85.36029762743783
 31
0.0
  0
LINE
  5
26C
330
70
100
AcDbEntity
  8
Right$1_0
 62
     7
370
    35
100
AcDbLine
 10
422.6001273104702
 20
85.36029762743783
 30
0.0
 11
420.8064948189202
 21
85.36029762743783
 31
0.0
  0
LINE
  5
26D
330
70
100
AcDbEntity
  8
Right$1_0
 62
     7
370
    35
100
AcDbLine
 10
437.5470597387102
 20
85.36029762743783
 30
0.0
 11
422.6001273104702
 21
85.36029762743783
 31
0.0
  0
LINE
  5
26E
330
70
100
AcDbEntity
  8
Right$1_0
 62
     7
370
    35
100
AcDbLine
 10
437.5470597387102
 20
85.36029762743783
 30
0.0
 11
437.5470597387102
 21
85.36029762743783
 31
0.0
  0
LINE
  5
26F
330
70
100
AcDbEntity
  8
Right$1_0
 62
     7
370
    35
100
AcDbLine
 10
437.5470597387102
 20
85.36029762743783
 30
0.0
 11
439.491154621126
 21
85.36029762743783
 31
0.0
  0
LINE
  5
270
330
70
100
AcDbEntity
  8
Right$1_0
 62
     7
370
    35
100
AcDbLine
 10
439.578334023995
 20
85.36029762743783
 30
0.0
 11
439.578334023995
 21
85.36029762743783
 31
0.0
  0
LINE
  5
271
330
70
100
AcDbEntity
  8
Right$1_0
 62
     7
370
    35
100
AcDbLine
 10
437.5470597387102
 20
85.36029762743783
 30
0.0
 11
437.5470597387102
 21
85.36029762743783
 31
0.0
  0
LINE
  5
272
330
70
100
AcDbEntity
  8
Right$1_0
 62
     7
370
    35
100
AcDbLine
 10
462.0036249796721
 20
85.36029762743783
 30
0.0
 11
413.1137717464079
 21
85.36029762743783
 31
0.0
  0
LINE
  5
273
330
70
100
AcDbEntity
  8
Right$1_0
 62
     7
370
    35
100
AcDbLine
 10
413.1137717464079
 20
85.36029762743783
 30
0.0
 11
413.0904944977491
 21
85.36029762743783
 31
0.0
  0
LINE
  5
274
330
70
100
AcDbEntity
  8
Right$1_0
 62
     7
370
    35
100
AcDbLine
 10
461.5034907211647
 20
85.36029762743783
 30
0.0
 11
413.6134298771012
 21
85.36029762743783
 31
0.0
  0
LINE
  5
275
330
70
100
AcDbEntity
  8
Right$1_0
 62
     7
370
    35
100
AcDbLine
 10
413.6134298771012
 20
85.36029762743783
 30
0.0
 11
413.5906287562557
 21
85.36029762743783
 31
0.0
  0
LINE
  5
276
330
70
100
AcDbEntity
  8
Right$1_0
 62
     7
370
    35
100
AcDbLine
 10
458.302631466724
 20
85.36029762743783
 30
0.0
 11
459.5529671129916
 21
85.36029762743783
 31
0.0
  0
LINE
  5
277
330
70
100
AcDbEntity
  8
Right$1_0
 62
     7
370
    35
100
AcDbLine
 10
458.302631466724
 20
85.36029762743783
 30
0.0
 11
416.7914880106963
 21
85.36029762743783
 31
0.0
  0
LINE
  5
278
330
70
100
AcDbEntity
  8
Right$1_0
 62
     7
370
    35
100
AcDbLine
 10
415.5411523644306
 20
85.36029762743783
 30
0.0
 11
416.7914880106963
 21
85.36029762743783
 31
0.0
  0
LINE
  5
279
330
70
100
AcDbEntity
  8
Right$1_0
 62
     7
370
    35
100
AcDbLine
 10
460.5532356300027
 20
85.36029762743783
 30
0.0
 11
458.302631466724
 21
85.36029762743783
 31
0.0
  0
LINE
  5
27A
330
70
100
AcDbEntity
  8
Right$1_0
 62
     7
370
    35
100
AcDbLine
 10
460.5532356300027
 20
85.36029762743783
 30
0.0
 11
460.5532356300027
 21
85.36029762743783
 31
0.0
  0
LINE
  5
27B
330
70
100
AcDbEntity
  8
Right$1_0
 62
     7
370
    35
100
AcDbLine
 10
416.7914880106963
 20
85.36029762743783
 30
0.0
 11
414.5408838474176
 21
85.36029762743783
 31
0.0
  0
LINE
  5
27C
330
70
100
AcDbEntity
  8
Right$1_0
 62
     7
370
    35
100
AcDbLine
 10
414.5408838474176
 20
85.36029762743783
 30
0.0
 11
414.5408838474176
 21
85.36029762743783
 31
0.0
  0
LINE
  5
27D
330
70
100
AcDbEntity
  8
Right$1_0
 62
     7
370
    35
100
AcDbLine
 10
416.7914880106963
 20
85.36029762743783
 30
0.0
 11
458.302631466724
 21
85.36029762743783
 31
0.0
  0
LINE
  5
27E
330
70
100
AcDbEntity
  8
Right$1_0
 62
     7
370
    35
100
AcDbLine
 10
424.7936361467982
 20
85.36029762743783
 30
0.0
 11
437.5470597387102
 21
85.36029762743783
 31
0.0
  0
LINE
  5
27F
330
70
100
AcDbEntity
  8
Right$1_0
 62
     7
370
    35
100
AcDbLine
 10
437.5470597387102
 20
85.36029762743783
 30
0.0
 11
450.3004833306222
 21
85.36029762743783
 31
0.0
  0
LINE
  5
280
330
70
100
AcDbEntity
  8
Right$1_0
 62
     7
370
    35
100
AcDbLine
 10
459.8030342422443
 20
85.36029762743783
 30
0.0
 11
415.2910852351769
 21
85.36029762743783
 31
0.0
  0
LINE
  5
281
330
70
100
AcDbEntity
  8
Right$1_0
 62
     7
370
    35
100
AcDbLine
 10
455.3018259156869
 20
85.36029762743783
 30
0.0
 11
451.8008861061425
 21
85.36029762743783
 31
0.0
  0
LINE
  5
282
330
70
100
AcDbEntity
  8
Right$1_0
 62
     7
370
    35
100
AcDbLine
 10
347.7729603368171
 20
85.36029762743783
 30
0.0
 11
347.7729603368171
 21
85.36029762743783
 31
0.0
  0
LINE
  5
283
330
70
100
AcDbEntity
  8
Right$1_0
 62
     7
370
    35
100
AcDbLine
 10
347.7729603368171
 20
85.36029762743783
 30
0.0
 11
347.7729603368171
 21
85.36029762743783
 31
0.0
  0
LINE
  5
284
330
70
100
AcDbEntity
  8
Right$1_0
 62
     7
370
    35
100
AcDbLine
 10
347.7729603368171
 20
85.36029762743783
 30
0.0
 11
419.7922935617343
 21
85.36029762743783
 31
0.0
  0
LINE
  5
285
330
70
100
AcDbEntity
  8
Right$1_0
 62
     7
370
    35
100
AcDbLine
 10
347.7729603368171
 20
85.36029762743783
 30
0.0
 11
347.7729603368171
 21
85.36029762743783
 31
0.0
  0
LINE
  5
286
330
70
100
AcDbEntity
  8
Right$1_0
 62
     7
370
    35
100
AcDbLine
 10
419.7922935617343
 20
85.36029762743783
 30
0.0
 11
347.7729603368171
 21
85.36029762743783
 31
0.0
  0
LINE
  5
287
330
70
100
AcDbEntity
  8
Right$1_0
 62
     7
370
    35
100
AcDbLine
 10
459.5529671129916
 20
85.36029762743783
 30
0.0
 11
459.5529671129916
 21
85.36029762743783
 31
0.0
  0
LINE
  5
288
330
70
100
AcDbEntity
  8
Right$1_0
 62
     7
370
    35
100
AcDbLine
 10
415.5411523644306
 20
85.36029762743783
 30
0.0
 11
415.5411523644306
 21
85.36029762743783
 31
0.0
  0
LINE
  5
289
330
70
100
AcDbEntity
  8
Right$1_0
 62
     7
370
    35
100
AcDbLine
 10
416.7914880106963
 20
85.36029762743783
 30
0.0
 11
415.5411523644306
 21
85.36029762743783
 31
0.0
  0
LINE
  5
28A
330
70
100
AcDbEntity
  8
Right$1_0
 62
     7
370
    35
100
AcDbLine
 10
458.302631466724
 20
85.36029762743783
 30
0.0
 11
416.7914880106963
 21
85.36029762743783
 31
0.0
  0
LINE
  5
28B
330
70
100
AcDbEntity
  8
Right$1_0
 62
     7
370
    35
100
AcDbLine
 10
459.5529671129916
 20
85.36029762743783
 30
0.0
 11
458.302631466724
 21
85.36029762743783
 31
0.0
  0
LINE
  5
28C
330
70
100
AcDbEntity
  8
Right$1_0
 62
     7
370
    35
100
AcDbLine
 10
448.8708765599331
 20
85.36029762743783
 30
0.0
 11
449.2001879619092
 21
85.36029762743783
 31
0.0
  0
LINE
  5
28D
330
70
100
AcDbEntity
  8
Right$1_0
 62
     7
370
    35
100
AcDbLine
 10
448.8708765599331
 20
85.36029762743783
 30
0.0
 11
448.4071160657785
 21
85.36029762743783
 31
0.0
  0
LINE
  5
28E
330
70
100
AcDbEntity
  8
Right$1_0
 62
     7
370
    35
100
AcDbLine
 10
448.8708765599331
 20
85.36029762743783
 30
0.0
 11
448.8708765599331
 21
85.36029762743783
 31
0.0
  0
LINE
  5
28F
330
70
100
AcDbEntity
  8
Right$1_0
 62
     7
370
    35
100
AcDbLine
 10
426.2232429174883
 20
85.36029762743783
 30
0.0
 11
425.8939315155121
 21
85.36029762743783
 31
0.0
  0
LINE
  5
290
330
70
100
AcDbEntity
  8
Right$1_0
 62
     7
370
    35
100
AcDbLine
 10
426.6870034116418
 20
85.36029762743783
 30
0.0
 11
426.2232429174883
 21
85.36029762743783
 31
0.0
  0
LINE
  5
291
330
70
100
AcDbEntity
  8
Right$1_0
 62
     7
370
    35
100
AcDbLine
 10
426.2232429174883
 20
85.36029762743783
 30
0.0
 11
426.2232429174883
 21
85.36029762743783
 31
0.0
  0
LINE
  5
292
330
70
100
AcDbEntity
  8
Right$1_0
 62
     7
370
    35
100
AcDbLine
 10
448.4071160657785
 20
85.36029762743783
 30
0.0
 11
447.4992743602752
 21
85.36029762743783
 31
0.0
  0
LINE
  5
293
330
70
100
AcDbEntity
  8
Right$1_0
 62
     7
370
    35
100
AcDbLine
 10
448.4071160657785
 20
85.36029762743783
 30
0.0
 11
448.4071160657785
 21
85.36029762743783
 31
0.0
  0
LINE
  5
294
330
70
100
AcDbEntity
  8
Right$1_0
 62
     7
370
    35
100
AcDbLine
 10
427.5948451171461
 20
85.36029762743783
 30
0.0
 11
426.6870034116418
 21
85.36029762743783
 31
0.0
  0
LINE
  5
295
330
70
100
AcDbEntity
  8
Right$1_0
 62
     7
370
    35
100
AcDbLine
 10
426.6870034116418
 20
85.36029762743783
 30
0.0
 11
426.6870034116418
 21
85.36029762743783
 31
0.0
  0
LINE
  5
296
330
70
100
AcDbEntity
  8
Right$1_0
 62
     7
370
    35
100
AcDbLine
 10
447.4992733600065
 20
85.36029762743783
 30
0.0
 11
443.609142073983
 21
85.36029762743783
 31
0.0
  0
LINE
  5
297
330
70
100
AcDbEntity
  8
Right$1_0
 62
     7
370
    35
100
AcDbLine
 10
447.4992733600065
 20
85.36029762743783
 30
0.0
 11
447.4992733600065
 21
85.36029762743783
 31
0.0
  0
LINE
  5
298
330
70
100
AcDbEntity
  8
Right$1_0
 62
     7
370
    35
100
AcDbLine
 10
443.609142073983
 20
85.36029762743783
 30
0.0
 11
443.2812130430966
 21
85.36029762743783
 31
0.0
  0
LINE
  5
299
330
70
100
AcDbEntity
  8
Right$1_0
 62
     7
370
    35
100
AcDbLine
 10
443.609142073983
 20
85.36029762743783
 30
0.0
 11
443.609142073983
 21
85.36029762743783
 31
0.0
  0
LINE
  5
29A
330
70
100
AcDbEntity
  8
Right$1_0
 62
     7
370
    35
100
AcDbLine
 10
431.4849774034382
 20
85.36029762743783
 30
0.0
 11
427.5948461174148
 21
85.36029762743783
 31
0.0
  0
LINE
  5
29B
330
70
100
AcDbEntity
  8
Right$1_0
 62
     7
370
    35
100
AcDbLine
 10
427.5948461174148
 20
85.36029762743783
 30
0.0
 11
427.5948461174148
 21
85.36029762743783
 31
0.0
  0
LINE
  5
29C
330
70
100
AcDbEntity
  8
Right$1_0
 62
     7
370
    35
100
AcDbLine
 10
431.8129064343238
 20
85.36029762743783
 30
0.0
 11
431.4849774034382
 21
85.36029762743783
 31
0.0
  0
LINE
  5
29D
330
70
100
AcDbEntity
  8
Right$1_0
 62
     7
370
    35
100
AcDbLine
 10
431.4849774034382
 20
85.36029762743783
 30
0.0
 11
431.4849774034382
 21
85.36029762743783
 31
0.0
  0
LINE
  5
29E
330
70
100
AcDbEntity
  8
Right$1_0
 62
     7
370
    35
100
AcDbLine
 10
443.2812130430966
 20
85.36029762743783
 30
0.0
 11
440.2977981604954
 21
85.36029762743783
 31
0.0
  0
LINE
  5
29F
330
70
100
AcDbEntity
  8
Right$1_0
 62
     7
370
    35
100
AcDbLine
 10
443.2812130430966
 20
85.36029762743783
 30
0.0
 11
443.2812130430966
 21
85.36029762743783
 31
0.0
  0
LINE
  5
2A0
330
70
100
AcDbEntity
  8
Right$1_0
 62
     7
370
    35
100
AcDbLine
 10
434.796321316926
 20
85.36029762743783
 30
0.0
 11
431.8129064343238
 21
85.36029762743783
 31
0.0
  0
LINE
  5
2A1
330
70
100
AcDbEntity
  8
Right$1_0
 62
     7
370
    35
100
AcDbLine
 10
431.8129064343238
 20
85.36029762743783
 30
0.0
 11
431.8129064343238
 21
85.36029762743783
 31
0.0
  0
LINE
  5
2A2
330
70
100
AcDbEntity
  8
Right$1_0
 62
     7
370
    35
100
AcDbLine
 10
434.796321316926
 20
85.36029762743783
 30
0.0
 11
434.796321316926
 21
85.36029762743783
 31
0.0
  0
LINE
  5
2A3
330
70
100
AcDbEntity
  8
Right$1_0
 62
     7
370
    35
100
AcDbLine
 10
440.2977981604954
 20
85.36029762743783
 30
0.0
 11
434.796321316926
 21
85.36029762743783
 31
0.0
  0
LINE
  5
2A4
330
70
100
AcDbEntity
  8
Right$1_0
 62
     7
370
    35
100
AcDbLine
 10
440.2977981604954
 20
85.36029762743783
 30
0.0
 11
440.2977981604954
 21
85.36029762743783
 31
0.0
  0
LINE
  5
2A5
330
70
100
AcDbEntity
  8
Right$1_0
 62
     7
370
    35
100
AcDbLine
 10
452.5510874939008
 20
85.36029762743783
 30
0.0
 11
422.5430319835195
 21
85.36029762743783
 31
0.0
  0
LINE
  5
2A6
330
70
100
AcDbEntity
  8
Right$1_0
 62
     7
370
    35
100
AcDbLine
 10
423.2932333712787
 20
85.36029762743783
 30
0.0
 11
451.8008861061425
 21
85.36029762743783
 31
0.0
  0
LINE
  5
2A7
330
70
100
AcDbEntity
  8
Right$1_0
 62
     7
370
    35
100
AcDbLine
 10
421.7594736412547
 20
85.36029762743783
 30
0.0
 11
420.0886221096307
 21
85.36029762743783
 31
0.0
  0
LINE
  5
2A8
330
70
100
AcDbEntity
  8
Right$1_0
 62
     7
370
    35
100
AcDbLine
 10
453.3346458361665
 20
85.36029762743783
 30
0.0
 11
455.0054973677906
 21
85.36029762743783
 31
0.0
  0
LINE
  5
2A9
330
70
100
AcDbEntity
  8
Right$1_0
 62
     7
370
    35
100
AcDbLine
 10
423.2932333712787
 20
85.36029762743783
 30
0.0
 11
419.7922935617343
 21
85.36029762743783
 31
0.0
  0
LINE
  5
2AA
330
70
100
AcDbEntity
  8
Right$1_0
 62
     7
370
    35
100
AcDbLine
 10
422.5430319835195
 20
85.36029762743783
 30
0.0
 11
422.5430319835195
 21
85.36029762743783
 31
0.0
  0
LINE
  5
2AB
330
70
100
AcDbEntity
  8
Right$1_0
 62
     7
370
    35
100
AcDbLine
 10
452.5510874939008
 20
85.36029762743783
 30
0.0
 11
452.5510874939008
 21
85.36029762743783
 31
0.0
  0
LINE
  5
2AC
330
70
100
AcDbEntity
  8
Right$1_0
 62
     7
370
    35
100
AcDbLine
 10
423.2636304245179
 20
85.36029762743783
 30
0.0
 11
423.2932333712787
 21
85.36029762743783
 31
0.0
  0
LINE
  5
2AD
330
70
100
AcDbEntity
  8
Right$1_0
 62
     7
370
    35
100
AcDbLine
 10
451.8008861061425
 20
85.36029762743783
 30
0.0
 11
451.8304890529034
 21
85.36029762743783
 31
0.0
  0
LINE
  5
2AE
330
70
100
AcDbEntity
  8
Right$1_0
 62
     7
370
    35
100
AcDbLine
 10
423.2932333712787
 20
85.36029762743783
 30
0.0
 11
451.8008861061425
 21
85.36029762743783
 31
0.0
  0
LINE
  5
2AF
330
70
100
AcDbEntity
  8
Right$1_0
 62
     7
370
    35
100
AcDbLine
 10
419.7922935617343
 20
85.36029762743783
 30
0.0
 11
419.7922935617343
 21
85.36029762743783
 31
0.0
  0
LINE
  5
2B0
330
70
100
AcDbEntity
  8
Right$1_0
 62
     7
370
    35
100
AcDbLine
 10
455.3018259156869
 20
85.36029762743783
 30
0.0
 11
455.3018259156869
 21
85.36029762743783
 31
0.0
  0
LINE
  5
2B1
330
70
100
AcDbEntity
  8
Right$1_0
 62
     7
370
    35
100
AcDbLine
 10
410.5398097793668
 20
85.36029762743783
 30
0.0
 11
464.5543096980545
 21
85.36029762743783
 31
0.0
  0
LINE
  5
2B2
330
70
100
AcDbEntity
  8
Right$1_0
 62
     7
370
    35
100
AcDbLine
 10
464.5543096980545
 20
85.36029762743783
 30
0.0
 11
410.5398097793668
 21
85.36029762743783
 31
0.0
  0
LINE
  5
2B3
330
70
100
AcDbEntity
  8
Right$1_0
 62
     7
370
    35
100
AcDbLine
 10
462.5037592381777
 20
85.36029762743783
 30
0.0
 11
462.0036249796721
 21
85.36029762743783
 31
0.0
  0
LINE
  5
2B4
330
70
100
AcDbEntity
  8
Right$1_0
 62
     7
370
    35
100
AcDbLine
 10
413.0904944977491
 20
85.36029762743783
 30
0.0
 11
412.5903602392427
 21
85.36029762743783
 31
0.0
  0
LINE
  5
2B5
330
70
100
AcDbEntity
  8
Right$1_0
 62
     7
370
    35
100
AcDbLine
 10
462.5037592381777
 20
85.36029762743783
 30
0.0
 11
461.5034907211647
 21
85.36029762743783
 31
0.0
  0
LINE
  5
2B6
330
70
100
AcDbEntity
  8
Right$1_0
 62
     7
370
    35
100
AcDbLine
 10
413.5906287562557
 20
85.36029762743783
 30
0.0
 11
412.5903602392427
 21
85.36029762743783
 31
0.0
  0
LINE
  5
2B7
330
70
100
AcDbEntity
  8
Right$1_0
 62
     7
370
    35
100
AcDbLine
 10
424.043434759038
 20
85.36029762743783
 30
0.0
 11
421.2926963372537
 21
85.36029762743783
 31
0.0
  0
LINE
  5
2B8
330
70
100
AcDbEntity
  8
Right$1_0
 62
     7
370
    35
100
AcDbLine
 10
453.8014231401667
 20
85.36029762743783
 30
0.0
 11
451.0506847183823
 21
85.36029762743783
 31
0.0
  0
LINE
  5
2B9
330
70
100
AcDbEntity
  8
Right$1_0
 62
     7
370
    35
100
AcDbLine
 10
428.2695692434172
 20
85.36029762743783
 30
0.0
 11
426.1690053576903
 21
85.36029762743783
 31
0.0
  0
LINE
  5
2BA
330
70
100
AcDbEntity
  8
Right$1_0
 62
     7
370
    35
100
AcDbLine
 10
448.925114119731
 20
85.36029762743783
 30
0.0
 11
446.8245502340032
 21
85.36029762743783
 31
0.0
  0
LINE
  5
2BB
330
70
100
AcDbEntity
  8
Right$1_0
 62
     7
370
    35
100
AcDbLine
 10
410.5398097793668
 20
85.36029762743783
 30
0.0
 11
405.5384671943029
 21
85.36029762743783
 31
0.0
  0
LINE
  5
2BC
330
70
100
AcDbEntity
  8
Right$1_0
 62
     7
370
    35
100
AcDbLine
 10
460.8533161851064
 20
85.36029762743783
 30
0.0
 11
459.8530476680953
 21
85.36029762743783
 31
0.0
  0
LINE
  5
2BD
330
70
100
AcDbEntity
  8
Right$1_0
 62
     7
370
    35
100
AcDbLine
 10
453.5320985672606
 20
85.36029762743783
 30
0.0
 11
452.5318313246807
 21
85.36029762743783
 31
0.0
  0
LINE
  5
2BE
330
70
100
AcDbEntity
  8
Right$1_0
 62
     7
370
    35
100
AcDbLine
 10
415.2410718093261
 20
85.36029762743783
 30
0.0
 11
414.240803292314
 21
85.36029762743783
 31
0.0
  0
LINE
  5
2BF
330
70
100
AcDbEntity
  8
Right$1_0
 62
     7
370
    35
100
AcDbLine
 10
460.5532356300027
 20
85.36029762743783
 30
0.0
 11
459.5529671129916
 21
85.36029762743783
 31
0.0
  0
LINE
  5
2C0
330
70
100
AcDbEntity
  8
Right$1_0
 62
     7
370
    35
100
AcDbLine
 10
415.5411523644306
 20
85.36029762743783
 30
0.0
 11
414.5408838474176
 21
85.36029762743783
 31
0.0
  0
LINE
  5
2C1
330
70
100
AcDbEntity
  8
Right$1_0
 62
     7
370
    35
100
AcDbLine
 10
420.0886229429015
 20
85.36029762743783
 30
0.0
 11
419.7922935617343
 21
85.36029762743783
 31
0.0
  0
LINE
  5
2C2
330
70
100
AcDbEntity
  8
Right$1_0
 62
     7
370
    35
100
AcDbLine
 10
423.263627423712
 20
85.36029762743783
 30
0.0
 11
421.7594738196839
 21
85.36029762743783
 31
0.0
  0
LINE
  5
2C3
330
70
100
AcDbEntity
  8
Right$1_0
 62
     7
370
    35
100
AcDbLine
 10
453.3346456577365
 20
85.36029762743783
 30
0.0
 11
451.8304920537084
 21
85.36029762743783
 31
0.0
  0
LINE
  5
2C4
330
70
100
AcDbEntity
  8
Right$1_0
 62
     7
370
    35
100
AcDbLine
 10
455.3018259156869
 20
85.36029762743783
 30
0.0
 11
455.0054965345188
 21
85.36029762743783
 31
0.0
  0
LINE
  5
2C5
330
70
100
AcDbEntity
  8
Right$1_0
 62
     7
370
    35
100
AcDbLine
 10
410.5398097793668
 20
85.36029762743783
 30
0.0
 11
405.5384671943029
 21
85.36029762743783
 31
0.0
  0
LINE
  5
2C6
330
70
100
AcDbEntity
  8
Right$1_0
 62
     7
370
    35
100
AcDbLine
 10
469.5556522831175
 20
85.36029762743783
 30
0.0
 11
464.5543096980545
 21
85.36029762743783
 31
0.0
  0
LINE
  5
2C7
330
70
100
AcDbEntity
  8
Right$1_0
 62
     7
370
    35
100
AcDbLine
 10
469.5556522831175
 20
85.36029762743783
 30
0.0
 11
464.5543096980545
 21
85.36029762743783
 31
0.0
  0
LINE
  5
2C8
330
70
100
AcDbEntity
  8
Right$1_0
 62
     7
370
    35
100
AcDbLine
 10
453.4712712378205
 20
85.36029762743783
 30
0.0
 11
452.4748100176002
 21
85.36029762743783
 31
0.0
  0
LINE
  5
2C9
330
70
100
AcDbEntity
  8
Right$1_0
 62
     7
370
    35
100
AcDbLine
 10
422.6193094598211
 20
85.36029762743783
 30
0.0
 11
421.6228482395963
 21
85.36029762743783
 31
0.0
  0
LINE
  5
2CA
330
70
100
AcDbEntity
  8
Right$1_0
 62
     7
370
    35
100
AcDbLine
 10
415.3259525951434
 20
85.36029762743783
 30
0.0
 11
414.329490099838
 21
85.36029762743783
 31
0.0
  0
LINE
  5
2CB
330
70
100
AcDbEntity
  8
Right$1_0
 62
     7
370
    35
100
AcDbLine
 10
439.578334023995
 20
85.36029762743783
 30
0.0
 11
439.491154621126
 21
85.36029762743783
 31
0.0
  0
LINE
  5
2CD
330
70
100
AcDbEntity
  8
ORTHO$2_1
 62
     7
370
    35
100
AcDbLine
 10
458.302631466724
 20
62.35412173614531
 30
0.0
 11
416.7914880106963
 21
62.35412173614531
 31
0.0
  0
LINE
  5
2CE
330
70
100
AcDbEntity
  8
ORTHO$2_1
 62
     7
370
    35
100
AcDbLine
 10
460.5532356300027
 20
106.1158693554534
 30
0.0
 11
460.5532356300027
 21
64.60472589942401
 31
0.0
  0
LINE
  5
2CF
330
70
100
AcDbEntity
  8
ORTHO$2_1
 62
     7
370
    35
100
AcDbLine
 10
416.7914880106963
 20
108.3664735187321
 30
0.0
 11
458.302631466724
 21
108.3664735187321
 31
0.0
  0
LINE
  5
2D0
330
70
100
AcDbEntity
  8
ORTHO$2_1
 62
     7
370
    35
100
AcDbLine
 10
414.5408838474176
 20
64.60472589942401
 30
0.0
 11
414.5408838474176
 21
81.35966067672962
 31
0.0
  0
LINE
  5
2D1
330
70
100
AcDbEntity
  8
ORTHO$2_1
 62
     7
370
    35
100
AcDbLine
 10
414.5408838474176
 20
89.3609335778783
 30
0.0
 11
414.5408838474176
 21
106.1158693554534
 31
0.0
  0
LINE
  5
2D2
330
70
100
AcDbEntity
  8
ORTHO$2_1
 62
     7
370
    35
100
AcDbLine
 10
347.7729603368171
 20
88.36110317847669
 30
0.0
 11
347.7729603368171
 21
89.36137169548965
 31
0.0
  0
LINE
  5
2D3
330
70
100
AcDbEntity
  8
ORTHO$2_1
 62
     7
370
    35
100
AcDbLine
 10
347.7729603368171
 20
89.36137169548965
 30
0.0
 11
419.7922935617343
 21
89.36137169548965
 31
0.0
  0
LINE
  5
2D4
330
70
100
AcDbEntity
  8
ORTHO$2_1
 62
     7
370
    35
100
AcDbLine
 10
347.7729603368171
 20
81.35922355938783
 30
0.0
 11
347.7729603368171
 21
82.35949207640079
 31
0.0
  0
LINE
  5
2D5
330
70
100
AcDbEntity
  8
ORTHO$2_1
 62
     7
370
    35
100
AcDbLine
 10
419.7922935617343
 20
81.35922355938783
 30
0.0
 11
347.7729603368171
 21
81.35922355938783
 31
0.0
  0
LINE
  5
2D6
330
70
100
AcDbEntity
  8
ORTHO$2_1
 62
     7
370
    35
100
AcDbLine
 10
347.7729603368171
 20
82.35949207640079
 30
0.0
 11
347.7729603368171
 21
88.36110317847669
 31
0.0
  0
LINE
  5
2D7
330
70
100
AcDbEntity
  8
ORTHO$2_1
 62
     7
370
    35
100
AcDbLine
 10
423.2932333712787
 20
103.1150638044146
 30
0.0
 11
451.8008861061425
 21
103.1150638044146
 31
0.0
  0
LINE
  5
2D8
330
70
100
AcDbEntity
  8
ORTHO$2_1
 62
     7
370
    35
100
AcDbLine
 10
419.7922935617343
 20
71.10647126000731
 30
0.0
 11
419.7922935617343
 21
99.61412399487016
 31
0.0
  0
LINE
  5
2D9
330
70
100
AcDbEntity
  8
ORTHO$2_1
 62
     7
370
    35
100
AcDbLine
 10
451.8008861061425
 20
67.60553145046287
 30
0.0
 11
423.2932333712787
 21
67.60553145046287
 31
0.0
  0
LINE
  5
2DA
330
70
100
AcDbEntity
  8
ORTHO$2_1
 62
     7
370
    35
100
AcDbLine
 10
455.3018259156869
 20
99.61412399487016
 30
0.0
 11
455.3018259156869
 21
71.10647126000731
 31
0.0
  0
SPLINE
  5
2DB
330
70
100
AcDbEntity
  8
ORTHO$2_1
 62
     7
370
    35
100
AcDbSpline
210
0.0
220
0.0
230
1.0
 70
     8
 71
     3
 72
     8
 73
     4
 74
     0
 42
0.0000000001
 43
0.0000000001
 40
0.0
 40
0.0
 40
0.0
 40
0.0
 40
1.0
 40
1.0
 40
1.0
 40
1.0
 10
458.302631466724
 20
108.3664735187321
 30
0.0
 10
459.5456058240087
 20
108.3664735187321
 30
0.0
 10
460.5532356300027
 20
107.3588437127382
 30
0.0
 10
460.5532356300027
 20
106.1158693554534
 30
0.0
  0
SPLINE
  5
2DC
330
70
100
AcDbEntity
  8
ORTHO$2_1
 62
     7
370
    35
100
AcDbSpline
210
0.0
220
0.0
230
1.0
 70
     8
 71
     3
 72
     8
 73
     4
 74
     0
 42
0.0000000001
 43
0.0000000001
 40
0.0
 40
0.0
 40
0.0
 40
0.0
 40
1.0
 40
1.0
 40
1.0
 40
1.0
 10
460.5532356300027
 20
64.60472589942401
 30
0.0
 10
460.5532356300027
 20
63.36175154213925
 30
0.0
 10
459.5456058240087
 20
62.35412173614531
 30
0.0
 10
458.302631466724
 20
62.35412173614531
 30
0.0
  0
SPLINE
  5
2DD
330
70
100
AcDbEntity
  8
ORTHO$2_1
 62
     7
370
    35
100
AcDbSpline
210
0.0
220
0.0
230
1.0
 70
     8
 71
     3
 72
     8
 73
     4
 74
     0
 42
0.0000000001
 43
0.0000000001
 40
0.0
 40
0.0
 40
0.0
 40
0.0
 40
1.0
 40
1.0
 40
1.0
 40
1.0
 10
416.7914880106963
 20
62.35412173614531
 30
0.0
 10
415.5485136534116
 20
62.35412173614531
 30
0.0
 10
414.5408838474176
 20
63.36175154213925
 30
0.0
 10
414.5408838474176
 20
64.60472589942401
 30
0.0
  0
SPLINE
  5
2DE
330
70
100
AcDbEntity
  8
ORTHO$2_1
 62
     7
370
    35
100
AcDbSpline
210
0.0
220
0.0
230
1.0
 70
     8
 71
     3
 72
     8
 73
     4
 74
     0
 42
0.0000000001
 43
0.0000000001
 40
0.0
 40
0.0
 40
0.0
 40
0.0
 40
1.0
 40
1.0
 40
1.0
 40
1.0
 10
414.5408838474176
 20
106.1158693554534
 30
0.0
 10
414.5408838474176
 20
107.3588437127382
 30
0.0
 10
415.5485136534116
 20
108.3664735187321
 30
0.0
 10
416.7914880106963
 20
108.3664735187321
 30
0.0
  0
SPLINE
  5
2DF
330
70
100
AcDbEntity
  8
ORTHO$2_1
 62
     7
370
    35
100
AcDbSpline
210
0.0
220
0.0
230
1.0
 70
     8
 71
     3
 72
     8
 73
     4
 74
     0
 42
0.0000000001
 43
0.0000000001
 40
0.0
 40
0.0
 40
0.0
 40
0.0
 40
1.0
 40
1.0
 40
1.0
 40
1.0
 10
412.9133145575661
 20
81.3583670611788
 30
0.0
 10
413.2298293787571
 20
79.41007102700314
 30
0.0
 10
413.7763614450222
 20
77.50620368822274
 30
0.0
 10
414.5414531762144
 20
75.6866780050641
 30
0.0
  0
SPLINE
  5
2E0
330
70
100
AcDbEntity
  8
ORTHO$2_1
 62
     7
370
    35
100
AcDbSpline
210
0.0
220
0.0
230
1.0
 70
     8
 71
     3
 72
     8
 73
     4
 74
     0
 42
0.0000000001
 43
0.0000000001
 40
0.0
 40
0.0
 40
0.0
 40
0.0
 40
1.0
 40
1.0
 40
1.0
 40
1.0
 10
427.8754477710718
 20
62.35384696997789
 30
0.0
 10
434.0617113385888
 20
59.75322240405148
 30
0.0
 10
441.0346427644308
 20
59.75352665558239
 30
0.0
 10
447.2206793610848
 20
62.35469106494202
 30
0.0
  0
SPLINE
  5
2E1
330
70
100
AcDbEntity
  8
ORTHO$2_1
 62
     7
370
    35
100
AcDbSpline
210
0.0
220
0.0
230
1.0
 70
     8
 71
     3
 72
     8
 73
     4
 74
     0
 42
0.0000000001
 43
0.0000000001
 40
0.0
 40
0.0
 40
0.0
 40
0.0
 40
1.0
 40
1.0
 40
1.0
 40
1.0
 10
460.5535103961719
 20
75.68868565979937
 30
0.0
 10
463.153805588623
 20
81.87416572663279
 30
0.0
 10
463.1538436148985
 20
88.84615020177079
 30
0.0
 10
460.553615895722
 20
95.03165863305548
 30
0.0
  0
SPLINE
  5
2E2
330
70
100
AcDbEntity
  8
ORTHO$2_1
 62
     7
370
    35
100
AcDbSpline
210
0.0
220
0.0
230
1.0
 70
     8
 71
     3
 72
     8
 73
     4
 74
     0
 42
0.0000000001
 43
0.0000000001
 40
0.0
 40
0.0
 40
0.0
 40
0.0
 40
1.0
 40
1.0
 40
1.0
 40
1.0
 10
447.2209303127474
 20
108.3657986657454
 30
0.0
 10
441.0349220907628
 20
110.9670305541422
 30
0.0
 10
434.0619906686551
 20
110.967410868554
 30
0.0
 10
427.8756987330934
 20
108.3668537844514
 30
0.0
  0
SPLINE
  5
2E3
330
70
100
AcDbEntity
  8
ORTHO$2_1
 62
     7
370
    35
100
AcDbSpline
210
0.0
220
0.0
230
1.0
 70
     8
 71
     3
 72
     8
 73
     4
 74
     0
 42
0.0000000001
 43
0.0000000001
 40
0.0
 40
0.0
 40
0.0
 40
0.0
 40
1.0
 40
1.0
 40
1.0
 40
1.0
 10
414.5415587004045
 20
95.03416820147505
 30
0.0
 10
413.7764471213113
 20
93.21465086427997
 30
0.0
 10
413.2298942871075
 20
91.31078948735376
 30
0.0
 10
412.9133582133217
 20
89.36249690593468
 30
0.0
  0
SPLINE
  5
2E4
330
70
100
AcDbEntity
  8
ORTHO$2_1
 62
     7
370
    35
100
AcDbSpline
210
0.0
220
0.0
230
1.0
 70
     8
 71
     3
 72
    14
 73
    10
 74
     0
 42
0.0000000001
 43
0.0000000001
 40
0.0
 40
0.0
 40
0.0
 40
0.0
 40
1.0
 40
1.0
 40
1.0
 40
2.0
 40
2.0
 40
2.0
 40
3.0
 40
3.0
 40
3.0
 40
3.0
 10
437.5470597387102
 20
117.3688901718469
 30
0.0
 10
453.6773699381228
 20
117.3688901718469
 30
0.0
 10
467.2874846073282
 20
105.3663975081563
 30
0.0
 10
469.3044351481257
 20
89.36268488747918
 30
0.0
 10
471.5148925947633
 20
71.82357075420805
 30
0.0
 10
459.0885611320227
 20
55.8133796646598
 30
0.0
 10
441.5494469987506
 20
53.60292221802229
 30
0.0
 10
424.0103328654795
 20
51.39246477138477
 30
0.0
 10
408.0001417759322
 20
63.81879623412714
 30
0.0
 10
405.7896843292946
 20
81.3579103673983
 30
0.0
  0
SPLINE
  5
2E5
330
70
100
AcDbEntity
  8
ORTHO$2_1
 62
     7
370
    35
100
AcDbSpline
210
0.0
220
0.0
230
1.0
 70
     8
 71
     3
 72
     8
 73
     4
 74
     0
 42
0.0000000001
 43
0.0000000001
 40
0.0
 40
0.0
 40
0.0
 40
0.0
 40
1.0
 40
1.0
 40
1.0
 40
1.0
 10
405.7892915488882
 20
89.35956709515631
 30
0.0
 10
407.8048204917031
 20
105.3646653918549
 30
0.0
 10
421.4155524189863
 20
117.3688901718469
 30
0.0
 10
437.5470597387102
 20
117.3688901718469
 30
0.0
  0
SPLINE
  5
2E6
330
70
100
AcDbEntity
  8
ORTHO$2_1
 62
     7
370
    35
100
AcDbSpline
210
0.0
220
0.0
230
1.0
 70
     8
 71
     3
 72
     8
 73
     4
 74
     0
 42
0.0000000001
 43
0.0000000001
 40
0.0
 40
0.0
 40
0.0
 40
0.0
 40
1.0
 40
1.0
 40
1.0
 40
1.0
 10
451.8008861061425
 20
103.1150638044146
 30
0.0
 10
453.7344017730283
 20
103.1150638044146
 30
0.0
 10
455.3018259156869
 20
101.5476396617578
 30
0.0
 10
455.3018259156869
 20
99.61412399487016
 30
0.0
  0
SPLINE
  5
2E7
330
70
100
AcDbEntity
  8
ORTHO$2_1
 62
     7
370
    35
100
AcDbSpline
210
0.0
220
0.0
230
1.0
 70
     8
 71
     3
 72
     8
 73
     4
 74
     0
 42
0.0000000001
 43
0.0000000001
 40
0.0
 40
0.0
 40
0.0
 40
0.0
 40
1.0
 40
1.0
 40
1.0
 40
1.0
 10
419.7922935617343
 20
99.61412399487016
 30
0.0
 10
419.7922935617343
 20
101.5476396617578
 30
0.0
 10
421.359717704392
 20
103.1150638044146
 30
0.0
 10
423.2932333712787
 20
103.1150638044146
 30
0.0
  0
SPLINE
  5
2E8
330
70
100
AcDbEntity
  8
ORTHO$2_1
 62
     7
370
    35
100
AcDbSpline
210
0.0
220
0.0
230
1.0
 70
     8
 71
     3
 72
     8
 73
     4
 74
     0
 42
0.0000000001
 43
0.0000000001
 40
0.0
 40
0.0
 40
0.0
 40
0.0
 40
1.0
 40
1.0
 40
1.0
 40
1.0
 10
423.2932333712787
 20
67.60553145046287
 30
0.0
 10
421.359717704392
 20
67.60553145046287
 30
0.0
 10
419.7922935617343
 20
69.1729555931197
 30
0.0
 10
419.7922935617343
 20
71.10647126000731
 30
0.0
  0
SPLINE
  5
2E9
330
70
100
AcDbEntity
  8
ORTHO$2_1
 62
     7
370
    35
100
AcDbSpline
210
0.0
220
0.0
230
1.0
 70
     8
 71
     3
 72
     8
 73
     4
 74
     0
 42
0.0000000001
 43
0.0000000001
 40
0.0
 40
0.0
 40
0.0
 40
0.0
 40
1.0
 40
1.0
 40
1.0
 40
1.0
 10
455.3018259156869
 20
71.10647126000731
 30
0.0
 10
455.3018259156869
 20
69.1729555931197
 30
0.0
 10
453.7344017730283
 20
67.60553145046287
 30
0.0
 10
451.8008861061425
 20
67.60553145046287
 30
0.0
  0
ENDSEC
  0
SECTION
  2
OBJECTS
  0
DICTIONARY
  5
C
330
0
100
AcDbDictionary
281
     1
  3
ACAD_COLOR
350
63
  3
ACAD_DETAILVIEWSTYLE
350
6A
  3
ACAD_GROUP
350
D
  3
ACAD_LAYOUT
350
62
  3
ACAD_MATERIAL
350
10
  3
ACAD_MLEADERSTYLE
350
66
  3
ACAD_MLINESTYLE
350
5F
  3
ACAD_PLOTSETTINGS
350
61
  3
ACAD_PLOTSTYLENAME
350
E
  3
ACAD_SCALELIST
350
42
  3
ACAD_SECTIONVIEWSTYLE
350
68
  3
ACAD_TABLESTYLE
350
64
  3
ACAD_VISUALSTYLE
350
29
  3
ACDB_RECOMPOSE_DATA
350
2F2
  3
AcDbVariableDictionary
350
2EA
  0
DICTIONARY
  5
63
102
{ACAD_REACTORS
330
C
102
}
330
C
100
AcDbDictionary
281
     1
  0
DICTIONARY
  5
6A
102
{ACAD_REACTORS
330
C
102
}
330
C
100
AcDbDictionary
281
     1
  3
Imperial24
350
6B
  0
DICTIONARY
  5
D
102
{ACAD_REACTORS
330
C
102
}
330
C
100
AcDbDictionary
281
     1
  0
DICTIONARY
  5
62
102
{ACAD_REACTORS
330
C
102
}
330
C
100
AcDbDictionary
281
     1
  3
Layout1
350
6F
  3
Layout2
350
77
  3
Model
350
73
  0
DICTIONARY
  5
10
102
{ACAD_REACTORS
330
C
102
}
330
C
100
AcDbDictionary
281
     1
  3
ByBlock
350
19
  3
ByLayer
350
11
  3
Global
350
21
  0
DICTIONARY
  5
66
102
{ACAD_REACTORS
330
C
102
}
330
C
100
AcDbDictionary
281
     1
  3
Standard
350
67
  0
DICTIONARY
  5
5F
102
{ACAD_REACTORS
330
C
102
}
330
C
100
AcDbDictionary
281
     1
  3
Standard
350
60
  0
DICTIONARY
  5
61
102
{ACAD_REACTORS
330
C
102
}
330
C
100
AcDbDictionary
281
     1
  0
ACDBDICTIONARYWDFLT
  5
E
102
{ACAD_REACTORS
330
C
102
}
330
C
100
AcDbDictionary
281
     1
  3
Normal
350
F
100
AcDbDictionaryWithDefault
340
F
  0
DICTIONARY
  5
42
102
{ACAD_REACTORS
330
C
102
}
330
C
100
AcDbDictionary
281
     1
  3
A0
350
43
  3
A1
350
44
  3
A2
350
45
  3
A3
350
46
  3
A4
350
47
  3
A5
350
48
  3
A6
350
49
  3
A7
350
4A
  3
A8
350
4B
  3
A9
350
4C
  3
B0
350
4D
  3
B1
350
4E
  3
B2
350
4F
  3
B3
350
50
  3
B4
350
51
  3
B5
350
52
  3
B6
350
53
  0
DICTIONARY
  5
68
102
{ACAD_REACTORS
330
C
102
}
330
C
100
AcDbDictionary
281
     1
  3
Imperial24
350
69
  0
DICTIONARY
  5
64
102
{ACAD_REACTORS
330
C
102
}
330
C
100
AcDbDictionary
281
     1
  3
Standard
350
65
  0
DICTIONARY
  5
29
102
{ACAD_REACTORS
330
C
102
}
330
C
100
AcDbDictionary
281
     1
  3
2dWireframe
350
2F
  3
Basic
350
2E
  3
Brighten
350
35
  3
ColorChange
350
39
  3
Conceptual
350
32
  3
Dim
350
34
  3
EdgeColorOff
350
41
  3
Facepattern
350
38
  3
Flat
350
2A
  3
FlatWithEdges
350
2B
  3
Gouraud
350
2C
  3
GouraudWithEdges
350
2D
  3
Hidden
350
31
  3
JitterOff
350
3F
  3
Linepattern
350
37
  3
OverhangOff
350
40
  3
Realistic
350
33
  3
Shaded
350
3E
  3
Shaded with edges
350
3D
  3
Shades of Gray
350
3A
  3
Sketchy
350
3B
  3
Thicken
350
36
  3
Wireframe
350
30
  3
X-Ray
350
3C
  0
XRECORD
  5
2F2
102
{ACAD_REACTORS
330
C
102
}
330
C
100
AcDbXrecord
280
     1
 90
        1
330
65
  0
DICTIONARY
  5
2EA
102
{ACAD_REACTORS
330
C
102
}
330
C
100
AcDbDictionary
281
     1
  3
CANNOSCALE
350
2EF
  3
CMLEADERSTYLE
350
2EC
  3
CTABLESTYLE
350
2EB
  3
CVIEWDETAILSTYLE
350
2ED
  3
CVIEWSECTIONSTYLE
350
2EE
  0
ACDBDETAILVIEWSTYLE
  5
6B
102
{ACAD_REACTORS
330
6A
102
}
330
6A
100
AcDbModelDocViewStyle
 70
     0
  3
Imperial24
290
     1
300
Imperial24
 90
        0
100
AcDbDetailViewStyle
 70
     0
 71
     0
 90
        3
 71
     1
340
55
 62
   256
 40
0.24
340
0
 62
   256
 40
0.24
300

 40
0.36
280
     3
 71
     2
340
5D
 90
       25
 62
   256
 71
     3
340
55
 62
   256
 40
0.24
 90
        1
 40
0.75
 90
        1
300
%<\AcVar ViewType \f "%tc1">% %<\AcVar ViewDetailId>%\PSCALE %<\AcVar ViewScale \f "%sn">%
 71
     4
340
5D
 90
       25
 62
   256
340
5D
 90
       25
 62
   256
280
     0
  0
LAYOUT
  5
6F
102
{ACAD_REACTORS
330
62
102
}
330
62
100
AcDbPlotSettings
  1

  2

  4

  6

 40
0.0
 41
0.0
 42
0.0
 43
0.0
 44
0.0
 45
0.0
 46
0.0
 47
0.0
 48
0.0
 49
0.0
140
0.0
141
0.0
142
1.0
143
1.0
 70
   688
 72
     0
 73
     0
 74
     5
  7

 75
    16
147
1.0
 76
     0
 77
     2
 78
   300
148
0.0
149
0.0
100
AcDbLayout
  1
Layout1
 70
     1
 71
     1
 10
0.0
 20
0.0
 11
12.0
 21
9.0
 12
0.0
 22
0.0
 32
0.0
 14
0.0
 24
0.0
 34
0.0
 15
0.0
 25
0.0
 35
0.0
146
0.0
 13
0.0
 23
0.0
 33
0.0
 16
1.0
 26
0.0
 36
0.0
 17
0.0
 27
1.0
 37
0.0
 76
     0
330
6C
  0
LAYOUT
  5
77
102
{ACAD_REACTORS
330
62
102
}
330
62
100
AcDbPlotSettings
  1

  2

  4

  6

 40
0.0
 41
0.0
 42
0.0
 43
0.0
 44
0.0
 45
0.0
 46
0.0
 47
0.0
 48
0.0
 49
0.0
140
0.0
141
0.0
142
1.0
143
1.0
 70
   688
 72
     0
 73
     0
 74
     5
  7

 75
    16
147
1.0
 76
     0
 77
     2
 78
   300
148
0.0
149
0.0
100
AcDbLayout
  1
Layout2
 70
     1
 71
     2
 10
0.0
 20
0.0
 11
12.0
 21
9.0
 12
0.0
 22
0.0
 32
0.0
 14
0.0
 24
0.0
 34
0.0
 15
0.0
 25
0.0
 35
0.0
146
0.0
 13
0.0
 23
0.0
 33
0.0
 16
1.0
 26
0.0
 36
0.0
 17
0.0
 27
1.0
 37
0.0
 76
     0
330
74
  0
LAYOUT
  5
73
102
{ACAD_REACTORS
330
62
102
}
330
62
100
AcDbPlotSettings
  1

  2

  4

  6

 40
0.0
 41
0.0
 42
0.0
 43
0.0
 44
0.0
 45
0.0
 46
0.0
 47
0.0
 48
0.0
 49
0.0
140
0.0
141
0.0
142
1.0
143
1.0
 70
  1712
 72
     0
 73
     0
 74
     0
  7

 75
     0
147
1.0
 76
     0
 77
     2
 78
   300
148
0.0
149
0.0
100
AcDbLayout
  1
Model
 70
     1
 71
     0
 10
0.0
 20
0.0
 11
12.0
 21
9.0
 12
0.0
 22
0.0
 32
0.0
 14
0.0
 24
0.0
 34
0.0
 15
0.0
 25
0.0
 35
0.0
146
0.0
 13
0.0
 23
0.0
 33
0.0
 16
1.0
 26
0.0
 36
0.0
 17
0.0
 27
1.0
 37
0.0
 76
     0
330
70
  0
MATERIAL
  5
19
102
{ACAD_XDICTIONARY
360
1A
102
}
102
{ACAD_REACTORS
330
10
102
}
330
10
100
AcDbMaterial
  1
ByBlock
 72
     0
 43
0.0208333333333333
 43
0.0
 43
0.0
 43
0.0
 43
0.0
 43
0.0208333333333333
 43
0.0
 43
0.0
 43
0.0
 43
0.0
 43
1.0
 43
0.0
 43
0.0
 43
0.0
 43
0.0
 43
1.0
 77
     0
 47
0.0208333333333333
 47
0.0
 47
0.0
 47
0.0
 47
0.0
 47
0.0208333333333333
 47
0.0
 47
0.0
 47
0.0
 47
0.0
 47
1.0
 47
0.0
 47
0.0
 47
0.0
 47
0.0
 47
1.0
171
     0
 49
0.0208333333333333
 49
0.0
 49
0.0
 49
0.0
 49
0.0
 49
0.0208333333333333
 49
0.0
 49
0.0
 49
0.0
 49
0.0
 49
1.0
 49
0.0
 49
0.0
 49
0.0
 49
0.0
 49
1.0
175
     0
142
0.0208333333333333
142
0.0
142
0.0
142
0.0
142
0.0
142
0.0208333333333333
142
0.0
142
0.0
142
0.0
142
0.0
142
1.0
142
0.0
142
0.0
142
0.0
142
0.0
142
1.0
179
     0
144
0.0208333333333333
144
0.0
144
0.0
144
0.0
144
0.0
144
0.0208333333333333
144
0.0
144
0.0
144
0.0
144
0.0
144
1.0
144
0.0
144
0.0
144
0.0
144
0.0
144
1.0
147
0.0208333333333333
147
0.0
147
0.0
147
0.0
147
0.0
147
0.0208333333333333
147
0.0
147
0.0
147
0.0
147
0.0
147
1.0
147
0.0
147
0.0
147
0.0
147
0.0
147
1.0
  0
MATERIAL
  5
11
102
{ACAD_XDICTIONARY
360
12
102
}
102
{ACAD_REACTORS
330
10
102
}
330
10
100
AcDbMaterial
  1
ByLayer
 72
     0
 43
0.0208333333333333
 43
0.0
 43
0.0
 43
0.0
 43
0.0
 43
0.0208333333333333
 43
0.0
 43
0.0
 43
0.0
 43
0.0
 43
1.0
 43
0.0
 43
0.0
 43
0.0
 43
0.0
 43
1.0
 77
     0
 47
0.0208333333333333
 47
0.0
 47
0.0
 47
0.0
 47
0.0
 47
0.0208333333333333
 47
0.0
 47
0.0
 47
0.0
 47
0.0
 47
1.0
 47
0.0
 47
0.0
 47
0.0
 47
0.0
 47
1.0
171
     0
 49
0.0208333333333333
 49
0.0
 49
0.0
 49
0.0
 49
0.0
 49
0.0208333333333333
 49
0.0
 49
0.0
 49
0.0
 49
0.0
 49
1.0
 49
0.0
 49
0.0
 49
0.0
 49
0.0
 49
1.0
175
     0
142
0.0208333333333333
142
0.0
142
0.0
142
0.0
142
0.0
142
0.0208333333333333
142
0.0
142
0.0
142
0.0
142
0.0
142
1.0
142
0.0
142
0.0
142
0.0
142
0.0
142
1.0
179
     0
144
0.0208333333333333
144
0.0
144
0.0
144
0.0
144
0.0
144
0.0208333333333333
144
0.0
144
0.0
144
0.0
144
0.0
144
1.0
144
0.0
144
0.0
144
0.0
144
0.0
144
1.0
147
0.0208333333333333
147
0.0
147
0.0
147
0.0
147
0.0
147
0.0208333333333333
147
0.0
147
0.0
147
0.0
147
0.0
147
1.0
147
0.0
147
0.0
147
0.0
147
0.0
147
1.0
  0
MATERIAL
  5
21
102
{ACAD_XDICTIONARY
360
22
102
}
102
{ACAD_REACTORS
330
10
102
}
330
10
100
AcDbMaterial
  1
Global
 72
     0
 43
0.0208333333333333
 43
0.0
 43
0.0
 43
0.0
 43
0.0
 43
0.0208333333333333
 43
0.0
 43
0.0
 43
0.0
 43
0.0
 43
1.0
 43
0.0
 43
0.0
 43
0.0
 43
0.0
 43
1.0
 77
     0
 47
0.0208333333333333
 47
0.0
 47
0.0
 47
0.0
 47
0.0
 47
0.0208333333333333
 47
0.0
 47
0.0
 47
0.0
 47
0.0
 47
1.0
 47
0.0
 47
0.0
 47
0.0
 47
0.0
 47
1.0
171
     0
 49
0.0208333333333333
 49
0.0
 49
0.0
 49
0.0
 49
0.0
 49
0.0208333333333333
 49
0.0
 49
0.0
 49
0.0
 49
0.0
 49
1.0
 49
0.0
 49
0.0
 49
0.0
 49
0.0
 49
1.0
175
     0
142
0.0208333333333333
142
0.0
142
0.0
142
0.0
142
0.0
142
0.0208333333333333
142
0.0
142
0.0
142
0.0
142
0.0
142
1.0
142
0.0
142
0.0
142
0.0
142
0.0
142
1.0
179
     0
144
0.0208333333333333
144
0.0
144
0.0
144
0.0
144
0.0
144
0.0208333333333333
144
0.0
144
0.0
144
0.0
144
0.0
144
1.0
144
0.0
144
0.0
144
0.0
144
0.0
144
1.0
147
0.0208333333333333
147
0.0
147
0.0
147
0.0
147
0.0
147
0.0208333333333333
147
0.0
147
0.0
147
0.0
147
0.0
147
1.0
147
0.0
147
0.0
147
0.0
147
0.0
147
1.0
  0
MLEADERSTYLE
  5
67
102
{ACAD_REACTORS
330
66
102
}
330
66
100
AcDbMLeaderStyle
179
     2
170
     2
171
     1
172
     0
 90
        2
 40
0.0
 41
0.0
173
     1
 91
-1056964608
340
5B
 92
       -2
290
     1
 42
0.09
291
     1
 43
0.36
  3
Standard
 44
0.18
300

342
55
174
     1
178
     6
175
     1
176
     0
 93
-1056964608
 45
0.18
292
     0
297
     0
 46
0.18
 94
-1056964608
 47
1.0
 49
1.0
140
1.0
293
     1
141
0.0
294
     1
177
     0
142
1.0
295
     1
296
     0
143
0.125
271
     0
272
     9
273
     9
298
     1
  0
MLINESTYLE
  5
60
102
{ACAD_REACTORS
330
5F
102
}
330
5F
100
AcDbMlineStyle
  2
STANDARD
 70
     0
  3

 62
   256
 51
90.0
 52
90.0
 71
     2
 49
0.5
 62
   256
  6
BYLAYER
 49
-0.5
 62
   256
  6
BYLAYER
  0
ACDBPLACEHOLDER
  5
F
102
{ACAD_REACTORS
330
E
102
}
330
E
  0
SCALE
  5
43
102
{ACAD_REACTORS
330
42
102
}
330
42
100
AcDbScale
 70
     0
300
1:1
140
1.0
141
1.0
290
     1
  0
SCALE
  5
44
102
{ACAD_REACTORS
330
42
102
}
330
42
100
AcDbScale
 70
     0
300
1/128" = 1'-0"
140
0.0078125
141
12.0
290
     0
  0
SCALE
  5
45
102
{ACAD_REACTORS
330
42
102
}
330
42
100
AcDbScale
 70
     0
300
1/64" = 1'-0"
140
0.015625
141
12.0
290
     0
  0
SCALE
  5
46
102
{ACAD_REACTORS
330
42
102
}
330
42
100
AcDbScale
 70
     0
300
1/32" = 1'-0"
140
0.03125
141
12.0
290
     0
  0
SCALE
  5
47
102
{ACAD_REACTORS
330
42
102
}
330
42
100
AcDbScale
 70
     0
300
1/16" = 1'-0"
140
0.0625
141
12.0
290
     0
  0
SCALE
  5
48
102
{ACAD_REACTORS
330
42
102
}
330
42
100
AcDbScale
 70
     0
300
3/32" = 1'-0"
140
0.09375
141
12.0
290
     0
  0
SCALE
  5
49
102
{ACAD_REACTORS
330
42
102
}
330
42
100
AcDbScale
 70
     0
300
1/8" = 1'-0"
140
0.125
141
12.0
290
     0
  0
SCALE
  5
4A
102
{ACAD_REACTORS
330
42
102
}
330
42
100
AcDbScale
 70
     0
300
3/16" = 1'-0"
140
0.1875
141
12.0
290
     0
  0
SCALE
  5
4B
102
{ACAD_REACTORS
330
42
102
}
330
42
100
AcDbScale
 70
     0
300
1/4" = 1'-0"
140
0.25
141
12.0
290
     0
  0
SCALE
  5
4C
102
{ACAD_REACTORS
330
42
102
}
330
42
100
AcDbScale
 70
     0
300
3/8" = 1'-0"
140
0.375
141
12.0
290
     0
  0
SCALE
  5
4D
102
{ACAD_REACTORS
330
42
102
}
330
42
100
AcDbScale
 70
     0
300
1/2" = 1'-0"
140
0.5
141
12.0
290
     0
  0
SCALE
  5
4E
102
{ACAD_REACTORS
330
42
102
}
330
42
100
AcDbScale
 70
     0
300
3/4" = 1'-0"
140
0.75
141
12.0
290
     0
  0
SCALE
  5
4F
102
{ACAD_REACTORS
330
42
102
}
330
42
100
AcDbScale
 70
     0
300
1" = 1'-0"
140
1.0
141
12.0
290
     0
  0
SCALE
  5
50
102
{ACAD_REACTORS
330
42
102
}
330
42
100
AcDbScale
 70
     0
300
1-1/2" = 1'-0"
140
1.5
141
12.0
290
     0
  0
SCALE
  5
51
102
{ACAD_REACTORS
330
42
102
}
330
42
100
AcDbScale
 70
     0
300
3" = 1'-0"
140
3.0
141
12.0
290
     0
  0
SCALE
  5
52
102
{ACAD_REACTORS
330
42
102
}
330
42
100
AcDbScale
 70
     0
300
6" = 1'-0"
140
6.0
141
12.0
290
     0
  0
SCALE
  5
53
102
{ACAD_REACTORS
330
42
102
}
330
42
100
AcDbScale
 70
     0
300
1'-0" = 1'-0"
140
12.0
141
12.0
290
     0
  0
ACDBSECTIONVIEWSTYLE
  5
69
102
{ACAD_REACTORS
330
68
102
}
330
68
100
AcDbModelDocViewStyle
 70
     0
  3
Imperial24
290
     1
300
Imperial24
 90
        0
100
AcDbSectionViewStyle
 70
     0
 71
     0
 90
       78
 71
     1
340
55
 62
   256
 40
0.24
340
0
340
0
 62
   256
 40
0.24
300
I, O, Q, S, X, Z
 40
0.48
 90
        3
 40
0.18
 90
        1
 71
     2
340
5D
 90
       25
 62
   256
340
5D
 90
       50
 62
   256
 40
0.24
 40
0.0
 40
0.24
 71
     3
340
55
 62
   256
 40
0.24
 90
        1
 40
0.75
 90
        1
300
%<\AcVar ViewType \f "%tc1">% %<\AcVar ViewSectionStartId>%-%<\AcVar ViewSectionEndId>%\PSCALE %<\AcVar ViewScale \f "%sn">%
 71
     4
 62
   256
 62
   257
300
ANSI31
 40
1.0
 90
        0
290
     0
290
     0
 90
        6
 40
0.0
 40
1.570796326794896
 40
0.2617993877991494
 40
1.308996938995747
 40
-0.2617993877991494
 40
1.832595714594046
  0
TABLESTYLE
  5
65
102
{ACAD_XDICTIONARY
360
2F0
102
}
102
{ACAD_REACTORS
330
64
102
}
330
64
100
AcDbTableStyle
280
     0
  3
Standard
 70
     0
 71
     0
 40
0.06
 41
0.06
280
     0
281
     0
  7
Standard
140
0.18
170
     2
 62
     0
 63
     7
283
     0
 90
      512
 91
        0
  1

274
    -2
284
     1
 64
     0
275
    -2
285
     1
 65
     0
276
    -2
286
     1
 66
     0
277
    -2
287
     1
 67
     0
278
    -2
288
     1
 68
     0
279
    -2
289
     1
 69
     0
  7
Standard
140
0.25
170
     5
 62
     0
 63
     7
283
     0
 90
      512
 91
        0
  1

274
    -2
284
     1
 64
     0
275
    -2
285
     1
 65
     0
276
    -2
286
     1
 66
     0
277
    -2
287
     1
 67
     0
278
    -2
288
     1
 68
     0
279
    -2
289
     1
 69
     0
  7
Standard
140
0.18
170
     5
 62
     0
 63
     7
283
     0
 90
      512
 91
        0
  1

274
    -2
284
     1
 64
     0
275
    -2
285
     1
 65
     0
276
    -2
286
     1
 66
     0
277
    -2
287
     1
 67
     0
278
    -2
288
     1
 68
     0
279
    -2
289
     1
 69
     0
  0
VISUALSTYLE
  5
2F
102
{ACAD_REACTORS
330
29
102
}
330
29
100
AcDbVisualStyle
  2
2dWireframe
 70
     4
177
     3
291
     0
 70
    58
 90
        0
176
     1
 90
        2
176
     1
 90
        0
176
     1
 90
        0
176
     1
 40
0.6
176
     1
 40
30.0
176
     1
 62
     7
420
 16777215
176
     1
 90
        1
176
     1
 90
        4
176
     1
 62
     7
176
     1
 62
   257
176
     1
 90
        1
176
     1
 90
        1
176
     1
 40
1.0
176
     1
 90
        0
176
     1
 62
   257
176
     1
 40
1.0
176
     1
 90
        1
176
     1
 90
        6
176
     1
 90
        2
176
     1
 62
     7
176
     1
 90
        5
176
     1
 90
        0
176
     1
 90
        0
176
     1
290
     0
176
     1
 90
        1
176
     1
 40
0.0
176
     1
 90
        0
176
     1
290
     1
176
     1
290
     1
176
     1
290
     0
176
     1
290
     0
176
     1
290
     0
176
     1
290
     0
176
     1
290
     0
176
     1
290
     0
176
     1
290
     0
176
     1
 90
       50
176
     1
 40
0.0
176
     1
 40
1.0
176
     1
 90
        0
176
     1
 62
    18
420
        0
176
     1
 90
       50
176
     1
 90
        3
176
     1
 62
     5
420
      255
176
     1
290
     0
176
     1
 90
       50
176
     1
 90
       50
176
     1
 90
       50
176
     1
290
     0
176
     1
 90
       50
176
     1
 62
   256
176
     0
 40
1.0
176
     0
 90
        2
176
     1
  1
strokes_ogs.tif
176
     1
290
     0
176
     1
 40
1.0
176
     1
 40
1.0
176
     1
  0
VISUALSTYLE
  5
2E
102
{ACAD_REACTORS
330
29
102
}
330
29
100
AcDbVisualStyle
  2
Basic
 70
     7
177
     3
291
     1
 70
    58
 90
        1
176
     1
 90
        0
176
     1
 90
        1
176
     1
 90
        0
176
     1
 40
0.6
176
     1
 40
30.0
176
     1
 62
     7
420
 16777215
176
     1
 90
        0
176
     1
 90
        4
176
     1
 62
     7
176
     1
 62
   257
176
     1
 90
        1
176
     1
 90
        1
176
     1
 40
1.0
176
     1
 90
        8
176
     1
 62
     7
176
     1
 40
1.0
176
     1
 90
        1
176
     1
 90
        6
176
     1
 90
        2
176
     1
 62
     7
176
     1
 90
        5
176
     1
 90
        0
176
     1
 90
        0
176
     1
290
     0
176
     1
 90
        1
176
     1
 40
0.0
176
     1
 90
        0
176
     1
290
     0
176
     1
290
     1
176
     1
290
     1
176
     1
290
     0
176
     1
290
     0
176
     1
290
     0
176
     1
290
     0
176
     1
290
     0
176
     1
290
     0
176
     1
 90
       50
176
     1
 40
0.0
176
     1
 40
1.0
176
     1
 90
        0
176
     1
 62
    18
420
        0
176
     1
 90
       50
176
     1
 90
        3
176
     1
 62
     5
420
      255
176
     1
290
     0
176
     1
 90
       50
176
     1
 90
       50
176
     1
 90
       50
176
     1
290
     0
176
     1
 90
       50
176
     1
 62
   256
176
     0
 40
1.0
176
     0
 90
        2
176
     1
  1
strokes_ogs.tif
176
     1
290
     0
176
     1
 40
1.0
176
     1
 40
1.0
176
     1
  0
VISUALSTYLE
  5
35
102
{ACAD_REACTORS
330
29
102
}
330
29
100
AcDbVisualStyle
  2
Brighten
 70
    12
177
     3
291
     1
 70
    58
 90
        2
176
     1
 90
        2
176
     1
 90
        0
176
     1
 90
        0
176
     1
 40
0.6
176
     1
 40
30.0
176
     1
 62
     7
420
 16777215
176
     1
 90
        1
176
     1
 90
        4
176
     1
 62
     7
176
     1
 62
   257
176
     1
 90
        1
176
     1
 90
        1
176
     1
 40
1.0
176
     1
 90
        8
176
     1
 62
     7
176
     1
 40
1.0
176
     1
 90
        1
176
     1
 90
        6
176
     1
 90
        2
176
     1
 62
     7
176
     1
 90
        5
176
     1
 90
        0
176
     1
 90
        0
176
     1
290
     0
176
     1
 90
        1
176
     1
 40
50.0
176
     1
 90
        0
176
     1
290
     0
176
     1
290
     1
176
     1
290
     1
176
     1
290
     0
176
     1
290
     0
176
     1
290
     0
176
     1
290
     0
176
     1
290
     0
176
     1
290
     0
176
     1
 90
       50
176
     1
 40
0.0
176
     1
 40
1.0
176
     1
 90
        0
176
     1
 62
    18
420
        0
176
     1
 90
       50
176
     1
 90
        3
176
     1
 62
     5
420
      255
176
     1
290
     0
176
     1
 90
       50
176
     1
 90
       50
176
     1
 90
       50
176
     1
290
     0
176
     1
 90
       50
176
     1
 62
   256
176
     0
 40
1.0
176
     0
 90
        2
176
     1
  1
strokes_ogs.tif
176
     1
290
     0
176
     1
 40
1.0
176
     1
 40
1.0
176
     1
  0
VISUALSTYLE
  5
39
102
{ACAD_REACTORS
330
29
102
}
330
29
100
AcDbVisualStyle
  2
ColorChange
 70
    16
177
     3
291
     1
 70
    58
 90
        2
176
     1
 90
        2
176
     1
 90
        3
176
     1
 90
        0
176
     1
 40
0.6
176
     1
 40
30.0
176
     1
 62
     8
420
  8421504
176
     1
 90
        1
176
     1
 90
        4
176
     1
 62
     7
176
     1
 62
   257
176
     1
 90
        1
176
     1
 90
        1
176
     1
 40
1.0
176
     1
 90
        8
176
     1
 62
     8
420
  8421504
176
     1
 40
1.0
176
     1
 90
        1
176
     1
 90
        6
176
     1
 90
        2
176
     1
 62
     7
176
     1
 90
        5
176
     1
 90
        0
176
     1
 90
        0
176
     1
290
     0
176
     1
 90
        1
176
     1
 40
0.0
176
     1
 90
        0
176
     1
290
     0
176
     1
290
     1
176
     1
290
     1
176
     1
290
     0
176
     1
290
     0
176
     1
290
     0
176
     1
290
     0
176
     1
290
     0
176
     1
290
     0
176
     1
 90
       50
176
     1
 40
0.0
176
     1
 40
1.0
176
     1
 90
        0
176
     1
 62
    18
420
        0
176
     1
 90
       50
176
     1
 90
        3
176
     1
 62
     5
420
      255
176
     1
290
     0
176
     1
 90
       50
176
     1
 90
       50
176
     1
 90
       50
176
     1
290
     0
176
     1
 90
       50
176
     1
 62
   256
176
     0
 40
1.0
176
     0
 90
        2
176
     1
  1
strokes_ogs.tif
176
     1
290
     0
176
     1
 40
1.0
176
     1
 40
1.0
176
     1
  0
VISUALSTYLE
  5
32
102
{ACAD_REACTORS
330
29
102
}
330
29
100
AcDbVisualStyle
  2
Conceptual
 70
     9
177
     3
291
     0
 70
    58
 90
        3
176
     1
 90
        2
176
     1
 90
        0
176
     1
 90
        0
176
     1
 40
0.6
176
     1
 40
30.0
176
     1
 62
     7
420
 16777215
176
     1
 90
        2
176
     1
 90
        2
176
     1
 62
     7
176
     1
 62
   257
176
     1
 90
        1
176
     1
 90
        1
176
     1
 40
179.0
176
     1
 90
        8
176
     1
 62
     7
176
     1
 40
1.0
176
     1
 90
        1
176
     1
 90
        6
176
     1
 90
        2
176
     1
 62
     7
176
     1
 90
        3
176
     1
 90
        0
176
     1
 90
        0
176
     1
290
     0
176
     1
 90
        1
176
     1
 40
0.0
176
     1
 90
        0
176
     1
290
     0
176
     1
290
     1
176
     1
290
     1
176
     1
290
     0
176
     1
290
     0
176
     1
290
     0
176
     1
290
     0
176
     1
290
     0
176
     1
290
     0
176
     1
 90
       50
176
     1
 40
0.0
176
     1
 40
1.0
176
     1
 90
        0
176
     1
 62
    18
420
        0
176
     1
 90
       50
176
     1
 90
        3
176
     1
 62
     5
420
      255
176
     1
290
     0
176
     1
 90
       50
176
     1
 90
       50
176
     1
 90
       50
176
     1
290
     0
176
     1
 90
       50
176
     1
 62
   256
176
     0
 40
1.0
176
     0
 90
        2
176
     1
  1
strokes_ogs.tif
176
     1
290
     0
176
     1
 40
1.0
176
     1
 40
1.0
176
     1
  0
VISUALSTYLE
  5
34
102
{ACAD_REACTORS
330
29
102
}
330
29
100
AcDbVisualStyle
  2
Dim
 70
    11
177
     3
291
     1
 70
    58
 90
        2
176
     1
 90
        2
176
     1
 90
        0
176
     1
 90
        0
176
     1
 40
0.6
176
     1
 40
30.0
176
     1
 62
     7
420
 16777215
176
     1
 90
        1
176
     1
 90
        4
176
     1
 62
     7
176
     1
 62
   257
176
     1
 90
        1
176
     1
 90
        1
176
     1
 40
1.0
176
     1
 90
        8
176
     1
 62
     7
176
     1
 40
1.0
176
     1
 90
        1
176
     1
 90
        6
176
     1
 90
        2
176
     1
 62
     7
176
     1
 90
        5
176
     1
 90
        0
176
     1
 90
        0
176
     1
290
     0
176
     1
 90
        1
176
     1
 40
-50.0
176
     1
 90
        0
176
     1
290
     0
176
     1
290
     1
176
     1
290
     1
176
     1
290
     0
176
     1
290
     0
176
     1
290
     0
176
     1
290
     0
176
     1
290
     0
176
     1
290
     0
176
     1
 90
       50
176
     1
 40
0.0
176
     1
 40
1.0
176
     1
 90
        0
176
     1
 62
    18
420
        0
176
     1
 90
       50
176
     1
 90
        3
176
     1
 62
     5
420
      255
176
     1
290
     0
176
     1
 90
       50
176
     1
 90
       50
176
     1
 90
       50
176
     1
290
     0
176
     1
 90
       50
176
     1
 62
   256
176
     0
 40
1.0
176
     0
 90
        2
176
     1
  1
strokes_ogs.tif
176
     1
290
     0
176
     1
 40
1.0
176
     1
 40
1.0
176
     1
  0
VISUALSTYLE
  5
41
102
{ACAD_REACTORS
330
29
102
}
330
29
100
AcDbVisualStyle
  2
EdgeColorOff
 70
    22
177
     3
291
     1
 70
    58
 90
        2
176
     0
 90
        2
176
     0
 90
        0
176
     0
 90
        0
176
     0
 40
0.6
176
     0
 40
30.0
176
     0
 62
     7
420
 16777215
176
     0
 90
        1
176
     0
 90
        4
176
     0
 62
     7
176
     0
 62
   257
176
     0
 90
        1
176
     0
 90
        1
176
     0
 40
1.0
176
     0
 90
        8
176
     2
 62
     7
176
     0
 40
1.0
176
     0
 90
        1
176
     0
 90
        6
176
     0
 90
        2
176
     0
 62
     7
176
     0
 90
        5
176
     0
 90
        0
176
     0
 90
        0
176
     0
290
     0
176
     0
 90
        1
176
     0
 40
0.0
176
     0
 90
        0
176
     0
290
     0
176
     0
290
     1
176
     0
290
     1
176
     0
290
     0
176
     0
290
     0
176
     0
290
     0
176
     0
290
     0
176
     0
290
     0
176
     0
290
     0
176
     0
 90
       50
176
     0
 40
0.0
176
     0
 40
1.0
176
     0
 90
        0
176
     0
 62
    18
420
        0
176
     0
 90
       50
176
     0
 90
        3
176
     0
 62
     5
420
      255
176
     0
290
     0
176
     0
 90
       50
176
     0
 90
       50
176
     0
 90
       50
176
     0
290
     0
176
     0
 90
       50
176
     0
 62
   256
176
     0
 40
1.0
176
     0
 90
        2
176
     0
  1
strokes_ogs.tif
176
     0
290
     0
176
     0
 40
1.0
176
     0
 40
1.0
176
     0
  0
VISUALSTYLE
  5
38
102
{ACAD_REACTORS
330
29
102
}
330
29
100
AcDbVisualStyle
  2
Facepattern
 70
    15
177
     3
291
     1
 70
    58
 90
        2
176
     1
 90
        2
176
     1
 90
        0
176
     1
 90
        0
176
     1
 40
0.6
176
     1
 40
30.0
176
     1
 62
     7
420
 16777215
176
     1
 90
        1
176
     1
 90
        4
176
     1
 62
     7
176
     1
 62
   257
176
     1
 90
        1
176
     1
 90
        1
176
     1
 40
1.0
176
     1
 90
        8
176
     1
 62
     7
176
     1
 40
1.0
176
     1
 90
        1
176
     1
 90
        6
176
     1
 90
        2
176
     1
 62
     7
176
     1
 90
        5
176
     1
 90
        0
176
     1
 90
        0
176
     1
290
     0
176
     1
 90
        1
176
     1
 40
0.0
176
     1
 90
        0
176
     1
290
     0
176
     1
290
     1
176
     1
290
     1
176
     1
290
     0
176
     1
290
     0
176
     1
290
     0
176
     1
290
     0
176
     1
290
     0
176
     1
290
     0
176
     1
 90
       50
176
     1
 40
0.0
176
     1
 40
1.0
176
     1
 90
        0
176
     1
 62
    18
420
        0
176
     1
 90
       50
176
     1
 90
        3
176
     1
 62
     5
420
      255
176
     1
290
     0
176
     1
 90
       50
176
     1
 90
       50
176
     1
 90
       50
176
     1
290
     0
176
     1
 90
       50
176
     1
 62
   256
176
     0
 40
1.0
176
     0
 90
        2
176
     1
  1
strokes_ogs.tif
176
     1
290
     0
176
     1
 40
1.0
176
     1
 40
1.0
176
     1
  0
VISUALSTYLE
  5
2A
102
{ACAD_REACTORS
330
29
102
}
330
29
100
AcDbVisualStyle
  2
Flat
 70
     0
177
     3
291
     1
 70
    58
 90
        2
176
     1
 90
        1
176
     1
 90
        1
176
     1
 90
        2
176
     1
 40
0.6
176
     1
 40
30.0
176
     1
 62
     7
420
 16777215
176
     1
 90
        0
176
     1
 90
        0
176
     1
 62
     7
176
     1
 62
   257
176
     1
 90
        1
176
     1
 90
        1
176
     1
 40
1.0
176
     1
 90
        8
176
     1
 62
     7
176
     1
 40
1.0
176
     1
 90
        1
176
     1
 90
        6
176
     1
 90
        2
176
     1
 62
     7
176
     1
 90
        5
176
     1
 90
        0
176
     1
 90
        0
176
     1
290
     0
176
     1
 90
       13
176
     1
 40
0.0
176
     1
 90
        0
176
     1
290
     0
176
     1
290
     1
176
     1
290
     1
176
     1
290
     0
176
     1
290
     0
176
     1
290
     0
176
     1
290
     0
176
     1
290
     0
176
     1
290
     0
176
     1
 90
       50
176
     1
 40
0.0
176
     1
 40
1.0
176
     1
 90
        0
176
     1
 62
    18
420
        0
176
     1
 90
       50
176
     1
 90
        3
176
     1
 62
     5
420
      255
176
     1
290
     0
176
     1
 90
       50
176
     1
 90
       50
176
     1
 90
       50
176
     1
290
     0
176
     1
 90
       50
176
     1
 62
   256
176
     0
 40
1.0
176
     0
 90
        2
176
     1
  1
strokes_ogs.tif
176
     1
290
     0
176
     1
 40
1.0
176
     1
 40
1.0
176
     1
  0
VISUALSTYLE
  5
2B
102
{ACAD_REACTORS
330
29
102
}
330
29
100
AcDbVisualStyle
  2
FlatWithEdges
 70
     1
177
     3
291
     1
 70
    58
 90
        2
176
     1
 90
        1
176
     1
 90
        1
176
     1
 90
        2
176
     1
 40
0.6
176
     1
 40
30.0
176
     1
 62
     7
420
 16777215
176
     1
 90
        1
176
     1
 90
        0
176
     1
 62
     7
176
     1
 62
   257
176
     1
 90
        1
176
     1
 90
        1
176
     1
 40
1.0
176
     1
 90
        0
176
     1
 62
   257
176
     1
 40
1.0
176
     1
 90
        1
176
     1
 90
        6
176
     1
 90
        2
176
     1
 62
     7
176
     1
 90
        5
176
     1
 90
        0
176
     1
 90
        0
176
     1
290
     0
176
     1
 90
       13
176
     1
 40
0.0
176
     1
 90
        0
176
     1
290
     0
176
     1
290
     1
176
     1
290
     1
176
     1
290
     0
176
     1
290
     0
176
     1
290
     0
176
     1
290
     0
176
     1
290
     0
176
     1
290
     0
176
     1
 90
       50
176
     1
 40
0.0
176
     1
 40
1.0
176
     1
 90
        0
176
     1
 62
    18
420
        0
176
     1
 90
       50
176
     1
 90
        3
176
     1
 62
     5
420
      255
176
     1
290
     0
176
     1
 90
       50
176
     1
 90
       50
176
     1
 90
       50
176
     1
290
     0
176
     1
 90
       50
176
     1
 62
   256
176
     0
 40
1.0
176
     0
 90
        2
176
     1
  1
strokes_ogs.tif
176
     1
290
     0
176
     1
 40
1.0
176
     1
 40
1.0
176
     1
  0
VISUALSTYLE
  5
2C
102
{ACAD_REACTORS
330
29
102
}
330
29
100
AcDbVisualStyle
  2
Gouraud
 70
     2
177
     3
291
     1
 70
    58
 90
        2
176
     1
 90
        2
176
     1
 90
        1
176
     1
 90
        2
176
     1
 40
0.6
176
     1
 40
30.0
176
     1
 62
     7
420
 16777215
176
     1
 90
        0
176
     1
 90
        0
176
     1
 62
     7
176
     1
 62
   257
176
     1
 90
        1
176
     1
 90
        1
176
     1
 40
1.0
176
     1
 90
        0
176
     1
 62
     7
176
     1
 40
1.0
176
     1
 90
        1
176
     1
 90
        6
176
     1
 90
        2
176
     1
 62
     7
176
     1
 90
        5
176
     1
 90
        0
176
     1
 90
        0
176
     1
290
     0
176
     1
 90
       13
176
     1
 40
0.0
176
     1
 90
        0
176
     1
290
     0
176
     1
290
     1
176
     1
290
     1
176
     1
290
     0
176
     1
290
     0
176
     1
290
     0
176
     1
290
     0
176
     1
290
     0
176
     1
290
     0
176
     1
 90
       50
176
     1
 40
0.0
176
     1
 40
1.0
176
     1
 90
        0
176
     1
 62
    18
420
        0
176
     1
 90
       50
176
     1
 90
        3
176
     1
 62
     5
420
      255
176
     1
290
     0
176
     1
 90
       50
176
     1
 90
       50
176
     1
 90
       50
176
     1
290
     0
176
     1
 90
       50
176
     1
 62
   256
176
     0
 40
1.0
176
     0
 90
        2
176
     1
  1
strokes_ogs.tif
176
     1
290
     0
176
     1
 40
1.0
176
     1
 40
1.0
176
     1
  0
VISUALSTYLE
  5
2D
102
{ACAD_REACTORS
330
29
102
}
330
29
100
AcDbVisualStyle
  2
GouraudWithEdges
 70
     3
177
     3
291
     1
 70
    58
 90
        2
176
     1
 90
        2
176
     1
 90
        1
176
     1
 90
        2
176
     1
 40
0.6
176
     1
 40
30.0
176
     1
 62
     7
420
 16777215
176
     1
 90
        1
176
     1
 90
        0
176
     1
 62
     7
176
     1
 62
   257
176
     1
 90
        1
176
     1
 90
        1
176
     1
 40
1.0
176
     1
 90
        0
176
     1
 62
   257
176
     1
 40
1.0
176
     1
 90
        1
176
     1
 90
        6
176
     1
 90
        2
176
     1
 62
     7
176
     1
 90
        5
176
     1
 90
        0
176
     1
 90
        0
176
     1
290
     0
176
     1
 90
       13
176
     1
 40
0.0
176
     1
 90
        0
176
     1
290
     0
176
     1
290
     1
176
     1
290
     1
176
     1
290
     0
176
     1
290
     0
176
     1
290
     0
176
     1
290
     0
176
     1
290
     0
176
     1
290
     0
176
     1
 90
       50
176
     1
 40
0.0
176
     1
 40
1.0
176
     1
 90
        0
176
     1
 62
    18
420
        0
176
     1
 90
       50
176
     1
 90
        3
176
     1
 62
     5
420
      255
176
     1
290
     0
176
     1
 90
       50
176
     1
 90
       50
176
     1
 90
       50
176
     1
290
     0
176
     1
 90
       50
176
     1
 62
   256
176
     0
 40
1.0
176
     0
 90
        2
176
     1
  1
strokes_ogs.tif
176
     1
290
     0
176
     1
 40
1.0
176
     1
 40
1.0
176
     1
  0
VISUALSTYLE
  5
31
102
{ACAD_REACTORS
330
29
102
}
330
29
100
AcDbVisualStyle
  2
Hidden
 70
     6
177
     3
291
     0
 70
    58
 90
        1
176
     1
 90
        2
176
     1
 90
        2
176
     1
 90
        0
176
     1
 40
0.6
176
     1
 40
30.0
176
     1
 62
     7
420
 16777215
176
     1
 90
        2
176
     1
 90
        2
176
     1
 62
     7
176
     1
 62
   257
176
     1
 90
        2
176
     1
 90
        1
176
     1
 40
40.0
176
     1
 90
        0
176
     1
 62
   257
176
     1
 40
1.0
176
     1
 90
        1
176
     1
 90
        6
176
     1
 90
        2
176
     1
 62
     7
176
     1
 90
        3
176
     1
 90
        0
176
     1
 90
        0
176
     1
290
     0
176
     1
 90
        1
176
     1
 40
0.0
176
     1
 90
        0
176
     1
290
     0
176
     1
290
     1
176
     1
290
     1
176
     1
290
     0
176
     1
290
     0
176
     1
290
     0
176
     1
290
     0
176
     1
290
     0
176
     1
290
     0
176
     1
 90
       50
176
     1
 40
0.0
176
     1
 40
1.0
176
     1
 90
        0
176
     1
 62
    18
420
        0
176
     1
 90
       50
176
     1
 90
        3
176
     1
 62
     5
420
      255
176
     1
290
     0
176
     1
 90
       50
176
     1
 90
       50
176
     1
 90
       50
176
     1
290
     0
176
     1
 90
       50
176
     1
 62
   256
176
     0
 40
1.0
176
     0
 90
        2
176
     1
  1
strokes_ogs.tif
176
     1
290
     0
176
     1
 40
1.0
176
     1
 40
1.0
176
     1
  0
VISUALSTYLE
  5
3F
102
{ACAD_REACTORS
330
29
102
}
330
29
100
AcDbVisualStyle
  2
JitterOff
 70
    20
177
     3
291
     1
 70
    58
 90
        2
176
     0
 90
        2
176
     0
 90
        0
176
     0
 90
        0
176
     0
 40
0.6
176
     0
 40
30.0
176
     0
 62
     7
420
 16777215
176
     0
 90
        1
176
     0
 90
        4
176
     0
 62
     7
176
     0
 62
   257
176
     0
 90
        1
176
     0
 90
        1
176
     0
 40
1.0
176
     0
 90
       10
176
     2
 62
     7
176
     0
 40
1.0
176
     0
 90
        1
176
     0
 90
        6
176
     0
 90
        2
176
     0
 62
     7
176
     0
 90
        5
176
     0
 90
        0
176
     0
 90
        0
176
     0
290
     0
176
     0
 90
        1
176
     0
 40
0.0
176
     0
 90
        0
176
     0
290
     0
176
     0
290
     1
176
     0
290
     1
176
     0
290
     0
176
     0
290
     0
176
     0
290
     0
176
     0
290
     0
176
     0
290
     0
176
     0
290
     0
176
     0
 90
       50
176
     0
 40
0.0
176
     0
 40
1.0
176
     0
 90
        0
176
     0
 62
    18
420
        0
176
     0
 90
       50
176
     0
 90
        3
176
     0
 62
     5
420
      255
176
     0
290
     0
176
     0
 90
       50
176
     0
 90
       50
176
     0
 90
       50
176
     0
290
     0
176
     0
 90
       50
176
     0
 62
   256
176
     0
 40
1.0
176
     0
 90
        2
176
     0
  1
strokes_ogs.tif
176
     0
290
     0
176
     0
 40
1.0
176
     0
 40
1.0
176
     0
  0
VISUALSTYLE
  5
37
102
{ACAD_REACTORS
330
29
102
}
330
29
100
AcDbVisualStyle
  2
Linepattern
 70
    14
177
     3
291
     1
 70
    58
 90
        2
176
     1
 90
        2
176
     1
 90
        0
176
     1
 90
        0
176
     1
 40
0.6
176
     1
 40
30.0
176
     1
 62
     7
420
 16777215
176
     1
 90
        1
176
     1
 90
        4
176
     1
 62
     7
176
     1
 62
   257
176
     1
 90
        7
176
     1
 90
        7
176
     1
 40
1.0
176
     1
 90
        8
176
     1
 62
     7
176
     1
 40
1.0
176
     1
 90
        1
176
     1
 90
        6
176
     1
 90
        2
176
     1
 62
     7
176
     1
 90
        5
176
     1
 90
        0
176
     1
 90
        0
176
     1
290
     0
176
     1
 90
        1
176
     1
 40
0.0
176
     1
 90
        0
176
     1
290
     0
176
     1
290
     1
176
     1
290
     1
176
     1
290
     0
176
     1
290
     0
176
     1
290
     0
176
     1
290
     0
176
     1
290
     0
176
     1
290
     0
176
     1
 90
       50
176
     1
 40
0.0
176
     1
 40
1.0
176
     1
 90
        0
176
     1
 62
    18
420
        0
176
     1
 90
       50
176
     1
 90
        3
176
     1
 62
     5
420
      255
176
     1
290
     0
176
     1
 90
       50
176
     1
 90
       50
176
     1
 90
       50
176
     1
290
     0
176
     1
 90
       50
176
     1
 62
   256
176
     0
 40
1.0
176
     0
 90
        2
176
     1
  1
strokes_ogs.tif
176
     1
290
     0
176
     1
 40
1.0
176
     1
 40
1.0
176
     1
  0
VISUALSTYLE
  5
40
102
{ACAD_REACTORS
330
29
102
}
330
29
100
AcDbVisualStyle
  2
OverhangOff
 70
    21
177
     3
291
     1
 70
    58
 90
        2
176
     0
 90
        2
176
     0
 90
        0
176
     0
 90
        0
176
     0
 40
0.6
176
     0
 40
30.0
176
     0
 62
     7
420
 16777215
176
     0
 90
        1
176
     0
 90
        4
176
     0
 62
     7
176
     0
 62
   257
176
     0
 90
        1
176
     0
 90
        1
176
     0
 40
1.0
176
     0
 90
        9
176
     2
 62
     7
176
     0
 40
1.0
176
     0
 90
        1
176
     0
 90
        6
176
     0
 90
        2
176
     0
 62
     7
176
     0
 90
        5
176
     0
 90
        0
176
     0
 90
        0
176
     0
290
     0
176
     0
 90
        1
176
     0
 40
0.0
176
     0
 90
        0
176
     0
290
     0
176
     0
290
     1
176
     0
290
     1
176
     0
290
     0
176
     0
290
     0
176
     0
290
     0
176
     0
290
     0
176
     0
290
     0
176
     0
290
     0
176
     0
 90
       50
176
     0
 40
0.0
176
     0
 40
1.0
176
     0
 90
        0
176
     0
 62
    18
420
        0
176
     0
 90
       50
176
     0
 90
        3
176
     0
 62
     5
420
      255
176
     0
290
     0
176
     0
 90
       50
176
     0
 90
       50
176
     0
 90
       50
176
     0
290
     0
176
     0
 90
       50
176
     0
 62
   256
176
     0
 40
1.0
176
     0
 90
        2
176
     0
  1
strokes_ogs.tif
176
     0
290
     0
176
     0
 40
1.0
176
     0
 40
1.0
176
     0
  0
VISUALSTYLE
  5
33
102
{ACAD_REACTORS
330
29
102
}
330
29
100
AcDbVisualStyle
  2
Realistic
 70
     8
177
     3
291
     0
 70
    58
 90
        2
176
     1
 90
        3
176
     1
 90
        0
176
     1
 90
        2
176
     1
 40
0.6
176
     1
 40
30.0
176
     1
 62
     7
420
 16777215
176
     1
 90
        0
176
     1
 90
        0
176
     1
 62
     7
176
     1
 62
   257
176
     1
 90
        1
176
     1
 90
        1
176
     1
 40
1.0
176
     1
 90
        8
176
     1
 62
   257
176
     1
 40
1.0
176
     1
 90
        1
176
     1
 90
        6
176
     1
 90
        2
176
     1
 62
     7
176
     1
 90
        3
176
     1
 90
        0
176
     1
 90
        0
176
     1
290
     0
176
     1
 90
       13
176
     1
 40
0.0
176
     1
 90
        0
176
     1
290
     0
176
     1
290
     1
176
     1
290
     1
176
     1
290
     0
176
     1
290
     0
176
     1
290
     0
176
     1
290
     0
176
     1
290
     0
176
     1
290
     0
176
     1
 90
       50
176
     1
 40
0.0
176
     1
 40
1.0
176
     1
 90
        0
176
     1
 62
    18
420
        0
176
     1
 90
       50
176
     1
 90
        3
176
     1
 62
     5
420
      255
176
     1
290
     0
176
     1
 90
       50
176
     1
 90
       50
176
     1
 90
       50
176
     1
290
     0
176
     1
 90
       50
176
     1
 62
   256
176
     0
 40
1.0
176
     0
 90
        2
176
     1
  1
strokes_ogs.tif
176
     1
290
     0
176
     1
 40
1.0
176
     1
 40
1.0
176
     1
  0
VISUALSTYLE
  5
3E
102
{ACAD_REACTORS
330
29
102
}
330
29
100
AcDbVisualStyle
  2
Shaded
 70
    27
177
     3
291
     0
 70
    58
 90
        2
176
     1
 90
        2
176
     1
 90
        1
176
     1
 90
        2
176
     1
 40
0.6
176
     1
 40
30.0
176
     1
 62
     7
420
 16777215
176
     1
 90
        0
176
     1
 90
        4
176
     1
 62
     7
176
     1
 62
   257
176
     1
 90
        1
176
     1
 90
        1
176
     1
 40
1.0
176
     1
 90
        8
176
     1
 62
   257
176
     1
 40
1.0
176
     1
 90
        1
176
     1
 90
        6
176
     1
 90
        2
176
     1
 62
     8
420
  7895160
176
     1
 90
        3
176
     1
 90
        0
176
     1
 90
        0
176
     1
290
     0
176
     1
 90
        5
176
     1
 40
0.0
176
     1
 90
        0
176
     1
290
     0
176
     1
290
     1
176
     1
290
     1
176
     1
290
     0
176
     1
290
     0
176
     1
290
     0
176
     1
290
     0
176
     1
290
     0
176
     1
290
     0
176
     1
 90
       50
176
     1
 40
0.0
176
     1
 40
1.0
176
     1
 90
        0
176
     1
 62
    18
420
        0
176
     1
 90
       50
176
     1
 90
        3
176
     1
 62
     5
420
      255
176
     1
290
     0
176
     1
 90
       50
176
     1
 90
       50
176
     1
 90
       50
176
     1
290
     0
176
     1
 90
       50
176
     1
 62
   256
176
     0
 40
1.0
176
     0
 90
        2
176
     1
  1
strokes_ogs.tif
176
     1
290
     0
176
     1
 40
1.0
176
     1
 40
1.0
176
     1
  0
VISUALSTYLE
  5
3D
102
{ACAD_REACTORS
330
29
102
}
330
29
100
AcDbVisualStyle
  2
Shaded with edges
 70
    26
177
     3
291
     0
 70
    58
 90
        2
176
     1
 90
        2
176
     1
 90
        1
176
     1
 90
        2
176
     1
 40
0.6
176
     1
 40
30.0
176
     1
 62
     7
420
 16777215
176
     1
 90
        1
176
     1
 90
        2
176
     1
 62
     7
176
     1
 62
   257
176
     1
 90
        2
176
     1
 90
        1
176
     1
 40
1.0
176
     1
 90
        8
176
     1
 62
   257
176
     1
 40
1.0
176
     1
 90
        1
176
     1
 90
        6
176
     1
 90
        2
176
     1
 62
     7
176
     1
 90
        3
176
     1
 90
        0
176
     1
 90
        0
176
     1
290
     0
176
     1
 90
        5
176
     1
 40
0.0
176
     1
 90
        0
176
     1
290
     0
176
     1
290
     1
176
     1
290
     1
176
     1
290
     0
176
     1
290
     0
176
     1
290
     0
176
     1
290
     0
176
     1
290
     0
176
     1
290
     0
176
     1
 90
       50
176
     1
 40
0.0
176
     1
 40
1.0
176
     1
 90
        0
176
     1
 62
    18
420
        0
176
     1
 90
       50
176
     1
 90
        3
176
     1
 62
     5
420
      255
176
     1
290
     0
176
     1
 90
       50
176
     1
 90
       50
176
     1
 90
       50
176
     1
290
     0
176
     1
 90
       50
176
     1
 62
   256
176
     0
 40
1.0
176
     0
 90
        2
176
     1
  1
strokes_ogs.tif
176
     1
290
     0
176
     1
 40
1.0
176
     1
 40
1.0
176
     1
  0
VISUALSTYLE
  5
3A
102
{ACAD_REACTORS
330
29
102
}
330
29
100
AcDbVisualStyle
  2
Shades of Gray
 70
    23
177
     3
291
     0
 70
    58
 90
        2
176
     1
 90
        2
176
     1
 90
        3
176
     1
 90
        0
176
     1
 40
0.6
176
     1
 40
30.0
176
     1
 62
     7
420
 16777215
176
     1
 90
        2
176
     1
 90
        2
176
     1
 62
     7
176
     1
 62
     7
176
     1
 90
        1
176
     1
 90
        1
176
     1
 40
40.0
176
     1
 90
        8
176
     1
 62
     7
176
     1
 40
1.0
176
     1
 90
        1
176
     1
 90
        6
176
     1
 90
        2
176
     1
 62
     7
176
     1
 90
        3
176
     1
 90
        0
176
     1
 90
        0
176
     1
290
     0
176
     1
 90
        1
176
     1
 40
0.0
176
     1
 90
        0
176
     1
290
     0
176
     1
290
     1
176
     1
290
     1
176
     1
290
     0
176
     1
290
     0
176
     1
290
     0
176
     1
290
     0
176
     1
290
     0
176
     1
290
     0
176
     1
 90
       50
176
     1
 40
0.0
176
     1
 40
1.0
176
     1
 90
        0
176
     1
 62
    18
420
        0
176
     1
 90
       50
176
     1
 90
        3
176
     1
 62
     5
420
      255
176
     1
290
     0
176
     1
 90
       50
176
     1
 90
       50
176
     1
 90
       50
176
     1
290
     0
176
     1
 90
       50
176
     1
 62
   256
176
     0
 40
1.0
176
     0
 90
        2
176
     1
  1
strokes_ogs.tif
176
     1
290
     0
176
     1
 40
1.0
176
     1
 40
1.0
176
     1
  0
VISUALSTYLE
  5
3B
102
{ACAD_REACTORS
330
29
102
}
330
29
100
AcDbVisualStyle
  2
Sketchy
 70
    24
177
     3
291
     0
 70
    58
 90
        1
176
     1
 90
        2
176
     1
 90
        2
176
     1
 90
        0
176
     1
 40
0.6
176
     1
 40
30.0
176
     1
 62
     7
420
 16777215
176
     1
 90
        2
176
     1
 90
        2
176
     1
 62
     7
176
     1
 62
     7
176
     1
 90
        1
176
     1
 90
        1
176
     1
 40
40.0
176
     1
 90
       11
176
     1
 62
     7
176
     1
 40
1.0
176
     1
 90
        1
176
     1
 90
        6
176
     1
 90
        2
176
     1
 62
     7
176
     1
 90
        6
176
     1
 90
        0
176
     1
 90
        0
176
     1
290
     0
176
     1
 90
        1
176
     1
 40
0.0
176
     1
 90
        0
176
     1
290
     0
176
     1
290
     1
176
     1
290
     1
176
     1
290
     0
176
     1
290
     0
176
     1
290
     0
176
     1
290
     0
176
     1
290
     0
176
     1
290
     0
176
     1
 90
       50
176
     1
 40
0.0
176
     1
 40
1.0
176
     1
 90
        0
176
     1
 62
    18
420
        0
176
     1
 90
       50
176
     1
 90
        3
176
     1
 62
     5
420
      255
176
     1
290
     0
176
     1
 90
       50
176
     1
 90
       50
176
     1
 90
       50
176
     1
290
     0
176
     1
 90
       50
176
     1
 62
   256
176
     0
 40
1.0
176
     0
 90
        2
176
     1
  1
strokes_ogs.tif
176
     1
290
     0
176
     1
 40
1.0
176
     1
 40
1.0
176
     1
  0
VISUALSTYLE
  5
36
102
{ACAD_REACTORS
330
29
102
}
330
29
100
AcDbVisualStyle
  2
Thicken
 70
    13
177
     3
291
     1
 70
    58
 90
        2
176
     1
 90
        2
176
     1
 90
        0
176
     1
 90
        0
176
     1
 40
0.6
176
     1
 40
30.0
176
     1
 62
     7
420
 16777215
176
     1
 90
        1
176
     1
 90
        4
176
     1
 62
     7
176
     1
 62
   257
176
     1
 90
        1
176
     1
 90
        1
176
     1
 40
1.0
176
     1
 90
       12
176
     1
 62
     7
176
     1
 40
1.0
176
     1
 90
        1
176
     1
 90
        6
176
     1
 90
        2
176
     1
 62
     7
176
     1
 90
        5
176
     1
 90
        0
176
     1
 90
        0
176
     1
290
     0
176
     1
 90
        1
176
     1
 40
0.0
176
     1
 90
        0
176
     1
290
     0
176
     1
290
     1
176
     1
290
     1
176
     1
290
     0
176
     1
290
     0
176
     1
290
     0
176
     1
290
     0
176
     1
290
     0
176
     1
290
     0
176
     1
 90
       50
176
     1
 40
0.0
176
     1
 40
1.0
176
     1
 90
        0
176
     1
 62
    18
420
        0
176
     1
 90
       50
176
     1
 90
        3
176
     1
 62
     5
420
      255
176
     1
290
     0
176
     1
 90
       50
176
     1
 90
       50
176
     1
 90
       50
176
     1
290
     0
176
     1
 90
       50
176
     1
 62
   256
176
     0
 40
1.0
176
     0
 90
        2
176
     1
  1
strokes_ogs.tif
176
     1
290
     0
176
     1
 40
1.0
176
     1
 40
1.0
176
     1
  0
VISUALSTYLE
  5
30
102
{ACAD_REACTORS
330
29
102
}
330
29
100
AcDbVisualStyle
  2
Wireframe
 70
     5
177
     3
291
     0
 70
    58
 90
        0
176
     1
 90
        2
176
     1
 90
        0
176
     1
 90
        0
176
     1
 40
0.6
176
     1
 40
30.0
176
     1
 62
     7
420
 16777215
176
     1
 90
        1
176
     1
 90
        4
176
     1
 62
     7
176
     1
 62
   257
176
     1
 90
        1
176
     1
 90
        1
176
     1
 40
1.0
176
     1
 90
        0
176
     1
 62
   257
176
     1
 40
1.0
176
     1
 90
        1
176
     1
 90
        6
176
     1
 90
        2
176
     1
 62
     7
176
     1
 90
        3
176
     1
 90
        0
176
     1
 90
        0
176
     1
290
     0
176
     1
 90
        1
176
     1
 40
0.0
176
     1
 90
        0
176
     1
290
     0
176
     1
290
     1
176
     1
290
     1
176
     1
290
     0
176
     1
290
     0
176
     1
290
     0
176
     1
290
     0
176
     1
290
     0
176
     1
290
     0
176
     1
 90
       50
176
     1
 40
0.0
176
     1
 40
1.0
176
     1
 90
        0
176
     1
 62
    18
420
        0
176
     1
 90
       50
176
     1
 90
        3
176
     1
 62
     5
420
      255
176
     1
290
     0
176
     1
 90
       50
176
     1
 90
       50
176
     1
 90
       50
176
     1
290
     0
176
     1
 90
       50
176
     1
 62
   256
176
     0
 40
1.0
176
     0
 90
        2
176
     1
  1
strokes_ogs.tif
176
     1
290
     0
176
     1
 40
1.0
176
     1
 40
1.0
176
     1
  0
VISUALSTYLE
  5
3C
102
{ACAD_REACTORS
330
29
102
}
330
29
100
AcDbVisualStyle
  2
X-Ray
 70
    25
177
     3
291
     0
 70
    58
 90
        2
176
     1
 90
        2
176
     1
 90
        1
176
     1
 90
        1
176
     1
 40
0.5
176
     1
 40
30.0
176
     1
 62
     7
420
 16777215
176
     1
 90
        1
176
     1
 90
        0
176
     1
 62
     7
176
     1
 62
   257
176
     1
 90
        1
176
     1
 90
        1
176
     1
 40
1.0
176
     1
 90
        8
176
     1
 62
     7
176
     1
 40
1.0
176
     1
 90
        1
176
     1
 90
        6
176
     1
 90
        2
176
     1
 62
     7
176
     1
 90
        3
176
     1
 90
        0
176
     1
 90
        0
176
     1
290
     0
176
     1
 90
       13
176
     1
 40
0.0
176
     1
 90
        0
176
     1
290
     0
176
     1
290
     1
176
     1
290
     1
176
     1
290
     0
176
     1
290
     0
176
     1
290
     0
176
     1
290
     0
176
     1
290
     0
176
     1
290
     0
176
     1
 90
       50
176
     1
 40
0.0
176
     1
 40
1.0
176
     1
 90
        0
176
     1
 62
    18
420
        0
176
     1
 90
       50
176
     1
 90
        3
176
     1
 62
     5
420
      255
176
     1
290
     0
176
     1
 90
       50
176
     1
 90
       50
176
     1
 90
       50
176
     1
290
     0
176
     1
 90
       50
176
     1
 62
   256
176
     0
 40
1.0
176
     0
 90
        2
176
     1
  1
strokes_ogs.tif
176
     1
290
     0
176
     1
 40
1.0
176
     1
 40
1.0
176
     1
  0
DICTIONARYVAR
  5
2EF
102
{ACAD_REACTORS
330
2EA
102
}
330
2EA
100
DictionaryVariables
280
     0
  1
1:1
  0
DICTIONARYVAR
  5
2EC
102
{ACAD_REACTORS
330
2EA
102
}
330
2EA
100
DictionaryVariables
280
     0
  1
STANDARD
  0
DICTIONARYVAR
  5
2EB
102
{ACAD_REACTORS
330
2EA
102
}
330
2EA
100
DictionaryVariables
280
     0
  1
STANDARD
  0
DICTIONARYVAR
  5
2ED
102
{ACAD_REACTORS
330
2EA
102
}
330
2EA
100
DictionaryVariables
280
     0
  1
Imperial24
  0
DICTIONARYVAR
  5
2EE
102
{ACAD_REACTORS
330
2EA
102
}
330
2EA
100
DictionaryVariables
280
     0
  1
Imperial24
  0
DICTIONARY
  5
1A
330
19
100
AcDbDictionary
280
     1
281
     1
  3
BUMPTILE
360
1C
  3
DIFFUSETILE
360
1B
  3
OPACITYTILE
360
1F
  3
REFLECTIONTILE
360
1E
  3
REFRACTIONTILE
360
20
  3
SPECULARTILE
360
1D
  0
DICTIONARY
  5
12
330
11
100
AcDbDictionary
280
     1
281
     1
  3
BUMPTILE
360
14
  3
DIFFUSETILE
360
13
  3
OPACITYTILE
360
17
  3
REFLECTIONTILE
360
16
  3
REFRACTIONTILE
360
18
  3
SPECULARTILE
360
15
  0
DICTIONARY
  5
22
330
21
100
AcDbDictionary
280
     1
281
     1
  3
BUMPTILE
360
24
  3
DIFFUSETILE
360
23
  3
OPACITYTILE
360
27
  3
REFLECTIONTILE
360
26
  3
REFRACTIONTILE
360
28
  3
SPECULARTILE
360
25
  0
DICTIONARY
  5
2F0
330
65
100
AcDbDictionary
280
     1
281
     1
  3
ACAD_ROUNDTRIP_2008_TABLESTYLE_CELLSTYLEMAP
360
2F1
  0
XRECORD
  5
1C
102
{ACAD_REACTORS
330
1A
102
}
330
1A
100
AcDbXrecord
280
     1
270
     1
271
     1
  0
XRECORD
  5
1B
102
{ACAD_REACTORS
330
1A
102
}
330
1A
100
AcDbXrecord
280
     1
270
     1
271
     1
  0
XRECORD
  5
1F
102
{ACAD_REACTORS
330
1A
102
}
330
1A
100
AcDbXrecord
280
     1
270
     1
271
     1
  0
XRECORD
  5
1E
102
{ACAD_REACTORS
330
1A
102
}
330
1A
100
AcDbXrecord
280
     1
270
     1
271
     1
  0
XRECORD
  5
20
102
{ACAD_REACTORS
330
1A
102
}
330
1A
100
AcDbXrecord
280
     1
270
     1
271
     1
  0
XRECORD
  5
1D
102
{ACAD_REACTORS
330
1A
102
}
330
1A
100
AcDbXrecord
280
     1
270
     1
271
     1
  0
XRECORD
  5
14
102
{ACAD_REACTORS
330
12
102
}
330
12
100
AcDbXrecord
280
     1
270
     1
271
     1
  0
XRECORD
  5
13
102
{ACAD_REACTORS
330
12
102
}
330
12
100
AcDbXrecord
280
     1
270
     1
271
     1
  0
XRECORD
  5
17
102
{ACAD_REACTORS
330
12
102
}
330
12
100
AcDbXrecord
280
     1
270
     1
271
     1
  0
XRECORD
  5
16
102
{ACAD_REACTORS
330
12
102
}
330
12
100
AcDbXrecord
280
     1
270
     1
271
     1
  0
XRECORD
  5
18
102
{ACAD_REACTORS
330
12
102
}
330
12
100
AcDbXrecord
280
     1
270
     1
271
     1
  0
XRECORD
  5
15
102
{ACAD_REACTORS
330
12
102
}
330
12
100
AcDbXrecord
280
     1
270
     1
271
     1
  0
XRECORD
  5
24
102
{ACAD_REACTORS
330
22
102
}
330
22
100
AcDbXrecord
280
     1
270
     1
271
     1
  0
XRECORD
  5
23
102
{ACAD_REACTORS
330
22
102
}
330
22
100
AcDbXrecord
280
     1
270
     1
271
     1
  0
XRECORD
  5
27
102
{ACAD_REACTORS
330
22
102
}
330
22
100
AcDbXrecord
280
     1
270
     1
271
     1
  0
XRECORD
  5
26
102
{ACAD_REACTORS
330
22
102
}
330
22
100
AcDbXrecord
280
     1
270
     1
271
     1
  0
XRECORD
  5
28
102
{ACAD_REACTORS
330
22
102
}
330
22
100
AcDbXrecord
280
     1
270
     1
271
     1
  0
XRECORD
  5
25
102
{ACAD_REACTORS
330
22
102
}
330
22
100
AcDbXrecord
280
     1
270
     1
271
     1
  0
CELLSTYLEMAP
  5
2F1
102
{ACAD_REACTORS
330
2F0
102
}
330
2F0
100
AcDbCellStyleMap
 90
        3
300
CELLSTYLE
  1
TABLEFORMAT_BEGIN
 90
        5
170
     1
 91
        0
 92
    32768
 62
   257
 93
        1
300
CONTENTFORMAT
  1
CONTENTFORMAT_BEGIN
 90
        0
 91
        0
 92
      512
 93
        0
300

 40
0.0
140
1.0
 94
        5
 62
     0
340
55
144
0.25
309
CONTENTFORMAT_END
171
     0
 94
        0
309
TABLEFORMAT_END
  1
CELLSTYLE_BEGIN
 90
        1
 91
        1
300
_TITLE
309
CELLSTYLE_END
300
CELLSTYLE
  1
TABLEFORMAT_BEGIN
 90
        5
170
     1
 91
        0
 92
        0
 62
   257
 93
        1
300
CONTENTFORMAT
  1
CONTENTFORMAT_BEGIN
 90
        0
 91
        0
 92
      512
 93
        0
300

 40
0.0
140
1.0
 94
        5
 62
     0
340
55
144
0.18
309
CONTENTFORMAT_END
171
     0
 94
        0
309
TABLEFORMAT_END
  1
CELLSTYLE_BEGIN
 90
        2
 91
        1
300
_HEADER
309
CELLSTYLE_END
300
CELLSTYLE
  1
TABLEFORMAT_BEGIN
 90
        5
170
     1
 91
        0
 92
        0
 62
   257
 93
        1
300
CONTENTFORMAT
  1
CONTENTFORMAT_BEGIN
 90
        0
 91
        0
 92
      512
 93
        0
300

 40
0.0
140
1.0
 94
        2
 62
     0
340
55
144
0.18
309
CONTENTFORMAT_END
171
     0
 94
        0
309
TABLEFORMAT_END
  1
CELLSTYLE_BEGIN
 90
        3
 91
        2
300
_DATA
309
CELLSTYLE_END
  0
ENDSEC
  0
EOF
