  0
SECTION
  2
HEADER
  9
$ACADVER
  1
AC1032
  9
$ACADMAINTVER
 90
      197
  9
$DWGCODEPAGE
  3
ANSI_1252
  9
$REQUIREDVERSIONS
160
                 0
  9
$INSBASE
 10
0.0
 20
0.0
 30
0.0
  9
$EXTMIN
 10
1.000000000000000E+20
 20
1.000000000000000E+20
 30
1.000000000000000E+20
  9
$EXTMAX
 10
-1.000000000000000E+20
 20
-1.000000000000000E+20
 30
-1.000000000000000E+20
  9
$LIMMIN
 10
0.0
 20
0.0
  9
$LIMMAX
 10
12.0
 20
9.0
  9
$ORTHOMODE
 70
     0
  9
$REGENMODE
 70
     1
  9
$FILLMODE
 70
     1
  9
$QTEXTMODE
 70
     0
  9
$MIRRTEXT
 70
     0
  9
$LTSCALE
 40
1.0
  9
$ATTMODE
 70
     1
  9
$TEXTSIZE
 40
0.2
  9
$TRACEWID
 40
0.05
  9
$TEXTSTYLE
  7
Standard
  9
$CLAYER
  8
0
  9
$CELTYPE
  6
ByLayer
  9
$CECOLOR
 62
   256
  9
$CELTSCALE
 40
1.0
  9
$DISPSILH
 70
     0
  9
$DIMSCALE
 40
1.0
  9
$DIMASZ
 40
0.18
  9
$DIMEXO
 40
0.0625
  9
$DIMDLI
 40
0.38
  9
$DIMRND
 40
0.0
  9
$DIMDLE
 40
0.0
  9
$DIMEXE
 40
0.18
  9
$DIMTP
 40
0.0
  9
$DIMTM
 40
0.0
  9
$DIMTXT
 40
0.18
  9
$DIMCEN
 40
0.09
  9
$DIMTSZ
 40
0.0
  9
$DIMTOL
 70
     0
  9
$DIMLIM
 70
     0
  9
$DIMTIH
 70
     1
  9
$DIMTOH
 70
     1
  9
$DIMSE1
 70
     0
  9
$DIMSE2
 70
     0
  9
$DIMTAD
 70
     0
  9
$DIMZIN
 70
     0
  9
$DIMBLK
  1

  9
$DIMASO
 70
     1
  9
$DIMSHO
 70
     1
  9
$DIMPOST
  1

  9
$DIMAPOST
  1

  9
$DIMALT
 70
     0
  9
$DIMALTD
 70
     2
  9
$DIMALTF
 40
25.4
  9
$DIMLFAC
 40
1.0
  9
$DIMTOFL
 70
     0
  9
$DIMTVP
 40
0.0
  9
$DIMTIX
 70
     0
  9
$DIMSOXD
 70
     0
  9
$DIMSAH
 70
     0
  9
$DIMBLK1
  1

  9
$DIMBLK2
  1

  9
$DIMSTYLE
  2
Standard
  9
$DIMCLRD
 70
     0
  9
$DIMCLRE
 70
     0
  9
$DIMCLRT
 70
     0
  9
$DIMTFAC
 40
1.0
  9
$DIMGAP
 40
0.09
  9
$DIMJUST
 70
     0
  9
$DIMSD1
 70
     0
  9
$DIMSD2
 70
     0
  9
$DIMTOLJ
 70
     1
  9
$DIMTZIN
 70
     0
  9
$DIMALTZ
 70
     0
  9
$DIMALTTZ
 70
     0
  9
$DIMUPT
 70
     0
  9
$DIMDEC
 70
     4
  9
$DIMTDEC
 70
     4
  9
$DIMALTU
 70
     2
  9
$DIMALTTD
 70
     2
  9
$DIMTXSTY
  7
Standard
  9
$DIMAUNIT
 70
     0
  9
$DIMADEC
 70
     0
  9
$DIMALTRND
 40
0.0
  9
$DIMAZIN
 70
     0
  9
$DIMDSEP
 70
    46
  9
$DIMATFIT
 70
     3
  9
$DIMFRAC
 70
     0
  9
$DIMLDRBLK
  1

  9
$DIMLUNIT
 70
     2
  9
$DIMLWD
 70
    -2
  9
$DIMLWE
 70
    -2
  9
$DIMTMOVE
 70
     0
  9
$DIMFXL
 40
1.0
  9
$DIMFXLON
 70
     0
  9
$DIMJOGANG
 40
0.7853981633974483
  9
$DIMTFILL
 70
     0
  9
$DIMTFILLCLR
 70
     0
  9
$DIMARCSYM
 70
     0
  9
$DIMLTYPE
  6

  9
$DIMLTEX1
  6

  9
$DIMLTEX2
  6

  9
$DIMTXTDIRECTION
 70
     0
  9
$LUNITS
 70
     2
  9
$LUPREC
 70
     4
  9
$SKETCHINC
 40
0.1
  9
$FILLETRAD
 40
0.0
  9
$AUNITS
 70
     0
  9
$AUPREC
 70
     0
  9
$MENU
  1
.
  9
$ELEVATION
 40
0.0
  9
$PELEVATION
 40
0.0
  9
$THICKNESS
 40
0.0
  9
$LIMCHECK
 70
     0
  9
$CHAMFERA
 40
0.0
  9
$CHAMFERB
 40
0.0
  9
$CHAMFERC
 40
0.0
  9
$CHAMFERD
 40
0.0
  9
$SKPOLY
 70
     0
  9
$TDCREATE
 40
2459565.682986111
  9
$TDUCREATE
 40
2459565.807986111
  9
$TDUPDATE
 40
2459565.682986111
  9
$TDUUPDATE
 40
2459565.807986111
  9
$TDINDWG
 40
0.0000000000
  9
$TDUSRTIMER
 40
0.0000000000
  9
$USRTIMER
 70
     1
  9
$ANGBASE
 50
0.0
  9
$ANGDIR
 70
     0
  9
$PDMODE
 70
     0
  9
$PDSIZE
 40
0.0
  9
$PLINEWID
 40
0.0
  9
$SPLFRAME
 70
     0
  9
$SPLINETYPE
 70
     6
  9
$SPLINESEGS
 70
     8
  9
$HANDSEED
  5
24F
  9
$SURFTAB1
 70
     6
  9
$SURFTAB2
 70
     6
  9
$SURFTYPE
 70
     6
  9
$SURFU
 70
     6
  9
$SURFV
 70
     6
  9
$UCSBASE
  2

  9
$UCSNAME
  2

  9
$UCSORG
 10
0.0
 20
0.0
 30
0.0
  9
$UCSXDIR
 10
1.0
 20
0.0
 30
0.0
  9
$UCSYDIR
 10
0.0
 20
1.0
 30
0.0
  9
$UCSORTHOREF
  2

  9
$UCSORTHOVIEW
 70
     0
  9
$UCSORGTOP
 10
0.0
 20
0.0
 30
0.0
  9
$UCSORGBOTTOM
 10
0.0
 20
0.0
 30
0.0
  9
$UCSORGLEFT
 10
0.0
 20
0.0
 30
0.0
  9
$UCSORGRIGHT
 10
0.0
 20
0.0
 30
0.0
  9
$UCSORGFRONT
 10
0.0
 20
0.0
 30
0.0
  9
$UCSORGBACK
 10
0.0
 20
0.0
 30
0.0
  9
$PUCSBASE
  2

  9
$PUCSNAME
  2

  9
$PUCSORG
 10
0.0
 20
0.0
 30
0.0
  9
$PUCSXDIR
 10
1.0
 20
0.0
 30
0.0
  9
$PUCSYDIR
 10
0.0
 20
1.0
 30
0.0
  9
$PUCSORTHOREF
  2

  9
$PUCSORTHOVIEW
 70
     0
  9
$PUCSORGTOP
 10
0.0
 20
0.0
 30
0.0
  9
$PUCSORGBOTTOM
 10
0.0
 20
0.0
 30
0.0
  9
$PUCSORGLEFT
 10
0.0
 20
0.0
 30
0.0
  9
$PUCSORGRIGHT
 10
0.0
 20
0.0
 30
0.0
  9
$PUCSORGFRONT
 10
0.0
 20
0.0
 30
0.0
  9
$PUCSORGBACK
 10
0.0
 20
0.0
 30
0.0
  9
$USERI1
 70
     0
  9
$USERI2
 70
     0
  9
$USERI3
 70
     0
  9
$USERI4
 70
     0
  9
$USERI5
 70
     0
  9
$USERR1
 40
0.0
  9
$USERR2
 40
0.0
  9
$USERR3
 40
0.0
  9
$USERR4
 40
0.0
  9
$USERR5
 40
0.0
  9
$WORLDVIEW
 70
     1
  9
$SHADEDGE
 70
     3
  9
$SHADEDIF
 70
    70
  9
$TILEMODE
 70
     1
  9
$MAXACTVP
 70
    64
  9
$PINSBASE
 10
0.0
 20
0.0
 30
0.0
  9
$PLIMCHECK
 70
     0
  9
$PEXTMIN
 10
1.000000000000000E+20
 20
1.000000000000000E+20
 30
1.000000000000000E+20
  9
$PEXTMAX
 10
-1.000000000000000E+20
 20
-1.000000000000000E+20
 30
-1.000000000000000E+20
  9
$PLIMMIN
 10
0.0
 20
0.0
  9
$PLIMMAX
 10
12.0
 20
9.0
  9
$UNITMODE
 70
     0
  9
$VISRETAIN
 70
     1
  9
$PLINEGEN
 70
     0
  9
$PSLTSCALE
 70
     1
  9
$TREEDEPTH
 70
  3020
  9
$CMLSTYLE
  2
Standard
  9
$CMLJUST
 70
     0
  9
$CMLSCALE
 40
1.0
  9
$PROXYGRAPHICS
 70
     1
  9
$MEASUREMENT
 70
     0
  9
$CELWEIGHT
370
    -1
  9
$ENDCAPS
280
     0
  9
$JOINSTYLE
280
     0
  9
$LWDISPLAY
290
     1
  9
$INSUNITS
 70
     0
  9
$HYPERLINKBASE
  1

  9
$STYLESHEET
  1

  9
$XEDIT
290
     1
  9
$CEPSNTYPE
380
     0
  9
$PSTYLEMODE
290
     1
  9
$FINGERPRINTGUID
  2
{319475DB-ED11-C94F-BF4F-009D90CCD1EA}
  9
$VERSIONGUID
  2
{3F1D1201-FE82-AA42-84BF-B731CC4F60B5}
  9
$EXTNAMES
290
     1
  9
$PSVPSCALE
 40
0.0
  9
$OLESTARTUP
290
     0
  9
$SORTENTS
280
   127
  9
$INDEXCTL
280
     0
  9
$HIDETEXT
280
     1
  9
$XCLIPFRAME
280
     2
  9
$HALOGAP
280
     0
  9
$OBSCOLOR
 70
   257
  9
$OBSLTYPE
280
     0
  9
$INTERSECTIONDISPLAY
280
     0
  9
$INTERSECTIONCOLOR
 70
   257
  9
$DIMASSOC
280
     2
  9
$PROJECTNAME
  1

  9
$CAMERADISPLAY
290
     0
  9
$LENSLENGTH
 40
50.0
  9
$CAMERAHEIGHT
 40
0.0
  9
$STEPSPERSEC
 40
2.0
  9
$STEPSIZE
 40
6.0
  9
$3DDWFPREC
 40
2.0
  9
$PSOLWIDTH
 40
0.25
  9
$PSOLHEIGHT
 40
4.0
  9
$LOFTANG1
 40
1.570796326794896
  9
$LOFTANG2
 40
1.570796326794896
  9
$LOFTMAG1
 40
0.0
  9
$LOFTMAG2
 40
0.0
  9
$LOFTPARAM
 70
     7
  9
$LOFTNORMALS
280
     1
  9
$LATITUDE
 40
37.795
  9
$LONGITUDE
 40
-122.394
  9
$NORTHDIRECTION
 40
0.0
  9
$TIMEZONE
 70
 -8000
  9
$LIGHTGLYPHDISPLAY
280
     1
  9
$TILEMODELIGHTSYNCH
280
     1
  9
$CMATERIAL
347
11
  9
$SOLIDHIST
280
     0
  9
$SHOWHIST
280
     1
  9
$DWFFRAME
280
     2
  9
$DGNFRAME
280
     0
  9
$REALWORLDSCALE
290
     1
  9
$INTERFERECOLOR
 62
     1
  9
$INTERFEREOBJVS
345
33
  9
$INTERFEREVPVS
346
30
  9
$CSHADOW
280
     0
  9
$SHADOWPLANELOCATION
 40
0.0
  0
ENDSEC
  0
SECTION
  2
CLASSES
  0
CLASS
  1
ACDBDICTIONARYWDFLT
  2
AcDbDictionaryWithDefault
  3
ObjectDBX Classes
 90
        0
 91
        1
280
     0
281
     0
  0
CLASS
  1
MATERIAL
  2
AcDbMaterial
  3
ObjectDBX Classes
 90
     1153
 91
        3
280
     0
281
     0
  0
CLASS
  1
VISUALSTYLE
  2
AcDbVisualStyle
  3
ObjectDBX Classes
 90
     4095
 91
       24
280
     0
281
     0
  0
CLASS
  1
SCALE
  2
AcDbScale
  3
ObjectDBX Classes
 90
     1153
 91
       17
280
     0
281
     0
  0
CLASS
  1
TABLESTYLE
  2
AcDbTableStyle
  3
ObjectDBX Classes
 90
     4095
 91
        1
280
     0
281
     0
  0
CLASS
  1
MLEADERSTYLE
  2
AcDbMLeaderStyle
  3
ACDB_MLEADERSTYLE_CLASS
 90
     4095
 91
        1
280
     0
281
     0
  0
CLASS
  1
ACDBSECTIONVIEWSTYLE
  2
AcDbSectionViewStyle
  3
ObjectDBX Classes
 90
     1025
 91
        1
280
     0
281
     0
  0
CLASS
  1
ACDBDETAILVIEWSTYLE
  2
AcDbDetailViewStyle
  3
ObjectDBX Classes
 90
     1025
 91
        1
280
     0
281
     0
  0
CLASS
  1
DICTIONARYVAR
  2
AcDbDictionaryVar
  3
ObjectDBX Classes
 90
        0
 91
        5
280
     0
281
     0
  0
CLASS
  1
CELLSTYLEMAP
  2
AcDbCellStyleMap
  3
ObjectDBX Classes
 90
     1152
 91
        1
280
     0
281
     0
  0
ENDSEC
  0
SECTION
  2
TABLES
  0
TABLE
  2
VPORT
  5
8
330
0
100
AcDbSymbolTable
 70
     1
  0
VPORT
  5
57
330
8
100
AcDbSymbolTableRecord
100
AcDbViewportTableRecord
  2
*Active
 70
     0
 10
0.0
 20
0.0
 11
1.0
 21
1.0
 12
0.0
 22
0.0
 13
0.0
 23
0.0
 14
1.0
 24
1.0
 15
0.0
 25
0.0
 16
0.0
 26
0.0
 36
1.0
 17
450.0
 27
165.3847859216293
 37
0.0
 40
544.7046826186663
 41
1.685316886916994
 42
50.0
 43
0.0
 44
0.0
 50
0.0
 51
0.0
 71
     0
 72
   100
 73
     1
 74
     1
 75
     0
 76
     0
 77
     0
 78
     0
281
     0
 65
     1
110
0.0
120
0.0
130
0.0
111
1.0
121
0.0
131
0.0
112
0.0
122
1.0
132
0.0
 79
     0
146
0.0
 60
     3
 61
     5
292
     1
282
     1
141
0.0
142
0.0
 63
   250
421
  3355443
  0
ENDTAB
  0
TABLE
  2
LTYPE
  5
5
330
0
100
AcDbSymbolTable
 70
     1
  0
LTYPE
  5
5B
330
5
100
AcDbSymbolTableRecord
100
AcDbLinetypeTableRecord
  2
ByBlock
 70
     0
  3

 72
    65
 73
     0
 40
0.0
  0
LTYPE
  5
5C
330
5
100
AcDbSymbolTableRecord
100
AcDbLinetypeTableRecord
  2
ByLayer
 70
     0
  3

 72
    65
 73
     0
 40
0.0
  0
LTYPE
  5
5D
330
5
100
AcDbSymbolTableRecord
100
AcDbLinetypeTableRecord
  2
Continuous
 70
     0
  3
Solid line
 72
    65
 73
     0
 40
0.0
  0
ENDTAB
  0
TABLE
  2
LAYER
  5
2
330
0
100
AcDbSymbolTable
 70
     3
  0
LAYER
  5
54
330
2
100
AcDbSymbolTableRecord
100
AcDbLayerTableRecord
  2
0
 70
     0
 62
     7
  6
Continuous
370
     0
390
F
347
21
348
0
  0
LAYER
  5
7E
330
2
100
AcDbSymbolTableRecord
100
AcDbLayerTableRecord
  2
1
 70
     0
 62
     7
  6
Continuous
370
     0
390
F
347
21
348
0
  0
LAYER
  5
C1
330
2
100
AcDbSymbolTableRecord
100
AcDbLayerTableRecord
  2
Front$1
 70
     0
 62
     7
  6
Continuous
370
     0
390
F
347
21
348
0
  0
ENDTAB
  0
TABLE
  2
STYLE
  5
3
330
0
100
AcDbSymbolTable
 70
     2
  0
STYLE
  5
55
330
3
100
AcDbSymbolTableRecord
100
AcDbTextStyleTableRecord
  2
Standard
 70
     0
 40
0.0
 41
1.0
 50
0.0
 71
     0
 42
0.2
  3
txt
  4

  0
STYLE
  5
5A
330
3
100
AcDbSymbolTableRecord
100
AcDbTextStyleTableRecord
  2
Annotative
 70
     0
 40
0.0
 41
1.0
 50
0.0
 71
     0
 42
0.2
  3
txt
  4

1001
AcadAnnotative
1000
AnnotativeData
1002
{
1070
     1
1070
     1
1002
}
  0
ENDTAB
  0
TABLE
  2
VIEW
  5
6
330
0
100
AcDbSymbolTable
 70
     0
  0
ENDTAB
  0
TABLE
  2
UCS
  5
7
330
0
100
AcDbSymbolTable
 70
     0
  0
ENDTAB
  0
TABLE
  2
APPID
  5
9
330
0
100
AcDbSymbolTable
 70
     2
  0
APPID
  5
56
330
9
100
AcDbSymbolTableRecord
100
AcDbRegAppTableRecord
  2
ACAD
 70
     0
  0
APPID
  5
5E
330
9
100
AcDbSymbolTableRecord
100
AcDbRegAppTableRecord
  2
AcadAnnotative
 70
     0
  0
ENDTAB
  0
TABLE
  2
DIMSTYLE
  5
A
330
0
100
AcDbSymbolTable
 70
     2
100
AcDbDimStyleTable
 71
     0
  0
DIMSTYLE
105
58
330
A
100
AcDbSymbolTableRecord
100
AcDbDimStyleTableRecord
  2
Standard
 70
     0
340
55
  0
DIMSTYLE
105
59
330
A
100
AcDbSymbolTableRecord
100
AcDbDimStyleTableRecord
  2
Annotative
 70
     0
340
55
1001
AcadAnnotative
1000
AnnotativeData
1002
{
1070
     1
1070
     1
1002
}
  0
ENDTAB
  0
TABLE
  2
BLOCK_RECORD
  5
1
330
0
100
AcDbSymbolTable
 70
     8
  0
BLOCK_RECORD
  5
70
330
1
100
AcDbSymbolTableRecord
100
AcDbBlockTableRecord
  2
*Model_Space
340
73
 70
     0
280
     1
281
     0
  0
BLOCK_RECORD
  5
6C
330
1
100
AcDbSymbolTableRecord
100
AcDbBlockTableRecord
  2
*Paper_Space
340
6F
 70
     0
280
     1
281
     0
  0
BLOCK_RECORD
  5
74
330
1
100
AcDbSymbolTableRecord
100
AcDbBlockTableRecord
  2
*Paper_Space0
340
77
 70
     0
280
     1
281
     0
  0
BLOCK_RECORD
  5
79
330
1
100
AcDbSymbolTableRecord
100
AcDbBlockTableRecord
  2
Block_0
340
0
102
{BLKREFS
331
7A
102
}
 70
     0
280
     1
281
     0
  0
BLOCK_RECORD
  5
80
330
1
100
AcDbSymbolTableRecord
100
AcDbBlockTableRecord
  2
Block_1
340
0
102
{BLKREFS
331
81
102
}
 70
     0
280
     1
281
     0
  0
BLOCK_RECORD
  5
88
330
1
100
AcDbSymbolTableRecord
100
AcDbBlockTableRecord
  2
Block_2
340
0
102
{BLKREFS
331
89
102
}
 70
     0
280
     1
281
     0
  0
BLOCK_RECORD
  5
99
330
1
100
AcDbSymbolTableRecord
100
AcDbBlockTableRecord
  2
Block_3
340
0
102
{BLKREFS
331
9A
102
}
 70
     0
280
     1
281
     0
  0
BLOCK_RECORD
  5
A9
330
1
100
AcDbSymbolTableRecord
100
AcDbBlockTableRecord
  2
Block_4
340
0
102
{BLKREFS
331
AA
102
}
 70
     0
280
     1
281
     0
  0
BLOCK_RECORD
  5
B5
330
1
100
AcDbSymbolTableRecord
100
AcDbBlockTableRecord
  2
Block_5
340
0
102
{BLKREFS
331
B6
102
}
 70
     0
280
     1
281
     0
  0
BLOCK_RECORD
  5
22B
330
1
100
AcDbSymbolTableRecord
100
AcDbBlockTableRecord
  2
Block_6
340
0
102
{BLKREFS
331
22C
102
}
 70
     0
280
     1
281
     0
  0
ENDTAB
  0
ENDSEC
  0
SECTION
  2
BLOCKS
  0
BLOCK
  5
71
330
70
100
AcDbEntity
  8
0
100
AcDbBlockBegin
  2
*Model_Space
 70
     0
 10
0.0
 20
0.0
 30
0.0
  3
*Model_Space
  1

  0
ENDBLK
  5
72
330
70
100
AcDbEntity
  8
0
100
AcDbBlockEnd
  0
BLOCK
  5
6D
330
6C
100
AcDbEntity
 67
     1
  8
0
100
AcDbBlockBegin
  2
*Paper_Space
 70
     0
 10
0.0
 20
0.0
 30
0.0
  3
*Paper_Space
  1

  0
ENDBLK
  5
6E
330
6C
100
AcDbEntity
 67
     1
  8
0
100
AcDbBlockEnd
  0
BLOCK
  5
75
330
74
100
AcDbEntity
 67
     1
  8
0
100
AcDbBlockBegin
  2
*Paper_Space0
 70
     0
 10
0.0
 20
0.0
 30
0.0
  3
*Paper_Space0
  1

  0
ENDBLK
  5
76
330
74
100
AcDbEntity
 67
     1
  8
0
100
AcDbBlockEnd
  0
BLOCK
  5
7B
330
79
100
AcDbEntity
  8
0
100
AcDbBlockBegin
  2
Block_0
 70
     0
 10
0.0
 20
0.0
 30
0.0
  3
Block_0
  1

  0
ENDBLK
  5
7C
330
79
100
AcDbEntity
  8
0
100
AcDbBlockEnd
  0
BLOCK
  5
82
330
80
100
AcDbEntity
  8
0
100
AcDbBlockBegin
  2
Block_1
 70
     0
 10
0.0
 20
0.0
 30
0.0
  3
Block_1
  1

  0
LWPOLYLINE
  5
84
330
80
100
AcDbEntity
  8
1
 62
     7
370
    35
100
AcDbPolyline
 90
        4
 70
     1
 43
0.0
 10
452.0816714139746
 20
116.6362631702704
 10
441.9604567952255
 20
116.0462480445549
 10
451.3432224748921
 20
119.8869265533394
 10
451.3432224748921
 20
119.8869265533394
  0
HATCH
  5
85
330
80
100
AcDbEntity
  8
1
 62
    16
440
 33554687
100
AcDbHatch
 10
0.0
 20
0.0
 30
0.0
210
0.0
220
0.0
230
1.0
  2
SOLID
 70
     1
 71
     1
 91
        1
 92
        1
 93
        3
 72
     1
 10
452.0816714139746
 20
116.6362631702704
 11
441.9604567952255
 21
116.0462480445549
 72
     1
 10
441.9604567952255
 20
116.0462480445549
 11
451.3432224748921
 21
119.8869265533394
 72
     1
 10
451.3432224748921
 20
119.8869265533394
 11
452.0816714139746
 21
116.6362631702704
 97
        1
330
84
 75
     2
 76
     1
 98
        1
 10
0.0
 20
0.0
450
        0
451
        0
460
0.0
461
0.0
452
        0
462
0.0
453
        0
470

  0
LWPOLYLINE
  5
86
330
80
100
AcDbEntity
  8
1
 62
     7
370
    13
100
AcDbPolyline
 90
        3
 70
     0
 43
0.0
 10
451.7124469444333
 20
118.261594861804
 10
471.0279994113825
 20
122.6494835928588
 10
476.0282262410109
 20
122.6494835928588
  0
ENDBLK
  5
83
330
80
100
AcDbEntity
  8
0
100
AcDbBlockEnd
  0
BLOCK
  5
8A
330
88
100
AcDbEntity
  8
0
100
AcDbBlockBegin
  2
Block_2
 70
     0
 10
0.0
 20
0.0
 30
0.0
  3
Block_2
  1

  0
LINE
  5
8C
330
88
100
AcDbEntity
  8
1
 62
     7
370
    13
100
AcDbLine
 10
423.9596402085644
 20
170.9100998810709
 30
0.0
 11
423.9596402085644
 21
179.1347739840985
 31
0.0
  0
LINE
  5
8D
330
88
100
AcDbEntity
  8
1
 62
     7
370
    13
100
AcDbLine
 10
449.9608197226307
 20
176.9031957510788
 30
0.0
 11
449.9608197226307
 21
179.1347739840985
 31
0.0
  0
LINE
  5
8E
330
88
100
AcDbEntity
  8
1
 62
     7
370
    13
100
AcDbLine
 10
433.9600938678204
 20
177.1346832522467
 30
0.0
 11
439.9603660633747
 21
177.1346832522467
 31
0.0
  0
LINE
  5
8F
330
88
100
AcDbEntity
  8
1
 62
     7
370
    13
100
AcDbLine
 10
449.9608197226307
 20
177.1346832522467
 30
0.0
 11
526.1245918059103
 21
177.1346832522467
 31
0.0
  0
LWPOLYLINE
  5
90
330
88
100
AcDbEntity
  8
1
 62
     7
370
    35
100
AcDbPolyline
 90
        4
 70
     1
 43
0.0
 10
413.9591865493075
 20
178.8014255287898
 10
413.9591865493075
 20
175.4679409757045
 10
423.9596402085644
 20
177.1346832522467
 10
423.9596402085644
 20
177.1346832522467
  0
HATCH
  5
91
330
88
100
AcDbEntity
  8
1
 62
    16
440
 33554687
100
AcDbHatch
 10
0.0
 20
0.0
 30
0.0
210
0.0
220
0.0
230
1.0
  2
SOLID
 70
     1
 71
     1
 91
        1
 92
        1
 93
        3
 72
     1
 10
413.9591865493075
 20
178.8014255287898
 11
413.9591865493075
 21
175.4679409757045
 72
     1
 10
413.9591865493075
 20
175.4679409757045
 11
423.9596402085644
 21
177.1346832522467
 72
     1
 10
423.9596402085644
 20
177.1346832522467
 11
413.9591865493075
 21
178.8014255287898
 97
        1
330
90
 75
     2
 76
     1
 98
        1
 10
0.0
 20
0.0
450
        0
451
        0
460
0.0
461
0.0
452
        0
462
0.0
453
        0
470

  0
LINE
  5
92
330
88
100
AcDbEntity
  8
1
 62
     7
370
    13
100
AcDbLine
 10
413.9591865493075
 20
177.1346832522467
 30
0.0
 11
403.9587328900506
 21
177.1346832522467
 31
0.0
  0
LINE
  5
93
330
88
100
AcDbEntity
  8
1
 62
     7
370
    13
100
AcDbLine
 10
423.9596402085644
 20
177.1346832522467
 30
0.0
 11
433.9600938678204
 21
177.1346832522467
 31
0.0
  0
LWPOLYLINE
  5
94
330
88
100
AcDbEntity
  8
1
 62
     7
370
    35
100
AcDbPolyline
 90
        4
 70
     1
 43
0.0
 10
459.9612733818885
 20
178.8014255287898
 10
459.9612733818885
 20
175.4679409757045
 10
449.9608197226307
 20
177.1346832522467
 10
449.9608197226307
 20
177.1346832522467
  0
HATCH
  5
95
330
88
100
AcDbEntity
  8
1
 62
    16
440
 33554687
100
AcDbHatch
 10
0.0
 20
0.0
 30
0.0
210
0.0
220
0.0
230
1.0
  2
SOLID
 70
     1
 71
     1
 91
        1
 92
        1
 93
        3
 72
     1
 10
459.9612733818885
 20
178.8014255287898
 11
459.9612733818885
 21
175.4679409757045
 72
     1
 10
459.9612733818885
 20
175.4679409757045
 11
449.9608197226307
 21
177.1346832522467
 72
     1
 10
449.9608197226307
 20
177.1346832522467
 11
459.9612733818885
 21
178.8014255287898
 97
        1
330
94
 75
     2
 76
     1
 98
        1
 10
0.0
 20
0.0
450
        0
451
        0
460
0.0
461
0.0
452
        0
462
0.0
453
        0
470

  0
LINE
  5
96
330
88
100
AcDbEntity
  8
1
 62
     7
370
    13
100
AcDbLine
 10
459.9612733818885
 20
177.1346832522467
 30
0.0
 11
469.9617270411436
 21
177.1346832522467
 31
0.0
  0
LINE
  5
97
330
88
100
AcDbEntity
  8
1
 62
     7
370
    13
100
AcDbLine
 10
449.9608197226307
 20
177.1346832522467
 30
0.0
 11
439.9603660633747
 21
177.1346832522467
 31
0.0
  0
MTEXT
  5
98
330
88
100
AcDbEntity
  8
1
100
AcDbMText
 10
507.1237182617188
 20
180.1348266601562
 30
0.0
 40
0.2
 41
0.0
 46
0.0
 71
     7
 72
     1
  1
\C16;\FMyriad Pro|b0|i0|c1;\H6.000272;\W1.000000;∅26
 73
     1
 44
1.0
  0
ENDBLK
  5
8B
330
88
100
AcDbEntity
  8
0
100
AcDbBlockEnd
  0
BLOCK
  5
9B
330
99
100
AcDbEntity
  8
0
100
AcDbBlockBegin
  2
Block_3
 70
     0
 10
0.0
 20
0.0
 30
0.0
  3
Block_3
  1

  0
LINE
  5
9D
330
99
100
AcDbEntity
  8
1
 62
     7
370
    13
100
AcDbLine
 10
376.1371747965704
 20
188.403717459224
 30
0.0
 11
358.159053239443
 21
188.403717459224
 31
0.0
  0
LINE
  5
9E
330
99
100
AcDbEntity
  8
1
 62
     7
370
    13
100
AcDbLine
 10
378.6276257730597
 20
163.4025833110818
 30
0.0
 11
358.159053239443
 21
163.4025833110818
 31
0.0
  0
LINE
  5
9F
330
99
100
AcDbEntity
  8
1
 62
     7
370
    13
100
AcDbLine
 10
360.1591439712947
 20
153.4021296518258
 30
0.0
 11
360.1591439712947
 21
101.3997706236914
 31
0.0
  0
LINE
  5
A0
330
99
100
AcDbEntity
  8
1
 62
     7
370
    13
100
AcDbLine
 10
360.1591439712947
 20
188.403717459224
 30
0.0
 11
360.1591439712947
 21
163.4025833110818
 31
0.0
  0
LWPOLYLINE
  5
A1
330
99
100
AcDbEntity
  8
1
 62
     7
370
    35
100
AcDbPolyline
 90
        4
 70
     1
 43
0.0
 10
358.4924016947516
 20
178.4032637999671
 10
361.825886247837
 20
178.4032637999671
 10
360.1591439712947
 20
188.403717459224
 10
360.1591439712947
 20
188.403717459224
  0
HATCH
  5
A2
330
99
100
AcDbEntity
  8
1
 62
    16
440
 33554687
100
AcDbHatch
 10
0.0
 20
0.0
 30
0.0
210
0.0
220
0.0
230
1.0
  2
SOLID
 70
     1
 71
     1
 91
        1
 92
        1
 93
        3
 72
     1
 10
358.4924016947516
 20
178.4032637999671
 11
361.825886247837
 21
178.4032637999671
 72
     1
 10
361.825886247837
 20
178.4032637999671
 11
360.1591439712947
 21
188.403717459224
 72
     1
 10
360.1591439712947
 20
188.403717459224
 11
358.4924016947516
 21
178.4032637999671
 97
        1
330
A1
 75
     2
 76
     1
 98
        1
 10
0.0
 20
0.0
450
        0
451
        0
460
0.0
461
0.0
452
        0
462
0.0
453
        0
470

  0
LINE
  5
A3
330
99
100
AcDbEntity
  8
1
 62
     7
370
    13
100
AcDbLine
 10
360.1591439712947
 20
178.4032637999671
 30
0.0
 11
360.1591439712947
 21
168.4028101407102
 31
0.0
  0
LWPOLYLINE
  5
A4
330
99
100
AcDbEntity
  8
1
 62
     7
370
    35
100
AcDbPolyline
 90
        4
 70
     1
 43
0.0
 10
358.4924016947516
 20
173.4030369703387
 10
361.825886247837
 20
173.4030369703387
 10
360.1591439712947
 20
163.4025833110818
 10
360.1591439712947
 20
163.4025833110818
  0
HATCH
  5
A5
330
99
100
AcDbEntity
  8
1
 62
    16
440
 33554687
100
AcDbHatch
 10
0.0
 20
0.0
 30
0.0
210
0.0
220
0.0
230
1.0
  2
SOLID
 70
     1
 71
     1
 91
        1
 92
        1
 93
        3
 72
     1
 10
358.4924016947516
 20
173.4030369703387
 11
361.825886247837
 21
173.4030369703387
 72
     1
 10
361.825886247837
 20
173.4030369703387
 11
360.1591439712947
 21
163.4025833110818
 72
     1
 10
360.1591439712947
 20
163.4025833110818
 11
358.4924016947516
 21
173.4030369703387
 97
        1
330
A4
 75
     2
 76
     1
 98
        1
 10
0.0
 20
0.0
450
        0
451
        0
460
0.0
461
0.0
452
        0
462
0.0
453
        0
470

  0
LINE
  5
A6
330
99
100
AcDbEntity
  8
1
 62
     7
370
    13
100
AcDbLine
 10
360.1591439712947
 20
173.4030369703387
 30
0.0
 11
360.1591439712947
 21
183.4034906295956
 31
0.0
  0
LINE
  5
A7
330
99
100
AcDbEntity
  8
1
 62
     7
370
    13
100
AcDbLine
 10
360.1591439712947
 20
163.4025833110818
 30
0.0
 11
360.1591439712947
 21
153.4021296518258
 31
0.0
  0
MTEXT
  5
A8
330
99
100
AcDbEntity
  8
1
100
AcDbMText
 10
357.1590118408203
 20
104.400390625
 30
0.0
 40
0.2
 41
0.0
 46
0.0
 71
     7
 72
     1
  1
\C16;\FMyriad Pro|b0|i0|c1;\H6.000272;\W1.000000;Max. 25
 11
0.0000000000000001
 21
1.0
 31
0.0
 73
     1
 44
1.0
  0
ENDBLK
  5
9C
330
99
100
AcDbEntity
  8
0
100
AcDbBlockEnd
  0
BLOCK
  5
AB
330
A9
100
AcDbEntity
  8
0
100
AcDbBlockBegin
  2
Block_4
 70
     0
 10
0.0
 20
0.0
 30
0.0
  3
Block_4
  1

  0
MTEXT
  5
AD
330
A9
100
AcDbEntity
  8
1
100
AcDbMText
 10
326.2553405761719
 20
258.1035156249991
 30
0.0
 40
0.2
 41
0.0
 46
0.0
 71
     7
 72
     1
  1
\C16;\FMyriad Pro|b0|i0|c1;\H6.000272;\W1.000000;152
 11
0.0000000000000001
 21
1.0
 31
0.0
 73
     1
 44
1.0
  0
LINE
  5
AE
330
A9
100
AcDbEntity
  8
1
 62
     7
370
    13
100
AcDbLine
 10
376.1371747965704
 20
188.4037174592231
 30
0.0
 11
326.6659805918625
 21
188.4037174592231
 31
0.0
  0
LINE
  5
AF
330
A9
100
AcDbEntity
  8
1
 62
     7
370
    13
100
AcDbLine
 10
402.00086807373
 20
340.6497119263722
 30
0.0
 11
326.6659805918625
 21
340.6497119263722
 31
0.0
  0
LINE
  5
B0
330
A9
100
AcDbEntity
  8
1
 62
     7
370
    13
100
AcDbLine
 10
328.6660713237143
 20
188.4037174592231
 30
0.0
 11
328.6660713237143
 21
340.6497119263722
 31
0.0
  0
LWPOLYLINE
  5
B1
330
A9
100
AcDbEntity
  8
1
 62
     7
370
    35
100
AcDbPolyline
 90
        4
 70
     1
 43
0.0
 10
328.6660713237143
 20
188.4037174592231
 10
327.3494865983384
 20
198.4041671182986
 10
329.9826560490892
 20
198.4041761187072
 10
329.9826560490892
 20
198.4041761187072
  0
HATCH
  5
B2
330
A9
100
AcDbEntity
  8
1
 62
    16
440
 33554687
100
AcDbHatch
 10
0.0
 20
0.0
 30
0.0
210
0.0
220
0.0
230
1.0
  2
SOLID
 70
     1
 71
     1
 91
        1
 92
        1
 93
        3
 72
     1
 10
328.6660713237143
 20
188.4037174592231
 11
327.3494865983384
 21
198.4041671182986
 72
     1
 10
327.3494865983384
 20
198.4041671182986
 11
329.9826560490892
 21
198.4041761187072
 72
     1
 10
329.9826560490892
 20
198.4041761187072
 11
328.6660713237143
 21
188.4037174592231
 97
        1
330
B1
 75
     2
 76
     1
 98
        1
 10
0.0
 20
0.0
450
        0
451
        0
460
0.0
461
0.0
452
        0
462
0.0
453
        0
470

  0
LWPOLYLINE
  5
B3
330
A9
100
AcDbEntity
  8
1
 62
     7
370
    35
100
AcDbPolyline
 90
        4
 70
     1
 43
0.0
 10
328.6660713237143
 20
340.6497119263722
 10
329.9826560490892
 20
330.6492632673426
 10
327.3494865983384
 20
330.649253266889
 10
327.3494865983384
 20
330.649253266889
  0
HATCH
  5
B4
330
A9
100
AcDbEntity
  8
1
 62
    16
440
 33554687
100
AcDbHatch
 10
0.0
 20
0.0
 30
0.0
210
0.0
220
0.0
230
1.0
  2
SOLID
 70
     1
 71
     1
 91
        1
 92
        1
 93
        3
 72
     1
 10
328.6660713237143
 20
340.6497119263722
 11
329.9826560490892
 21
330.6492632673426
 72
     1
 10
329.9826560490892
 20
330.6492632673426
 11
327.3494865983384
 21
330.649253266889
 72
     1
 10
327.3494865983384
 20
330.649253266889
 11
328.6660713237143
 21
340.6497119263722
 97
        1
330
B3
 75
     2
 76
     1
 98
        1
 10
0.0
 20
0.0
450
        0
451
        0
460
0.0
461
0.0
452
        0
462
0.0
453
        0
470

  0
ENDBLK
  5
AC
330
A9
100
AcDbEntity
  8
0
100
AcDbBlockEnd
  0
BLOCK
  5
B7
330
B5
100
AcDbEntity
  8
0
100
AcDbBlockBegin
  2
Block_5
 70
     0
 10
0.0
 20
0.0
 30
0.0
  3
Block_5
  1

  0
MTEXT
  5
B9
330
B5
100
AcDbEntity
  8
1
100
AcDbMText
 10
340.2559814453125
 20
253.1230468749991
 30
0.0
 40
0.2
 41
0.0
 46
0.0
 71
     7
 72
     1
  1
\C16;\FMyriad Pro|b0|i0|c1;\H6.000272;\W1.000000;142
 11
0.0000000000000001
 21
1.0
 31
0.0
 73
     1
 44
1.0
  0
LINE
  5
BA
330
B5
100
AcDbEntity
  8
1
 62
     7
370
    13
100
AcDbLine
 10
376.1371747965704
 20
188.4037174592231
 30
0.0
 11
340.666615714822
 21
188.4037174592231
 31
0.0
  0
LINE
  5
BB
330
B5
100
AcDbEntity
  8
1
 62
     7
370
    13
100
AcDbLine
 10
401.1292715347399
 20
330.6873129934247
 30
0.0
 11
340.666615714822
 21
330.6873129934247
 31
0.0
  0
LINE
  5
BC
330
B5
100
AcDbEntity
  8
1
 62
     7
370
    13
100
AcDbLine
 10
342.6667064466728
 20
188.4037174592231
 30
0.0
 11
342.6667064466728
 21
330.6873129934247
 31
0.0
  0
LWPOLYLINE
  5
BD
330
B5
100
AcDbEntity
  8
1
 62
     7
370
    35
100
AcDbPolyline
 90
        4
 70
     1
 43
0.0
 10
342.6667064466728
 20
188.4037174592231
 10
341.3501217212979
 20
198.4041671182986
 10
343.9832911720487
 20
198.4041761187072
 10
343.9832911720487
 20
198.4041761187072
  0
HATCH
  5
BE
330
B5
100
AcDbEntity
  8
1
 62
    16
440
 33554687
100
AcDbHatch
 10
0.0
 20
0.0
 30
0.0
210
0.0
220
0.0
230
1.0
  2
SOLID
 70
     1
 71
     1
 91
        1
 92
        1
 93
        3
 72
     1
 10
342.6667064466728
 20
188.4037174592231
 11
341.3501217212979
 21
198.4041671182986
 72
     1
 10
341.3501217212979
 20
198.4041671182986
 11
343.9832911720487
 21
198.4041761187072
 72
     1
 10
343.9832911720487
 20
198.4041761187072
 11
342.6667064466728
 21
188.4037174592231
 97
        1
330
BD
 75
     2
 76
     1
 98
        1
 10
0.0
 20
0.0
450
        0
451
        0
460
0.0
461
0.0
452
        0
462
0.0
453
        0
470

  0
LWPOLYLINE
  5
BF
330
B5
100
AcDbEntity
  8
1
 62
     7
370
    35
100
AcDbPolyline
 90
        4
 70
     1
 43
0.0
 10
342.6667064466728
 20
330.6873129934247
 10
343.9832911720487
 20
320.6868643343951
 10
341.3501217212979
 20
320.6868543339415
 10
341.3501217212979
 20
320.6868543339415
  0
HATCH
  5
C0
330
B5
100
AcDbEntity
  8
1
 62
    16
440
 33554687
100
AcDbHatch
 10
0.0
 20
0.0
 30
0.0
210
0.0
220
0.0
230
1.0
  2
SOLID
 70
     1
 71
     1
 91
        1
 92
        1
 93
        3
 72
     1
 10
342.6667064466728
 20
330.6873129934247
 11
343.9832911720487
 21
320.6868643343951
 72
     1
 10
343.9832911720487
 20
320.6868643343951
 11
341.3501217212979
 21
320.6868543339415
 72
     1
 10
341.3501217212979
 20
320.6868543339415
 11
342.6667064466728
 21
330.6873129934247
 97
        1
330
BF
 75
     2
 76
     1
 98
        1
 10
0.0
 20
0.0
450
        0
451
        0
460
0.0
461
0.0
452
        0
462
0.0
453
        0
470

  0
ENDBLK
  5
B8
330
B5
100
AcDbEntity
  8
0
100
AcDbBlockEnd
  0
BLOCK
  5
22D
330
22B
100
AcDbEntity
  8
0
100
AcDbBlockBegin
  2
Block_6
 70
     0
 10
0.0
 20
0.0
 30
0.0
  3
Block_6
  1

  0
SPLINE
  5
22F
330
22B
100
AcDbEntity
  8
Front$1
 62
     7
370
    35
100
AcDbSpline
210
0.0
220
0.0
230
1.0
 70
     9
 71
     3
 72
    29
 73
    25
 74
     0
 42
0.0000000001
 43
0.0000000001
 40
0.0
 40
0.0
 40
0.0
 40
0.0
 40
1.0
 40
1.0
 40
1.0
 40
2.0
 40
2.0
 40
2.0
 40
3.0
 40
3.0
 40
3.0
 40
4.0
 40
4.0
 40
4.0
 40
5.0
 40
5.0
 40
5.0
 40
6.0
 40
6.0
 40
6.0
 40
7.0
 40
7.0
 40
7.0
 40
8.0
 40
8.0
 40
8.0
 40
8.0
 10
379.6276716983948
 20
163.402583897594
 30
0.0
 10
374.1597790602709
 20
165.5781212795309
 30
0.0
 10
375.1970736555068
 20
170.7569150291629
 30
0.0
 10
378.0458668276578
 20
173.4729860027992
 30
0.0
 10
378.9912194847602
 20
174.3742957001486
 30
0.0
 10
380.1360542072171
 20
175.004410580118
 30
0.0
 10
380.9970429771756
 20
175.982844752888
 30
0.0
 10
381.8511934717171
 20
176.9535078575754
 30
0.0
 10
382.4259889171226
 20
178.2669792788847
 30
0.0
 10
382.4341235113779
 20
179.5262286493462
 30
0.0
 10
382.4561345033553
 20
182.9335685756632
 30
0.0
 10
378.3292676396068
 20
185.9439150170883
 30
0.0
 10
377.1372198308382
 20
188.4037180457353
 30
0.0
 10
377.1372198308382
 20
188.4037180457353
 30
0.0
 10
379.6276716983948
 20
163.402583897594
 30
0.0
 10
379.6276716983948
 20
163.402583897594
 30
0.0
 10
379.6276716983948
 20
163.402583897594
 30
0.0
 10
423.9596402085644
 20
163.402583897594
 30
0.0
 10
423.9596402085644
 20
163.402583897594
 30
0.0
 10
423.9596402085644
 20
163.402583897594
 30
0.0
 10
423.9596402085644
 20
188.4037180457353
 30
0.0
 10
423.9596402085644
 20
188.4037180457353
 30
0.0
 10
423.9596402085644
 20
188.4037180457353
 30
0.0
 10
379.6276716983948
 20
163.402583897594
 30
0.0
 10
379.6276716983948
 20
163.402583897594
 30
0.0
  0
SPLINE
  5
230
330
22B
100
AcDbEntity
  8
Front$1
 62
     7
370
    35
100
AcDbSpline
210
0.0
220
0.0
230
1.0
 70
     8
 71
     3
 72
    26
 73
    22
 74
     0
 42
0.0000000001
 43
0.0000000001
 40
0.0
 40
0.0
 40
0.0
 40
0.0
 40
1.0
 40
1.0
 40
1.0
 40
2.0
 40
2.0
 40
2.0
 40
3.0
 40
3.0
 40
3.0
 40
4.0
 40
4.0
 40
4.0
 40
5.0
 40
5.0
 40
5.0
 40
6.0
 40
6.0
 40
6.0
 40
7.0
 40
7.0
 40
7.0
 40
7.0
 10
449.9608197226307
 20
163.402583897594
 30
0.0
 10
449.9608197226307
 20
163.402583897594
 30
0.0
 10
449.9608197226307
 20
188.4037180457353
 30
0.0
 10
449.9608197226307
 20
188.4037180457353
 30
0.0
 10
449.9608197226307
 20
188.4037180457353
 30
0.0
 10
449.9608197226307
 20
163.402583897594
 30
0.0
 10
449.9608197226307
 20
163.402583897594
 30
0.0
 10
499.7606808709242
 20
186.2281806637966
 30
0.0
 10
498.7233862756893
 20
181.0493869141637
 30
0.0
 10
495.8745931035373
 20
178.3333159405283
 30
0.0
 10
494.9292404464358
 20
177.4320062431779
 30
0.0
 10
493.7844057239781
 20
176.8018913632086
 30
0.0
 10
492.9234169540195
 20
175.8234571904395
 30
0.0
 10
492.0692664594771
 20
174.8527940857511
 30
0.0
 10
491.4944710140717
 20
173.5393226644419
 30
0.0
 10
491.4863364198172
 20
172.2800732939804
 30
0.0
 10
491.4643254278399
 20
168.8727333676652
 30
0.0
 10
495.5911922915893
 20
165.8623869262383
 30
0.0
 10
496.7832401003579
 20
163.402583897594
 30
0.0
 10
496.7832401003579
 20
163.402583897594
 30
0.0
 10
494.2927882328003
 20
188.4037180457353
 30
0.0
 10
494.2927882328003
 20
188.4037180457353
 30
0.0
  0
SPLINE
  5
231
330
22B
100
AcDbEntity
  8
Front$1
 62
     7
370
     0
100
AcDbSpline
210
0.0
220
0.0
230
1.0
 70
    24
 71
     3
 72
     8
 73
     4
 74
     0
 42
0.0000000001
 43
0.0000000001
 40
0.0
 40
0.0
 40
0.0
 40
0.0
 40
1.0
 40
1.0
 40
1.0
 40
1.0
 10
495.298882969646
 20
163.402583897594
 30
0.0
 10
495.298882969646
 20
163.402583897594
 30
0.0
 10
496.2265966282757
 20
164.3302975562219
 30
0.0
 10
496.2265966282757
 20
164.3302975562219
 30
0.0
  0
SPLINE
  5
232
330
22B
100
AcDbEntity
  8
Front$1
 62
     7
370
     0
100
AcDbSpline
210
0.0
220
0.0
230
1.0
 70
    24
 71
     3
 72
     8
 73
     4
 74
     0
 42
0.0000000001
 43
0.0000000001
 40
0.0
 40
0.0
 40
0.0
 40
0.0
 40
1.0
 40
1.0
 40
1.0
 40
1.0
 10
488.338868742654
 20
163.402583897594
 30
0.0
 10
488.338868742654
 20
163.402583897594
 30
0.0
 10
493.1357716253878
 20
168.1994867803268
 30
0.0
 10
493.1357716253878
 20
168.1994867803268
 30
0.0
  0
SPLINE
  5
233
330
22B
100
AcDbEntity
  8
Front$1
 62
     7
370
     0
100
AcDbSpline
210
0.0
220
0.0
230
1.0
 70
    24
 71
     3
 72
     8
 73
     4
 74
     0
 42
0.0000000001
 43
0.0000000001
 40
0.0
 40
0.0
 40
0.0
 40
0.0
 40
1.0
 40
1.0
 40
1.0
 40
1.0
 10
481.3788545156604
 20
163.402583897594
 30
0.0
 10
481.3788545156604
 20
163.402583897594
 30
0.0
 10
491.7405684510158
 20
173.7642978329468
 30
0.0
 10
491.7405684510158
 20
173.7642978329468
 30
0.0
  0
SPLINE
  5
234
330
22B
100
AcDbEntity
  8
Front$1
 62
     7
370
     0
100
AcDbSpline
210
0.0
220
0.0
230
1.0
 70
    24
 71
     3
 72
     8
 73
     4
 74
     0
 42
0.0000000001
 43
0.0000000001
 40
0.0
 40
0.0
 40
0.0
 40
0.0
 40
1.0
 40
1.0
 40
1.0
 40
1.0
 10
474.4188402886666
 20
163.402583897594
 30
0.0
 10
474.4188402886666
 20
163.402583897594
 30
0.0
 10
497.2743462843936
 20
186.2580898933202
 30
0.0
 10
497.2743462843936
 20
186.2580898933202
 30
0.0
  0
SPLINE
  5
235
330
22B
100
AcDbEntity
  8
Front$1
 62
     7
370
     0
100
AcDbSpline
210
0.0
220
0.0
230
1.0
 70
    24
 71
     3
 72
     8
 73
     4
 74
     0
 42
0.0000000001
 43
0.0000000001
 40
0.0
 40
0.0
 40
0.0
 40
0.0
 40
1.0
 40
1.0
 40
1.0
 40
1.0
 10
467.4588260616746
 20
163.402583897594
 30
0.0
 10
467.4588260616746
 20
163.402583897594
 30
0.0
 10
492.4599602098151
 20
188.4037180457353
 30
0.0
 10
492.4599602098151
 20
188.4037180457353
 30
0.0
  0
SPLINE
  5
236
330
22B
100
AcDbEntity
  8
Front$1
 62
     7
370
     0
100
AcDbSpline
210
0.0
220
0.0
230
1.0
 70
    24
 71
     3
 72
     8
 73
     4
 74
     0
 42
0.0000000001
 43
0.0000000001
 40
0.0
 40
0.0
 40
0.0
 40
0.0
 40
1.0
 40
1.0
 40
1.0
 40
1.0
 10
460.4988118346809
 20
163.402583897594
 30
0.0
 10
460.4988118346809
 20
163.402583897594
 30
0.0
 10
485.4999459828214
 20
188.4037180457353
 30
0.0
 10
485.4999459828214
 20
188.4037180457353
 30
0.0
  0
SPLINE
  5
237
330
22B
100
AcDbEntity
  8
Front$1
 62
     7
370
     0
100
AcDbSpline
210
0.0
220
0.0
230
1.0
 70
    24
 71
     3
 72
     8
 73
     4
 74
     0
 42
0.0000000001
 43
0.0000000001
 40
0.0
 40
0.0
 40
0.0
 40
0.0
 40
1.0
 40
1.0
 40
1.0
 40
1.0
 10
453.5387976076872
 20
163.402583897594
 30
0.0
 10
453.5387976076872
 20
163.402583897594
 30
0.0
 10
478.5399317558294
 20
188.4037180457353
 30
0.0
 10
478.5399317558294
 20
188.4037180457353
 30
0.0
  0
SPLINE
  5
238
330
22B
100
AcDbEntity
  8
Front$1
 62
     7
370
     0
100
AcDbSpline
210
0.0
220
0.0
230
1.0
 70
    24
 71
     3
 72
     8
 73
     4
 74
     0
 42
0.0000000001
 43
0.0000000001
 40
0.0
 40
0.0
 40
0.0
 40
0.0
 40
1.0
 40
1.0
 40
1.0
 40
1.0
 10
449.9608197226307
 20
166.7846202395285
 30
0.0
 10
449.9608197226307
 20
166.7846202395285
 30
0.0
 10
471.5799175288357
 20
188.4037180457353
 30
0.0
 10
471.5799175288357
 20
188.4037180457353
 30
0.0
  0
SPLINE
  5
239
330
22B
100
AcDbEntity
  8
Front$1
 62
     7
370
     0
100
AcDbSpline
210
0.0
220
0.0
230
1.0
 70
    24
 71
     3
 72
     8
 73
     4
 74
     0
 42
0.0000000001
 43
0.0000000001
 40
0.0
 40
0.0
 40
0.0
 40
0.0
 40
1.0
 40
1.0
 40
1.0
 40
1.0
 10
449.9608197226307
 20
173.7446344665222
 30
0.0
 10
449.9608197226307
 20
173.7446344665222
 30
0.0
 10
464.6199033018437
 20
188.4037180457353
 30
0.0
 10
464.6199033018437
 20
188.4037180457353
 30
0.0
  0
SPLINE
  5
23A
330
22B
100
AcDbEntity
  8
Front$1
 62
     7
370
     0
100
AcDbSpline
210
0.0
220
0.0
230
1.0
 70
    24
 71
     3
 72
     8
 73
     4
 74
     0
 42
0.0000000001
 43
0.0000000001
 40
0.0
 40
0.0
 40
0.0
 40
0.0
 40
1.0
 40
1.0
 40
1.0
 40
1.0
 10
449.9608197226307
 20
180.704648693516
 30
0.0
 10
449.9608197226307
 20
180.704648693516
 30
0.0
 10
457.65988907485
 20
188.4037180457353
 30
0.0
 10
457.65988907485
 20
188.4037180457353
 30
0.0
  0
SPLINE
  5
23B
330
22B
100
AcDbEntity
  8
Front$1
 62
     7
370
     0
100
AcDbSpline
210
0.0
220
0.0
230
1.0
 70
    24
 71
     3
 72
     8
 73
     4
 74
     0
 42
0.0000000001
 43
0.0000000001
 40
0.0
 40
0.0
 40
0.0
 40
0.0
 40
1.0
 40
1.0
 40
1.0
 40
1.0
 10
449.9608197226307
 20
187.6646629205088
 30
0.0
 10
449.9608197226307
 20
187.6646629205088
 30
0.0
 10
450.6998748478563
 20
188.4037180457353
 30
0.0
 10
450.6998748478563
 20
188.4037180457353
 30
0.0
  0
SPLINE
  5
23C
330
22B
100
AcDbEntity
  8
Front$1
 62
     7
370
     0
100
AcDbSpline
210
0.0
220
0.0
230
1.0
 70
    24
 71
     3
 72
     8
 73
     4
 74
     0
 42
0.0000000001
 43
0.0000000001
 40
0.0
 40
0.0
 40
0.0
 40
0.0
 40
1.0
 40
1.0
 40
1.0
 40
1.0
 10
418.7387264727221
 20
163.402583897594
 30
0.0
 10
418.7387264727221
 20
163.402583897594
 30
0.0
 10
423.9596402085644
 20
168.6234976334335
 30
0.0
 10
423.9596402085644
 20
168.6234976334335
 30
0.0
  0
SPLINE
  5
23D
330
22B
100
AcDbEntity
  8
Front$1
 62
     7
370
     0
100
AcDbSpline
210
0.0
220
0.0
230
1.0
 70
    24
 71
     3
 72
     8
 73
     4
 74
     0
 42
0.0000000001
 43
0.0000000001
 40
0.0
 40
0.0
 40
0.0
 40
0.0
 40
1.0
 40
1.0
 40
1.0
 40
1.0
 10
411.7787122457285
 20
163.402583897594
 30
0.0
 10
411.7787122457285
 20
163.402583897594
 30
0.0
 10
423.9596402085644
 20
175.5835118604273
 30
0.0
 10
423.9596402085644
 20
175.5835118604273
 30
0.0
  0
SPLINE
  5
23E
330
22B
100
AcDbEntity
  8
Front$1
 62
     7
370
     0
100
AcDbSpline
210
0.0
220
0.0
230
1.0
 70
    24
 71
     3
 72
     8
 73
     4
 74
     0
 42
0.0000000001
 43
0.0000000001
 40
0.0
 40
0.0
 40
0.0
 40
0.0
 40
1.0
 40
1.0
 40
1.0
 40
1.0
 10
404.8186980187365
 20
163.402583897594
 30
0.0
 10
404.8186980187365
 20
163.402583897594
 30
0.0
 10
423.9596402085644
 20
182.5435260874201
 30
0.0
 10
423.9596402085644
 20
182.5435260874201
 30
0.0
  0
SPLINE
  5
23F
330
22B
100
AcDbEntity
  8
Front$1
 62
     7
370
     0
100
AcDbSpline
210
0.0
220
0.0
230
1.0
 70
    24
 71
     3
 72
     8
 73
     4
 74
     0
 42
0.0000000001
 43
0.0000000001
 40
0.0
 40
0.0
 40
0.0
 40
0.0
 40
1.0
 40
1.0
 40
1.0
 40
1.0
 10
397.8586837917428
 20
163.402583897594
 30
0.0
 10
397.8586837917428
 20
163.402583897594
 30
0.0
 10
422.8598179398841
 20
188.4037180457353
 30
0.0
 10
422.8598179398841
 20
188.4037180457353
 30
0.0
  0
SPLINE
  5
240
330
22B
100
AcDbEntity
  8
Front$1
 62
     7
370
     0
100
AcDbSpline
210
0.0
220
0.0
230
1.0
 70
    24
 71
     3
 72
     8
 73
     4
 74
     0
 42
0.0000000001
 43
0.0000000001
 40
0.0
 40
0.0
 40
0.0
 40
0.0
 40
1.0
 40
1.0
 40
1.0
 40
1.0
 10
390.89866956475
 20
163.402583897594
 30
0.0
 10
390.89866956475
 20
163.402583897594
 30
0.0
 10
415.8998037128912
 20
188.4037180457353
 30
0.0
 10
415.8998037128912
 20
188.4037180457353
 30
0.0
  0
SPLINE
  5
241
330
22B
100
AcDbEntity
  8
Front$1
 62
     7
370
     0
100
AcDbSpline
210
0.0
220
0.0
230
1.0
 70
    24
 71
     3
 72
     8
 73
     4
 74
     0
 42
0.0000000001
 43
0.0000000001
 40
0.0
 40
0.0
 40
0.0
 40
0.0
 40
1.0
 40
1.0
 40
1.0
 40
1.0
 10
383.9386553377572
 20
163.402583897594
 30
0.0
 10
383.9386553377572
 20
163.402583897594
 30
0.0
 10
408.9397894858985
 20
188.4037180457353
 30
0.0
 10
408.9397894858985
 20
188.4037180457353
 30
0.0
  0
SPLINE
  5
242
330
22B
100
AcDbEntity
  8
Front$1
 62
     7
370
     0
100
AcDbSpline
210
0.0
220
0.0
230
1.0
 70
    24
 71
     3
 72
     8
 73
     4
 74
     0
 42
0.0000000001
 43
0.0000000001
 40
0.0
 40
0.0
 40
0.0
 40
0.0
 40
1.0
 40
1.0
 40
1.0
 40
1.0
 10
377.9029477938111
 20
164.3268905806408
 30
0.0
 10
377.9029477938111
 20
164.3268905806408
 30
0.0
 10
401.9797752589056
 20
188.4037180457353
 30
0.0
 10
401.9797752589056
 20
188.4037180457353
 30
0.0
  0
SPLINE
  5
243
330
22B
100
AcDbEntity
  8
Front$1
 62
     7
370
     0
100
AcDbSpline
210
0.0
220
0.0
230
1.0
 70
    24
 71
     3
 72
     8
 73
     4
 74
     0
 42
0.0000000001
 43
0.0000000001
 40
0.0
 40
0.0
 40
0.0
 40
0.0
 40
1.0
 40
1.0
 40
1.0
 40
1.0
 10
375.7619260720667
 20
169.1458830858891
 30
0.0
 10
375.7619260720667
 20
169.1458830858891
 30
0.0
 10
395.0197610319128
 20
188.4037180457353
 30
0.0
 10
395.0197610319128
 20
188.4037180457353
 30
0.0
  0
SPLINE
  5
244
330
22B
100
AcDbEntity
  8
Front$1
 62
     7
370
     0
100
AcDbSpline
210
0.0
220
0.0
230
1.0
 70
    24
 71
     3
 72
     8
 73
     4
 74
     0
 42
0.0000000001
 43
0.0000000001
 40
0.0
 40
0.0
 40
0.0
 40
0.0
 40
1.0
 40
1.0
 40
1.0
 40
1.0
 10
381.7420364469654
 20
182.0860076877816
 30
0.0
 10
381.7420364469654
 20
182.0860076877816
 30
0.0
 10
388.0597468049191
 20
188.4037180457353
 30
0.0
 10
388.0597468049191
 20
188.4037180457353
 30
0.0
  0
SPLINE
  5
245
330
22B
100
AcDbEntity
  8
Front$1
 62
     7
370
     0
100
AcDbSpline
210
0.0
220
0.0
230
1.0
 70
    24
 71
     3
 72
     8
 73
     4
 74
     0
 42
0.0000000001
 43
0.0000000001
 40
0.0
 40
0.0
 40
0.0
 40
0.0
 40
1.0
 40
1.0
 40
1.0
 40
1.0
 10
378.7794791242959
 20
186.0834645921031
 30
0.0
 10
378.7794791242959
 20
186.0834645921031
 30
0.0
 10
381.0997325779263
 20
188.4037180457353
 30
0.0
 10
381.0997325779263
 20
188.4037180457353
 30
0.0
  0
ENDBLK
  5
22E
330
22B
100
AcDbEntity
  8
0
100
AcDbBlockEnd
  0
ENDSEC
  0
SECTION
  2
ENTITIES
  0
LWPOLYLINE
  5
78
330
70
100
AcDbEntity
  8
0
 62
     7
370
     0
100
AcDbPolyline
 90
        4
 70
     1
 43
0.0
 10
218.4081118009826
 20
-101.6273134012463
 10
218.4081118009826
 20
432.396885244505
 10
631.0631743908816
 20
432.396885244505
 10
631.0631743908816
 20
-101.6273134012463
  0
INSERT
  5
7A
330
70
100
AcDbEntity
  8
0
100
AcDbBlockReference
  2
Block_0
 10
0.0
 20
0.0
 30
0.0
  0
LWPOLYLINE
  5
7D
330
70
100
AcDbEntity
  8
0
 62
     7
370
     0
100
AcDbPolyline
 90
        4
 70
     1
 43
0.0
 10
367.8094910206255
 20
-46.0
 10
367.8094910206255
 20
347.0
 10
506.1109689105688
 20
347.0
 10
506.1109689105688
 20
-46.0
  0
LINE
  5
7F
330
70
100
AcDbEntity
  8
1
 62
     7
370
    13
100
AcDbLine
 10
477.5282942898993
 20
122.6494835928588
 30
0.0
 11
477.5282942898993
 21
122.6494835928588
 31
0.0
  0
INSERT
  5
81
330
70
100
AcDbEntity
  8
1
100
AcDbBlockReference
  2
Block_1
 10
0.0
 20
0.0
 30
0.0
  0
MTEXT
  5
87
330
70
100
AcDbEntity
  8
1
100
AcDbMText
 10
477.7402954101562
 20
119.5972671508789
 30
0.0
 40
0.2
 41
0.0
 46
0.0
 71
     7
 72
     1
  1
\C16;\FMyriad Pro|b0|i0|c1;\H6.000272;\W1.000000;COMPRIMENTO: 1500mm
 73
     1
 44
1.0
  0
INSERT
  5
89
330
70
100
AcDbEntity
  8
1
100
AcDbBlockReference
  2
Block_2
 10
0.0
 20
0.0
 30
0.0
  0
INSERT
  5
9A
330
70
100
AcDbEntity
  8
1
100
AcDbBlockReference
  2
Block_3
 10
0.0
 20
0.0
 30
0.0
  0
INSERT
  5
AA
330
70
100
AcDbEntity
  8
1
100
AcDbBlockReference
  2
Block_4
 10
0.0
 20
0.0
 30
0.0
  0
INSERT
  5
B6
330
70
100
AcDbEntity
  8
1
100
AcDbBlockReference
  2
Block_5
 10
0.0
 20
0.0
 30
0.0
  0
LINE
  5
C2
330
70
100
AcDbEntity
  8
Front$1
 62
     7
370
    25
100
AcDbLine
 10
402.1293169006658
 20
330.6873129934247
 30
0.0
 11
402.1293169006658
 21
330.6873129934247
 31
0.0
  0
LINE
  5
C3
330
70
100
AcDbEntity
  8
Front$1
 62
     7
370
    25
100
AcDbLine
 10
441.9604567952255
 20
116.0462480445549
 30
0.0
 11
441.9604567952255
 21
116.0462480445549
 31
0.0
  0
LINE
  5
C4
330
70
100
AcDbEntity
  8
Front$1
 62
     7
370
    35
100
AcDbLine
 10
496.7832397686979
 20
163.4025843111276
 30
0.0
 11
458.9616980372848
 21
163.4025843111276
 31
0.0
  0
LINE
  5
C5
330
70
100
AcDbEntity
  8
Front$1
 62
     7
370
    35
100
AcDbLine
 10
460.4619550947464
 20
188.4037184592689
 30
0.0
 11
494.2927877921647
 21
188.4037184592689
 31
0.0
  0
LINE
  5
C6
330
70
100
AcDbEntity
  8
Front$1
 62
     7
370
    35
100
AcDbLine
 10
377.1372201624963
 20
188.4037184592689
 30
0.0
 11
413.4589808580422
 21
188.4037184592689
 31
0.0
  0
LINE
  5
C7
330
70
100
AcDbEntity
  8
Front$1
 62
     7
370
    35
100
AcDbLine
 10
414.9588648985837
 20
163.4025843111276
 30
0.0
 11
379.6276721390305
 21
163.4025843111276
 31
0.0
  0
LINE
  5
C8
330
70
100
AcDbEntity
  8
Front$1
 62
     7
370
    35
100
AcDbLine
 10
423.9596402085644
 20
188.4037184592689
 30
0.0
 11
423.9596402085644
 21
163.4025843111276
 31
0.0
  0
LINE
  5
C9
330
70
100
AcDbEntity
  8
Front$1
 62
     7
370
    35
100
AcDbLine
 10
449.9608197226307
 20
163.4025843111276
 30
0.0
 11
449.9608197226307
 21
188.4037184592689
 31
0.0
  0
LINE
  5
CA
330
70
100
AcDbEntity
  8
Front$1
 62
     7
370
    25
100
AcDbLine
 10
386.9579616693145
 20
188.4037184592689
 30
0.0
 11
486.9624982618806
 21
188.4037184592689
 31
0.0
  0
LINE
  5
CB
330
70
100
AcDbEntity
  8
Front$1
 62
     7
370
    35
100
AcDbLine
 10
428.4598443552295
 20
-19.14878192489595
 30
0.0
 11
428.4598443552295
 21
-27.14914485230111
 31
0.0
  0
LINE
  5
CC
330
70
100
AcDbEntity
  8
Front$1
 62
     7
370
    35
100
AcDbLine
 10
445.4606155759656
 20
-27.14914485230111
 30
0.0
 11
445.4606155759656
 21
-19.14878192489595
 31
0.0
  0
LINE
  5
CD
330
70
100
AcDbEntity
  8
Front$1
 62
     7
370
    35
100
AcDbLine
 10
425.9948035314437
 20
-27.14914485230111
 30
0.0
 11
425.9597309404153
 21
-27.16939377086965
 31
0.0
  0
LINE
  5
CE
330
70
100
AcDbEntity
  8
Front$1
 62
     7
370
    35
100
AcDbLine
 10
447.9607289907798
 20
-27.16939377086965
 30
0.0
 11
447.9256563997514
 21
-27.14914485230111
 31
0.0
  0
LINE
  5
CF
330
70
100
AcDbEntity
  8
Front$1
 62
     7
370
    35
100
AcDbLine
 10
447.9256854010673
 20
-39.64971192637131
 30
0.0
 11
447.9607289907798
 21
-39.62947900852851
 31
0.0
  0
LINE
  5
D0
330
70
100
AcDbEntity
  8
Front$1
 62
     7
370
    35
100
AcDbLine
 10
425.9597309404153
 20
-39.62947900852851
 30
0.0
 11
425.9947745301278
 21
-39.64971192637131
 31
0.0
  0
LINE
  5
D1
330
70
100
AcDbEntity
  8
Front$1
 62
     7
370
    35
100
AcDbLine
 10
431.8099963310806
 20
-3.637748284418194
 30
0.0
 11
431.8099963310806
 21
-12.74149226545523
 31
0.0
  0
LINE
  5
D2
330
70
100
AcDbEntity
  8
Front$1
 62
     7
370
    35
100
AcDbLine
 10
442.1104636001145
 20
-12.74149226545523
 30
0.0
 11
442.1104636001145
 21
-3.637748284418194
 31
0.0
  0
LINE
  5
D3
330
70
100
AcDbEntity
  8
Front$1
 62
     7
370
    35
100
AcDbLine
 10
431.8099963310806
 20
-15.47366720747777
 30
0.0
 11
431.8099963310806
 21
-15.91863539295627
 31
0.0
  0
LINE
  5
D4
330
70
100
AcDbEntity
  8
Front$1
 62
     7
370
    35
100
AcDbLine
 10
442.1104636001145
 20
-15.91863539295627
 30
0.0
 11
442.1104636001145
 21
-15.47366720747777
 31
0.0
  0
LINE
  5
D5
330
70
100
AcDbEntity
  8
Front$1
 62
     7
370
    35
100
AcDbLine
 10
442.1104636001145
 20
-3.637748284418194
 30
0.0
 11
442.6323132732341
 21
-2.615769923526386
 31
0.0
  0
LINE
  5
D6
330
70
100
AcDbEntity
  8
Front$1
 62
     7
370
    35
100
AcDbLine
 10
431.288146657961
 20
-2.615769923526386
 30
0.0
 11
431.8099963310806
 21
-3.637748284418194
 31
0.0
  0
LINE
  5
D7
330
70
100
AcDbEntity
  8
Front$1
 62
     7
370
    35
100
AcDbLine
 10
430.9599577700437
 20
3.527194745109227
 30
0.0
 11
430.9599577700437
 21
-1.251397030295265
 31
0.0
  0
LINE
  5
D8
330
70
100
AcDbEntity
  8
Front$1
 62
     7
370
    35
100
AcDbLine
 10
442.9605021611514
 20
-1.251397030295265
 30
0.0
 11
442.9605021611514
 21
3.527194745109227
 31
0.0
  0
LINE
  5
D9
330
70
100
AcDbEntity
  8
Front$1
 62
     7
370
    35
100
AcDbLine
 10
431.9600031359696
 20
147.8997180411534
 30
0.0
 11
431.9600031359696
 21
84.23745507467902
 31
0.0
  0
LINE
  5
DA
330
70
100
AcDbEntity
  8
Front$1
 62
     7
370
    35
100
AcDbLine
 10
431.9600031359696
 20
20.23455165543783
 30
0.0
 11
431.9600031359696
 21
3.527543760941625
 31
0.0
  0
LINE
  5
DB
330
70
100
AcDbEntity
  8
Front$1
 62
     7
370
    35
100
AcDbLine
 10
419.793643222828
 20
158.9023801644616
 30
0.0
 11
419.793643222828
 21
148.6859957097494
 31
0.0
  0
LINE
  5
DC
330
70
100
AcDbEntity
  8
Front$1
 62
     7
370
    35
100
AcDbLine
 10
454.1268167083671
 20
148.6859957097494
 30
0.0
 11
454.1268167083671
 21
158.9023801644616
 31
0.0
  0
LINE
  5
DD
330
70
100
AcDbEntity
  8
Front$1
 62
     7
370
    35
100
AcDbLine
 10
419.793643222828
 20
148.6902019005592
 30
0.0
 11
421.9595494767126
 21
147.9018811392798
 31
0.0
  0
LINE
  5
DE
330
70
100
AcDbEntity
  8
Front$1
 62
     7
370
    35
100
AcDbLine
 10
451.9609104544815
 20
147.9018811392798
 30
0.0
 11
454.1268167083671
 21
148.6902019005592
 31
0.0
  0
LINE
  5
DF
330
70
100
AcDbEntity
  8
Front$1
 62
     7
370
    35
100
AcDbLine
 10
458.9612280159617
 20
159.9024255303875
 30
0.0
 11
458.9612280159617
 21
163.4025843111276
 31
0.0
  0
LINE
  5
E0
330
70
100
AcDbEntity
  8
Front$1
 62
     7
370
    35
100
AcDbLine
 10
414.9592319152334
 20
163.4025843111276
 30
0.0
 11
414.9592319152334
 21
159.9024255303875
 31
0.0
  0
LINE
  5
E1
330
70
100
AcDbEntity
  8
Front$1
 62
     7
370
    35
100
AcDbLine
 10
423.9596402085644
 20
188.4037184592689
 30
0.0
 11
423.9596402085644
 21
176.294221125634
 31
0.0
  0
LINE
  5
E2
330
70
100
AcDbEntity
  8
Front$1
 62
     7
370
    35
100
AcDbLine
 10
449.9608197226307
 20
177.2944024977296
 30
0.0
 11
449.9608197226307
 21
188.4037184592689
 31
0.0
  0
LINE
  5
E3
330
70
100
AcDbEntity
  8
Front$1
 62
     7
370
    35
100
AcDbLine
 10
423.9596402085644
 20
175.6940128978676
 30
0.0
 11
423.9596402085644
 21
174.2941303937832
 31
0.0
  0
LINE
  5
E4
330
70
100
AcDbEntity
  8
Front$1
 62
     7
370
    35
100
AcDbLine
 10
449.9608197226307
 20
175.2941757597082
 30
0.0
 11
449.9608197226307
 21
176.6941952700081
 31
0.0
  0
LINE
  5
E5
330
70
100
AcDbEntity
  8
Front$1
 62
     7
370
    35
100
AcDbLine
 10
449.9608197226307
 20
167.293812832303
 30
0.0
 11
449.9608197226307
 21
168.6936953363884
 31
0.0
  0
LINE
  5
E6
330
70
100
AcDbEntity
  8
Front$1
 62
     7
370
    35
100
AcDbLine
 10
449.9608197226307
 20
169.2939035641548
 30
0.0
 11
449.9608197226307
 21
170.6937860682392
 31
0.0
  0
LINE
  5
E7
330
70
100
AcDbEntity
  8
Front$1
 62
     7
370
    35
100
AcDbLine
 10
449.9608197226307
 20
171.2939942960056
 30
0.0
 11
449.9608197226307
 21
172.6938768000909
 31
0.0
  0
LINE
  5
E8
330
70
100
AcDbEntity
  8
Front$1
 62
     7
370
    35
100
AcDbLine
 10
449.9608197226307
 20
173.2940850278573
 30
0.0
 11
449.9608197226307
 21
174.6939675319417
 31
0.0
  0
LINE
  5
E9
330
70
100
AcDbEntity
  8
Front$1
 62
     7
370
    35
100
AcDbLine
 10
423.9596402085644
 20
171.6938314341651
 30
0.0
 11
423.9596402085644
 21
170.2939489300806
 31
0.0
  0
LINE
  5
EA
330
70
100
AcDbEntity
  8
Front$1
 62
     7
370
    35
100
AcDbLine
 10
423.9596402085644
 20
167.6936499704625
 30
0.0
 11
423.9596402085644
 21
166.2937674663772
 31
0.0
  0
LINE
  5
EB
330
70
100
AcDbEntity
  8
Front$1
 62
     7
370
    35
100
AcDbLine
 10
423.9596402085644
 20
173.6939221660159
 30
0.0
 11
423.9596402085644
 21
172.2940396619315
 31
0.0
  0
LINE
  5
EC
330
70
100
AcDbEntity
  8
Front$1
 62
     7
370
    35
100
AcDbLine
 10
449.9608197226307
 20
163.4026033119899
 30
0.0
 11
449.9608197226307
 21
164.6935138726849
 31
0.0
  0
LINE
  5
ED
330
70
100
AcDbEntity
  8
Front$1
 62
     7
370
    35
100
AcDbLine
 10
449.9608197226307
 20
165.2937221004522
 30
0.0
 11
449.9608197226307
 21
166.6936046045366
 31
0.0
  0
LINE
  5
EE
330
70
100
AcDbEntity
  8
Front$1
 62
     7
370
    35
100
AcDbLine
 10
423.9596402085644
 20
165.6935592386107
 30
0.0
 11
423.9596402085644
 21
164.2936767345263
 31
0.0
  0
LINE
  5
EF
330
70
100
AcDbEntity
  8
Front$1
 62
     7
370
    35
100
AcDbLine
 10
423.9596402085644
 20
163.6934685067599
 30
0.0
 11
423.9596402085644
 21
163.4025773108096
 31
0.0
  0
LINE
  5
F0
330
70
100
AcDbEntity
  8
Front$1
 62
     7
370
    35
100
AcDbLine
 10
423.9596402085644
 20
169.6937407023133
 30
0.0
 11
423.9596402085644
 21
168.2938581982289
 31
0.0
  0
LINE
  5
F1
330
70
100
AcDbEntity
  8
Front$1
 62
     7
370
    35
100
AcDbLine
 10
423.9216244840235
 20
338.8193868957496
 30
0.0
 11
403.0009144397017
 21
340.6497119263722
 31
0.0
  0
LINE
  5
F2
330
70
100
AcDbEntity
  8
Front$1
 62
     7
370
    35
100
AcDbLine
 10
449.6021854535938
 20
316.8043402080848
 30
0.0
 11
458.8672157512028
 21
315.9937554368243
 31
0.0
  0
LINE
  5
F3
330
70
100
AcDbEntity
  8
Front$1
 62
     7
370
    35
100
AcDbLine
 10
460.6707395660178
 20
336.6081215842023
 30
0.0
 11
428.3301014695898
 21
339.4375609385152
 31
0.0
  0
LINE
  5
F4
330
70
100
AcDbEntity
  8
Front$1
 62
     7
370
    35
100
AcDbLine
 10
426.4125884837849
 20
317.520282686004
 30
0.0
 11
427.6153590461099
 21
317.4150539124203
 31
0.0
  0
LINE
  5
F5
330
70
100
AcDbEntity
  8
Front$1
 62
     7
370
    35
100
AcDbLine
 10
447.1674850061645
 20
315.7044643134595
 30
0.0
 11
448.2927070505884
 21
315.6060208476838
 31
0.0
  0
LINE
  5
F6
330
70
100
AcDbEntity
  8
Front$1
 62
     7
370
    35
100
AcDbLine
 10
427.9884759721362
 20
316.3823800663404
 30
0.0
 11
424.6057075166755
 21
282.2242045193844
 31
0.0
  0
LINE
  5
F7
330
70
100
AcDbEntity
  8
Front$1
 62
     7
370
    35
100
AcDbLine
 10
449.3147524145188
 20
282.2242045193844
 30
0.0
 11
446.1059578511867
 21
314.6256473741514
 31
0.0
  0
LINE
  5
F8
330
70
100
AcDbEntity
  8
Front$1
 62
     7
370
    35
100
AcDbLine
 10
424.4596628915269
 20
279.2675583944811
 30
0.0
 11
424.4596628915269
 21
224.7469481287307
 31
0.0
  0
LINE
  5
F9
330
70
100
AcDbEntity
  8
Front$1
 62
     7
370
    35
100
AcDbLine
 10
449.4607970396682
 20
224.7469481287307
 30
0.0
 11
449.4607970396682
 21
279.2675583944811
 31
0.0
  0
LINE
  5
FA
330
70
100
AcDbEntity
  8
Front$1
 62
     7
370
    35
100
AcDbLine
 10
431.9600031359696
 20
-15.91863539295627
 30
0.0
 11
431.9600031359696
 21
-17.91872612480801
 31
0.0
  0
LINE
  5
FB
330
70
100
AcDbEntity
  8
Front$1
 62
     7
370
    35
100
AcDbLine
 10
441.9604567952255
 20
-17.91872612480801
 30
0.0
 11
441.9604567952255
 21
-15.91863539295627
 31
0.0
  0
LINE
  5
FC
330
70
100
AcDbEntity
  8
Front$1
 62
     7
370
    35
100
AcDbLine
 10
428.4598443552295
 20
-17.91872612480801
 30
0.0
 11
428.4598443552295
 21
-19.14878192489595
 31
0.0
  0
LINE
  5
FD
330
70
100
AcDbEntity
  8
Front$1
 62
     7
370
    35
100
AcDbLine
 10
445.4606155759656
 20
-19.14878192489595
 30
0.0
 11
445.4606155759656
 21
-17.91872612480801
 31
0.0
  0
LINE
  5
FE
330
70
100
AcDbEntity
  8
Front$1
 62
     7
370
    35
100
AcDbLine
 10
401.2577203616756
 20
320.7249140604781
 30
0.0
 11
422.1784314060433
 21
318.8945890298555
 31
0.0
  0
LINE
  5
FF
330
70
100
AcDbEntity
  8
Front$1
 62
     7
370
    35
100
AcDbLine
 10
423.9596402085644
 20
195.0504649813984
 30
0.0
 11
414.1521933048407
 21
191.8867844646147
 31
0.0
  0
LINE
  5
100
330
70
100
AcDbEntity
  8
Front$1
 62
     7
370
    35
100
AcDbLine
 10
459.7682666263554
 20
191.8867844646147
 30
0.0
 11
449.9608197226307
 21
195.0504649813984
 31
0.0
  0
LINE
  5
101
330
70
100
AcDbEntity
  8
Front$1
 62
     7
370
    35
100
AcDbLine
 10
423.9596402085644
 20
224.7469481287307
 30
0.0
 11
423.9596402085644
 21
195.0504649813984
 31
0.0
  0
LINE
  5
102
330
70
100
AcDbEntity
  8
Front$1
 62
     7
370
    35
100
AcDbLine
 10
449.9608197226307
 20
195.0504649813984
 30
0.0
 11
449.9608197226307
 21
224.7469481287307
 31
0.0
  0
LINE
  5
103
330
70
100
AcDbEntity
  8
Front$1
 62
     7
370
    35
100
AcDbLine
 10
413.4591638663441
 20
190.9350322894543
 30
0.0
 11
413.4591638663441
 21
188.4037184592689
 31
0.0
  0
LINE
  5
104
330
70
100
AcDbEntity
  8
Front$1
 62
     7
370
    35
100
AcDbLine
 10
460.4612960648501
 20
188.4037184592689
 30
0.0
 11
460.4612960648501
 21
190.9350322894543
 31
0.0
  0
LINE
  5
105
330
70
100
AcDbEntity
  8
Front$1
 62
     7
370
    35
100
AcDbLine
 10
454.6876581503038
 20
53.77589622055348
 30
0.0
 11
454.4610238692967
 21
52.23478130962212
 31
0.0
  0
LINE
  5
106
330
70
100
AcDbEntity
  8
Front$1
 62
     7
370
    35
100
AcDbLine
 10
454.2343895882895
 20
53.77589622055348
 30
0.0
 11
454.4610238692967
 21
52.23478130962212
 31
0.0
  0
LINE
  5
107
330
70
100
AcDbEntity
  8
Front$1
 62
     7
370
    35
100
AcDbLine
 10
454.4610238692967
 20
52.23478130962212
 30
0.0
 11
454.7098611575184
 21
52.4836195978878
 31
0.0
  0
LINE
  5
108
330
70
100
AcDbEntity
  8
Front$1
 62
     7
370
    35
100
AcDbLine
 10
456.002137780184
 20
52.46141659067507
 30
0.0
 11
454.4610238692967
 21
52.23478130962212
 31
0.0
  0
LINE
  5
109
330
70
100
AcDbEntity
  8
Front$1
 62
     7
370
    35
100
AcDbLine
 10
456.002137780184
 20
52.00814702861316
 30
0.0
 11
454.4610238692967
 21
52.23478130962212
 31
0.0
  0
LINE
  5
10A
330
70
100
AcDbEntity
  8
Front$1
 62
     7
370
    35
100
AcDbLine
 10
452.9199099584093
 20
52.00814702861316
 30
0.0
 11
454.4610238692967
 21
52.23478130962212
 31
0.0
  0
LINE
  5
10B
330
70
100
AcDbEntity
  8
Front$1
 62
     7
370
    35
100
AcDbLine
 10
454.7098611575184
 20
51.98594402140042
 30
0.0
 11
454.4610238692967
 21
52.23478130962212
 31
0.0
  0
LINE
  5
10C
330
70
100
AcDbEntity
  8
Front$1
 62
     7
370
    35
100
AcDbLine
 10
454.6876581503038
 20
50.69366739873476
 30
0.0
 11
454.4610238692967
 21
52.23478130962212
 31
0.0
  0
LINE
  5
10D
330
70
100
AcDbEntity
  8
Front$1
 62
     7
370
    35
100
AcDbLine
 10
452.9199099584093
 20
52.46141659067507
 30
0.0
 11
454.4610238692967
 21
52.23478130962212
 31
0.0
  0
LINE
  5
10E
330
70
100
AcDbEntity
  8
Front$1
 62
     7
370
    35
100
AcDbLine
 10
454.212186581075
 20
52.4836195978878
 30
0.0
 11
454.4610238692967
 21
52.23478130962212
 31
0.0
  0
LINE
  5
10F
330
70
100
AcDbEntity
  8
Front$1
 62
     7
370
    35
100
AcDbLine
 10
454.2343895882895
 20
50.69366739873476
 30
0.0
 11
454.4610238692967
 21
52.23478130962212
 31
0.0
  0
LINE
  5
110
330
70
100
AcDbEntity
  8
Front$1
 62
     7
370
    35
100
AcDbLine
 10
454.4610238692967
 20
52.23478130962212
 30
0.0
 11
454.212186581075
 21
51.98594402140042
 31
0.0
  0
LINE
  5
111
330
70
100
AcDbEntity
  8
Front$1
 62
     7
370
    35
100
AcDbLine
 10
428.4598443552295
 20
-19.14878192489595
 30
0.0
 11
445.4606155759656
 21
-19.14878192489595
 31
0.0
  0
LINE
  5
112
330
70
100
AcDbEntity
  8
Front$1
 62
     7
370
    35
100
AcDbLine
 10
425.9948035314437
 20
-27.14914485230111
 30
0.0
 11
447.9256563997514
 21
-27.14914485230111
 31
0.0
  0
LINE
  5
113
330
70
100
AcDbEntity
  8
Front$1
 62
     7
370
    35
100
AcDbLine
 10
425.9947745301278
 20
-39.64971192637131
 30
0.0
 11
447.9256854010673
 21
-39.64971192637131
 31
0.0
  0
LINE
  5
114
330
70
100
AcDbEntity
  8
Front$1
 62
     7
370
    35
100
AcDbLine
 10
425.9597309404153
 20
-28.15191434180452
 30
0.0
 11
425.9597309404153
 21
-38.64695743754964
 31
0.0
  0
LINE
  5
115
330
70
100
AcDbEntity
  8
Front$1
 62
     7
370
    35
100
AcDbLine
 10
447.9607289907798
 20
-28.15191434180452
 30
0.0
 11
447.9607289907798
 21
-38.64695743754964
 31
0.0
  0
LINE
  5
116
330
70
100
AcDbEntity
  8
Front$1
 62
     7
370
    35
100
AcDbLine
 10
436.9602299655971
 20
-28.15191434180452
 30
0.0
 11
436.9602299655971
 21
-38.64695743754964
 31
0.0
  0
LINE
  5
117
330
70
100
AcDbEntity
  8
Front$1
 62
     7
370
    35
100
AcDbLine
 10
431.8099963310806
 20
-15.91863539295627
 30
0.0
 11
439.5353467828563
 21
-15.91863539295627
 31
0.0
  0
LINE
  5
118
330
70
100
AcDbEntity
  8
Front$1
 62
     7
370
    35
100
AcDbLine
 10
439.5353467828563
 20
-15.91863539295627
 30
0.0
 11
442.1104636001145
 21
-15.91863539295627
 31
0.0
  0
LINE
  5
119
330
70
100
AcDbEntity
  8
Front$1
 62
     7
370
    35
100
AcDbLine
 10
442.1104636001145
 20
-12.74149226545523
 30
0.0
 11
439.5353467828563
 21
-12.74149226545523
 31
0.0
  0
LINE
  5
11A
330
70
100
AcDbEntity
  8
Front$1
 62
     7
370
    35
100
AcDbLine
 10
439.5353467828563
 20
-12.74149226545523
 30
0.0
 11
431.8099963310806
 21
-12.74149226545523
 31
0.0
  0
LINE
  5
11B
330
70
100
AcDbEntity
  8
Front$1
 62
     7
370
    35
100
AcDbLine
 10
431.8099963310806
 20
-3.637748284418194
 30
0.0
 11
439.5353467828563
 21
-3.637748284418194
 31
0.0
  0
LINE
  5
11C
330
70
100
AcDbEntity
  8
Front$1
 62
     7
370
    35
100
AcDbLine
 10
439.5353467828563
 20
-3.637748284418194
 30
0.0
 11
442.1104636001145
 21
-3.637748284418194
 31
0.0
  0
LINE
  5
11D
330
70
100
AcDbEntity
  8
Front$1
 62
     7
370
    35
100
AcDbLine
 10
430.9599577700437
 20
3.527194745109227
 30
0.0
 11
439.9603660633747
 21
3.527194745109227
 31
0.0
  0
LINE
  5
11E
330
70
100
AcDbEntity
  8
Front$1
 62
     7
370
    35
100
AcDbLine
 10
439.9603660633747
 20
3.527194745109227
 30
0.0
 11
442.9605021611514
 21
3.527194745109227
 31
0.0
  0
LINE
  5
11F
330
70
100
AcDbEntity
  8
Front$1
 62
     7
370
    35
100
AcDbLine
 10
430.9599577700437
 20
-1.251397030295265
 30
0.0
 11
442.9605021611514
 21
-1.251397030295265
 31
0.0
  0
LINE
  5
120
330
70
100
AcDbEntity
  8
Front$1
 62
     7
370
    35
100
AcDbLine
 10
431.288146657961
 20
-2.615769923526386
 30
0.0
 11
442.6323132732341
 21
-2.615769923526386
 31
0.0
  0
LINE
  5
121
330
70
100
AcDbEntity
  8
Front$1
 62
     7
370
    35
100
AcDbLine
 10
431.3099736481172
 20
-13.60755755352693
 30
0.0
 11
439.7853581243371
 21
-13.60755755352693
 31
0.0
  0
LINE
  5
122
330
70
100
AcDbEntity
  8
Front$1
 62
     7
370
    35
100
AcDbLine
 10
439.7853581243371
 20
-13.60755755352693
 30
0.0
 11
442.610486283077
 21
-13.60755755352693
 31
0.0
  0
LINE
  5
123
330
70
100
AcDbEntity
  8
Front$1
 62
     7
370
    35
100
AcDbLine
 10
431.8099963310806
 20
-15.47366720747777
 30
0.0
 11
439.5353467828563
 21
-15.47366720747777
 31
0.0
  0
LINE
  5
124
330
70
100
AcDbEntity
  8
Front$1
 62
     7
370
    35
100
AcDbLine
 10
439.5353467828563
 20
-15.47366720747777
 30
0.0
 11
442.1104636001145
 21
-15.47366720747777
 31
0.0
  0
LINE
  5
125
330
70
100
AcDbEntity
  8
Front$1
 62
     7
370
    35
100
AcDbLine
 10
458.9612280159617
 20
163.4025843111276
 30
0.0
 11
414.9592319152334
 21
163.4025843111276
 31
0.0
  0
LINE
  5
126
330
70
100
AcDbEntity
  8
Front$1
 62
     7
370
    35
100
AcDbLine
 10
423.9692596449385
 20
147.9018811392798
 30
0.0
 11
421.9595494767126
 21
147.9018811392798
 31
0.0
  0
LINE
  5
127
330
70
100
AcDbEntity
  8
Front$1
 62
     7
370
    35
100
AcDbLine
 10
451.9609104544815
 20
147.9018811392798
 30
0.0
 11
449.9512002862566
 21
147.9018811392798
 31
0.0
  0
LINE
  5
128
330
70
100
AcDbEntity
  8
Front$1
 62
     7
370
    35
100
AcDbLine
 10
453.9928356304681
 20
148.6441078095522
 30
0.0
 11
453.9928356304681
 21
158.9023801644616
 31
0.0
  0
LINE
  5
129
330
70
100
AcDbEntity
  8
Front$1
 62
     7
370
    35
100
AcDbLine
 10
419.927624300728
 20
158.9023801644616
 30
0.0
 11
419.927624300728
 21
148.6441078095522
 31
0.0
  0
LINE
  5
12A
330
70
100
AcDbEntity
  8
Front$1
 62
     7
370
    35
100
AcDbLine
 10
428.01089498915
 20
148.6441078095522
 30
0.0
 11
428.01089498915
 21
158.9023801644616
 31
0.0
  0
LINE
  5
12B
330
70
100
AcDbEntity
  8
Front$1
 62
     7
370
    35
100
AcDbLine
 10
436.9602299655971
 20
147.9018811392798
 30
0.0
 11
423.9692596449385
 21
147.9018811392798
 31
0.0
  0
LINE
  5
12C
330
70
100
AcDbEntity
  8
Front$1
 62
     7
370
    35
100
AcDbLine
 10
428.8769592771759
 20
158.9023801644616
 30
0.0
 11
428.8769592771759
 21
148.6441078095522
 31
0.0
  0
LINE
  5
12D
330
70
100
AcDbEntity
  8
Front$1
 62
     7
370
    35
100
AcDbLine
 10
449.9512002862566
 20
147.9018811392798
 30
0.0
 11
436.9602299655971
 21
147.9018811392798
 31
0.0
  0
LINE
  5
12E
330
70
100
AcDbEntity
  8
Front$1
 62
     7
370
    35
100
AcDbLine
 10
445.9095649420451
 20
158.9023801644616
 30
0.0
 11
445.9095649420451
 21
148.6441078095522
 31
0.0
  0
LINE
  5
12F
330
70
100
AcDbEntity
  8
Front$1
 62
     7
370
    35
100
AcDbLine
 10
445.0435006540192
 20
148.6441078095522
 30
0.0
 11
445.0435006540192
 21
158.9023801644616
 31
0.0
  0
LINE
  5
130
330
70
100
AcDbEntity
  8
Front$1
 62
     7
370
    35
100
AcDbLine
 10
414.9592319152334
 20
159.9024255303875
 30
0.0
 11
458.9612280159617
 21
159.9024255303875
 31
0.0
  0
LINE
  5
131
330
70
100
AcDbEntity
  8
Front$1
 62
     7
370
    35
100
AcDbLine
 10
457.9611826500367
 20
158.9023801644616
 30
0.0
 11
415.9592772811583
 21
158.9023801644616
 31
0.0
  0
LINE
  5
132
330
70
100
AcDbEntity
  8
Front$1
 62
     7
370
    35
100
AcDbLine
 10
457.5191115959841
 20
315.918951043408
 30
0.0
 11
457.5778242594169
 21
315.58597793846
 31
0.0
  0
LINE
  5
133
330
70
100
AcDbEntity
  8
Front$1
 62
     7
370
    35
100
AcDbLine
 10
457.5191115959841
 20
315.918951043408
 30
0.0
 11
457.7537182386476
 21
315.9603189200143
 31
0.0
  0
LINE
  5
134
330
70
100
AcDbEntity
  8
Front$1
 62
     7
370
    35
100
AcDbLine
 10
451.5833033247617
 20
316.5001594092673
 30
0.0
 11
457.7537182386476
 21
315.9603189200143
 31
0.0
  0
LINE
  5
135
330
70
100
AcDbEntity
  8
Front$1
 62
     7
370
    35
100
AcDbLine
 10
464.8028180130768
 20
283.2495470328868
 30
0.0
 11
464.8536813204336
 21
282.9610909474031
 31
0.0
  0
LINE
  5
136
330
70
100
AcDbEntity
  8
Front$1
 62
     7
370
    35
100
AcDbLine
 10
463.3764023053445
 20
282.7006071308497
 30
0.0
 11
463.3255399980335
 21
282.9890632163333
 31
0.0
  0
LINE
  5
137
330
70
100
AcDbEntity
  8
Front$1
 62
     7
370
    35
100
AcDbLine
 10
464.8536813204336
 20
282.9610909474031
 30
0.0
 11
463.3764023053445
 21
282.7006071308497
 31
0.0
  0
LINE
  5
138
330
70
100
AcDbEntity
  8
Front$1
 62
     7
370
    35
100
AcDbLine
 10
464.4390125094523
 20
285.3127926296874
 30
0.0
 11
464.8028180130768
 21
283.2495470328868
 31
0.0
  0
LINE
  5
139
330
70
100
AcDbEntity
  8
Front$1
 62
     7
370
    35
100
AcDbLine
 10
462.9617334943632
 20
285.052308813134
 30
0.0
 11
463.3255399980335
 21
282.9890632163333
 31
0.0
  0
LINE
  5
13A
330
70
100
AcDbEntity
  8
Front$1
 62
     7
370
    35
100
AcDbLine
 10
463.3255399980335
 20
282.9890632163333
 30
0.0
 11
464.8028180130768
 21
283.2495470328868
 31
0.0
  0
LINE
  5
13B
330
70
100
AcDbEntity
  8
Front$1
 62
     7
370
    35
100
AcDbLine
 10
459.1694134600584
 20
315.1981703460078
 30
0.0
 11
459.737266220056
 21
311.9777202539353
 31
0.0
  0
LINE
  5
13C
330
70
100
AcDbEntity
  8
Front$1
 62
     7
370
    35
100
AcDbLine
 10
457.5778242594169
 20
315.58597793846
 30
0.0
 11
458.2599872049668
 21
311.7172364373819
 31
0.0
  0
LINE
  5
13D
330
70
100
AcDbEntity
  8
Front$1
 62
     7
370
    35
100
AcDbLine
 10
457.5778242594169
 20
315.58597793846
 30
0.0
 11
458.6016117023755
 21
315.7664991275987
 31
0.0
  0
LINE
  5
13E
330
70
100
AcDbEntity
  8
Front$1
 62
     7
370
    35
100
AcDbLine
 10
464.3162189390623
 20
286.0091892209302
 30
0.0
 11
464.4390125094523
 21
285.3127926296874
 31
0.0
  0
LINE
  5
13F
330
70
100
AcDbEntity
  8
Front$1
 62
     7
370
    35
100
AcDbLine
 10
462.9617334943632
 20
285.052308813134
 30
0.0
 11
462.8389399239713
 21
285.748704404331
 31
0.0
  0
LINE
  5
140
330
70
100
AcDbEntity
  8
Front$1
 62
     7
370
    35
100
AcDbLine
 10
464.4390125094523
 20
285.3127926296874
 30
0.0
 11
462.9617334943632
 21
285.052308813134
 31
0.0
  0
LINE
  5
141
330
70
100
AcDbEntity
  8
Front$1
 62
     7
370
    35
100
AcDbLine
 10
459.8600597904478
 20
311.2813246627384
 30
0.0
 11
464.3162189390623
 21
286.0091892209302
 31
0.0
  0
LINE
  5
142
330
70
100
AcDbEntity
  8
Front$1
 62
     7
370
    35
100
AcDbLine
 10
458.3827807753587
 20
311.0208408461849
 30
0.0
 11
462.8389399239713
 21
285.748704404331
 31
0.0
  0
LINE
  5
143
330
70
100
AcDbEntity
  8
Front$1
 62
     7
370
    35
100
AcDbLine
 10
462.8389399239713
 20
285.748704404331
 30
0.0
 11
464.3162189390623
 21
286.0091892209302
 31
0.0
  0
LINE
  5
144
330
70
100
AcDbEntity
  8
Front$1
 62
     7
370
    35
100
AcDbLine
 10
458.3827807753587
 20
311.0208408461849
 30
0.0
 11
458.2599872049668
 21
311.7172364373819
 31
0.0
  0
LINE
  5
145
330
70
100
AcDbEntity
  8
Front$1
 62
     7
370
    35
100
AcDbLine
 10
459.8600597904478
 20
311.2813246627384
 30
0.0
 11
458.3827807753587
 21
311.0208408461849
 31
0.0
  0
LINE
  5
146
330
70
100
AcDbEntity
  8
Front$1
 62
     7
370
    35
100
AcDbLine
 10
459.737266220056
 20
311.9777202539353
 30
0.0
 11
459.8600597904478
 21
311.2813246627384
 31
0.0
  0
LINE
  5
147
330
70
100
AcDbEntity
  8
Front$1
 62
     7
370
    35
100
AcDbLine
 10
458.2599872049668
 20
311.7172364373819
 30
0.0
 11
459.737266220056
 21
311.9777202539353
 31
0.0
  0
LINE
  5
148
330
70
100
AcDbEntity
  8
Front$1
 62
     7
370
    35
100
AcDbLine
 10
423.9596402085644
 20
195.0504649813984
 30
0.0
 11
449.9608197226307
 21
195.0504649813984
 31
0.0
  0
LINE
  5
149
330
70
100
AcDbEntity
  8
Front$1
 62
     7
370
    35
100
AcDbLine
 10
413.8940585948512
 20
55.73494009036039
 30
0.0
 11
413.8940585948512
 21
48.73462252888202
 31
0.0
  0
LINE
  5
14A
330
70
100
AcDbEntity
  8
Front$1
 62
     7
370
    35
100
AcDbLine
 10
460.026401336343
 20
48.73462252888202
 30
0.0
 11
460.026401336343
 21
55.73494009036039
 31
0.0
  0
LINE
  5
14B
330
70
100
AcDbEntity
  8
Front$1
 62
     7
370
    35
100
AcDbLine
 10
454.4610238692967
 20
56.73498545628717
 30
0.0
 11
454.4610238692967
 21
55.73494009036039
 31
0.0
  0
LINE
  5
14C
330
70
100
AcDbEntity
  8
Front$1
 62
     7
370
    35
100
AcDbLine
 10
460.026401336343
 20
55.73494009036039
 30
0.0
 11
454.4610238692967
 21
55.73494009036039
 31
0.0
  0
LINE
  5
14D
330
70
100
AcDbEntity
  8
Front$1
 62
     7
370
    35
100
AcDbLine
 10
419.4594360618984
 20
47.73457716295524
 30
0.0
 11
419.4594360618984
 21
48.73462252888202
 31
0.0
  0
LINE
  5
14E
330
70
100
AcDbEntity
  8
Front$1
 62
     7
370
    35
100
AcDbLine
 10
413.8940585948512
 20
48.73462252888202
 30
0.0
 11
419.4594360618984
 21
48.73462252888202
 31
0.0
  0
LINE
  5
14F
330
70
100
AcDbEntity
  8
Front$1
 62
     7
370
    35
100
AcDbLine
 10
419.4594360618984
 20
55.73494009036039
 30
0.0
 11
413.8940585948512
 21
55.73494009036039
 31
0.0
  0
LINE
  5
150
330
70
100
AcDbEntity
  8
Front$1
 62
     7
370
    35
100
AcDbLine
 10
419.4594360618984
 20
56.73498545628717
 30
0.0
 11
419.4594360618984
 21
55.73494009036039
 31
0.0
  0
LINE
  5
151
330
70
100
AcDbEntity
  8
Front$1
 62
     7
370
    35
100
AcDbLine
 10
454.4610238692967
 20
48.73462252888202
 30
0.0
 11
460.026401336343
 21
48.73462252888202
 31
0.0
  0
LINE
  5
152
330
70
100
AcDbEntity
  8
Front$1
 62
     7
370
    35
100
AcDbLine
 10
454.4610238692967
 20
47.73457716295524
 30
0.0
 11
454.4610238692967
 21
48.73462252888202
 31
0.0
  0
LINE
  5
153
330
70
100
AcDbEntity
  8
Front$1
 62
     7
370
    35
100
AcDbLine
 10
413.8940585948512
 20
48.73462252888202
 30
0.0
 11
413.0068983498313
 21
48.73462252888202
 31
0.0
  0
LINE
  5
154
330
70
100
AcDbEntity
  8
Front$1
 62
     7
370
    35
100
AcDbLine
 10
460.026401336343
 20
55.73494009036039
 30
0.0
 11
460.9135615813629
 21
55.73494009036039
 31
0.0
  0
LINE
  5
155
330
70
100
AcDbEntity
  8
Front$1
 62
     7
370
    35
100
AcDbLine
 10
413.8940585948512
 20
55.73494009036039
 30
0.0
 11
413.0068983498313
 21
55.73494009036039
 31
0.0
  0
LINE
  5
156
330
70
100
AcDbEntity
  8
Front$1
 62
     7
370
    35
100
AcDbLine
 10
460.026401336343
 20
48.73462252888202
 30
0.0
 11
460.9135615813629
 21
48.73462252888202
 31
0.0
  0
LINE
  5
157
330
70
100
AcDbEntity
  8
Front$1
 62
     7
370
    35
100
AcDbLine
 10
415.0503340479781
 20
47.73457716295524
 30
0.0
 11
419.4594360618984
 21
47.73457716295524
 31
0.0
  0
LINE
  5
158
330
70
100
AcDbEntity
  8
Front$1
 62
     7
370
    35
100
AcDbLine
 10
458.870125883217
 20
56.73498545628717
 30
0.0
 11
454.4610238692967
 21
56.73498545628717
 31
0.0
  0
LINE
  5
159
330
70
100
AcDbEntity
  8
Front$1
 62
     7
370
    35
100
AcDbLine
 10
419.4594360618984
 20
56.73498545628717
 30
0.0
 11
415.0503340479781
 21
56.73498545628717
 31
0.0
  0
LINE
  5
15A
330
70
100
AcDbEntity
  8
Front$1
 62
     7
370
    35
100
AcDbLine
 10
454.4610238692967
 20
47.73457716295524
 30
0.0
 11
458.870125883217
 21
47.73457716295524
 31
0.0
  0
LINE
  5
15B
330
70
100
AcDbEntity
  8
Front$1
 62
     7
370
    35
100
AcDbLine
 10
458.1804095950192
 20
20.2333295999997
 30
0.0
 11
415.7400503361769
 21
20.2333295999997
 31
0.0
  0
LINE
  5
15C
330
70
100
AcDbEntity
  8
Front$1
 62
     7
370
    35
100
AcDbLine
 10
415.7400433358588
 20
84.23623301924271
 30
0.0
 11
458.1804165953363
 21
84.23623301924271
 31
0.0
  0
LINE
  5
15D
330
70
100
AcDbEntity
  8
Front$1
 62
     7
370
    35
100
AcDbLine
 10
414.7698643247868
 20
20.99082796305629
 30
0.0
 11
459.1505956064083
 21
20.99082796305629
 31
0.0
  0
LINE
  5
15E
330
70
100
AcDbEntity
  8
Front$1
 62
     7
370
    35
100
AcDbLine
 10
459.1506026067254
 20
20.99082696301048
 30
0.0
 11
463.8718787820744
 21
39.87593166440092
 31
0.0
  0
LINE
  5
15F
330
70
100
AcDbEntity
  8
Front$1
 62
     7
370
    35
100
AcDbLine
 10
410.0485811491216
 20
39.87593166440092
 30
0.0
 11
414.7698573244688
 21
20.99082696301048
 31
0.0
  0
LINE
  5
160
330
70
100
AcDbEntity
  8
Front$1
 62
     7
370
    35
100
AcDbLine
 10
459.1506026067254
 20
83.47873465618613
 30
0.0
 11
414.7698573244688
 21
83.47873465618613
 31
0.0
  0
LINE
  5
161
330
70
100
AcDbEntity
  8
Front$1
 62
     7
370
    35
100
AcDbLine
 10
414.7698573244688
 20
83.47873465618613
 30
0.0
 11
410.0485881494387
 21
64.59365895611154
 31
0.0
  0
LINE
  5
162
330
70
100
AcDbEntity
  8
Front$1
 62
     7
370
    35
100
AcDbLine
 10
463.8718717817555
 20
64.59365895611154
 30
0.0
 11
459.1506026067254
 21
83.47873465618613
 31
0.0
  0
LINE
  5
163
330
70
100
AcDbEntity
  8
Front$1
 62
     7
370
    35
100
AcDbLine
 10
410.0485821491665
 20
64.59366195624716
 30
0.0
 11
463.8718777820286
 21
64.59366195624716
 31
0.0
  0
LINE
  5
164
330
70
100
AcDbEntity
  8
Front$1
 62
     7
370
    35
100
AcDbLine
 10
463.8718777820286
 20
39.87593066435511
 30
0.0
 11
410.0485821491665
 21
39.87593066435511
 31
0.0
  0
LINE
  5
165
330
70
100
AcDbEntity
  8
Front$1
 62
     7
370
    35
100
AcDbLine
 10
463.9614548455901
 20
40.6035716729657
 30
0.0
 11
463.9614548455901
 21
63.86602094763657
 31
0.0
  0
LINE
  5
166
330
70
100
AcDbEntity
  8
Front$1
 62
     7
370
    35
100
AcDbLine
 10
463.9614548455901
 20
63.86602094763657
 30
0.0
 11
409.959005085605
 21
63.86602094763657
 31
0.0
  0
LINE
  5
167
330
70
100
AcDbEntity
  8
Front$1
 62
     7
370
    35
100
AcDbLine
 10
409.959005085605
 20
63.86602094763657
 30
0.0
 11
409.959005085605
 21
40.6035716729657
 31
0.0
  0
LINE
  5
168
330
70
100
AcDbEntity
  8
Front$1
 62
     7
370
    35
100
AcDbLine
 10
409.959005085605
 20
40.6035716729657
 30
0.0
 11
463.9614548455901
 21
40.6035716729657
 31
0.0
  0
LINE
  5
169
330
70
100
AcDbEntity
  8
Front$1
 62
     7
370
    35
100
AcDbLine
 10
418.7863285271378
 20
46.73453179703028
 30
0.0
 11
414.207645820381
 21
46.73453179703028
 31
0.0
  0
LINE
  5
16A
330
70
100
AcDbEntity
  8
Front$1
 62
     7
370
    35
100
AcDbLine
 10
413.0068983498313
 20
48.73462252888202
 30
0.0
 11
413.0068983498313
 21
55.73494009036039
 31
0.0
  0
LINE
  5
16B
330
70
100
AcDbEntity
  8
Front$1
 62
     7
370
    35
100
AcDbLine
 10
414.207645820381
 20
57.73503082221214
 30
0.0
 11
418.7863285271378
 21
57.73503082221214
 31
0.0
  0
LINE
  5
16C
330
70
100
AcDbEntity
  8
Front$1
 62
     7
370
    35
100
AcDbLine
 10
448.574658841012
 20
316.5338969397317
 30
0.0
 11
448.509386880024
 21
315.7878360955265
 31
0.0
  0
LINE
  5
16D
330
70
100
AcDbEntity
  8
Front$1
 62
     7
370
    35
100
AcDbLine
 10
458.8672157512028
 20
315.9937554368243
 30
0.0
 11
458.8693268469687
 21
316.0178825313224
 31
0.0
  0
LINE
  5
16E
330
70
100
AcDbEntity
  8
Front$1
 62
     7
370
    35
100
AcDbLine
 10
449.6021854535938
 20
316.8043402080848
 30
0.0
 11
449.6042955493158
 21
316.8284683026286
 31
0.0
  0
LINE
  5
16F
330
70
100
AcDbEntity
  8
Front$1
 62
     7
370
    35
100
AcDbLine
 10
422.1673219020731
 20
318.7638500990324
 30
0.0
 11
423.9333870176178
 21
338.9500678239419
 31
0.0
  0
LINE
  5
170
330
70
100
AcDbEntity
  8
Front$1
 62
     7
370
    35
100
AcDbLine
 10
447.1900730308443
 20
315.7024882238165
 30
0.0
 11
447.189886022361
 21
315.7026372305763
 31
0.0
  0
LINE
  5
171
330
70
100
AcDbEntity
  8
Front$1
 62
     7
370
    35
100
AcDbLine
 10
428.3301014695898
 20
339.4375609385152
 30
0.0
 11
427.3713449766874
 21
328.4789218122596
 31
0.0
  0
LINE
  5
172
330
70
100
AcDbEntity
  8
Front$1
 62
     7
370
    35
100
AcDbLine
 10
427.3713449766874
 20
328.4789218122596
 30
0.0
 11
426.4125884837849
 21
317.520282686004
 31
0.0
  0
LINE
  5
173
330
70
100
AcDbEntity
  8
Front$1
 62
     7
370
    35
100
AcDbLine
 10
449.6042955493158
 20
316.8284683026286
 30
0.0
 11
458.8693268469687
 21
316.0178825313224
 31
0.0
  0
LINE
  5
174
330
70
100
AcDbEntity
  8
Front$1
 62
     7
370
    35
100
AcDbLine
 10
448.2927070505884
 20
315.6060208476838
 30
0.0
 11
448.3591880664244
 21
316.3658973186193
 31
0.0
  0
LINE
  5
175
330
70
100
AcDbEntity
  8
Front$1
 62
     7
370
    35
100
AcDbLine
 10
459.0838955806375
 20
316.175570684667
 30
0.0
 11
460.8525558139063
 21
336.3914417547676
 31
0.0
  0
LINE
  5
176
330
70
100
AcDbEntity
  8
Front$1
 62
     7
370
    35
100
AcDbLine
 10
460.6707395660178
 20
336.6081215842023
 30
0.0
 11
458.8693268469687
 21
316.0178825313224
 31
0.0
  0
LINE
  5
177
330
70
100
AcDbEntity
  8
Front$1
 62
     7
370
    35
100
AcDbLine
 10
424.6057075166755
 20
282.2242045193844
 30
0.0
 11
449.3147524145188
 21
282.2242045193844
 31
0.0
  0
LINE
  5
178
330
70
100
AcDbEntity
  8
Front$1
 62
     7
370
    35
100
AcDbLine
 10
424.4596628915269
 20
279.2675583944811
 30
0.0
 11
449.4607970396682
 21
279.2675583944811
 31
0.0
  0
LINE
  5
179
330
70
100
AcDbEntity
  8
Front$1
 62
     7
370
    35
100
AcDbLine
 10
445.4606155759656
 20
-17.91872612480801
 30
0.0
 11
428.4598443552295
 21
-17.91872612480801
 31
0.0
  0
LINE
  5
17A
330
70
100
AcDbEntity
  8
Front$1
 62
     7
370
    35
100
AcDbLine
 10
445.4606155759656
 20
-19.14878192489595
 30
0.0
 11
428.4598443552295
 21
-19.14878192489595
 31
0.0
  0
LINE
  5
17B
330
70
100
AcDbEntity
  8
Front$1
 62
     7
370
    35
100
AcDbLine
 10
455.1341314040582
 20
57.73503082221214
 30
0.0
 11
459.712814110815
 21
57.73503082221214
 31
0.0
  0
LINE
  5
17C
330
70
100
AcDbEntity
  8
Front$1
 62
     7
370
    35
100
AcDbLine
 10
460.9135615813629
 20
55.73494009036039
 30
0.0
 11
460.9135615813629
 21
48.73462252888202
 31
0.0
  0
LINE
  5
17D
330
70
100
AcDbEntity
  8
Front$1
 62
     7
370
    35
100
AcDbLine
 10
459.712814110815
 20
46.73453179703028
 30
0.0
 11
455.1341314040582
 21
46.73453179703028
 31
0.0
  0
LINE
  5
17E
330
70
100
AcDbEntity
  8
Front$1
 62
     7
370
    35
100
AcDbLine
 10
460.4612960648501
 20
188.4037184592689
 30
0.0
 11
413.4591638663441
 21
188.4037184592689
 31
0.0
  0
LINE
  5
17F
330
70
100
AcDbEntity
  8
Front$1
 62
     7
370
    35
100
AcDbLine
 10
403.0009144397017
 20
340.6497119263722
 30
0.0
 11
402.1293169006658
 21
330.6873129934247
 31
0.0
  0
LINE
  5
180
330
70
100
AcDbEntity
  8
Front$1
 62
     7
370
    35
100
AcDbLine
 10
402.1293169006658
 20
330.6873129934247
 30
0.0
 11
401.2577203616756
 21
320.7249140604781
 31
0.0
  0
LINE
  5
181
330
70
100
AcDbEntity
  8
Front$1
 62
     7
370
    35
100
AcDbLine
 10
449.9608197226307
 20
224.7469481287307
 30
0.0
 11
423.9596402085644
 21
224.7469481287307
 31
0.0
  0
LINE
  5
182
330
70
100
AcDbEntity
  8
Front$1
 62
     7
370
    35
100
AcDbLine
 10
413.4591638663441
 20
190.9350322894543
 30
0.0
 11
436.9602299655971
 21
190.9350322894543
 31
0.0
  0
LINE
  5
183
330
70
100
AcDbEntity
  8
Front$1
 62
     7
370
    35
100
AcDbLine
 10
436.9602299655971
 20
190.9350322894543
 30
0.0
 11
460.4612960648501
 21
190.9350322894543
 31
0.0
  0
LINE
  5
184
330
70
100
AcDbEntity
  8
Front$1
 62
     7
370
    35
100
AcDbLine
 10
441.9604567952255
 20
3.527543760941625
 30
0.0
 11
441.9604567952255
 21
20.23455165543783
 31
0.0
  0
LINE
  5
185
330
70
100
AcDbEntity
  8
Front$1
 62
     7
370
    35
100
AcDbLine
 10
441.9604567952255
 20
84.23745507467902
 30
0.0
 11
441.9604567952255
 21
147.8997180411534
 31
0.0
  0
LINE
  5
186
330
70
100
AcDbEntity
  8
Front$1
 62
     7
370
    35
100
AcDbLine
 10
459.7682666263554
 20
191.8867844646147
 30
0.0
 11
436.9602299655971
 21
191.8867844646147
 31
0.0
  0
LINE
  5
187
330
70
100
AcDbEntity
  8
Front$1
 62
     7
370
    35
100
AcDbLine
 10
436.9602299655971
 20
191.8867844646147
 30
0.0
 11
414.1521933048407
 21
191.8867844646147
 31
0.0
  0
LINE
  5
188
330
70
100
AcDbEntity
  8
Front$1
 62
     7
370
    13
100
AcDbLine
 10
496.7832397686979
 20
163.4025843111276
 30
0.0
 11
449.9608197226307
 21
163.4025843111276
 31
0.0
  0
LINE
  5
189
330
70
100
AcDbEntity
  8
Front$1
 62
     7
370
    13
100
AcDbLine
 10
449.9608197226307
 20
188.4037184592689
 30
0.0
 11
494.2927877921647
 21
188.4037184592689
 31
0.0
  0
LINE
  5
18A
330
70
100
AcDbEntity
  8
Front$1
 62
     7
370
    13
100
AcDbLine
 10
449.9608197226307
 20
163.4025843111276
 30
0.0
 11
449.9608197226307
 21
188.4037184592689
 31
0.0
  0
LINE
  5
18B
330
70
100
AcDbEntity
  8
Front$1
 62
     7
370
    13
100
AcDbLine
 10
377.1372201624963
 20
188.4037184592689
 30
0.0
 11
423.9596402085644
 21
188.4037184592689
 31
0.0
  0
LINE
  5
18C
330
70
100
AcDbEntity
  8
Front$1
 62
     7
370
    13
100
AcDbLine
 10
423.9596402085644
 20
163.4025843111276
 30
0.0
 11
379.6276721390305
 21
163.4025843111276
 31
0.0
  0
LINE
  5
18D
330
70
100
AcDbEntity
  8
Front$1
 62
     7
370
    13
100
AcDbLine
 10
423.9596402085644
 20
188.4037184592689
 30
0.0
 11
423.9596402085644
 21
163.4025843111276
 31
0.0
  0
CIRCLE
  5
18E
330
70
100
AcDbEntity
  8
Front$1
 62
     7
370
    35
100
AcDbCircle
 10
454.4610238692967
 20
52.23478130962212
 30
0.0
 40
2.523580818418849
  0
SPLINE
  5
18F
330
70
100
AcDbEntity
  8
Front$1
 62
     7
370
    35
100
AcDbSpline
210
0.0
220
0.0
230
1.0
 70
     8
 71
     3
 72
     8
 73
     4
 74
     0
 42
0.0000000001
 43
0.0000000001
 40
0.0
 40
0.0
 40
0.0
 40
0.0
 40
1.0
 40
1.0
 40
1.0
 40
1.0
 10
431.8099963310806
 20
-12.74149226545523
 30
0.0
 10
431.8099963310806
 20
-13.09877406304804
 30
0.0
 10
431.6193887611425
 20
-13.42891605848854
 30
0.0
 10
431.3099736481172
 20
-13.60755695728403
 30
0.0
  0
SPLINE
  5
190
330
70
100
AcDbEntity
  8
Front$1
 62
     7
370
    35
100
AcDbSpline
210
0.0
220
0.0
230
1.0
 70
     8
 71
     3
 72
     8
 73
     4
 74
     0
 42
0.0000000001
 43
0.0000000001
 40
0.0
 40
0.0
 40
0.0
 40
0.0
 40
1.0
 40
1.0
 40
1.0
 40
1.0
 10
442.6104862830779
 20
-13.60755695728403
 30
0.0
 10
442.3010711700526
 20
-13.42891605848854
 30
0.0
 10
442.1104636001145
 20
-13.09877406304804
 30
0.0
 10
442.1104636001145
 20
-12.74149226545523
 30
0.0
  0
SPLINE
  5
191
330
70
100
AcDbEntity
  8
Front$1
 62
     7
370
    35
100
AcDbSpline
210
0.0
220
0.0
230
1.0
 70
     8
 71
     3
 72
     8
 73
     4
 74
     0
 42
0.0000000001
 43
0.0000000001
 40
0.0
 40
0.0
 40
0.0
 40
0.0
 40
1.0
 40
1.0
 40
1.0
 40
1.0
 10
430.9599577700437
 20
-1.251397030295265
 30
0.0
 10
430.9599577700437
 20
-1.725737349244809
 30
0.0
 10
431.0724304063769
 20
-2.193317980698338
 30
0.0
 10
431.2881462667574
 20
-2.615769641555743
 30
0.0
  0
SPLINE
  5
192
330
70
100
AcDbEntity
  8
Front$1
 62
     7
370
    35
100
AcDbSpline
210
0.0
220
0.0
230
1.0
 70
     8
 71
     3
 72
     8
 73
     4
 74
     0
 42
0.0000000001
 43
0.0000000001
 40
0.0
 40
0.0
 40
0.0
 40
0.0
 40
1.0
 40
1.0
 40
1.0
 40
1.0
 10
442.6323136644377
 20
-2.615769641555743
 30
0.0
 10
442.8480295248182
 20
-2.193317980698338
 30
0.0
 10
442.9605021611514
 20
-1.725737349244809
 30
0.0
 10
442.9605021611514
 20
-1.251397030295265
 30
0.0
  0
SPLINE
  5
193
330
70
100
AcDbEntity
  8
Front$1
 62
     7
370
    35
100
AcDbSpline
210
0.0
220
0.0
230
1.0
 70
     8
 71
     3
 72
    11
 73
     7
 74
     0
 42
0.0000000001
 43
0.0000000001
 40
0.0
 40
0.0
 40
0.0
 40
0.0
 40
1.0
 40
1.0
 40
1.0
 40
2.0
 40
2.0
 40
2.0
 40
2.0
 10
431.3099736481172
 20
-13.60755714972401
 30
0.0
 10
430.8316593264534
 20
-13.88371205209296
 30
0.0
 10
430.6677767368819
 20
-14.49533020285162
 30
0.0
 10
430.9439316392517
 20
-14.9736445245162
 30
0.0
 10
431.1225725380482
 20
-15.28305963754064
 30
0.0
 10
431.4527145334877
 20
-15.47366720747777
 30
0.0
 10
431.8099963310806
 20
-15.47366720747777
 30
0.0
  0
SPLINE
  5
194
330
70
100
AcDbEntity
  8
Front$1
 62
     7
370
    35
100
AcDbSpline
210
0.0
220
0.0
230
1.0
 70
     8
 71
     3
 72
    11
 73
     7
 74
     0
 42
0.0000000001
 43
0.0000000001
 40
0.0
 40
0.0
 40
0.0
 40
0.0
 40
1.0
 40
1.0
 40
1.0
 40
2.0
 40
2.0
 40
2.0
 40
2.0
 10
442.1104636001145
 20
-15.47366720747777
 30
0.0
 10
442.6627734048543
 20
-15.47366720747777
 30
0.0
 10
443.1105089660404
 20
-15.02593164629252
 30
0.0
 10
443.1105089660404
 20
-14.47362184155281
 30
0.0
 10
443.1105089660404
 20
-14.11634004396001
 30
0.0
 10
442.9199013961024
 20
-13.78619804851951
 30
0.0
 10
442.610486283077
 20
-13.60755714972401
 30
0.0
  0
SPLINE
  5
195
330
70
100
AcDbEntity
  8
Front$1
 62
     7
370
    35
100
AcDbSpline
210
0.0
220
0.0
230
1.0
 70
     8
 71
     3
 72
     8
 73
     4
 74
     0
 42
0.0000000001
 43
0.0000000001
 40
0.0
 40
0.0
 40
0.0
 40
0.0
 40
1.0
 40
1.0
 40
1.0
 40
1.0
 10
414.9592319152334
 20
159.9024255303875
 30
0.0
 10
414.9592319152334
 20
159.3501157256478
 30
0.0
 10
415.4069674764186
 20
158.9023801644616
 30
0.0
 10
415.9592772811583
 20
158.9023801644616
 30
0.0
  0
SPLINE
  5
196
330
70
100
AcDbEntity
  8
Front$1
 62
     7
370
    35
100
AcDbSpline
210
0.0
220
0.0
230
1.0
 70
     8
 71
     3
 72
     8
 73
     4
 74
     0
 42
0.0000000001
 43
0.0000000001
 40
0.0
 40
0.0
 40
0.0
 40
0.0
 40
1.0
 40
1.0
 40
1.0
 40
1.0
 10
457.9611826500367
 20
158.9023801644616
 30
0.0
 10
458.5134924547765
 20
158.9023801644616
 30
0.0
 10
458.9612280159617
 20
159.3501157256478
 30
0.0
 10
458.9612280159617
 20
159.9024255303875
 30
0.0
  0
SPLINE
  5
197
330
70
100
AcDbEntity
  8
Front$1
 62
     7
370
    35
100
AcDbSpline
210
0.0
220
0.0
230
1.0
 70
     8
 71
     3
 72
     8
 73
     4
 74
     0
 42
0.0000000001
 43
0.0000000001
 40
0.0
 40
0.0
 40
0.0
 40
0.0
 40
1.0
 40
1.0
 40
1.0
 40
1.0
 10
460.4612960648501
 20
190.9350322894543
 30
0.0
 10
460.4612960648501
 20
191.3690590089963
 30
0.0
 10
460.1813334528487
 20
191.7535374847266
 30
0.0
 10
459.768266333298
 20
191.8867844284905
 30
0.0
  0
SPLINE
  5
198
330
70
100
AcDbEntity
  8
Front$1
 62
     7
370
    35
100
AcDbSpline
210
0.0
220
0.0
230
1.0
 70
     8
 71
     3
 72
     8
 73
     4
 74
     0
 42
0.0000000001
 43
0.0000000001
 40
0.0
 40
0.0
 40
0.0
 40
0.0
 40
1.0
 40
1.0
 40
1.0
 40
1.0
 10
414.1521935978971
 20
191.8867844284905
 30
0.0
 10
413.7391264783464
 20
191.7535374847266
 30
0.0
 10
413.4591638663441
 20
191.3690590089963
 30
0.0
 10
413.4591638663441
 20
190.9350322894543
 30
0.0
  0
SPLINE
  5
199
330
70
100
AcDbEntity
  8
Front$1
 62
     7
370
    35
100
AcDbSpline
210
0.0
220
0.0
230
1.0
 70
     8
 71
     3
 72
     8
 73
     4
 74
     0
 42
0.0000000001
 43
0.0000000001
 40
0.0
 40
0.0
 40
0.0
 40
0.0
 40
1.0
 40
1.0
 40
1.0
 40
1.0
 10
448.2927069020324
 20
315.6060209080679
 30
0.0
 10
448.4027485218693
 20
315.5963935138161
 30
0.0
 10
448.4997594253873
 20
315.6777953271785
 30
0.0
 10
448.5093868196391
 20
315.7878369470154
 30
0.0
  0
SPLINE
  5
19A
330
70
100
AcDbEntity
  8
Front$1
 62
     7
370
    35
100
AcDbSpline
210
0.0
220
0.0
230
1.0
 70
     8
 71
     3
 72
     8
 73
     4
 74
     0
 42
0.0000000001
 43
0.0000000001
 40
0.0
 40
0.0
 40
0.0
 40
0.0
 40
1.0
 40
1.0
 40
1.0
 40
1.0
 10
458.8846475419759
 20
315.9929934022557
 30
0.0
 10
458.9883532416279
 20
315.9929934022557
 30
0.0
 10
459.074856972973
 20
316.0722594679555
 30
0.0
 10
459.0838955202525
 20
316.1755705361111
 30
0.0
  0
SPLINE
  5
19B
330
70
100
AcDbEntity
  8
Front$1
 62
     7
370
    35
100
AcDbSpline
210
0.0
220
0.0
230
1.0
 70
     8
 71
     3
 72
     8
 73
     4
 74
     0
 42
0.0000000001
 43
0.0000000001
 40
0.0
 40
0.0
 40
0.0
 40
0.0
 40
1.0
 40
1.0
 40
1.0
 40
1.0
 10
458.867215602646
 20
315.9937544971636
 30
0.0
 10
458.8730124111152
 20
315.9932473421377
 30
0.0
 10
458.8788285906393
 20
315.9929934022557
 30
0.0
 10
458.8846475419759
 20
315.9929934022557
 30
0.0
  0
SPLINE
  5
19C
330
70
100
AcDbEntity
  8
Front$1
 62
     7
370
    35
100
AcDbSpline
210
0.0
220
0.0
230
1.0
 70
     8
 71
     3
 72
     8
 73
     4
 74
     0
 42
0.0000000001
 43
0.0000000001
 40
0.0
 40
0.0
 40
0.0
 40
0.0
 40
1.0
 40
1.0
 40
1.0
 40
1.0
 10
428.3301018692745
 20
339.4375603496046
 30
0.0
 10
426.8467141828669
 20
339.5673399557791
 30
0.0
 10
425.3523163828713
 20
339.401646387345
 30
0.0
 10
423.9333876083738
 20
338.9500681468735
 30
0.0
  0
SPLINE
  5
19D
330
70
100
AcDbEntity
  8
Front$1
 62
     7
370
    35
100
AcDbSpline
210
0.0
220
0.0
230
1.0
 70
     8
 71
     3
 72
     8
 73
     4
 74
     0
 42
0.0000000001
 43
0.0000000001
 40
0.0
 40
0.0
 40
0.0
 40
0.0
 40
1.0
 40
1.0
 40
1.0
 40
1.0
 10
422.1673219248177
 20
318.763850794825
 30
0.0
 10
423.4862782443833
 20
318.0727386465869
 30
0.0
 10
424.9292003976933
 20
317.6500628810891
 30
0.0
 10
426.4125880841001
 20
317.5202832749146
 30
0.0
  0
SPLINE
  5
19E
330
70
100
AcDbEntity
  8
Front$1
 62
     7
370
    35
100
AcDbSpline
210
0.0
220
0.0
230
1.0
 70
     8
 71
     3
 72
     8
 73
     4
 74
     0
 42
0.0000000001
 43
0.0000000001
 40
0.0
 40
0.0
 40
0.0
 40
0.0
 40
1.0
 40
1.0
 40
1.0
 40
1.0
 10
460.8525557535212
 20
336.3914416062107
 30
0.0
 10
460.862183147774
 20
336.5014832260485
 30
0.0
 10
460.7807813344115
 20
336.5984941295665
 30
0.0
 10
460.6707397145746
 20
336.6081215238182
 30
0.0
  0
SPLINE
  5
19F
330
70
100
AcDbEntity
  8
Front$1
 62
     7
370
    35
100
AcDbSpline
210
0.0
220
0.0
230
1.0
 70
     8
 71
     3
 72
     8
 73
     4
 74
     0
 42
0.0000000001
 43
0.0000000001
 40
0.0
 40
0.0
 40
0.0
 40
0.0
 40
1.0
 40
1.0
 40
1.0
 40
1.0
 10
424.60570773179
 20
282.2242049489505
 30
0.0
 10
424.5084038219565
 20
281.2416597119809
 30
0.0
 10
424.4596628915251
 20
280.2549100003243
 30
0.0
 10
424.4596628915251
 20
279.2675583944811
 30
0.0
  0
SPLINE
  5
1A0
330
70
100
AcDbEntity
  8
Front$1
 62
     7
370
    35
100
AcDbSpline
210
0.0
220
0.0
230
1.0
 70
     8
 71
     3
 72
     8
 73
     4
 74
     0
 42
0.0000000001
 43
0.0000000001
 40
0.0
 40
0.0
 40
0.0
 40
0.0
 40
1.0
 40
1.0
 40
1.0
 40
1.0
 10
449.4607970396701
 20
279.2675583944811
 30
0.0
 10
449.4607970396701
 20
280.2549100003243
 30
0.0
 10
449.4120561092386
 20
281.2416597119809
 30
0.0
 10
449.3147521994051
 20
282.2242049489505
 30
0.0
  0
CIRCLE
  5
1A1
330
70
100
AcDbEntity
  8
Front$1
 62
     7
370
    35
100
AcDbCircle
 10
454.4610238692967
 20
52.23478130962167
 30
0.0
 40
2.207517965951637
  0
SPLINE
  5
1A2
330
70
100
AcDbEntity
  8
Front$1
 62
     7
370
    35
100
AcDbSpline
210
0.0
220
0.0
230
1.0
 70
     8
 71
     3
 72
    11
 73
     7
 74
     0
 42
0.0000000001
 43
0.0000000001
 40
0.0
 40
0.0
 40
0.0
 40
0.0
 40
1.0
 40
1.0
 40
1.0
 40
2.0
 40
2.0
 40
2.0
 40
2.0
 10
420.8450909484318
 20
51.66018172145413
 30
0.0
 10
420.6127692428153
 20
51.09993470202789
 30
0.0
 10
420.0659379759882
 20
50.73471141885602
 30
0.0
 10
419.4594315063823
 20
50.73471326073923
 30
0.0
 10
418.6309667992763
 20
50.73471577668169
 30
0.0
 10
417.9593654970749
 20
51.40632115803237
 30
0.0
 10
417.9593680130165
 20
52.23478586513738
 30
0.0
  0
SPLINE
  5
1A3
330
70
100
AcDbEntity
  8
Front$1
 62
     7
370
    35
100
AcDbSpline
210
0.0
220
0.0
230
1.0
 70
     8
 71
     3
 72
    11
 73
     7
 74
     0
 42
0.0000000001
 43
0.0000000001
 40
0.0
 40
0.0
 40
0.0
 40
0.0
 40
1.0
 40
1.0
 40
1.0
 40
2.0
 40
2.0
 40
2.0
 40
2.0
 10
419.4592933485782
 20
53.734849351722
 30
0.0
 10
419.6565329227478
 20
53.73486811668044
 30
0.0
 10
419.8518399282092
 20
53.69598862104976
 30
0.0
 10
420.0340356500665
 20
53.62043619615542
 30
0.0
 10
420.7993117124269
 20
53.30309360634965
 30
0.0
 10
421.1624335382357
 20
52.42545778381463
 30
0.0
 10
420.8450909484318
 20
51.66018172145413
 30
0.0
  0
CIRCLE
  5
1A4
330
70
100
AcDbEntity
  8
Front$1
 62
     7
370
    35
100
AcDbCircle
 10
419.4594360618984
 20
52.23478130962212
 30
0.0
 40
1.067048405442619
  0
SPLINE
  5
1A5
330
70
100
AcDbEntity
  8
Front$1
 62
     7
370
    35
100
AcDbSpline
210
0.0
220
0.0
230
1.0
 70
     8
 71
     3
 72
     8
 73
     4
 74
     0
 42
0.0000000001
 43
0.0000000001
 40
0.0
 40
0.0
 40
0.0
 40
0.0
 40
1.0
 40
1.0
 40
1.0
 40
1.0
 10
450.887082259127
 20
316.6919395573196
 30
0.0
 10
451.1055975418239
 20
316.5862992609282
 30
0.0
 10
451.3415160760214
 20
316.5213137013761
 30
0.0
 10
451.5833038392902
 20
316.5001600131109
 30
0.0
  0
SPLINE
  5
1A6
330
70
100
AcDbEntity
  8
Front$1
 62
     7
370
    35
100
AcDbSpline
210
0.0
220
0.0
230
1.0
 70
     8
 71
     3
 72
     8
 73
     4
 74
     0
 42
0.0000000001
 43
0.0000000001
 40
0.0
 40
0.0
 40
0.0
 40
0.0
 40
1.0
 40
1.0
 40
1.0
 40
1.0
 10
459.1124763867137
 20
316.5022492178068
 30
0.0
 10
459.1084054773673
 20
316.4557185110561
 30
0.0
 10
459.1049867513739
 20
316.409133047131
 30
0.0
 10
459.1022212154475
 20
316.3625065441029
 30
0.0
  0
SPLINE
  5
1A7
330
70
100
AcDbEntity
  8
Front$1
 62
     7
370
    35
100
AcDbSpline
210
0.0
220
0.0
230
1.0
 70
     8
 71
     3
 72
     8
 73
     4
 74
     0
 42
0.0000000001
 43
0.0000000001
 40
0.0
 40
0.0
 40
0.0
 40
0.0
 40
1.0
 40
1.0
 40
1.0
 40
1.0
 10
458.6016112273264
 20
315.7664991535876
 30
0.0
 10
458.5970420333324
 20
315.8501603517589
 30
0.0
 10
458.5943850655385
 20
315.9339150330016
 30
0.0
 10
458.5936424042301
 20
316.0176976210942
 30
0.0
  0
SPLINE
  5
1A8
330
70
100
AcDbEntity
  8
Front$1
 62
     7
370
    35
100
AcDbSpline
210
0.0
220
0.0
230
1.0
 70
     8
 71
     3
 72
     8
 73
     4
 74
     0
 42
0.0000000001
 43
0.0000000001
 40
0.0
 40
0.0
 40
0.0
 40
0.0
 40
1.0
 40
1.0
 40
1.0
 40
1.0
 10
459.1022212157131
 20
316.3625065440865
 30
0.0
 10
459.0791246601857
 20
315.9731022315691
 30
0.0
 10
459.1016755088149
 20
315.5823328030683
 30
0.0
 10
459.1694136952701
 20
315.1981704577238
 30
0.0
  0
CIRCLE
  5
1A9
330
70
100
AcDbEntity
  8
Front$1
 62
     7
370
    35
100
AcDbCircle
 10
419.4594360618984
 20
52.23478130962212
 30
0.0
 40
1.500068048888351
  0
CIRCLE
  5
1AA
330
70
100
AcDbEntity
  8
Front$1
 62
     7
370
    35
100
AcDbCircle
 10
419.4594360618984
 20
52.23478130962167
 30
0.0
 40
2.500113414813995
  0
SPLINE
  5
1AB
330
70
100
AcDbEntity
  8
Front$1
 62
     7
370
    35
100
AcDbSpline
210
0.0
220
0.0
230
1.0
 70
     8
 71
     3
 72
    11
 73
     7
 74
     0
 42
0.0000000001
 43
0.0000000001
 40
0.0
 40
0.0
 40
0.0
 40
0.0
 40
1.0
 40
1.0
 40
1.0
 40
2.0
 40
2.0
 40
2.0
 40
2.0
 10
419.4594360618984
 20
48.73462252888202
 30
0.0
 10
421.3925203784874
 20
48.73462252888202
 30
0.0
 10
422.9595948426386
 20
50.30169699303224
 30
0.0
 10
422.9595948426386
 20
52.23478130962212
 30
0.0
 10
422.9595948426386
 20
54.16786562621019
 30
0.0
 10
421.3925203784874
 20
55.73494009036039
 30
0.0
 10
419.4594360618984
 20
55.73494009036039
 30
0.0
  0
SPLINE
  5
1AC
330
70
100
AcDbEntity
  8
Front$1
 62
     7
370
    35
100
AcDbSpline
210
0.0
220
0.0
230
1.0
 70
     8
 71
     3
 72
    11
 73
     7
 74
     0
 42
0.0000000001
 43
0.0000000001
 40
0.0
 40
0.0
 40
0.0
 40
0.0
 40
1.0
 40
1.0
 40
1.0
 40
2.0
 40
2.0
 40
2.0
 40
2.0
 10
454.4610238692967
 20
55.73494009036039
 30
0.0
 10
452.5279395527068
 20
55.73494009036039
 30
0.0
 10
450.9608650885565
 20
54.16786562621019
 30
0.0
 10
450.9608650885565
 20
52.23478130962212
 30
0.0
 10
450.9608650885565
 20
50.30169699303224
 30
0.0
 10
452.5279395527068
 20
48.73462252888202
 30
0.0
 10
454.4610238692967
 20
48.73462252888202
 30
0.0
  0
SPLINE
  5
1AD
330
70
100
AcDbEntity
  8
Front$1
 62
     7
370
    35
100
AcDbSpline
210
0.0
220
0.0
230
1.0
 70
     8
 71
     3
 72
     8
 73
     4
 74
     0
 42
0.0000000001
 43
0.0000000001
 40
0.0
 40
0.0
 40
0.0
 40
0.0
 40
1.0
 40
1.0
 40
1.0
 40
1.0
 10
459.1506026813167
 20
20.99082663573245
 30
0.0
 10
459.0393046315293
 20
20.54563775641145
 30
0.0
 10
458.6393000430925
 20
20.23332641238267
 30
0.0
 10
458.1804096486102
 20
20.23332960002517
 30
0.0
  0
SPLINE
  5
1AE
330
70
100
AcDbEntity
  8
Front$1
 62
     7
370
    35
100
AcDbSpline
210
0.0
220
0.0
230
1.0
 70
     8
 71
     3
 72
     8
 73
     4
 74
     0
 42
0.0000000001
 43
0.0000000001
 40
0.0
 40
0.0
 40
0.0
 40
0.0
 40
1.0
 40
1.0
 40
1.0
 40
1.0
 10
415.7400502825849
 20
20.23332960002517
 30
0.0
 10
415.2811598881035
 20
20.23332641238267
 30
0.0
 10
414.8811552996658
 20
20.54563775641145
 30
0.0
 10
414.7698572498784
 20
20.99082663573245
 30
0.0
  0
SPLINE
  5
1AF
330
70
100
AcDbEntity
  8
Front$1
 62
     7
370
    35
100
AcDbSpline
210
0.0
220
0.0
230
1.0
 70
     8
 71
     3
 72
     8
 73
     4
 74
     0
 42
0.0000000001
 43
0.0000000001
 40
0.0
 40
0.0
 40
0.0
 40
0.0
 40
1.0
 40
1.0
 40
1.0
 40
1.0
 10
414.7698568053874
 20
83.47873420555151
 30
0.0
 10
414.881153551657
 20
83.92392133817157
 30
0.0
 10
415.2811546728007
 20
84.23623289109674
 30
0.0
 10
415.740043056594
 20
84.23623301924271
 30
0.0
  0
SPLINE
  5
1B0
330
70
100
AcDbEntity
  8
Front$1
 62
     7
370
    35
100
AcDbSpline
210
0.0
220
0.0
230
1.0
 70
     8
 71
     3
 72
     8
 73
     4
 74
     0
 42
0.0000000001
 43
0.0000000001
 40
0.0
 40
0.0
 40
0.0
 40
0.0
 40
1.0
 40
1.0
 40
1.0
 40
1.0
 10
458.180416874602
 20
84.23623301924271
 30
0.0
 10
458.6393052583953
 20
84.23623289109674
 30
0.0
 10
459.0393063795382
 20
83.92392133817157
 30
0.0
 10
459.1506031258067
 20
83.47873420555151
 30
0.0
  0
SPLINE
  5
1B1
330
70
100
AcDbEntity
  8
Front$1
 62
     7
370
    35
100
AcDbSpline
210
0.0
220
0.0
230
1.0
 70
     8
 71
     3
 72
     8
 73
     4
 74
     0
 42
0.0000000001
 43
0.0000000001
 40
0.0
 40
0.0
 40
0.0
 40
0.0
 40
1.0
 40
1.0
 40
1.0
 40
1.0
 10
463.8718783265285
 20
64.59366065513859
 30
0.0
 10
463.9313714491108
 20
64.35568810359654
 30
0.0
 10
463.9614548455901
 20
64.11131743542864
 30
0.0
 10
463.9614548455901
 20
63.86602094763657
 30
0.0
  0
SPLINE
  5
1B2
330
70
100
AcDbEntity
  8
Front$1
 62
     7
370
    35
100
AcDbSpline
210
0.0
220
0.0
230
1.0
 70
     8
 71
     3
 72
     8
 73
     4
 74
     0
 42
0.0000000001
 43
0.0000000001
 40
0.0
 40
0.0
 40
0.0
 40
0.0
 40
1.0
 40
1.0
 40
1.0
 40
1.0
 10
409.959005085605
 20
63.86602094763657
 30
0.0
 10
409.959005085605
 20
64.11131743542864
 30
0.0
 10
409.9890884820842
 20
64.35568810359654
 30
0.0
 10
410.0485816046666
 20
64.59366065513859
 30
0.0
  0
SPLINE
  5
1B3
330
70
100
AcDbEntity
  8
Front$1
 62
     7
370
    35
100
AcDbSpline
210
0.0
220
0.0
230
1.0
 70
     8
 71
     3
 72
     8
 73
     4
 74
     0
 42
0.0000000001
 43
0.0000000001
 40
0.0
 40
0.0
 40
0.0
 40
0.0
 40
1.0
 40
1.0
 40
1.0
 40
1.0
 10
463.9614548455901
 20
40.60357119654327
 30
0.0
 10
463.9614548884019
 20
40.35827463867462
 30
0.0
 10
463.9313715173848
 20
40.11390389597181
 30
0.0
 10
463.8718784027259
 20
39.87593127021319
 30
0.0
  0
SPLINE
  5
1B4
330
70
100
AcDbEntity
  8
Front$1
 62
     7
370
    35
100
AcDbSpline
210
0.0
220
0.0
230
1.0
 70
     8
 71
     3
 72
     8
 73
     4
 74
     0
 42
0.0000000001
 43
0.0000000001
 40
0.0
 40
0.0
 40
0.0
 40
0.0
 40
1.0
 40
1.0
 40
1.0
 40
1.0
 10
410.0485815284683
 20
39.87593127021319
 30
0.0
 10
409.9890884138103
 20
40.11390389597181
 30
0.0
 10
409.9590050427923
 20
40.35827463867462
 30
0.0
 10
409.959005085605
 20
40.60357119654327
 30
0.0
  0
SPLINE
  5
1B5
330
70
100
AcDbEntity
  8
Front$1
 62
     7
370
    35
100
AcDbSpline
210
0.0
220
0.0
230
1.0
 70
     8
 71
     3
 72
     8
 73
     4
 74
     0
 42
0.0000000001
 43
0.0000000001
 40
0.0
 40
0.0
 40
0.0
 40
0.0
 40
1.0
 40
1.0
 40
1.0
 40
1.0
 10
454.2343894512559
 20
50.693665409588
 30
0.0
 10
454.3854156162833
 20
50.68987913268211
 30
0.0
 10
454.53663212231
 20
50.68987913268211
 30
0.0
 10
454.6876582873373
 20
50.693665409588
 30
0.0
  0
SPLINE
  5
1B6
330
70
100
AcDbEntity
  8
Front$1
 62
     7
370
    35
100
AcDbSpline
210
0.0
220
0.0
230
1.0
 70
     8
 71
     3
 72
     8
 73
     4
 74
     0
 42
0.0000000001
 43
0.0000000001
 40
0.0
 40
0.0
 40
0.0
 40
0.0
 40
1.0
 40
1.0
 40
1.0
 40
1.0
 10
452.9199069692185
 20
52.46141572766283
 30
0.0
 10
452.9161206923126
 20
52.31038956263546
 30
0.0
 10
452.9161206923126
 20
52.15917305660878
 30
0.0
 10
452.9199069692185
 20
52.0081468915796
 30
0.0
  0
SPLINE
  5
1B7
330
70
100
AcDbEntity
  8
Front$1
 62
     7
370
    35
100
AcDbSpline
210
0.0
220
0.0
230
1.0
 70
     8
 71
     3
 72
     8
 73
     4
 74
     0
 42
0.0000000001
 43
0.0000000001
 40
0.0
 40
0.0
 40
0.0
 40
0.0
 40
1.0
 40
1.0
 40
1.0
 40
1.0
 10
454.2343875416245
 20
53.77589535230254
 30
0.0
 10
454.2216813574232
 20
53.35360817254695
 30
0.0
 10
454.2142358622768
 20
52.92026543523753
 30
0.0
 10
454.2121842444357
 20
52.48361896350616
 30
0.0
  0
SPLINE
  5
1B8
330
70
100
AcDbEntity
  8
Front$1
 62
     7
370
    35
100
AcDbSpline
210
0.0
220
0.0
230
1.0
 70
     8
 71
     3
 72
     8
 73
     4
 74
     0
 42
0.0000000001
 43
0.0000000001
 40
0.0
 40
0.0
 40
0.0
 40
0.0
 40
1.0
 40
1.0
 40
1.0
 40
1.0
 10
454.6876582873373
 20
53.77589820970024
 30
0.0
 10
454.53663212231
 20
53.77968448660613
 30
0.0
 10
454.3854156162833
 20
53.77968448660613
 30
0.0
 10
454.2343894512559
 20
53.77589820970024
 30
0.0
  0
SPLINE
  5
1B9
330
70
100
AcDbEntity
  8
Front$1
 62
     7
370
    35
100
AcDbSpline
210
0.0
220
0.0
230
1.0
 70
     8
 71
     3
 72
     8
 73
     4
 74
     0
 42
0.0000000001
 43
0.0000000001
 40
0.0
 40
0.0
 40
0.0
 40
0.0
 40
1.0
 40
1.0
 40
1.0
 40
1.0
 10
454.7098634941575
 20
52.48361896350616
 30
0.0
 10
454.7078118763165
 20
52.92026543523753
 30
0.0
 10
454.7003663811683
 20
53.35360817254695
 30
0.0
 10
454.6876601969688
 20
53.77589535230254
 30
0.0
  0
SPLINE
  5
1BA
330
70
100
AcDbEntity
  8
Front$1
 62
     7
370
    35
100
AcDbSpline
210
0.0
220
0.0
230
1.0
 70
     8
 71
     3
 72
     8
 73
     4
 74
     0
 42
0.0000000001
 43
0.0000000001
 40
0.0
 40
0.0
 40
0.0
 40
0.0
 40
1.0
 40
1.0
 40
1.0
 40
1.0
 10
456.0021379119771
 20
52.46141763729429
 30
0.0
 10
455.5798507322233
 20
52.47412382149377
 30
0.0
 10
455.1465079949121
 20
52.48156931664016
 30
0.0
 10
454.7098615231825
 20
52.48362093448304
 30
0.0
  0
SPLINE
  5
1BB
330
70
100
AcDbEntity
  8
Front$1
 62
     7
370
    35
100
AcDbSpline
210
0.0
220
0.0
230
1.0
 70
     8
 71
     3
 72
     8
 73
     4
 74
     0
 42
0.0000000001
 43
0.0000000001
 40
0.0
 40
0.0
 40
0.0
 40
0.0
 40
1.0
 40
1.0
 40
1.0
 40
1.0
 10
456.0021407693747
 20
52.0081468915796
 30
0.0
 10
456.0059270462807
 20
52.15917305660878
 30
0.0
 10
456.0059270462807
 20
52.31038956263546
 30
0.0
 10
456.0021407693747
 20
52.46141572766283
 30
0.0
  0
SPLINE
  5
1BC
330
70
100
AcDbEntity
  8
Front$1
 62
     7
370
    35
100
AcDbSpline
210
0.0
220
0.0
230
1.0
 70
     8
 71
     3
 72
     8
 73
     4
 74
     0
 42
0.0000000001
 43
0.0000000001
 40
0.0
 40
0.0
 40
0.0
 40
0.0
 40
1.0
 40
1.0
 40
1.0
 40
1.0
 10
454.7098615231825
 20
51.98594268480519
 30
0.0
 10
455.1465079949121
 20
51.98799430264807
 30
0.0
 10
455.5798507322233
 20
51.99543979779446
 30
0.0
 10
456.0021379119771
 20
52.00814598199395
 30
0.0
  0
SPLINE
  5
1BD
330
70
100
AcDbEntity
  8
Front$1
 62
     7
370
    35
100
AcDbSpline
210
0.0
220
0.0
230
1.0
 70
     8
 71
     3
 72
     8
 73
     4
 74
     0
 42
0.0000000001
 43
0.0000000001
 40
0.0
 40
0.0
 40
0.0
 40
0.0
 40
1.0
 40
1.0
 40
1.0
 40
1.0
 10
452.9199098266162
 20
52.00814598199395
 30
0.0
 10
453.34219700637
 20
51.99543979779446
 30
0.0
 10
453.7755397436812
 20
51.98799430264807
 30
0.0
 10
454.2121862154108
 20
51.98594268480519
 30
0.0
  0
SPLINE
  5
1BE
330
70
100
AcDbEntity
  8
Front$1
 62
     7
370
    35
100
AcDbSpline
210
0.0
220
0.0
230
1.0
 70
     8
 71
     3
 72
     8
 73
     4
 74
     0
 42
0.0000000001
 43
0.0000000001
 40
0.0
 40
0.0
 40
0.0
 40
0.0
 40
1.0
 40
1.0
 40
1.0
 40
1.0
 10
454.6876601969688
 20
50.69366726693989
 30
0.0
 10
454.7003663811683
 20
51.11595444669546
 30
0.0
 10
454.7078118763165
 20
51.54929718400672
 30
0.0
 10
454.7098634941575
 20
51.98594365573626
 30
0.0
  0
SPLINE
  5
1BF
330
70
100
AcDbEntity
  8
Front$1
 62
     7
370
    35
100
AcDbSpline
210
0.0
220
0.0
230
1.0
 70
     8
 71
     3
 72
     8
 73
     4
 74
     0
 42
0.0000000001
 43
0.0000000001
 40
0.0
 40
0.0
 40
0.0
 40
0.0
 40
1.0
 40
1.0
 40
1.0
 40
1.0
 10
454.2121862154108
 20
52.48362093448304
 30
0.0
 10
453.7755397436812
 20
52.48156931664016
 30
0.0
 10
453.34219700637
 20
52.47412382149377
 30
0.0
 10
452.9199098266162
 20
52.46141763729429
 30
0.0
  0
SPLINE
  5
1C0
330
70
100
AcDbEntity
  8
Front$1
 62
     7
370
    35
100
AcDbSpline
210
0.0
220
0.0
230
1.0
 70
     8
 71
     3
 72
     8
 73
     4
 74
     0
 42
0.0000000001
 43
0.0000000001
 40
0.0
 40
0.0
 40
0.0
 40
0.0
 40
1.0
 40
1.0
 40
1.0
 40
1.0
 10
454.2121842444357
 20
51.98594365573626
 30
0.0
 10
454.2142358622768
 20
51.54929718400672
 30
0.0
 10
454.2216813574232
 20
51.11595444669546
 30
0.0
 10
454.2343875416245
 20
50.69366726693989
 30
0.0
  0
SPLINE
  5
1C1
330
70
100
AcDbEntity
  8
Front$1
 62
     7
370
    35
100
AcDbSpline
210
0.0
220
0.0
230
1.0
 70
     8
 71
     3
 72
     8
 73
     4
 74
     0
 42
0.0000000001
 43
0.0000000001
 40
0.0
 40
0.0
 40
0.0
 40
0.0
 40
1.0
 40
1.0
 40
1.0
 40
1.0
 10
415.0503340479781
 20
47.73457716295524
 30
0.0
 10
414.5849301910138
 20
47.73457716295524
 30
0.0
 10
414.207645820381
 20
47.28684160176999
 30
0.0
 10
414.207645820381
 20
46.73453179703028
 30
0.0
  0
SPLINE
  5
1C2
330
70
100
AcDbEntity
  8
Front$1
 62
     7
370
    35
100
AcDbSpline
210
0.0
220
0.0
230
1.0
 70
     8
 71
     3
 72
     8
 73
     4
 74
     0
 42
0.0000000001
 43
0.0000000001
 40
0.0
 40
0.0
 40
0.0
 40
0.0
 40
1.0
 40
1.0
 40
1.0
 40
1.0
 10
458.870125883217
 20
56.73498545628717
 30
0.0
 10
459.3355297401813
 20
56.73498545628717
 30
0.0
 10
459.712814110815
 20
57.18272101747243
 30
0.0
 10
459.712814110815
 20
57.73503082221214
 30
0.0
  0
SPLINE
  5
1C3
330
70
100
AcDbEntity
  8
Front$1
 62
     7
370
    35
100
AcDbSpline
210
0.0
220
0.0
230
1.0
 70
     8
 71
     3
 72
     8
 73
     4
 74
     0
 42
0.0000000001
 43
0.0000000001
 40
0.0
 40
0.0
 40
0.0
 40
0.0
 40
1.0
 40
1.0
 40
1.0
 40
1.0
 10
414.207645820381
 20
57.73503082221214
 30
0.0
 10
414.207645820381
 20
57.18272101747243
 30
0.0
 10
414.5849301910138
 20
56.73498545628717
 30
0.0
 10
415.0503340479781
 20
56.73498545628717
 30
0.0
  0
SPLINE
  5
1C4
330
70
100
AcDbEntity
  8
Front$1
 62
     7
370
    35
100
AcDbSpline
210
0.0
220
0.0
230
1.0
 70
     8
 71
     3
 72
     8
 73
     4
 74
     0
 42
0.0000000001
 43
0.0000000001
 40
0.0
 40
0.0
 40
0.0
 40
0.0
 40
1.0
 40
1.0
 40
1.0
 40
1.0
 10
459.712814110815
 20
46.73453179703028
 30
0.0
 10
459.712814110815
 20
47.28684160176999
 30
0.0
 10
459.3355297401813
 20
47.73457716295524
 30
0.0
 10
458.870125883217
 20
47.73457716295524
 30
0.0
  0
SPLINE
  5
1C5
330
70
100
AcDbEntity
  8
Front$1
 62
     7
370
    35
100
AcDbSpline
210
0.0
220
0.0
230
1.0
 70
     8
 71
     3
 72
     8
 73
     4
 74
     0
 42
0.0000000001
 43
0.0000000001
 40
0.0
 40
0.0
 40
0.0
 40
0.0
 40
1.0
 40
1.0
 40
1.0
 40
1.0
 10
418.7863285271378
 20
57.73503082221214
 30
0.0
 10
418.7863285271378
 20
57.18272101747243
 30
0.0
 10
419.0876890354538
 20
56.73498545628717
 30
0.0
 10
419.4594360618984
 20
56.73498545628717
 30
0.0
  0
SPLINE
  5
1C6
330
70
100
AcDbEntity
  8
Front$1
 62
     7
370
    35
100
AcDbSpline
210
0.0
220
0.0
230
1.0
 70
     8
 71
     3
 72
     8
 73
     4
 74
     0
 42
0.0000000001
 43
0.0000000001
 40
0.0
 40
0.0
 40
0.0
 40
0.0
 40
1.0
 40
1.0
 40
1.0
 40
1.0
 10
419.4594360618984
 20
47.73457716295524
 30
0.0
 10
419.0876890354538
 20
47.73457716295524
 30
0.0
 10
418.7863285271378
 20
47.28684160176999
 30
0.0
 10
418.7863285271378
 20
46.73453179703028
 30
0.0
  0
SPLINE
  5
1C7
330
70
100
AcDbEntity
  8
Front$1
 62
     7
370
    35
100
AcDbSpline
210
0.0
220
0.0
230
1.0
 70
     8
 71
     3
 72
     8
 73
     4
 74
     0
 42
0.0000000001
 43
0.0000000001
 40
0.0
 40
0.0
 40
0.0
 40
0.0
 40
1.0
 40
1.0
 40
1.0
 40
1.0
 10
455.1341314040582
 20
46.73453179703028
 30
0.0
 10
455.1341314040582
 20
47.28684160176999
 30
0.0
 10
454.8327708957404
 20
47.73457716295524
 30
0.0
 10
454.4610238692967
 20
47.73457716295524
 30
0.0
  0
SPLINE
  5
1C8
330
70
100
AcDbEntity
  8
Front$1
 62
     7
370
    35
100
AcDbSpline
210
0.0
220
0.0
230
1.0
 70
     8
 71
     3
 72
     8
 73
     4
 74
     0
 42
0.0000000001
 43
0.0000000001
 40
0.0
 40
0.0
 40
0.0
 40
0.0
 40
1.0
 40
1.0
 40
1.0
 40
1.0
 10
454.4610238692967
 20
56.73498545628717
 30
0.0
 10
454.8327708957404
 20
56.73498545628717
 30
0.0
 10
455.1341314040582
 20
57.18272101747243
 30
0.0
 10
455.1341314040582
 20
57.73503082221214
 30
0.0
  0
SPLINE
  5
1C9
330
70
100
AcDbEntity
  8
Front$1
 62
     7
370
    35
100
AcDbSpline
210
0.0
220
0.0
230
1.0
 70
     8
 71
     3
 72
     8
 73
     4
 74
     0
 42
0.0000000001
 43
0.0000000001
 40
0.0
 40
0.0
 40
0.0
 40
0.0
 40
1.0
 40
1.0
 40
1.0
 40
1.0
 10
448.3591875936935
 20
316.3658966070416
 30
0.0
 10
448.4692292135314
 20
316.3562692127898
 30
0.0
 10
448.5656989498939
 20
316.4314854572576
 30
0.0
 10
448.5746587806279
 20
316.5338967911757
 30
0.0
  0
SPLINE
  5
1CA
330
70
100
AcDbEntity
  8
Front$1
 62
     7
370
    35
100
AcDbSpline
210
0.0
220
0.0
230
1.0
 70
     8
 71
     3
 72
     8
 73
     4
 74
     0
 42
0.0000000001
 43
0.0000000001
 40
0.0
 40
0.0
 40
0.0
 40
0.0
 40
1.0
 40
1.0
 40
1.0
 40
1.0
 10
458.8693265233396
 20
316.0178824310924
 30
0.0
 10
458.9793681431765
 20
316.0082550368406
 30
0.0
 10
459.0754339553077
 20
316.0788544062279
 30
0.0
 10
459.0838955202525
 20
316.1755705361111
 30
0.0
  0
SPLINE
  5
1CB
330
70
100
AcDbEntity
  8
Front$1
 62
     7
370
    35
100
AcDbSpline
210
0.0
220
0.0
230
1.0
 70
     8
 71
     3
 72
    17
 73
    13
 74
     0
 42
0.0000000001
 43
0.0000000001
 40
0.0
 40
0.0
 40
0.0
 40
0.0
 40
1.0
 40
1.0
 40
1.0
 40
2.0
 40
2.0
 40
2.0
 40
3.0
 40
3.0
 40
3.0
 40
4.0
 40
4.0
 40
4.0
 40
4.0
 10
494.2927882328003
 20
188.4037180457344
 30
0.0
 10
499.7606808709242
 20
186.2281806637957
 30
0.0
 10
498.7233862756893
 20
181.0493869141628
 30
0.0
 10
495.8745931035373
 20
178.3333159405283
 30
0.0
 10
494.9292404464358
 20
177.4320062431788
 30
0.0
 10
493.7844057239781
 20
176.8018913632095
 30
0.0
 10
492.9234169540195
 20
175.8234571904386
 30
0.0
 10
492.0692664594771
 20
174.852794085752
 30
0.0
 10
491.4944710140734
 20
173.5393226644428
 30
0.0
 10
491.4863364198172
 20
172.2800732939804
 30
0.0
 10
491.4643254278399
 20
168.8727333676643
 30
0.0
 10
495.5911922915893
 20
165.8623869262374
 30
0.0
 10
496.7832401003579
 20
163.4025838975931
 30
0.0
  0
SPLINE
  5
1CC
330
70
100
AcDbEntity
  8
Front$1
 62
     7
370
    35
100
AcDbSpline
210
0.0
220
0.0
230
1.0
 70
     8
 71
     3
 72
    17
 73
    13
 74
     0
 42
0.0000000001
 43
0.0000000001
 40
0.0
 40
0.0
 40
0.0
 40
0.0
 40
1.0
 40
1.0
 40
1.0
 40
2.0
 40
2.0
 40
2.0
 40
3.0
 40
3.0
 40
3.0
 40
4.0
 40
4.0
 40
4.0
 40
4.0
 10
379.6276716983948
 20
163.4025838975931
 30
0.0
 10
374.1597790602709
 20
165.5781212795318
 30
0.0
 10
375.1970736555068
 20
170.7569150291638
 30
0.0
 10
378.0458668276578
 20
173.4729860027982
 30
0.0
 10
378.9912194847602
 20
174.3742957001486
 30
0.0
 10
380.1360542072162
 20
175.004410580118
 30
0.0
 10
380.9970429771756
 20
175.982844752888
 30
0.0
 10
381.8511934717171
 20
176.9535078575754
 30
0.0
 10
382.4259889171226
 20
178.2669792788838
 30
0.0
 10
382.4341235113779
 20
179.5262286493471
 30
0.0
 10
382.4561345033553
 20
182.9335685756623
 30
0.0
 10
378.3292676396059
 20
185.9439150170892
 30
0.0
 10
377.1372198308382
 20
188.4037180457344
 30
0.0
  0
SPLINE
  5
1CD
330
70
100
AcDbEntity
  8
Front$1
 62
     7
370
    35
100
AcDbSpline
210
0.0
220
0.0
230
1.0
 70
     8
 71
     3
 72
    47
 73
    43
 74
     0
 42
0.0000000001
 43
0.0000000001
 40
0.0
 40
0.0
 40
0.0
 40
0.0
 40
1.0
 40
1.0
 40
1.0
 40
2.0
 40
2.0
 40
2.0
 40
3.0
 40
3.0
 40
3.0
 40
4.0
 40
4.0
 40
4.0
 40
5.0
 40
5.0
 40
5.0
 40
6.0
 40
6.0
 40
6.0
 40
7.0
 40
7.0
 40
7.0
 40
8.0
 40
8.0
 40
8.0
 40
9.0
 40
9.0
 40
9.0
 40
10.0
 40
10.0
 40
10.0
 40
11.0
 40
11.0
 40
11.0
 40
12.0
 40
12.0
 40
12.0
 40
13.0
 40
13.0
 40
13.0
 40
14.0
 40
14.0
 40
14.0
 40
14.0
 10
425.3573179103013
 20
174.1282982513057
 30
0.0
 10
425.1205484298352
 20
174.1378582796569
 30
0.0
 10
424.9220273561623
 20
174.1427886677902
 30
0.0
 10
424.7625682534726
 20
174.1431980900151
 30
0.0
 10
424.6067017338191
 20
174.1435982880357
 30
0.0
 10
424.4881568952568
 20
174.1396789383325
 30
0.0
 10
424.4045838665279
 20
174.1311261497085
 30
0.0
 10
424.3639463498912
 20
174.1269673427905
 30
0.0
 10
424.3315775886657
 20
174.1217130028335
 30
0.0
 10
424.3068426362742
 20
174.114498905793
 30
0.0
 10
424.2827113165321
 20
174.1074608618319
 30
0.0
 10
424.2658457605121
 20
174.0985575456025
 30
0.0
 10
424.257549978357
 20
174.0919628350539
 30
0.0
 10
424.2518426345213
 20
174.087425796848
 30
0.0
 10
424.2501915224174
 20
174.0839814642095
 30
0.0
 10
424.2550492453856
 20
174.0491082589906
 30
0.0
 10
424.2571185669476
 20
174.034252764769
 30
0.0
 10
424.2603690077531
 20
174.0136940616303
 30
0.0
 10
424.2596283285238
 20
173.9882324508744
 30
0.0
 10
424.2590349688653
 20
173.9678351019966
 30
0.0
 10
424.255880249998
 20
173.9442912409968
 30
0.0
 10
424.2522766351894
 20
173.9258473453128
 30
0.0
 10
424.2471445655009
 20
173.8995805651448
 30
0.0
 10
424.241102050124
 20
173.8836574771339
 30
0.0
 10
424.23587026108
 20
173.8700008534242
 30
0.0
 10
424.2290464987909
 20
173.8521886761582
 30
0.0
 10
424.2236019185965
 20
173.8382321365516
 30
0.0
 10
424.2206737810802
 20
173.8278809305138
 30
0.0
 10
424.2170502713361
 20
173.8150715266738
 30
0.0
 10
424.2172803291005
 20
173.807783169037
 30
0.0
 10
424.2219215968543
 20
173.8030269538685
 30
0.0
 10
424.2295149080564
 20
173.7952455838112
 30
0.0
 10
424.2489154182822
 20
173.7942418348912
 30
0.0
 10
424.2778314587431
 20
173.7955174997951
 30
0.0
 10
424.3115386562331
 20
173.797004532189
 30
0.0
 10
424.3581759166136
 20
173.8015889184207
 30
0.0
 10
424.4123854657173
 20
173.8059079755994
 30
0.0
 10
424.469900277888
 20
173.8104903742078
 30
0.0
 10
424.5359389241202
 20
173.8147741021102
 30
0.0
 10
424.6135496511851
 20
173.8195000514688
 30
0.0
 10
424.7148096710807
 20
173.8256660770194
 30
0.0
 10
424.8357686815052
 20
173.8325848899376
 30
0.0
 10
424.9748565062755
 20
173.8398748507707
 30
0.0
  0
SPLINE
  5
1CE
330
70
100
AcDbEntity
  8
Front$1
 62
     7
370
    35
100
AcDbSpline
210
0.0
220
0.0
230
1.0
 70
     8
 71
     3
 72
    68
 73
    64
 74
     0
 42
0.0000000001
 43
0.0000000001
 40
0.0
 40
0.0
 40
0.0
 40
0.0
 40
1.0
 40
1.0
 40
1.0
 40
2.0
 40
2.0
 40
2.0
 40
3.0
 40
3.0
 40
3.0
 40
4.0
 40
4.0
 40
4.0
 40
5.0
 40
5.0
 40
5.0
 40
6.0
 40
6.0
 40
6.0
 40
7.0
 40
7.0
 40
7.0
 40
8.0
 40
8.0
 40
8.0
 40
9.0
 40
9.0
 40
9.0
 40
10.0
 40
10.0
 40
10.0
 40
11.0
 40
11.0
 40
11.0
 40
12.0
 40
12.0
 40
12.0
 40
13.0
 40
13.0
 40
13.0
 40
14.0
 40
14.0
 40
14.0
 40
15.0
 40
15.0
 40
15.0
 40
16.0
 40
16.0
 40
16.0
 40
17.0
 40
17.0
 40
17.0
 40
18.0
 40
18.0
 40
18.0
 40
19.0
 40
19.0
 40
19.0
 40
20.0
 40
20.0
 40
20.0
 40
21.0
 40
21.0
 40
21.0
 40
21.0
 10
426.7037931388294
 20
176.0659273093488
 30
0.0
 10
426.3486144313974
 20
176.0784463943864
 30
0.0
 10
426.0295945114449
 20
176.0906294191136
 30
0.0
 10
425.7463737849848
 20
176.1024934349061
 30
0.0
 10
425.5466382383802
 20
176.1108602861213
 30
0.0
 10
425.3647073607107
 20
176.1190684787761
 30
0.0
 10
425.2011924351172
 20
176.1270890267997
 30
0.0
 10
425.0397994913555
 20
176.1350054897848
 30
0.0
 10
424.8963476225271
 20
176.1427391467759
 30
0.0
 10
424.772400296184
 20
176.1496102982182
 30
0.0
 10
424.6644631881609
 20
176.1555939062336
 30
0.0
 10
424.5713172660889
 20
176.1609234368734
 30
0.0
 10
424.4934863744129
 20
176.165302988752
 30
0.0
 10
424.4285826934819
 20
176.1689551252193
 30
0.0
 10
424.3743290836473
 20
176.1719466465201
 30
0.0
 10
424.3314158325183
 20
176.1732612637106
 30
0.0
 10
424.2967096127913
 20
176.1743244642803
 30
0.0
 10
424.2694209105638
 20
176.1742908330916
 30
0.0
 10
424.2494113266402
 20
176.1737250885726
 30
0.0
 10
424.2339273972657
 20
176.1732873009496
 30
0.0
 10
424.2228022486496
 20
176.1725308805953
 30
0.0
 10
424.2179969209728
 20
176.1670975671913
 30
0.0
 10
424.2134642689789
 20
176.1619725641758
 30
0.0
 10
424.2145545577787
 20
176.152686384291
 30
0.0
 10
424.2193476173634
 20
176.1436599480721
 30
0.0
 10
424.2204702400067
 20
176.1415457908197
 30
0.0
 10
424.2217959901699
 20
176.1394458826498
 30
0.0
 10
424.2282680374855
 20
176.1260852971727
 30
0.0
 10
424.2311394148282
 20
176.120157762879
 30
0.0
 10
424.2350237515493
 20
176.1120137594707
 30
0.0
 10
424.2385213107982
 20
176.1034107874557
 30
0.0
 10
424.2477614541212
 20
176.0806827394745
 30
0.0
 10
424.2543020657812
 20
176.0547512983948
 30
0.0
 10
424.2574251553151
 20
176.0302392389303
 30
0.0
 10
424.259447268294
 20
176.0143683671422
 30
0.0
 10
424.2600366877477
 20
175.9990925284737
 30
0.0
 10
424.2595101425922
 20
175.9847590113813
 30
0.0
 10
424.2587408319987
 20
175.9638169774025
 30
0.0
 10
424.2555892973586
 20
175.9448864956757
 30
0.0
 10
424.2528931309862
 20
175.9306189326671
 30
0.0
 10
424.2470262108672
 20
175.8995723869802
 30
0.0
 10
424.2433154942082
 20
175.890605116866
 30
0.0
 10
424.2407994036666
 20
175.8819118234023
 30
0.0
 10
424.2367618818043
 20
175.8679618634014
 30
0.0
 10
424.235800522265
 20
175.8547173932911
 30
0.0
 10
424.2386874944604
 20
175.8455565215263
 30
0.0
 10
424.2426794817902
 20
175.8328892419158
 30
0.0
 10
424.2540295678073
 20
175.828029896159
 30
0.0
 10
424.2722651338771
 20
175.8248895066781
 30
0.0
 10
424.2955832810876
 20
175.8208738340127
 30
0.0
 10
424.3301600131544
 20
175.8196688608132
 30
0.0
 10
424.375617840059
 20
175.8205846469973
 30
0.0
 10
424.4309216732753
 20
175.8216987892656
 30
0.0
 10
424.5023306916691
 20
175.825951882447
 30
0.0
 10
424.5884553134273
 20
175.8312508857261
 30
0.0
 10
424.684745746772
 20
175.8371753625079
 30
0.0
 10
424.7994307526914
 20
175.8444072317707
 30
0.0
 10
424.929826909005
 20
175.8514467803752
 30
0.0
 10
425.0576520703106
 20
175.8583475316045
 30
0.0
 10
425.2005749425161
 20
175.8650634713067
 30
0.0
 10
425.3584604544057
 20
175.871965735716
 30
0.0
 10
425.5112515476175
 20
175.8786452879576
 30
0.0
 10
425.6780552734299
 20
175.8854993347895
 30
0.0
 10
425.8589142553746
 20
175.8924107592001
 30
0.0
  0
SPLINE
  5
1CF
330
70
100
AcDbEntity
  8
Front$1
 62
     7
370
    35
100
AcDbSpline
210
0.0
220
0.0
230
1.0
 70
     8
 71
     3
 72
    41
 73
    37
 74
     0
 42
0.0000000001
 43
0.0000000001
 40
0.0
 40
0.0
 40
0.0
 40
0.0
 40
1.0
 40
1.0
 40
1.0
 40
2.0
 40
2.0
 40
2.0
 40
3.0
 40
3.0
 40
3.0
 40
4.0
 40
4.0
 40
4.0
 40
5.0
 40
5.0
 40
5.0
 40
6.0
 40
6.0
 40
6.0
 40
7.0
 40
7.0
 40
7.0
 40
8.0
 40
8.0
 40
8.0
 40
9.0
 40
9.0
 40
9.0
 40
10.0
 40
10.0
 40
10.0
 40
11.0
 40
11.0
 40
11.0
 40
12.0
 40
12.0
 40
12.0
 40
12.0
 10
449.4236444229027
 20
164.8035941270336
 30
0.0
 10
449.5132662086161
 20
164.795730322935
 30
0.0
 10
449.5813141762682
 20
164.7938960950414
 30
0.0
 10
449.6257101502979
 20
164.7973840487566
 30
0.0
 10
449.6637686978856
 20
164.8003741048451
 30
0.0
 10
449.6844458357618
 20
164.8072753330989
 30
0.0
 10
449.6925775096023
 20
164.81973385134
 30
0.0
 10
449.6981050736649
 20
164.8282026191546
 30
0.0
 10
449.6978357565667
 20
164.8392392433297
 30
0.0
 10
449.684606349816
 20
164.8723408271662
 30
0.0
 10
449.6767046583727
 20
164.892111819674
 30
0.0
 10
449.6641795037821
 20
164.919754403395
 30
0.0
 10
449.6618153103854
 20
164.9693384644733
 30
0.0
 10
449.660842671914
 20
164.9897375424098
 30
0.0
 10
449.6615898086329
 20
165.0138502855852
 30
0.0
 10
449.6630511000257
 20
165.0320975756376
 30
0.0
 10
449.6656032132305
 20
165.0639660654624
 30
0.0
 10
449.6703336304881
 20
165.0779438366889
 30
0.0
 10
449.6740039488513
 20
165.0907192532449
 30
0.0
 10
449.679413083003
 20
165.1095470319706
 30
0.0
 10
449.682519744857
 20
165.1257633672421
 30
0.0
 10
449.6828555215052
 20
165.1376932180601
 30
0.0
 10
449.6832994113383
 20
165.1534642357955
 30
0.0
 10
449.6789008199148
 20
165.161744066032
 30
0.0
 10
449.6688985184773
 20
165.167558020903
 30
0.0
 10
449.6517993661545
 20
165.1774971034801
 30
0.0
 10
449.6183235687158
 20
165.1802297521672
 30
0.0
 10
449.5688473802456
 20
165.1792152620564
 30
0.0
 10
449.5070789471119
 20
165.1779487242229
 30
0.0
 10
449.420371958412
 20
165.1708418148037
 30
0.0
 10
449.3160360098427
 20
165.1637691716642
 30
0.0
 10
449.2075756655176
 20
165.1564169472312
 30
0.0
 10
449.080065069882
 20
165.1491017517119
 30
0.0
 10
448.9330698402718
 20
165.1414004993439
 30
0.0
 10
448.7267710814812
 20
165.1305922655747
 30
0.0
 10
448.4820946177133
 20
165.1190236389839
 30
0.0
 10
448.199291835107
 20
165.1069394679616
 30
0.0
  0
SPLINE
  5
1D0
330
70
100
AcDbEntity
  8
Front$1
 62
     7
370
    35
100
AcDbSpline
210
0.0
220
0.0
230
1.0
 70
     8
 71
     3
 72
     8
 73
     4
 74
     0
 42
0.0000000001
 43
0.0000000001
 40
0.0
 40
0.0
 40
0.0
 40
0.0
 40
1.0
 40
1.0
 40
1.0
 40
1.0
 10
425.8589142553746
 20
175.8924107592001
 30
0.0
 10
426.1472391304705
 20
175.904199170026
 30
0.0
 10
426.504346206354
 20
175.9171772356203
 30
0.0
 10
426.930235483026
 20
175.931344955984
 30
0.0
  0
SPLINE
  5
1D1
330
70
100
AcDbEntity
  8
Front$1
 62
     7
370
    35
100
AcDbSpline
210
0.0
220
0.0
230
1.0
 70
     8
 71
     3
 72
    38
 73
    34
 74
     0
 42
0.0000000001
 43
0.0000000001
 40
0.0
 40
0.0
 40
0.0
 40
0.0
 40
1.0
 40
1.0
 40
1.0
 40
2.0
 40
2.0
 40
2.0
 40
3.0
 40
3.0
 40
3.0
 40
4.0
 40
4.0
 40
4.0
 40
5.0
 40
5.0
 40
5.0
 40
6.0
 40
6.0
 40
6.0
 40
7.0
 40
7.0
 40
7.0
 40
8.0
 40
8.0
 40
8.0
 40
9.0
 40
9.0
 40
9.0
 40
10.0
 40
10.0
 40
10.0
 40
11.0
 40
11.0
 40
11.0
 40
11.0
 10
449.6215538309124
 20
166.7968338181908
 30
0.0
 10
449.6275530383254
 20
166.7964410513486
 30
0.0
 10
449.6332614311604
 20
166.7961044110507
 30
0.0
 10
449.638659915272
 20
166.7958350212666
 30
0.0
 10
449.6686510920635
 20
166.7943384313957
 30
0.0
 10
449.6890774409512
 20
166.7949174190644
 30
0.0
 10
449.6969861163697
 20
166.8030792307618
 30
0.0
 10
449.7057085113392
 20
166.8120808070734
 30
0.0
 10
449.6992048436768
 20
166.8303058667961
 30
0.0
 10
449.6843973201403
 20
166.8697583631838
 30
0.0
 10
449.6793317458741
 20
166.883254850286
 30
0.0
 10
449.6732943818606
 20
166.8992355574473
 30
0.0
 10
449.668150951753
 20
166.925514494189
 30
0.0
 10
449.6645511652878
 20
166.9439066097293
 30
0.0
 10
449.6613892569012
 20
166.9673431351029
 30
0.0
 10
449.6608281635927
 20
166.9878551353477
 30
0.0
 10
449.6601394772833
 20
167.0130315784017
 30
0.0
 10
449.6633689512163
 20
167.0338021879988
 30
0.0
 10
449.6654548040169
 20
167.0487924635981
 30
0.0
 10
449.6703180554213
 20
167.0837429063458
 30
0.0
 10
449.6689644867173
 20
167.0872709701434
 30
0.0
 10
449.663656551671
 20
167.0918896864605
 30
0.0
 10
449.6559428722912
 20
167.098601768751
 30
0.0
 10
449.6398779932223
 20
167.1076171927643
 30
0.0
 10
449.6168006404541
 20
167.1147499210428
 30
0.0
 10
449.5930998577114
 20
167.1220753385205
 30
0.0
 10
449.562002602479
 20
167.1274149649916
 30
0.0
 10
449.5229823958862
 20
167.1316707727128
 30
0.0
 10
449.4425261966434
 20
167.1404458701263
 30
0.0
 10
449.3283857470787
 20
167.1446131363891
 30
0.0
 10
449.176452792246
 20
167.1443071610501
 30
0.0
 10
449.0275792996408
 20
167.1440073471121
 30
0.0
 10
448.8424200266154
 20
167.1394126323366
 30
0.0
 10
448.6222986801631
 20
167.1304796510776
 30
0.0
  0
SPLINE
  5
1D2
330
70
100
AcDbEntity
  8
Front$1
 62
     7
370
    35
100
AcDbSpline
210
0.0
220
0.0
230
1.0
 70
     8
 71
     3
 72
    44
 73
    40
 74
     0
 42
0.0000000001
 43
0.0000000001
 40
0.0
 40
0.0
 40
0.0
 40
0.0
 40
1.0
 40
1.0
 40
1.0
 40
2.0
 40
2.0
 40
2.0
 40
3.0
 40
3.0
 40
3.0
 40
4.0
 40
4.0
 40
4.0
 40
5.0
 40
5.0
 40
5.0
 40
6.0
 40
6.0
 40
6.0
 40
7.0
 40
7.0
 40
7.0
 40
8.0
 40
8.0
 40
8.0
 40
9.0
 40
9.0
 40
9.0
 40
10.0
 40
10.0
 40
10.0
 40
11.0
 40
11.0
 40
11.0
 40
12.0
 40
12.0
 40
12.0
 40
13.0
 40
13.0
 40
13.0
 40
13.0
 10
425.0357333062829
 20
168.1435023923786
 30
0.0
 10
424.8429759463151
 20
168.1536423873149
 30
0.0
 10
424.6833925910605
 20
168.162054164829
 30
0.0
 10
424.5543898631677
 20
168.1709900517116
 30
0.0
 10
424.4760218937371
 20
168.1764185207175
 30
0.0
 10
424.4089395538649
 20
168.1820404096988
 30
0.0
 10
424.3566324426319
 20
168.1848250307021
 30
0.0
 10
424.3111976359359
 20
168.187243797749
 30
0.0
 10
424.2769106533469
 20
168.1875218626028
 30
0.0
 10
424.2562002033164
 20
168.1827370314868
 30
0.0
 10
424.2395665619133
 20
168.1788940843344
 30
0.0
 10
424.2316905075504
 20
168.1717852994625
 30
0.0
 10
424.2312679457527
 20
168.1559029972322
 30
0.0
 10
424.2309490146863
 20
168.1439157337718
 30
0.0
 10
424.2348760153936
 20
168.1269305776059
 30
0.0
 10
424.2427530612267
 20
168.1031205812369
 30
0.0
 10
424.2480734692898
 20
168.0870385500602
 30
0.0
 10
424.2551959205538
 20
168.067842970433
 30
0.0
 10
424.2575303613976
 20
168.0318547930828
 30
0.0
 10
424.259054390287
 20
168.0083600782345
 30
0.0
 10
424.2585377352688
 20
167.9777082394612
 30
0.0
 10
424.2572067129895
 20
167.9558661380288
 30
0.0
 10
424.2547232479055
 20
167.9151124278305
 30
0.0
 10
424.2494046998545
 20
167.9050283398728
 30
0.0
 10
424.2475741788411
 20
167.8959905161864
 30
0.0
 10
424.2442621422642
 20
167.8796380119447
 30
0.0
 10
424.2523689106274
 20
167.8667106782914
 30
0.0
 10
424.2657369616454
 20
167.8566965850386
 30
0.0
 10
424.2814295958287
 20
167.8449411315414
 30
0.0
 10
424.3043723826067
 20
167.8372001815087
 30
0.0
 10
424.3384809912904
 20
167.8320234598886
 30
0.0
 10
424.3773227150104
 20
167.8261283853399
 30
0.0
 10
424.4306441425033
 20
167.8235585714055
 30
0.0
 10
424.4952790708512
 20
167.8231138390456
 30
0.0
 10
424.5676043487401
 20
167.8226161918392
 30
0.0
 10
424.654095478384
 20
167.8247794000954
 30
0.0
 10
424.7675648469575
 20
167.8290418288197
 30
0.0
 10
424.8243037915208
 20
167.831173203217
 30
0.0
 10
424.8877883087689
 20
167.8338294615523
 30
0.0
 10
424.9567369868027
 20
167.8370667749141
 30
0.0
  0
SPLINE
  5
1D3
330
70
100
AcDbEntity
  8
Front$1
 62
     7
370
    35
100
AcDbSpline
210
0.0
220
0.0
230
1.0
 70
     8
 71
     3
 72
    53
 73
    49
 74
     0
 42
0.0000000001
 43
0.0000000001
 40
0.0
 40
0.0
 40
0.0
 40
0.0
 40
1.0
 40
1.0
 40
1.0
 40
2.0
 40
2.0
 40
2.0
 40
3.0
 40
3.0
 40
3.0
 40
4.0
 40
4.0
 40
4.0
 40
5.0
 40
5.0
 40
5.0
 40
6.0
 40
6.0
 40
6.0
 40
7.0
 40
7.0
 40
7.0
 40
8.0
 40
8.0
 40
8.0
 40
9.0
 40
9.0
 40
9.0
 40
10.0
 40
10.0
 40
10.0
 40
11.0
 40
11.0
 40
11.0
 40
12.0
 40
12.0
 40
12.0
 40
13.0
 40
13.0
 40
13.0
 40
14.0
 40
14.0
 40
14.0
 40
15.0
 40
15.0
 40
15.0
 40
16.0
 40
16.0
 40
16.0
 40
16.0
 10
446.0934425829809
 20
176.9549639038086
 30
0.0
 10
446.4625729212066
 20
176.9434756766577
 30
0.0
 10
446.8049142788231
 20
176.93303302612
 30
0.0
 10
447.1215722892821
 20
176.9233418305093
 30
0.0
 10
447.4091944120791
 20
176.9145392669807
 30
0.0
 10
447.6756273017535
 20
176.9063566675686
 30
0.0
 10
447.9180423698708
 20
176.8995464961208
 30
0.0
 10
448.1353513565973
 20
176.8934416303291
 30
0.0
 10
448.3333597897853
 20
176.8884396380581
 30
0.0
 10
448.5112883083111
 20
176.8845811611172
 30
0.0
 10
448.6716611669289
 20
176.881103388233
 30
0.0
 10
448.8157210765503
 20
176.8785546087019
 30
0.0
 10
448.9429049946111
 20
176.877325317515
 30
0.0
 10
449.0914723449523
 20
176.8758893455997
 30
0.0
 10
449.2170119373532
 20
176.8762538520786
 30
0.0
 10
449.3189647233321
 20
176.8792904011652
 30
0.0
 10
449.4037109468409
 20
176.8818144721372
 30
0.0
 10
449.4721600206339
 20
176.8861847734824
 30
0.0
 10
449.5245980082154
 20
176.8942910218238
 30
0.0
 10
449.5661749514465
 20
176.9007182903497
 30
0.0
 10
449.5976864289087
 20
176.9094941844541
 30
0.0
 10
449.6193239844415
 20
176.9203417832923
 30
0.0
 10
449.6318368555721
 20
176.9266148859133
 30
0.0
 10
449.6410476493574
 20
176.9335808165024
 30
0.0
 10
449.6477413065895
 20
176.9453120221887
 30
0.0
 10
449.6527405601819
 20
176.9540736408598
 30
0.0
 10
449.6563357392078
 20
176.9654933598867
 30
0.0
 10
449.6576835197629
 20
176.9734245794752
 30
0.0
 10
449.6585783256305
 20
176.9786902006481
 30
0.0
 10
449.6584825291456
 20
176.982418170267
 30
0.0
 10
449.6606038104864
 20
177.0036583654482
 30
0.0
 10
449.6619076273145
 20
177.0167133635623
 30
0.0
 10
449.6640490072859
 20
177.036384094572
 30
0.0
 10
449.6664841271922
 20
177.0514706366139
 30
0.0
 10
449.6706009830941
 20
177.0769762059754
 30
0.0
 10
449.6755574026392
 20
177.0893793062869
 30
0.0
 10
449.6791374328149
 20
177.099989639225
 30
0.0
 10
449.684941115538
 20
177.1171903338973
 30
0.0
 10
449.687127575462
 20
177.1296795427333
 30
0.0
 10
449.6884226324891
 20
177.1411170950496
 30
0.0
 10
449.6898047328686
 20
177.15332338795
 30
0.0
 10
449.6901715775684
 20
177.164331905682
 30
0.0
 10
449.6879034950007
 20
177.1731057457536
 30
0.0
 10
449.6826765266769
 20
177.1933257257433
 30
0.0
 10
449.6634552755203
 20
177.2016771765311
 30
0.0
 10
449.6202442933872
 20
177.2046549583038
 30
0.0
 10
449.5801195075819
 20
177.2074200622164
 30
0.0
 10
449.5193093868547
 20
177.2055516775981
 30
0.0
 10
449.4407568792221
 20
177.1971375304192
 30
0.0
  0
SPLINE
  5
1D4
330
70
100
AcDbEntity
  8
Front$1
 62
     7
370
    35
100
AcDbSpline
210
0.0
220
0.0
230
1.0
 70
     8
 71
     3
 72
    47
 73
    43
 74
     0
 42
0.0000000001
 43
0.0000000001
 40
0.0
 40
0.0
 40
0.0
 40
0.0
 40
1.0
 40
1.0
 40
1.0
 40
2.0
 40
2.0
 40
2.0
 40
3.0
 40
3.0
 40
3.0
 40
4.0
 40
4.0
 40
4.0
 40
5.0
 40
5.0
 40
5.0
 40
6.0
 40
6.0
 40
6.0
 40
7.0
 40
7.0
 40
7.0
 40
8.0
 40
8.0
 40
8.0
 40
9.0
 40
9.0
 40
9.0
 40
10.0
 40
10.0
 40
10.0
 40
11.0
 40
11.0
 40
11.0
 40
12.0
 40
12.0
 40
12.0
 40
13.0
 40
13.0
 40
13.0
 40
14.0
 40
14.0
 40
14.0
 40
14.0
 10
424.4413677930988
 20
164.1917427345952
 30
0.0
 10
424.3926435494613
 20
164.1955278737168
 30
0.0
 10
424.3514682881651
 20
164.1978660366685
 30
0.0
 10
424.3183795118202
 20
164.1993158144878
 30
0.0
 10
424.2789005978101
 20
164.2010455748532
 30
0.0
 10
424.2509331002074
 20
164.2015106854669
 30
0.0
 10
424.2323054028729
 20
164.1984543287972
 30
0.0
 10
424.2176496428101
 20
164.19604967141
 30
0.0
 10
424.2087753215892
 20
164.1914651871366
 30
0.0
 10
424.2063056760771
 20
164.1846138439287
 30
0.0
 10
424.2038660312346
 20
164.1778457292175
 30
0.0
 10
424.2076764022549
 20
164.1688654955869
 30
0.0
 10
424.2229270309407
 20
164.1381980699989
 30
0.0
 10
424.2270668190922
 20
164.1298733872791
 30
0.0
 10
424.2320495858357
 20
164.119950677742
 30
0.0
 10
424.2382408869316
 20
164.1043385421535
 30
0.0
 10
424.243501230444
 20
164.0910739318733
 30
0.0
 10
424.2496339894314
 20
164.0737022448538
 30
0.0
 10
424.253550595683
 20
164.0533258010691
 30
0.0
 10
424.2576924311588
 20
164.031777585008
 30
0.0
 10
424.2593559000206
 20
164.0068690911421
 30
0.0
 10
424.2596005367613
 20
163.98774967813
 30
0.0
 10
424.2600415983688
 20
163.9532788173201
 30
0.0
 10
424.2558706933059
 20
163.9376255794968
 30
0.0
 10
424.2526255526309
 20
163.9239431902797
 30
0.0
 10
424.2471140398583
 20
163.9007051644239
 30
0.0
 10
424.2442729192862
 20
163.8831521042193
 30
0.0
 10
424.2439104339245
 20
163.8698932488278
 30
0.0
 10
424.24339580189
 20
163.85106922877
 30
0.0
 10
424.2478772028825
 20
163.8409007740729
 30
0.0
 10
424.2589023895507
 20
163.833743311653
 30
0.0
 10
424.2787287412984
 20
163.8208722037234
 30
0.0
 10
424.3197164141884
 20
163.817738055056
 30
0.0
 10
424.3814429683534
 20
163.8188444424595
 30
0.0
 10
424.4606535332004
 20
163.8202642134529
 30
0.0
 10
424.5740154168179
 20
163.8286669984863
 30
0.0
 10
424.7137040365614
 20
163.8371681176686
 30
0.0
 10
424.8593185639966
 20
163.8460298735845
 30
0.0
 10
425.0335408860019
 20
163.8549984837318
 30
0.0
 10
425.2355503514418
 20
163.864274224531
 30
0.0
 10
425.5145506242379
 20
163.877085179738
 30
0.0
 10
425.8465550281807
 20
163.8904819883764
 30
0.0
 10
426.2320265443013
 20
163.904351661894
 30
0.0
  0
SPLINE
  5
1D5
330
70
100
AcDbEntity
  8
Front$1
 62
     7
370
    35
100
AcDbSpline
210
0.0
220
0.0
230
1.0
 70
     8
 71
     3
 72
    44
 73
    40
 74
     0
 42
0.0000000001
 43
0.0000000001
 40
0.0
 40
0.0
 40
0.0
 40
0.0
 40
1.0
 40
1.0
 40
1.0
 40
2.0
 40
2.0
 40
2.0
 40
3.0
 40
3.0
 40
3.0
 40
4.0
 40
4.0
 40
4.0
 40
5.0
 40
5.0
 40
5.0
 40
6.0
 40
6.0
 40
6.0
 40
7.0
 40
7.0
 40
7.0
 40
8.0
 40
8.0
 40
8.0
 40
9.0
 40
9.0
 40
9.0
 40
10.0
 40
10.0
 40
10.0
 40
11.0
 40
11.0
 40
11.0
 40
12.0
 40
12.0
 40
12.0
 40
13.0
 40
13.0
 40
13.0
 40
13.0
 10
448.9763675969824
 20
174.8362650319668
 30
0.0
 10
449.049259094113
 20
174.8327736938145
 30
0.0
 10
449.1159912682933
 20
174.8299497335028
 30
0.0
 10
449.1752522409733
 20
174.8277146888231
 30
0.0
 10
449.2851289230884
 20
174.8235706580608
 30
0.0
 10
449.3693215276716
 20
174.8214511684327
 30
0.0
 10
449.4392822339732
 20
174.8220411638849
 30
0.0
 10
449.5015094177006
 20
174.8225659406835
 30
0.0
 10
449.5524772142698
 20
174.8252342924934
 30
0.0
 10
449.5893558551479
 20
174.831289060352
 30
0.0
 10
449.6215512066119
 20
174.8365749216154
 30
0.0
 10
449.6430086051732
 20
174.8444417165301
 30
0.0
 10
449.6574340359948
 20
174.8563628931542
 30
0.0
 10
449.6696350745942
 20
174.8664458319544
 30
0.0
 10
449.6768055931124
 20
174.8794291891536
 30
0.0
 10
449.6732301924212
 20
174.8961031147646
 30
0.0
 10
449.6712767869321
 20
174.9052128455669
 30
0.0
 10
449.6661157907928
 20
174.9154241882925
 30
0.0
 10
449.6634343482692
 20
174.954769464699
 30
0.0
 10
449.6619787814852
 20
174.9761272513951
 30
0.0
 10
449.6612538502386
 20
175.0060697636445
 30
0.0
 10
449.662605242146
 20
175.0291741526362
 30
0.0
 10
449.6646490503226
 20
175.0641165989073
 30
0.0
 10
449.6714419723775
 20
175.0834184036985
 30
0.0
 10
449.6766267256862
 20
175.0995604543832
 30
0.0
 10
449.6843339543947
 20
175.1235559020069
 30
0.0
 10
449.6884875554878
 20
175.1405691287173
 30
0.0
 10
449.6887663315592
 20
175.1528093191955
 30
0.0
 10
449.6891563991839
 20
175.169935975724
 30
0.0
 10
449.6819603256526
 20
175.1777179711653
 30
0.0
 10
449.6656947348538
 20
175.1820100625546
 30
0.0
 10
449.6452519952391
 20
175.1874044013011
 30
0.0
 10
449.6104833303625
 20
175.1872861969705
 30
0.0
 10
449.5638496077881
 20
175.1848717970842
 30
0.0
 10
449.5097724134284
 20
175.182072021199
 30
0.0
 10
449.4397401757478
 20
175.1761845317514
 30
0.0
 10
449.3575787941445
 20
175.1705191079709
 30
0.0
 10
449.2261122903427
 20
175.1614538580643
 30
0.0
 10
449.0635912602283
 20
175.1529571679975
 30
0.0
 10
448.8672947972345
 20
175.142675186009
 30
0.0
  0
SPLINE
  5
1D6
330
70
100
AcDbEntity
  8
Front$1
 62
     7
370
    35
100
AcDbSpline
210
0.0
220
0.0
230
1.0
 70
     8
 71
     3
 72
    56
 73
    52
 74
     0
 42
0.0000000001
 43
0.0000000001
 40
0.0
 40
0.0
 40
0.0
 40
0.0
 40
1.0
 40
1.0
 40
1.0
 40
2.0
 40
2.0
 40
2.0
 40
3.0
 40
3.0
 40
3.0
 40
4.0
 40
4.0
 40
4.0
 40
5.0
 40
5.0
 40
5.0
 40
6.0
 40
6.0
 40
6.0
 40
7.0
 40
7.0
 40
7.0
 40
8.0
 40
8.0
 40
8.0
 40
9.0
 40
9.0
 40
9.0
 40
10.0
 40
10.0
 40
10.0
 40
11.0
 40
11.0
 40
11.0
 40
12.0
 40
12.0
 40
12.0
 40
13.0
 40
13.0
 40
13.0
 40
14.0
 40
14.0
 40
14.0
 40
15.0
 40
15.0
 40
15.0
 40
16.0
 40
16.0
 40
16.0
 40
17.0
 40
17.0
 40
17.0
 40
17.0
 10
448.2669190819142
 20
168.8767454101889
 30
0.0
 10
448.2801781161652
 20
168.8762659899293
 30
0.0
 10
448.2933188809884
 20
168.8757942235515
 30
0.0
 10
448.3062682665513
 20
168.8753329279398
 30
0.0
 10
448.5698678099242
 20
168.865942728522
 30
0.0
 10
448.7541650407011
 20
168.8608913268835
 30
0.0
 10
448.9212376080822
 20
168.8577869037171
 30
0.0
 10
449.0750456368805
 20
168.8549289527372
 30
0.0
 10
449.214255494112
 20
168.8537210964559
 30
0.0
 10
449.3232467274265
 20
168.856094531091
 30
0.0
 10
449.3983272213345
 20
168.8577295125405
 30
0.0
 10
449.4590678261765
 20
168.8610639530589
 30
0.0
 10
449.5082521207814
 20
168.8668658022716
 30
0.0
 10
449.5521516777862
 20
168.8720442563344
 30
0.0
 10
449.5868449040417
 20
168.8791883707226
 30
0.0
 10
449.6119025189455
 20
168.8869258979348
 30
0.0
 10
449.6313375576374
 20
168.8929272329114
 30
0.0
 10
449.6449760323648
 20
168.8992855515053
 30
0.0
 10
449.6533354088387
 20
168.9127208958471
 30
0.0
 10
449.6592023637949
 20
168.9221503742683
 30
0.0
 10
449.66246893476
 20
168.9350658617713
 30
0.0
 10
449.6627312971868
 20
168.9422088998626
 30
0.0
 10
449.6628832969763
 20
168.946347222176
 30
0.0
 10
449.6620269433597
 20
168.9485480395024
 30
0.0
 10
449.6614471730899
 20
168.9740886008321
 30
0.0
 10
449.6612210700895
 20
168.9840490935412
 30
0.0
 10
449.6610370326607
 20
168.997559328799
 30
0.0
 10
449.66106860745
 20
169.0075836601772
 30
0.0
 10
449.6611363015199
 20
169.0290751034918
 30
0.0
 10
449.6621950413364
 20
169.0345438452605
 30
0.0
 10
449.6624241978124
 20
169.0401473154043
 30
0.0
 10
449.6628555479337
 20
169.0506949445771
 30
0.0
 10
449.6603475189422
 20
169.0617199432317
 30
0.0
 10
449.655773356053
 20
169.0704070094289
 30
0.0
 10
449.6485440747173
 20
169.0841365697952
 30
0.0
 10
449.6361538931551
 20
169.0920263168955
 30
0.0
 10
449.6178279762443
 20
169.0990462424061
 30
0.0
 10
449.5935388570123
 20
169.1083504321259
 30
0.0
 10
449.5588225634037
 20
169.1161266255913
 30
0.0
 10
449.5140284111894
 20
169.1220608870926
 30
0.0
 10
449.4643281109529
 20
169.1286451076603
 30
0.0
 10
449.4022214717561
 20
169.1329618195077
 30
0.0
 10
449.3267627999894
 20
169.1354384995547
 30
0.0
 10
449.2485789764514
 20
169.138004623649
 30
0.0
 10
449.1560613020574
 20
169.1385954124334
 30
0.0
 10
449.0503193594368
 20
169.1375236121493
 30
0.0
 10
448.9411740122232
 20
169.1364173149568
 30
0.0
 10
448.8179394260978
 20
169.1335396823524
 30
0.0
 10
448.6753667237935
 20
169.1292454789891
 30
0.0
 10
448.5477187805691
 20
169.1254008003216
 30
0.0
 10
448.4045695043578
 20
169.1204206059274
 30
0.0
 10
448.2473720938251
 20
169.1142066760376
 30
0.0
  0
SPLINE
  5
1D7
330
70
100
AcDbEntity
  8
Front$1
 62
     7
370
    35
100
AcDbSpline
210
0.0
220
0.0
230
1.0
 70
     8
 71
     3
 72
    44
 73
    40
 74
     0
 42
0.0000000001
 43
0.0000000001
 40
0.0
 40
0.0
 40
0.0
 40
0.0
 40
1.0
 40
1.0
 40
1.0
 40
2.0
 40
2.0
 40
2.0
 40
3.0
 40
3.0
 40
3.0
 40
4.0
 40
4.0
 40
4.0
 40
5.0
 40
5.0
 40
5.0
 40
6.0
 40
6.0
 40
6.0
 40
7.0
 40
7.0
 40
7.0
 40
8.0
 40
8.0
 40
8.0
 40
9.0
 40
9.0
 40
9.0
 40
10.0
 40
10.0
 40
10.0
 40
11.0
 40
11.0
 40
11.0
 40
12.0
 40
12.0
 40
12.0
 40
13.0
 40
13.0
 40
13.0
 40
13.0
 10
425.7401738253129
 20
172.106263094246
 30
0.0
 10
425.4561190646136
 20
172.1183248263369
 30
0.0
 10
425.2101145925044
 20
172.1298670239584
 30
0.0
 10
425.0024887880608
 20
172.1406983622419
 30
0.0
 10
424.8528053258414
 20
172.1485069880491
 30
0.0
 10
424.7230687391493
 20
172.1559461528086
 30
0.0
 10
424.6127009474149
 20
172.1633526660116
 30
0.0
 10
424.5064571544544
 20
172.1704824277203
 30
0.0
 10
424.4181617321228
 20
172.1775819323975
 30
0.0
 10
424.3550335665649
 20
172.1790959236887
 30
0.0
 10
424.3044972155294
 20
172.1803079277861
 30
0.0
 10
424.2700894879408
 20
172.1779404141416
 30
0.0
 10
424.2526394061887
 20
172.1676586275143
 30
0.0
 10
424.2424390642981
 20
172.1616484700644
 30
0.0
 10
424.2380330105161
 20
172.1529340706292
 30
0.0
 10
424.2379343596203
 20
172.1379190715797
 30
0.0
 10
424.2378598059003
 20
172.1265717441338
 30
0.0
 10
424.2402453481608
 20
172.1116259421096
 30
0.0
 10
424.2465101533053
 20
172.0910350129934
 30
0.0
 10
424.2518863998693
 20
172.0733645652544
 30
0.0
 10
424.2601195292836
 20
172.0515367641055
 30
0.0
 10
424.2594104819036
 20
172.0075065383116
 30
0.0
 10
424.2589870330648
 20
171.9812113308344
 30
0.0
 10
424.255374289677
 20
171.9469974617696
 30
0.0
 10
424.2511068447948
 20
171.9231781039743
 30
0.0
 10
424.2452173912124
 20
171.8903052711703
 30
0.0
 10
424.2380809633459
 20
171.8772302979605
 30
0.0
 10
424.2331151943035
 20
171.8659878411326
 30
0.0
 10
424.2258736562052
 20
171.8495930634544
 30
0.0
 10
424.2232482708923
 20
171.8370953402109
 30
0.0
 10
424.2235391438852
 20
171.8278099795097
 30
0.0
 10
424.2239552761912
 20
171.8145260423607
 30
0.0
 10
424.2303401401586
 20
171.8078168760339
 30
0.0
 10
424.2431323371238
 20
171.8033928602872
 30
0.0
 10
424.2594618121475
 20
171.7977455227083
 30
0.0
 10
424.2862320316126
 20
171.795821836331
 30
0.0
 10
424.3245437897839
 20
171.7958095259728
 30
0.0
 10
424.361994982657
 20
171.7957974921319
 30
0.0
 10
424.4104750414581
 20
171.7976119313807
 30
0.0
 10
424.4696306886562
 20
171.8018344565771
 30
0.0
  0
SPLINE
  5
1D8
330
70
100
AcDbEntity
  8
Front$1
 62
     7
370
    35
100
AcDbSpline
210
0.0
220
0.0
230
1.0
 70
     8
 71
     3
 72
    41
 73
    37
 74
     0
 42
0.0000000001
 43
0.0000000001
 40
0.0
 40
0.0
 40
0.0
 40
0.0
 40
1.0
 40
1.0
 40
1.0
 40
2.0
 40
2.0
 40
2.0
 40
3.0
 40
3.0
 40
3.0
 40
4.0
 40
4.0
 40
4.0
 40
5.0
 40
5.0
 40
5.0
 40
6.0
 40
6.0
 40
6.0
 40
7.0
 40
7.0
 40
7.0
 40
8.0
 40
8.0
 40
8.0
 40
9.0
 40
9.0
 40
9.0
 40
10.0
 40
10.0
 40
10.0
 40
11.0
 40
11.0
 40
11.0
 40
12.0
 40
12.0
 40
12.0
 40
12.0
 10
424.8680879649355
 20
170.1642672892958
 30
0.0
 10
424.7870495786091
 20
170.168853147682
 30
0.0
 10
424.7132354059076
 20
170.1730811619636
 30
0.0
 10
424.6484427244704
 20
170.177050197326
 30
0.0
 10
424.5060485507865
 20
170.1857729033218
 30
0.0
 10
424.4072267152451
 20
170.1932447831823
 30
0.0
 10
424.3306662418481
 20
170.1982935563846
 30
0.0
 10
424.2940565733361
 20
170.2007077775242
 30
0.0
 10
424.2625370961604
 20
170.2025679410799
 30
0.0
 10
424.2367114185408
 20
170.205081060627
 30
0.0
 10
424.2120687118413
 20
170.2074790642255
 30
0.0
 10
424.1926101310327
 20
170.2104715752393
 30
0.0
 10
424.1877602033964
 20
170.2051804875118
 30
0.0
 10
424.1839248976494
 20
170.2009963139144
 30
0.0
 10
424.1892252459138
 20
170.1916319165693
 30
0.0
 10
424.2061313062258
 20
170.1675291288238
 30
0.0
 10
424.2181146669427
 20
170.1504445807686
 30
0.0
 10
424.2359290435888
 20
170.1259550765298
 30
0.0
 10
424.2461635290792
 20
170.0829393134236
 30
0.0
 10
424.2553974059338
 20
170.0441291299812
 30
0.0
 10
424.2584610848416
 20
169.9902381647607
 30
0.0
 10
424.2570864276522
 20
169.9544502905219
 30
0.0
 10
424.2552867490267
 20
169.9075973930821
 30
0.0
 10
424.2458799325195
 20
169.8917724994244
 30
0.0
 10
424.2416930807958
 20
169.8790631949459
 30
0.0
 10
424.2361637513795
 20
169.8622787622125
 30
0.0
 10
424.2397385286931
 20
169.8509282083641
 30
0.0
 10
424.2468348691382
 20
169.8419546694504
 30
0.0
 10
424.2606456127214
 20
169.8244905629944
 30
0.0
 10
424.2877946635653
 20
169.8160296617579
 30
0.0
 10
424.3332712798873
 20
169.8121420072721
 30
0.0
 10
424.3912406087265
 20
169.8071863896475
 30
0.0
 10
424.4789899611214
 20
169.8096617314759
 30
0.0
 10
424.6009846913184
 20
169.8148033279285
 30
0.0
 10
424.6683938447122
 20
169.8176443577285
 30
0.0
 10
424.7462588052849
 20
169.8212994490468
 30
0.0
 10
424.8340454566305
 20
169.8263385246427
 30
0.0
  0
SPLINE
  5
1D9
330
70
100
AcDbEntity
  8
Front$1
 62
     7
370
    35
100
AcDbSpline
210
0.0
220
0.0
230
1.0
 70
     8
 71
     3
 72
    53
 73
    49
 74
     0
 42
0.0000000001
 43
0.0000000001
 40
0.0
 40
0.0
 40
0.0
 40
0.0
 40
1.0
 40
1.0
 40
1.0
 40
2.0
 40
2.0
 40
2.0
 40
3.0
 40
3.0
 40
3.0
 40
4.0
 40
4.0
 40
4.0
 40
5.0
 40
5.0
 40
5.0
 40
6.0
 40
6.0
 40
6.0
 40
7.0
 40
7.0
 40
7.0
 40
8.0
 40
8.0
 40
8.0
 40
9.0
 40
9.0
 40
9.0
 40
10.0
 40
10.0
 40
10.0
 40
11.0
 40
11.0
 40
11.0
 40
12.0
 40
12.0
 40
12.0
 40
13.0
 40
13.0
 40
13.0
 40
14.0
 40
14.0
 40
14.0
 40
15.0
 40
15.0
 40
15.0
 40
16.0
 40
16.0
 40
16.0
 40
16.0
 10
448.2696247342783
 20
170.874183270912
 30
0.0
 10
448.439759557581
 20
170.8678101189434
 30
0.0
 10
448.5938131507018
 20
170.8626712339428
 30
0.0
 10
448.7308067885842
 20
170.8586547881441
 30
0.0
 10
448.8966968325039
 20
170.8537911435241
 30
0.0
 10
449.0375708841283
 20
170.8505733959791
 30
0.0
 10
449.1574844349461
 20
170.8494649203312
 30
0.0
 10
449.2716740425403
 20
170.8484093565657
 30
0.0
 10
449.3668564437894
 20
170.849266503119
 30
0.0
 10
449.4424558205846
 20
170.853531317447
 30
0.0
 10
449.5478922228885
 20
170.8594793384263
 30
0.0
 10
449.6152374394096
 20
170.8720556566095
 30
0.0
 10
449.648054887004
 20
170.8855310927001
 30
0.0
 10
449.6555448086091
 20
170.8886065896477
 30
0.0
 10
449.6612362177166
 20
170.891728920631
 30
0.0
 10
449.6646040682881
 20
170.8984969893545
 30
0.0
 10
449.667307173001
 20
170.9039291776516
 30
0.0
 10
449.6685134434046
 20
170.9117099469058
 30
0.0
 10
449.6678947842319
 20
170.9180270711595
 30
0.0
 10
449.6672237991506
 20
170.9248784948768
 30
0.0
 10
449.6644061260886
 20
170.9300082142763
 30
0.0
 10
449.6623333509488
 20
170.9640329770036
 30
0.0
 10
449.6613901695828
 20
170.9795153713894
 30
0.0
 10
449.6606012231695
 20
171.0009806333692
 30
0.0
 10
449.6615899223061
 20
171.0193059288795
 30
0.0
 10
449.6627800184423
 20
171.0413640682991
 30
0.0
 10
449.6665457296112
 20
171.0588727378654
 30
0.0
 10
449.6703169066277
 20
171.073836910854
 30
0.0
 10
449.6753575077609
 20
171.0938382067352
 30
0.0
 10
449.680407873805
 20
171.1092936777531
 30
0.0
 10
449.6848101407303
 20
171.1220988375598
 30
0.0
 10
449.6903300097283
 20
171.1381548391209
 30
0.0
 10
449.6948309443159
 20
171.1500440501231
 30
0.0
 10
449.6973237711062
 20
171.1593348970618
 30
0.0
 10
449.7003230740583
 20
171.1705133972109
 30
0.0
 10
449.7004153873604
 20
171.1779304372203
 30
0.0
 10
449.6972279522633
 20
171.1831914881477
 30
0.0
 10
449.6911368204855
 20
171.1932452628971
 30
0.0
 10
449.6730685296052
 20
171.1954256824055
 30
0.0
 10
449.6442673288002
 20
171.1948332325773
 30
0.0
 10
449.610295635145
 20
171.1941344240722
 30
0.0
 10
449.5613915044422
 20
171.189577789768
 30
0.0
 10
449.504658887914
 20
171.1852554488787
 30
0.0
 10
449.4451598575942
 20
171.1807223406358
 30
0.0
 10
449.3770502569596
 20
171.1764469322806
 30
0.0
 10
449.2959674424573
 20
171.1715953998209
 30
0.0
 10
449.2002794838945
 20
171.1658699789677
 30
0.0
 10
449.0865237564867
 20
171.1593421912321
 30
0.0
 10
448.9566108274257
 20
171.152377199789
 30
0.0
  0
SPLINE
  5
1DA
330
70
100
AcDbEntity
  8
Front$1
 62
     7
370
    35
100
AcDbSpline
210
0.0
220
0.0
230
1.0
 70
     8
 71
     3
 72
    44
 73
    40
 74
     0
 42
0.0000000001
 43
0.0000000001
 40
0.0
 40
0.0
 40
0.0
 40
0.0
 40
1.0
 40
1.0
 40
1.0
 40
2.0
 40
2.0
 40
2.0
 40
3.0
 40
3.0
 40
3.0
 40
4.0
 40
4.0
 40
4.0
 40
5.0
 40
5.0
 40
5.0
 40
6.0
 40
6.0
 40
6.0
 40
7.0
 40
7.0
 40
7.0
 40
8.0
 40
8.0
 40
8.0
 40
9.0
 40
9.0
 40
9.0
 40
10.0
 40
10.0
 40
10.0
 40
11.0
 40
11.0
 40
11.0
 40
12.0
 40
12.0
 40
12.0
 40
13.0
 40
13.0
 40
13.0
 40
13.0
 10
424.9087151709281
 20
166.1525025630844
 30
0.0
 10
424.8074171570169
 20
166.1580408708159
 30
0.0
 10
424.716421328797
 20
166.163276732299
 30
0.0
 10
424.6360032008396
 20
166.1681768382513
 30
0.0
 10
424.5513318985112
 20
166.1733361022516
 30
0.0
 10
424.4783867562382
 20
166.1781231565082
 30
0.0
 10
424.416266831562
 20
166.1826469235639
 30
0.0
 10
424.3575990381778
 20
166.1869192956292
 30
0.0
 10
424.3085867344206
 20
166.1909568302117
 30
0.0
 10
424.2759682194428
 20
166.1904964917194
 30
0.0
 10
424.2491554699463
 20
166.190118088818
 30
0.0
 10
424.2334200140476
 20
166.1867004701944
 30
0.0
 10
424.2285514807499
 20
166.1738816747865
 30
0.0
 10
424.2247915188791
 20
166.1639817359328
 30
0.0
 10
424.2275130814951
 20
166.1484745097395
 30
0.0
 10
424.2351669512117
 20
166.1268541419476
 30
0.0
 10
424.2405599940066
 20
166.1116200743408
 30
0.0
 10
424.2484018503027
 20
166.0933509273318
 30
0.0
 10
424.2543513835862
 20
166.0539242852564
 30
0.0
 10
424.2571974639477
 20
166.035063748408
 30
0.0
 10
424.2596105085194
 20
166.0113615685022
 30
0.0
 10
424.2597490142006
 20
165.9916190952508
 30
0.0
 10
424.2599295851487
 20
165.9658806773886
 30
0.0
 10
424.2562442264625
 20
165.9468723916725
 30
0.0
 10
424.2538561305328
 20
165.9330276471346
 30
0.0
 10
424.2491828357952
 20
165.9059346937129
 30
0.0
 10
424.2494774171773
 20
165.8986155546426
 30
0.0
 10
424.2528291461876
 20
165.8918781117845
 30
0.0
 10
424.2573776010849
 20
165.8827350829551
 30
0.0
 10
424.2675560301194
 20
165.874663292755
 30
0.0
 10
424.2826777317223
 20
165.8678205841352
 30
0.0
 10
424.316023092946
 20
165.8527315024521
 30
0.0
 10
424.3734056655657
 20
165.8436189663416
 30
0.0
 10
424.4585146083263
 20
165.8393571874158
 30
0.0
 10
424.5533777479431
 20
165.8346069729723
 30
0.0
 10
424.6826867936724
 20
165.8358831054965
 30
0.0
 10
424.8470043335064
 20
165.8398708656777
 30
0.0
 10
425.0226526789138
 20
165.8441336088908
 30
0.0
 10
425.2383041298744
 20
165.8514948437741
 30
0.0
 10
425.4937492172866
 20
165.8631887439696
 30
0.0
  0
SPLINE
  5
1DB
330
70
100
AcDbEntity
  8
Front$1
 62
     7
370
    35
100
AcDbSpline
210
0.0
220
0.0
230
1.0
 70
     8
 71
     3
 72
    41
 73
    37
 74
     0
 42
0.0000000001
 43
0.0000000001
 40
0.0
 40
0.0
 40
0.0
 40
0.0
 40
1.0
 40
1.0
 40
1.0
 40
2.0
 40
2.0
 40
2.0
 40
3.0
 40
3.0
 40
3.0
 40
4.0
 40
4.0
 40
4.0
 40
5.0
 40
5.0
 40
5.0
 40
6.0
 40
6.0
 40
6.0
 40
7.0
 40
7.0
 40
7.0
 40
8.0
 40
8.0
 40
8.0
 40
9.0
 40
9.0
 40
9.0
 40
10.0
 40
10.0
 40
10.0
 40
11.0
 40
11.0
 40
11.0
 40
12.0
 40
12.0
 40
12.0
 40
12.0
 10
448.043561370112
 20
172.8888244040572
 30
0.0
 10
448.3265065598434
 20
172.878055661512
 30
0.0
 10
448.5741335931834
 20
172.8679117220208
 30
0.0
 10
448.7867817581546
 20
172.8575890042875
 30
0.0
 10
449.0329804376015
 20
172.8456376221784
 30
0.0
 10
449.2322919584749
 20
172.8334465981324
 30
0.0
 10
449.3834139095469
 20
172.8241006071885
 30
0.0
 10
449.4762050887129
 20
172.8183620264335
 30
0.0
 10
449.5508280916983
 20
172.8136960649781
 30
0.0
 10
449.6007304290706
 20
172.8142959326196
 30
0.0
 10
449.6397459419222
 20
172.8147649315669
 30
0.0
 10
449.6636504610878
 20
172.8184527722505
 30
0.0
 10
449.6742398288752
 20
172.8347307462773
 30
0.0
 10
449.6818737184967
 20
172.8464655598654
 30
0.0
 10
449.6825877403444
 20
172.8647434502472
 30
0.0
 10
449.6754782036759
 20
172.887538093998
 30
0.0
 10
449.6710721667932
 20
172.9016647587559
 30
0.0
 10
449.6636613131368
 20
172.9175261860582
 30
0.0
 10
449.6622423462022
 20
172.9633798101386
 30
0.0
 10
449.6614770810556
 20
172.9881091956722
 30
0.0
 10
449.6624545972935
 20
173.0215620175249
 30
0.0
 10
449.6654122637001
 20
173.0461156019682
 30
0.0
 10
449.6694192540307
 20
173.0793803323031
 30
0.0
 10
449.6770606746131
 20
173.0963111208211
 30
0.0
 10
449.6821318126285
 20
173.1096245359431
 30
0.0
 10
449.6891887425635
 20
173.1281513118711
 30
0.0
 10
449.6912682830716
 20
173.1396729918133
 30
0.0
 10
449.6915238089577
 20
173.1492425966562
 30
0.0
 10
449.6918504101677
 20
173.1614740169962
 30
0.0
 10
449.6891971635377
 20
173.1705163802416
 30
0.0
 10
449.6819000265413
 20
173.1770151600412
 30
0.0
 10
449.6730314296747
 20
173.1849134711437
 30
0.0
 10
449.657303422422
 20
173.1890546989989
 30
0.0
 10
449.634160457017
 20
173.191601222561
 30
0.0
 10
449.5970094543663
 20
173.1956891128529
 30
0.0
 10
449.540750604041
 20
173.1956675576039
 30
0.0
 10
449.4657809925611
 20
173.1899909623835
 30
0.0
  0
SPLINE
  5
1DC
330
70
100
AcDbEntity
  8
Front$1
 62
     7
370
    35
100
AcDbSpline
210
0.0
220
0.0
230
1.0
 70
     8
 71
     3
 72
    23
 73
    19
 74
     0
 42
0.0000000001
 43
0.0000000001
 40
0.0
 40
0.0
 40
0.0
 40
0.0
 40
1.0
 40
1.0
 40
1.0
 40
2.0
 40
2.0
 40
2.0
 40
3.0
 40
3.0
 40
3.0
 40
4.0
 40
4.0
 40
4.0
 40
5.0
 40
5.0
 40
5.0
 40
6.0
 40
6.0
 40
6.0
 40
6.0
 10
448.5734283830825
 20
316.535983112135
 30
0.0
 10
448.5715589580913
 20
316.5351832656634
 30
0.0
 10
448.5746828519486
 20
316.5386538944658
 30
0.0
 10
448.5821806488329
 20
316.5476752260329
 30
0.0
 10
448.5926528196241
 20
316.5602753172852
 30
0.0
 10
448.6116574696679
 20
316.5837035535306
 30
0.0
 10
448.6436021752588
 20
316.6088502218245
 30
0.0
 10
448.6773032646197
 20
316.6353795042087
 30
0.0
 10
448.7254064678199
 20
316.6638213791539
 30
0.0
 10
448.7847219690766
 20
316.690003048202
 30
0.0
 10
448.8463170454433
 20
316.717190914279
 30
0.0
 10
448.9200027877086
 20
316.7419415106533
 30
0.0
 10
449.0030417520102
 20
316.763116712079
 30
0.0
 10
449.0848744721169
 20
316.7839843173779
 30
0.0
 10
449.1757906535431
 20
316.8013796473915
 30
0.0
 10
449.2741985853117
 20
316.8058200149399
 30
0.0
 10
449.3077185017955
 20
316.8073325022642
 30
0.0
 10
449.342107636744
 20
316.8073419105922
 30
0.0
 10
449.3774448904396
 20
316.8063182917767
 30
0.0
  0
SPLINE
  5
1DD
330
70
100
AcDbEntity
  8
Front$1
 62
     7
370
    35
100
AcDbSpline
210
0.0
220
0.0
230
1.0
 70
     8
 71
     3
 72
     8
 73
     4
 74
     0
 42
0.0000000001
 43
0.0000000001
 40
0.0
 40
0.0
 40
0.0
 40
0.0
 40
1.0
 40
1.0
 40
1.0
 40
1.0
 10
449.3774448904396
 20
316.8063182917776
 30
0.0
 10
449.4520008740819
 20
316.8156982364753
 30
0.0
 10
449.5267232198484
 20
316.814247276614
 30
0.0
 10
449.6016119277392
 20
316.8019654121926
 30
0.0
  0
SPLINE
  5
1DE
330
70
100
AcDbEntity
  8
Front$1
 62
     7
370
    35
100
AcDbSpline
210
0.0
220
0.0
230
1.0
 70
     8
 71
     3
 72
    17
 73
    13
 74
     0
 42
0.0000000001
 43
0.0000000001
 40
0.0
 40
0.0
 40
0.0
 40
0.0
 40
1.0
 40
1.0
 40
1.0
 40
2.0
 40
2.0
 40
2.0
 40
3.0
 40
3.0
 40
3.0
 40
4.0
 40
4.0
 40
4.0
 40
4.0
 10
427.5566866625995
 20
317.288941553421
 30
0.0
 10
427.6294987062374
 20
317.2404220887856
 30
0.0
 10
427.6934271253776
 20
317.1850645521572
 30
0.0
 10
427.7491625171178
 20
317.1213126836556
 30
0.0
 10
427.8179878244709
 20
317.042588163974
 30
0.0
 10
427.8743197903522
 20
316.9510633386917
 30
0.0
 10
427.9151994769554
 20
316.8534061712562
 30
0.0
 10
427.9495628295299
 20
316.7713158238275
 30
0.0
 10
427.9730075435491
 20
316.6848923404095
 30
0.0
 10
427.9842596547069
 20
316.5976289986283
 30
0.0
 10
427.9935141807436
 20
316.5258575010621
 30
0.0
 10
427.9945209325615
 20
316.453517875243
 30
0.0
 10
427.9875852392843
 20
316.3797728925383
 30
0.0
  0
SPLINE
  5
1DF
330
70
100
AcDbEntity
  8
Front$1
 62
     7
370
    35
100
AcDbSpline
210
0.0
220
0.0
230
1.0
 70
     8
 71
     3
 72
    29
 73
    25
 74
     0
 42
0.0000000001
 43
0.0000000001
 40
0.0
 40
0.0
 40
0.0
 40
0.0
 40
1.0
 40
1.0
 40
1.0
 40
2.0
 40
2.0
 40
2.0
 40
3.0
 40
3.0
 40
3.0
 40
4.0
 40
4.0
 40
4.0
 40
5.0
 40
5.0
 40
5.0
 40
6.0
 40
6.0
 40
6.0
 40
7.0
 40
7.0
 40
7.0
 40
8.0
 40
8.0
 40
8.0
 40
8.0
 10
446.1077452806976
 20
314.6281312469692
 30
0.0
 10
446.1060918815838
 20
314.6360214637925
 30
0.0
 10
446.1045885982266
 20
314.6439136704703
 30
0.0
 10
446.1033163200763
 20
314.651832274325
 30
0.0
 10
446.0898043455236
 20
314.7359302160694
 30
0.0
 10
446.1023476224572
 20
314.8230055152408
 30
0.0
 10
446.121839916219
 20
314.9072931182382
 30
0.0
 10
446.142638806361
 20
314.9972306400332
 30
0.0
 10
446.1713495418516
 20
315.0839942134035
 30
0.0
 10
446.2124419614138
 20
315.1651559233897
 30
0.0
 10
446.2552369538079
 20
315.2496803879639
 30
0.0
 10
446.3114609005697
 20
315.3281291711264
 30
0.0
 10
446.377314267389
 20
315.3971910886212
 30
0.0
 10
446.4453068661596
 20
315.4684964671223
 30
0.0
 10
446.5235646656674
 20
315.5297952138862
 30
0.0
 10
446.6089905850576
 20
315.578018091971
 30
0.0
 10
446.6818767797494
 20
315.6191623033037
 30
0.0
 10
446.7599811236159
 20
315.6507877238673
 30
0.0
 10
446.8409480016844
 20
315.6732490690265
 30
0.0
 10
446.9121693831921
 20
315.6930068770453
 30
0.0
 10
446.9856056777571
 20
315.7056738945803
 30
0.0
 10
447.0589090325147
 20
315.7069429476524
 30
0.0
 10
447.094743289168
 20
315.7075633227178
 30
0.0
 10
447.1305457767775
 20
315.7054598903742
 30
0.0
 10
447.1665419304044
 20
315.701046214881
 30
0.0
  0
SPLINE
  5
1E0
330
70
100
AcDbEntity
  8
Front$1
 62
     7
370
    35
100
AcDbSpline
210
0.0
220
0.0
230
1.0
 70
    24
 71
     3
 72
    17
 73
    13
 74
     0
 42
0.0000000001
 43
0.0000000001
 40
0.0
 40
0.0
 40
0.0
 40
0.0
 40
1.0
 40
1.0
 40
1.0
 40
2.0
 40
2.0
 40
2.0
 40
3.0
 40
3.0
 40
3.0
 40
4.0
 40
4.0
 40
4.0
 40
4.0
 10
425.9597309404153
 20
-28.15191439093178
 30
0.0
 10
425.9597309404153
 20
-27.85255332520319
 30
0.0
 10
425.9597309404153
 20
-27.60582582109601
 30
0.0
 10
425.9597309404153
 20
-27.43492706971665
 30
0.0
 10
425.9597309404153
 20
-27.34947769402606
 30
0.0
 10
425.9597309404153
 20
-27.28303096252785
 30
0.0
 10
425.9597309404153
 20
-27.23808767366063
 30
0.0
 10
425.9597309404153
 20
-27.19314438479524
 30
0.0
 10
425.9597309404153
 20
-27.1697417001742
 30
0.0
 10
425.9597309404153
 20
-27.16939793068377
 30
0.0
 10
425.9597309404153
 20
-27.16939522350003
 30
0.0
 10
425.9597309404153
 20
-27.16939264962275
 30
0.0
 10
425.9597309404153
 20
-27.16939407632708
 30
0.0
  0
SPLINE
  5
1E1
330
70
100
AcDbEntity
  8
Front$1
 62
     7
370
    35
100
AcDbSpline
210
0.0
220
0.0
230
1.0
 70
    24
 71
     3
 72
    23
 73
    19
 74
     0
 42
0.0000000001
 43
0.0000000001
 40
0.0
 40
0.0
 40
0.0
 40
0.0
 40
1.0
 40
1.0
 40
1.0
 40
2.0
 40
2.0
 40
2.0
 40
3.0
 40
3.0
 40
3.0
 40
4.0
 40
4.0
 40
4.0
 40
5.0
 40
5.0
 40
5.0
 40
6.0
 40
6.0
 40
6.0
 40
6.0
 10
447.9607289907798
 20
-27.16939377935887
 30
0.0
 10
447.9607289907798
 20
-27.16939525833186
 30
0.0
 10
447.9607289907798
 20
-27.17074575393599
 30
0.0
 10
447.9607289907798
 20
-27.17345479970027
 30
0.0
 10
447.9607289907798
 20
-27.17485193521679
 30
0.0
 10
447.9607289907798
 20
-27.17661058170779
 30
0.0
 10
447.9607289907798
 20
-27.17872543240992
 30
0.0
 10
447.9607289907798
 20
-27.18084028311023
 30
0.0
 10
447.9607289907798
 20
-27.18331171124373
 30
0.0
 10
447.9607289907798
 20
-27.18613723445378
 30
0.0
 10
447.9607289907798
 20
-27.19743932729398
 30
0.0
 10
447.9607289907798
 20
-27.21440694135708
 30
0.0
 10
447.9607289907798
 20
-27.2367950997068
 30
0.0
 10
447.9607289907798
 20
-27.28157141640441
 30
0.0
 10
447.9607289907798
 20
-27.34806792925156
 30
0.0
 10
447.9607289907798
 20
-27.43365919671123
 30
0.0
 10
447.9607289907798
 20
-27.60484173163423
 30
0.0
 10
447.9607289907798
 20
-27.8521800809267
 30
0.0
 10
447.9607289907798
 20
-28.15191439093178
 30
0.0
  0
SPLINE
  5
1E2
330
70
100
AcDbEntity
  8
Front$1
 62
     7
370
    35
100
AcDbSpline
210
0.0
220
0.0
230
1.0
 70
     8
 71
     3
 72
    32
 73
    28
 74
     0
 42
0.0000000001
 43
0.0000000001
 40
0.0
 40
0.0
 40
0.0
 40
0.0
 40
1.0
 40
1.0
 40
1.0
 40
2.0
 40
2.0
 40
2.0
 40
3.0
 40
3.0
 40
3.0
 40
4.0
 40
4.0
 40
4.0
 40
5.0
 40
5.0
 40
5.0
 40
6.0
 40
6.0
 40
6.0
 40
7.0
 40
7.0
 40
7.0
 40
8.0
 40
8.0
 40
8.0
 40
9.0
 40
9.0
 40
9.0
 40
9.0
 10
436.9602330611842
 20
-28.15191439093178
 30
0.0
 10
437.8583196515892
 20
-27.85255332520319
 30
0.0
 10
438.762953519089
 20
-27.60582582109601
 30
0.0
 10
439.6770199965185
 20
-27.43492706971665
 30
0.0
 10
440.1340532352333
 20
-27.34947769402606
 30
0.0
 10
440.593450280865
 20
-27.28303096252785
 30
0.0
 10
441.0555222166831
 20
-27.23808767366063
 30
0.0
 10
441.5175941525013
 20
-27.19314438479524
 30
0.0
 10
441.9823456011718
 20
-27.1697417001742
 30
0.0
 10
442.4499653952625
 20
-27.16939764484778
 30
0.0
 10
442.566870343785
 20
-27.16931163101617
 30
0.0
 10
442.6839537860823
 20
-27.17066052866903
 30
0.0
 10
442.801217023547
 20
-27.17345479970027
 30
0.0
 10
442.8598486422798
 20
-27.17485193521679
 30
0.0
 10
442.9185157114516
 20
-27.17661058170779
 30
0.0
 10
442.977100032982
 20
-27.17872543240992
 30
0.0
 10
443.0356843545123
 20
-27.18084028311023
 30
0.0
 10
443.0942175250966
 20
-27.18331171124373
 30
0.0
 10
443.1526999008274
 20
-27.18613723445378
 30
0.0
 10
443.3866294037507
 20
-27.19743932729398
 30
0.0
 10
443.6197461890278
 20
-27.21440694135708
 30
0.0
 10
443.8520853985401
 20
-27.2367950997068
 30
0.0
 10
444.3167638175655
 20
-27.28157141640441
 30
0.0
 10
444.7783264797153
 20
-27.34806792925156
 30
0.0
 10
445.2371500039426
 20
-27.43365919671305
 30
0.0
 10
446.1547970523961
 20
-27.60484173163423
 30
0.0
 10
447.0615195677291
 20
-27.8521800809267
 30
0.0
 10
447.9607258951936
 20
-28.15191439093178
 30
0.0
  0
SPLINE
  5
1E3
330
70
100
AcDbEntity
  8
Front$1
 62
     7
370
    35
100
AcDbSpline
210
0.0
220
0.0
230
1.0
 70
     8
 71
     3
 72
    32
 73
    28
 74
     0
 42
0.0000000001
 43
0.0000000001
 40
0.0
 40
0.0
 40
0.0
 40
0.0
 40
1.0
 40
1.0
 40
1.0
 40
2.0
 40
2.0
 40
2.0
 40
3.0
 40
3.0
 40
3.0
 40
4.0
 40
4.0
 40
4.0
 40
5.0
 40
5.0
 40
5.0
 40
6.0
 40
6.0
 40
6.0
 40
7.0
 40
7.0
 40
7.0
 40
8.0
 40
8.0
 40
8.0
 40
9.0
 40
9.0
 40
9.0
 40
9.0
 10
425.9597340360015
 20
-28.15191439093178
 30
0.0
 10
426.8578206264065
 20
-27.85255332520319
 30
0.0
 10
427.7624544939071
 20
-27.60582582109601
 30
0.0
 10
428.6765209713357
 20
-27.43492706971665
 30
0.0
 10
429.1335542100505
 20
-27.34947769402606
 30
0.0
 10
429.5929512556831
 20
-27.28303096252785
 30
0.0
 10
430.0550231915012
 20
-27.23808767366063
 30
0.0
 10
430.5170951273193
 20
-27.19314438479524
 30
0.0
 10
430.981846575989
 20
-27.1697417001742
 30
0.0
 10
431.4494663700798
 20
-27.16939764484778
 30
0.0
 10
431.5663713186022
 20
-27.16931163101617
 30
0.0
 10
431.6834547608996
 20
-27.17066052866903
 30
0.0
 10
431.8007179983651
 20
-27.17345479970027
 30
0.0
 10
431.8593496170969
 20
-27.17485193521679
 30
0.0
 10
431.9180166862698
 20
-27.17661058170779
 30
0.0
 10
431.9766010078001
 20
-27.17872543240992
 30
0.0
 10
432.0351853293304
 20
-27.18084028311023
 30
0.0
 10
432.0937184999138
 20
-27.18331171124373
 30
0.0
 10
432.1522008756446
 20
-27.18613723445378
 30
0.0
 10
432.3861303785689
 20
-27.19743932729398
 30
0.0
 10
432.619247163846
 20
-27.21440694135708
 30
0.0
 10
432.8515863733582
 20
-27.2367950997068
 30
0.0
 10
433.3162647923836
 20
-27.28157141640441
 30
0.0
 10
433.7778274545335
 20
-27.34806792925156
 30
0.0
 10
434.2366509787598
 20
-27.43365919671123
 30
0.0
 10
435.1542980272133
 20
-27.60484173163423
 30
0.0
 10
436.0610205425473
 20
-27.8521800809267
 30
0.0
 10
436.9602268700109
 20
-28.15191439093178
 30
0.0
  0
SPLINE
  5
1E4
330
70
100
AcDbEntity
  8
Front$1
 62
     7
370
    35
100
AcDbSpline
210
0.0
220
0.0
230
1.0
 70
    24
 71
     3
 72
    17
 73
    13
 74
     0
 42
0.0000000001
 43
0.0000000001
 40
0.0
 40
0.0
 40
0.0
 40
0.0
 40
1.0
 40
1.0
 40
1.0
 40
2.0
 40
2.0
 40
2.0
 40
3.0
 40
3.0
 40
3.0
 40
4.0
 40
4.0
 40
4.0
 40
4.0
 10
447.9607289907798
 20
-38.64695756885885
 30
0.0
 10
447.9607289907798
 20
-38.94631893332553
 30
0.0
 10
447.9607289907798
 20
-39.19304687954536
 30
0.0
 10
447.9607289907798
 20
-39.36394583111178
 30
0.0
 10
447.9607289907798
 20
-39.44939530689408
 30
0.0
 10
447.9607289907798
 20
-39.51584211875888
 30
0.0
 10
447.9607289907798
 20
-39.56078546213575
 30
0.0
 10
447.9607289907798
 20
-39.60572880551445
 30
0.0
 10
447.9607289907798
 20
-39.62913151866269
 30
0.0
 10
447.9607289907798
 20
-39.62947528643235
 30
0.0
 10
447.9607289907798
 20
-39.62947799360336
 30
0.0
 10
447.9607289907798
 20
-39.62948056746427
 30
0.0
 10
447.9607289907798
 20
-39.62947914074357
 30
0.0
  0
SPLINE
  5
1E5
330
70
100
AcDbEntity
  8
Front$1
 62
     7
370
    35
100
AcDbSpline
210
0.0
220
0.0
230
1.0
 70
    24
 71
     3
 72
    23
 73
    19
 74
     0
 42
0.0000000001
 43
0.0000000001
 40
0.0
 40
0.0
 40
0.0
 40
0.0
 40
1.0
 40
1.0
 40
1.0
 40
2.0
 40
2.0
 40
2.0
 40
3.0
 40
3.0
 40
3.0
 40
4.0
 40
4.0
 40
4.0
 40
5.0
 40
5.0
 40
5.0
 40
6.0
 40
6.0
 40
6.0
 40
6.0
 10
425.9597309404153
 20
-39.62947943771178
 30
0.0
 10
425.9597309404153
 20
-39.62947795821128
 30
0.0
 10
425.9597309404153
 20
-39.62812746031523
 30
0.0
 10
425.9597309404153
 20
-39.62541841046186
 30
0.0
 10
425.9597309404153
 20
-39.62402127283894
 30
0.0
 10
425.9597309404153
 20
-39.62226262387776
 30
0.0
 10
425.9597309404153
 20
-39.62014777029072
 30
0.0
 10
425.9597309404153
 20
-39.61803291670367
 30
0.0
 10
425.9597309404153
 20
-39.61556148526142
 30
0.0
 10
425.9597309404153
 20
-39.61273595832608
 30
0.0
 10
425.9597309404153
 20
-39.60143385058472
 30
0.0
 10
425.9597309404153
 20
-39.58446621495932
 30
0.0
 10
425.9597309404153
 20
-39.56207802890094
 30
0.0
 10
425.9597309404153
 20
-39.51730165678418
 30
0.0
 10
425.9597309404153
 20
-39.45080506388331
 30
0.0
 10
425.9597309404153
 20
-39.36521369710135
 30
0.0
 10
425.9597309404153
 20
-39.19403096353926
 30
0.0
 10
425.9597309404153
 20
-38.94669223526035
 30
0.0
 10
425.9597309404153
 20
-38.64695756885885
 30
0.0
  0
SPLINE
  5
1E6
330
70
100
AcDbEntity
  8
Front$1
 62
     7
370
    35
100
AcDbSpline
210
0.0
220
0.0
230
1.0
 70
     8
 71
     3
 72
    32
 73
    28
 74
     0
 42
0.0000000001
 43
0.0000000001
 40
0.0
 40
0.0
 40
0.0
 40
0.0
 40
1.0
 40
1.0
 40
1.0
 40
2.0
 40
2.0
 40
2.0
 40
3.0
 40
3.0
 40
3.0
 40
4.0
 40
4.0
 40
4.0
 40
5.0
 40
5.0
 40
5.0
 40
6.0
 40
6.0
 40
6.0
 40
7.0
 40
7.0
 40
7.0
 40
8.0
 40
8.0
 40
8.0
 40
9.0
 40
9.0
 40
9.0
 40
9.0
 10
436.9602268700109
 20
-28.15191439093178
 30
0.0
 10
436.0621402796059
 20
-27.85255332520319
 30
0.0
 10
435.1575064121061
 20
-27.60582582109601
 30
0.0
 10
434.2434399346766
 20
-27.43492706971665
 30
0.0
 10
433.7864066959618
 20
-27.34947769402606
 30
0.0
 10
433.3270096503301
 20
-27.28303096252785
 30
0.0
 10
432.864937714512
 20
-27.23808767366063
 30
0.0
 10
432.4028657786938
 20
-27.19314438479524
 30
0.0
 10
431.9381143300233
 20
-27.1697417001742
 30
0.0
 10
431.4704945359326
 20
-27.16939764484778
 30
0.0
 10
431.3535895874101
 20
-27.16931163101617
 30
0.0
 10
431.2365061451128
 20
-27.17066052866903
 30
0.0
 10
431.1192429076482
 20
-27.17345479970027
 30
0.0
 10
431.0606112889163
 20
-27.17485193521679
 30
0.0
 10
431.0019442197435
 20
-27.17661058170779
 30
0.0
 10
430.9433598982131
 20
-27.17872543240992
 30
0.0
 10
430.8847755766828
 20
-27.18084028311023
 30
0.0
 10
430.8262424060985
 20
-27.18331171124373
 30
0.0
 10
430.7677600303677
 20
-27.18613723445378
 30
0.0
 10
430.5338305274444
 20
-27.19743932729398
 30
0.0
 10
430.3007137421673
 20
-27.21440694135708
 30
0.0
 10
430.068374532655
 20
-27.2367950997068
 30
0.0
 10
429.6036961136296
 20
-27.28157141640441
 30
0.0
 10
429.1421334514798
 20
-27.34806792925156
 30
0.0
 10
428.6833099272525
 20
-27.43365919671305
 30
0.0
 10
427.765662878799
 20
-27.60484173163423
 30
0.0
 10
426.858940363466
 20
-27.8521800809267
 30
0.0
 10
425.9597340360015
 20
-28.15191439093178
 30
0.0
  0
SPLINE
  5
1E7
330
70
100
AcDbEntity
  8
Front$1
 62
     7
370
    35
100
AcDbSpline
210
0.0
220
0.0
230
1.0
 70
     8
 71
     3
 72
    32
 73
    28
 74
     0
 42
0.0000000001
 43
0.0000000001
 40
0.0
 40
0.0
 40
0.0
 40
0.0
 40
1.0
 40
1.0
 40
1.0
 40
2.0
 40
2.0
 40
2.0
 40
3.0
 40
3.0
 40
3.0
 40
4.0
 40
4.0
 40
4.0
 40
5.0
 40
5.0
 40
5.0
 40
6.0
 40
6.0
 40
6.0
 40
7.0
 40
7.0
 40
7.0
 40
8.0
 40
8.0
 40
8.0
 40
9.0
 40
9.0
 40
9.0
 40
9.0
 10
425.9597301637804
 20
-38.64695753540582
 30
0.0
 10
426.8578172768484
 20
-38.9463189334183
 30
0.0
 10
427.7624522440674
 20
-39.19304687969816
 30
0.0
 10
428.6765192807234
 20
-39.36394583127003
 30
0.0
 10
429.1335527990513
 20
-39.44939530705596
 30
0.0
 10
429.5929501297314
 20
-39.51584211890804
 30
0.0
 10
430.0550223571853
 20
-39.56078546226127
 30
0.0
 10
430.5170945846384
 20
-39.60572880561449
 30
0.0
 10
430.981846331555
 20
-39.6291315187209
 30
0.0
 10
431.4494664312697
 20
-39.62947557226835
 30
0.0
 10
431.5663714561979
 20
-39.62956158565612
 30
0.0
 10
431.6834549753593
 20
-39.62821268568223
 30
0.0
 10
431.8007182901529
 20
-39.62541841041821
 30
0.0
 10
431.85934994755
 20
-39.6240212727862
 30
0.0
 10
431.91801705132
 20
-39.62226262381773
 30
0.0
 10
431.9766014078286
 20
-39.62014777022159
 30
0.0
 10
432.0351857643381
 20
-39.61803291662727
 30
0.0
 10
432.093718969837
 20
-39.61556148517593
 30
0.0
 10
432.1522013804205
 20
-39.6127359582315
 30
0.0
 10
432.3861310227539
 20
-39.6014338504574
 30
0.0
 10
432.6192479464388
 20
-39.58446621479743
 30
0.0
 10
432.851587293434
 20
-39.56207802870813
 30
0.0
 10
433.3162659874233
 20
-39.51730165652771
 30
0.0
 10
433.7778289208272
 20
-39.45080506357408
 30
0.0
 10
434.2366527133918
 20
-39.36521369677212
 30
0.0
 10
435.1543002985208
 20
-39.19403096317001
 30
0.0
 10
436.0610238980561
 20
-38.94669217590854
 30
0.0
 10
436.9602307422319
 20
-38.64695753540582
 30
0.0
  0
SPLINE
  5
1E8
330
70
100
AcDbEntity
  8
Front$1
 62
     7
370
    35
100
AcDbSpline
210
0.0
220
0.0
230
1.0
 70
     8
 71
     3
 72
    32
 73
    28
 74
     0
 42
0.0000000001
 43
0.0000000001
 40
0.0
 40
0.0
 40
0.0
 40
0.0
 40
1.0
 40
1.0
 40
1.0
 40
2.0
 40
2.0
 40
2.0
 40
3.0
 40
3.0
 40
3.0
 40
4.0
 40
4.0
 40
4.0
 40
5.0
 40
5.0
 40
5.0
 40
6.0
 40
6.0
 40
6.0
 40
7.0
 40
7.0
 40
7.0
 40
8.0
 40
8.0
 40
8.0
 40
9.0
 40
9.0
 40
9.0
 40
9.0
 10
447.9607258951936
 20
-28.15191439093178
 30
0.0
 10
447.0626393047886
 20
-27.85255332520319
 30
0.0
 10
446.158005437288
 20
-27.60582582109601
 30
0.0
 10
445.2439389598594
 20
-27.43492706971665
 30
0.0
 10
444.7869057211446
 20
-27.34947769402606
 30
0.0
 10
444.327508675512
 20
-27.28303096252785
 30
0.0
 10
443.8654367396939
 20
-27.23808767366063
 30
0.0
 10
443.4033648038758
 20
-27.19314438479524
 30
0.0
 10
442.9386133552061
 20
-27.1697417001742
 30
0.0
 10
442.4709935611153
 20
-27.16939764484778
 30
0.0
 10
442.3540886125929
 20
-27.16931163101617
 30
0.0
 10
442.2370051702955
 20
-27.17066052866903
 30
0.0
 10
442.1197419328309
 20
-27.17345479970027
 30
0.0
 10
442.0611103140982
 20
-27.17485193521679
 30
0.0
 10
442.0024432449253
 20
-27.17661058170779
 30
0.0
 10
441.943858923395
 20
-27.17872543240992
 30
0.0
 10
441.8852746018647
 20
-27.18084028311023
 30
0.0
 10
441.8267414312813
 20
-27.18331171124373
 30
0.0
 10
441.7682590555505
 20
-27.18613723445378
 30
0.0
 10
441.5343295526263
 20
-27.19743932729398
 30
0.0
 10
441.3012127673491
 20
-27.21440694135708
 30
0.0
 10
441.0688735578369
 20
-27.2367950997068
 30
0.0
 10
440.6041951388124
 20
-27.28157141640441
 30
0.0
 10
440.1426324766616
 20
-27.34806792925156
 30
0.0
 10
439.6838089524353
 20
-27.43365919671123
 30
0.0
 10
438.7661619039818
 20
-27.60484173163423
 30
0.0
 10
437.8594393886478
 20
-27.8521800809267
 30
0.0
 10
436.9602330611842
 20
-28.15191439093178
 30
0.0
  0
SPLINE
  5
1E9
330
70
100
AcDbEntity
  8
Front$1
 62
     7
370
    35
100
AcDbSpline
210
0.0
220
0.0
230
1.0
 70
     8
 71
     3
 72
    32
 73
    28
 74
     0
 42
0.0000000001
 43
0.0000000001
 40
0.0
 40
0.0
 40
0.0
 40
0.0
 40
1.0
 40
1.0
 40
1.0
 40
2.0
 40
2.0
 40
2.0
 40
3.0
 40
3.0
 40
3.0
 40
4.0
 40
4.0
 40
4.0
 40
5.0
 40
5.0
 40
5.0
 40
6.0
 40
6.0
 40
6.0
 40
7.0
 40
7.0
 40
7.0
 40
8.0
 40
8.0
 40
8.0
 40
9.0
 40
9.0
 40
9.0
 40
9.0
 10
436.9602291889632
 20
-38.64695753540582
 30
0.0
 10
437.8583163017538
 20
-38.94631893332553
 30
0.0
 10
438.7629512686908
 20
-39.19304687954536
 30
0.0
 10
439.6770183050594
 20
-39.36394583111178
 30
0.0
 10
440.1340518232427
 20
-39.44939530689408
 30
0.0
 10
440.5934491537773
 20
-39.51584211875888
 30
0.0
 10
441.055521381083
 20
-39.56078546213575
 30
0.0
 10
441.5175936083888
 20
-39.60572880551445
 30
0.0
 10
441.9823453551552
 20
-39.62913151866269
 30
0.0
 10
442.449965454718
 20
-39.62947557226835
 30
0.0
 10
442.5668704796089
 20
-39.62956158566885
 30
0.0
 10
442.6839539987331
 20
-39.62821268570952
 30
0.0
 10
442.8012173134884
 20
-39.62541841046186
 30
0.0
 10
442.8598489708656
 20
-39.62402127283894
 30
0.0
 10
442.9185160746201
 20
-39.62226262387776
 30
0.0
 10
442.9771004311142
 20
-39.62014777029072
 30
0.0
 10
443.0356847876082
 20
-39.61803291670367
 30
0.0
 10
443.0942179930934
 20
-39.61556148526142
 30
0.0
 10
443.1527004036651
 20
-39.61273595832608
 30
0.0
 10
443.3866300459512
 20
-39.60143385058472
 30
0.0
 10
443.6197469696126
 20
-39.58446621495932
 30
0.0
 10
443.8520863166059
 20
-39.56207802890094
 30
0.0
 10
444.3167650105924
 20
-39.51730165678418
 30
0.0
 10
444.7783279440828
 20
-39.45080506388331
 30
0.0
 10
445.2371517368101
 20
-39.36521369710135
 30
0.0
 10
446.1547993222629
 20
-39.19403096353926
 30
0.0
 10
447.0615227205716
 20
-38.94669223526035
 30
0.0
 10
447.9607295666883
 20
-38.6469576023137
 30
0.0
  0
SPLINE
  5
1EA
330
70
100
AcDbEntity
  8
Front$1
 62
     7
370
    35
100
AcDbSpline
210
0.0
220
0.0
230
1.0
 70
     8
 71
     3
 72
    23
 73
    19
 74
     0
 42
0.0000000001
 43
0.0000000001
 40
0.0
 40
0.0
 40
0.0
 40
0.0
 40
1.0
 40
1.0
 40
1.0
 40
2.0
 40
2.0
 40
2.0
 40
3.0
 40
3.0
 40
3.0
 40
4.0
 40
4.0
 40
4.0
 40
5.0
 40
5.0
 40
5.0
 40
6.0
 40
6.0
 40
6.0
 40
6.0
 10
419.9276240313992
 20
148.644107980017
 30
0.0
 10
419.9058293626531
 20
148.6516339554382
 30
0.0
 10
419.8866651974048
 20
148.6582381406679
 30
0.0
 10
419.8700743998861
 20
148.6639488724286
 30
0.0
 10
419.8534836023672
 20
148.6696596041893
 30
0.0
 10
419.8394661725788
 20
148.6744768824792
 30
0.0
 10
419.8280975307389
 20
148.6783810437264
 30
0.0
 10
419.8224132098184
 20
148.68033312435
 30
0.0
 10
419.8173864295877
 20
148.6820584880061
 30
0.0
 10
419.8130613128687
 20
148.683542569308
 30
0.0
 10
419.8087361961497
 20
148.6850266506098
 30
0.0
 10
419.8051476419932
 20
148.6862574816077
 30
0.0
 10
419.8022783875021
 20
148.6872414284389
 30
0.0
 10
419.796539878519
 20
148.6892093221049
 30
0.0
 10
419.7936695672742
 20
148.6901929338783
 30
0.0
 10
419.7936447720413
 20
148.6902014328225
 30
0.0
 10
419.7936446604626
 20
148.6902014710685
 30
0.0
 10
419.793643714318
 20
148.6902017952725
 30
0.0
 10
419.7936427746217
 20
148.6902021374917
 30
0.0
  0
SPLINE
  5
1EB
330
70
100
AcDbEntity
  8
Front$1
 62
     7
370
    35
100
AcDbSpline
210
0.0
220
0.0
230
1.0
 70
     8
 71
     3
 72
    23
 73
    19
 74
     0
 42
0.0000000001
 43
0.0000000001
 40
0.0
 40
0.0
 40
0.0
 40
0.0
 40
1.0
 40
1.0
 40
1.0
 40
2.0
 40
2.0
 40
2.0
 40
3.0
 40
3.0
 40
3.0
 40
4.0
 40
4.0
 40
4.0
 40
5.0
 40
5.0
 40
5.0
 40
6.0
 40
6.0
 40
6.0
 40
6.0
 10
454.1268157818249
 20
148.6902016360182
 30
0.0
 10
454.1268172001291
 20
148.6902021430105
 30
0.0
 10
454.1261155340617
 20
148.6899616398132
 30
0.0
 10
454.1247034121643
 20
148.6894775574346
 30
0.0
 10
454.1232784657477
 20
148.6889890787479
 30
0.0
 10
454.1211211290101
 20
148.6882494906331
 30
0.0
 10
454.1182367473375
 20
148.6872603592692
 30
0.0
 10
454.1124679839922
 20
148.6852820965432
 30
0.0
 10
454.103885311908
 20
148.6823381291815
 30
0.0
 10
454.0926142428106
 20
148.6784675295475
 30
0.0
 10
454.0813431737115
 20
148.6745969299154
 30
0.0
 10
454.0673827750651
 20
148.6697994014575
 30
0.0
 10
454.0507169276606
 20
148.6640629301764
 30
0.0
 10
454.0423840039584
 20
148.6611946945377
 30
0.0
 10
454.033349256275
 20
148.658082905773
 30
0.0
 10
454.0236839791832
 20
148.6547510807249
 30
0.0
 10
454.0140187020897
 20
148.6514192556769
 30
0.0
 10
454.003734404665
 20
148.6478713719152
 30
0.0
 10
453.9928358997967
 20
148.644107980017
 30
0.0
  0
SPLINE
  5
1EC
330
70
100
AcDbEntity
  8
Front$1
 62
     7
370
    35
100
AcDbSpline
210
0.0
220
0.0
230
1.0
 70
     8
 71
     3
 72
    17
 73
    13
 74
     0
 42
0.0000000001
 43
0.0000000001
 40
0.0
 40
0.0
 40
0.0
 40
0.0
 40
1.0
 40
1.0
 40
1.0
 40
2.0
 40
2.0
 40
2.0
 40
3.0
 40
3.0
 40
3.0
 40
4.0
 40
4.0
 40
4.0
 40
4.0
 10
453.9928358997967
 20
148.644107980017
 30
0.0
 10
453.6584937973475
 20
148.5286554040194
 30
0.0
 10
453.3236500608199
 20
148.4241289810234
 30
0.0
 10
452.9882148317774
 20
148.3324859285312
 30
0.0
 10
452.652779602733
 20
148.2408428760391
 30
0.0
 10
452.316752034485
 20
148.1621016359149
 30
0.0
 10
451.9800476519667
 20
148.0981021698535
 30
0.0
 10
451.6433432694484
 20
148.0341027037939
 30
0.0
 10
451.3059610503496
 20
147.9848672788648
 30
0.0
 10
450.9678361924762
 20
147.9518073594845
 30
0.0
 10
450.6297113346045
 20
147.9187474401042
 30
0.0
 10
450.2908430253556
 20
147.9018807257453
 30
0.0
 10
449.9512003430254
 20
147.9018807257453
 30
0.0
  0
SPLINE
  5
1ED
330
70
100
AcDbEntity
  8
Front$1
 62
     7
370
    35
100
AcDbSpline
210
0.0
220
0.0
230
1.0
 70
     8
 71
     3
 72
    17
 73
    13
 74
     0
 42
0.0000000001
 43
0.0000000001
 40
0.0
 40
0.0
 40
0.0
 40
0.0
 40
1.0
 40
1.0
 40
1.0
 40
2.0
 40
2.0
 40
2.0
 40
3.0
 40
3.0
 40
3.0
 40
4.0
 40
4.0
 40
4.0
 40
4.0
 10
423.9692595881697
 20
147.9018807257453
 30
0.0
 10
423.6296169058404
 20
147.9018807257453
 30
0.0
 10
423.2907485965897
 20
147.9187474401042
 30
0.0
 10
422.952623738718
 20
147.9518073594845
 30
0.0
 10
422.6144988808464
 20
147.9848672788648
 30
0.0
 10
422.2771166617467
 20
148.0341027037939
 30
0.0
 10
421.9404122792274
 20
148.0981021698535
 30
0.0
 10
421.6037078967092
 20
148.1621016359149
 30
0.0
 10
421.2676803284612
 20
148.2408428760391
 30
0.0
 10
420.9322450994186
 20
148.3324859285312
 30
0.0
 10
420.5968098703752
 20
148.4241289810234
 30
0.0
 10
420.2619661338466
 20
148.5286554040194
 30
0.0
 10
419.9276240313984
 20
148.644107980017
 30
0.0
  0
SPLINE
  5
1EE
330
70
100
AcDbEntity
  8
Front$1
 62
     7
370
    35
100
AcDbSpline
210
0.0
220
0.0
230
1.0
 70
     8
 71
     3
 72
    38
 73
    34
 74
     0
 42
0.0000000001
 43
0.0000000001
 40
0.0
 40
0.0
 40
0.0
 40
0.0
 40
1.0
 40
1.0
 40
1.0
 40
2.0
 40
2.0
 40
2.0
 40
3.0
 40
3.0
 40
3.0
 40
4.0
 40
4.0
 40
4.0
 40
5.0
 40
5.0
 40
5.0
 40
6.0
 40
6.0
 40
6.0
 40
7.0
 40
7.0
 40
7.0
 40
8.0
 40
8.0
 40
8.0
 40
9.0
 40
9.0
 40
9.0
 40
10.0
 40
10.0
 40
10.0
 40
11.0
 40
11.0
 40
11.0
 40
11.0
 10
428.8769588520554
 20
148.644107980017
 30
0.0
 10
428.8333694650036
 20
148.6516339554382
 30
0.0
 10
428.7901258385054
 20
148.6582381406679
 30
0.0
 10
428.7472214038343
 20
148.6639488724286
 30
0.0
 10
428.7043169691624
 20
148.6696596041893
 30
0.0
 10
428.6617517263166
 20
148.6744768824792
 30
0.0
 10
428.6195363546621
 20
148.6783810437264
 30
0.0
 10
428.5984286688345
 20
148.68033312435
 30
0.0
 10
428.5773758794703
 20
148.6820584880061
 30
0.0
 10
428.556483736118
 20
148.683542569308
 30
0.0
 10
428.5355915927657
 20
148.6850266506098
 30
0.0
 10
428.5150389687278
 20
148.6862574816077
 30
0.0
 10
428.4948179118137
 20
148.6872414284389
 30
0.0
 10
428.4543757979845
 20
148.6892093221049
 30
0.0
 10
428.4152558055829
 20
148.6901929338783
 30
0.0
 10
428.3774470750004
 20
148.6902017457669
 30
0.0
 10
428.3585427097095
 20
148.6902061517103
 30
0.0
 10
428.3399672062305
 20
148.6899660361214
 30
0.0
 10
428.3217256142761
 20
148.6894775574346
 30
0.0
 10
428.3034840223226
 20
148.6889890787479
 30
0.0
 10
428.2855296091329
 20
148.6882494906331
 30
0.0
 10
428.2680248721844
 20
148.6872603592692
 30
0.0
 10
428.2330153982866
 20
148.6852820965432
 30
0.0
 10
428.200197904558
 20
148.6823382774582
 30
0.0
 10
428.1694758527428
 20
148.6784676036859
 30
0.0
 10
428.1387538009275
 20
148.6745969299154
 30
0.0
 10
428.1101271910274
 20
148.6697994014575
 30
0.0
 10
428.0836093190637
 20
148.6640629301764
 30
0.0
 10
428.0703503830809
 20
148.6611946945377
 30
0.0
 10
428.0575925338953
 20
148.658082905773
 30
0.0
 10
428.0454517618945
 20
148.6547510807249
 30
0.0
 10
428.0333109898929
 20
148.6514192556769
 30
0.0
 10
428.021793674593
 20
148.6478713719152
 30
0.0
 10
428.0108951449411
 20
148.644107980017
 30
0.0
  0
SPLINE
  5
1EF
330
70
100
AcDbEntity
  8
Front$1
 62
     7
370
    35
100
AcDbSpline
210
0.0
220
0.0
230
1.0
 70
     8
 71
     3
 72
    17
 73
    13
 74
     0
 42
0.0000000001
 43
0.0000000001
 40
0.0
 40
0.0
 40
0.0
 40
0.0
 40
1.0
 40
1.0
 40
1.0
 40
2.0
 40
2.0
 40
2.0
 40
3.0
 40
3.0
 40
3.0
 40
4.0
 40
4.0
 40
4.0
 40
4.0
 10
428.0108951449411
 20
148.644107980017
 30
0.0
 10
427.6765530424927
 20
148.5286554040194
 30
0.0
 10
427.3417093059642
 20
148.4241289810234
 30
0.0
 10
427.0062740769207
 20
148.3324859285312
 30
0.0
 10
426.6708388478782
 20
148.2408428760391
 30
0.0
 10
426.3348112796302
 20
148.1621016359149
 30
0.0
 10
425.998106897111
 20
148.0981021698535
 30
0.0
 10
425.6614025145927
 20
148.0341027037939
 30
0.0
 10
425.324020295493
 20
147.9848672788648
 30
0.0
 10
424.9858954376213
 20
147.9518073594845
 30
0.0
 10
424.6477705797497
 20
147.9187474401042
 30
0.0
 10
424.3089022704989
 20
147.9018807257453
 30
0.0
 10
423.9692595881697
 20
147.9018807257453
 30
0.0
  0
SPLINE
  5
1F0
330
70
100
AcDbEntity
  8
Front$1
 62
     7
370
    35
100
AcDbSpline
210
0.0
220
0.0
230
1.0
 70
     8
 71
     3
 72
    17
 73
    13
 74
     0
 42
0.0000000001
 43
0.0000000001
 40
0.0
 40
0.0
 40
0.0
 40
0.0
 40
1.0
 40
1.0
 40
1.0
 40
2.0
 40
2.0
 40
2.0
 40
3.0
 40
3.0
 40
3.0
 40
4.0
 40
4.0
 40
4.0
 40
4.0
 10
436.9602299655971
 20
147.9018807257453
 30
0.0
 10
436.2809446009387
 20
147.9018807257453
 30
0.0
 10
435.603207982438
 20
147.9187474401042
 30
0.0
 10
434.9269582666948
 20
147.9518073594845
 30
0.0
 10
434.2507085509505
 20
147.9848672788648
 30
0.0
 10
433.5759441127511
 20
148.0341027037939
 30
0.0
 10
432.9025353477136
 20
148.0981021698535
 30
0.0
 10
432.229126582677
 20
148.1621016359149
 30
0.0
 10
431.5570714461809
 20
148.2408428760391
 30
0.0
 10
430.8862009880949
 20
148.3324859285312
 30
0.0
 10
430.2153305300089
 20
148.4241289810234
 30
0.0
 10
429.545643056952
 20
148.5286554040194
 30
0.0
 10
428.8769588520554
 20
148.644107980017
 30
0.0
  0
SPLINE
  5
1F1
330
70
100
AcDbEntity
  8
Front$1
 62
     7
370
    35
100
AcDbSpline
210
0.0
220
0.0
230
1.0
 70
     8
 71
     3
 72
    17
 73
    13
 74
     0
 42
0.0000000001
 43
0.0000000001
 40
0.0
 40
0.0
 40
0.0
 40
0.0
 40
1.0
 40
1.0
 40
1.0
 40
2.0
 40
2.0
 40
2.0
 40
3.0
 40
3.0
 40
3.0
 40
4.0
 40
4.0
 40
4.0
 40
4.0
 10
449.9512003430254
 20
147.9018807257453
 30
0.0
 10
449.6115576606962
 20
147.9018807257453
 30
0.0
 10
449.2726893514454
 20
147.9187474401042
 30
0.0
 10
448.9345644935737
 20
147.9518073594845
 30
0.0
 10
448.5964396357021
 20
147.9848672788648
 30
0.0
 10
448.2590574166024
 20
148.0341027037939
 30
0.0
 10
447.9223530340841
 20
148.0981021698535
 30
0.0
 10
447.5856486515649
 20
148.1621016359149
 30
0.0
 10
447.2496210833169
 20
148.2408428760391
 30
0.0
 10
446.9141858542744
 20
148.3324859285312
 30
0.0
 10
446.5787506252309
 20
148.4241289810234
 30
0.0
 10
446.2439068887024
 20
148.5286554040194
 30
0.0
 10
445.909564786254
 20
148.644107980017
 30
0.0
  0
SPLINE
  5
1F2
330
70
100
AcDbEntity
  8
Front$1
 62
     7
370
    35
100
AcDbSpline
210
0.0
220
0.0
230
1.0
 70
     8
 71
     3
 72
    17
 73
    13
 74
     0
 42
0.0000000001
 43
0.0000000001
 40
0.0
 40
0.0
 40
0.0
 40
0.0
 40
1.0
 40
1.0
 40
1.0
 40
2.0
 40
2.0
 40
2.0
 40
3.0
 40
3.0
 40
3.0
 40
4.0
 40
4.0
 40
4.0
 40
4.0
 10
445.0435010791397
 20
148.644107980017
 30
0.0
 10
444.3748168742431
 20
148.5286554040194
 30
0.0
 10
443.7051294011862
 20
148.4241289810234
 30
0.0
 10
443.0342589431002
 20
148.3324859285312
 30
0.0
 10
442.3633884850142
 20
148.2408428760391
 30
0.0
 10
441.6913333485181
 20
148.1621016359149
 30
0.0
 10
441.0179245834806
 20
148.0981021698535
 30
0.0
 10
440.344515818444
 20
148.0341027037939
 30
0.0
 10
439.6697513802446
 20
147.9848672788648
 30
0.0
 10
438.9935016645003
 20
147.9518073594845
 30
0.0
 10
438.3172519487571
 20
147.9187474401042
 30
0.0
 10
437.6395153302564
 20
147.9018807257453
 30
0.0
 10
436.9602299655971
 20
147.9018807257453
 30
0.0
  0
SPLINE
  5
1F3
330
70
100
AcDbEntity
  8
Front$1
 62
     7
370
    35
100
AcDbSpline
210
0.0
220
0.0
230
1.0
 70
     8
 71
     3
 72
    38
 73
    34
 74
     0
 42
0.0000000001
 43
0.0000000001
 40
0.0
 40
0.0
 40
0.0
 40
0.0
 40
1.0
 40
1.0
 40
1.0
 40
2.0
 40
2.0
 40
2.0
 40
3.0
 40
3.0
 40
3.0
 40
4.0
 40
4.0
 40
4.0
 40
5.0
 40
5.0
 40
5.0
 40
6.0
 40
6.0
 40
6.0
 40
7.0
 40
7.0
 40
7.0
 40
8.0
 40
8.0
 40
8.0
 40
9.0
 40
9.0
 40
9.0
 40
10.0
 40
10.0
 40
10.0
 40
11.0
 40
11.0
 40
11.0
 40
11.0
 10
445.909564786254
 20
148.644107980017
 30
0.0
 10
445.8877700679477
 20
148.6516339554382
 30
0.0
 10
445.8636906066986
 20
148.6582381406679
 30
0.0
 10
445.8373769695453
 20
148.6639488724286
 30
0.0
 10
445.8110633323922
 20
148.6696596041893
 30
0.0
 10
445.7825155193359
 20
148.6744768824792
 30
0.0
 10
445.7516687895213
 20
148.6783810437264
 30
0.0
 10
445.736245424614
 20
148.68033312435
 30
0.0
 10
445.7202194154797
 20
148.6820584880061
 30
0.0
 10
445.7036523888473
 20
148.683542569308
 30
0.0
 10
445.687085362214
 20
148.6850266506098
 30
0.0
 10
445.6701212923326
 20
148.6862574816077
 30
0.0
 10
445.6527694899095
 20
148.6872414284389
 30
0.0
 10
445.6180658850635
 20
148.6892093221049
 30
0.0
 10
445.5818162039058
 20
148.6901929338783
 30
0.0
 10
445.5440331815553
 20
148.6902017457669
 30
0.0
 10
445.5251416703813
 20
148.6902061517103
 30
0.0
 10
445.5058655992115
 20
148.6899660361214
 30
0.0
 10
445.4861990608423
 20
148.6894775574346
 30
0.0
 10
445.4665325224732
 20
148.6889890787479
 30
0.0
 10
445.4464207725449
 20
148.6882494906331
 30
0.0
 10
445.4260316539239
 20
148.6872603592692
 30
0.0
 10
445.3852534166817
 20
148.6852820965432
 30
0.0
 10
445.3438536131343
 20
148.6823381291815
 30
0.0
 10
445.3018603110876
 20
148.6784675295475
 30
0.0
 10
445.2598670090419
 20
148.6745969299154
 30
0.0
 10
445.2172800004955
 20
148.6697994014575
 30
0.0
 10
445.1740962811272
 20
148.6640629301764
 30
0.0
 10
445.1525044214431
 20
148.6611946945377
 30
0.0
 10
445.1307118245731
 20
148.658082905773
 30
0.0
 10
445.1089057754789
 20
148.6547510807249
 30
0.0
 10
445.0870997263855
 20
148.6514192556769
 30
0.0
 10
445.06529811366
 20
148.6478713719152
 30
0.0
 10
445.0435010791397
 20
148.644107980017
 30
0.0
  0
SPLINE
  5
1F4
330
70
100
AcDbEntity
  8
Front$1
 62
     7
370
    35
100
AcDbSpline
210
0.0
220
0.0
230
1.0
 70
     8
 71
     3
 72
    35
 73
    31
 74
     0
 42
0.0000000001
 43
0.0000000001
 40
0.0
 40
0.0
 40
0.0
 40
0.0
 40
1.0
 40
1.0
 40
1.0
 40
2.0
 40
2.0
 40
2.0
 40
3.0
 40
3.0
 40
3.0
 40
4.0
 40
4.0
 40
4.0
 40
5.0
 40
5.0
 40
5.0
 40
6.0
 40
6.0
 40
6.0
 40
7.0
 40
7.0
 40
7.0
 40
8.0
 40
8.0
 40
8.0
 40
9.0
 40
9.0
 40
9.0
 40
10.0
 40
10.0
 40
10.0
 40
10.0
 10
458.9722622149347
 20
316.0078081164775
 30
0.0
 10
458.9533790282057
 20
315.9819130196956
 30
0.0
 10
458.9322633950523
 20
315.9567557594209
 30
0.0
 10
458.9083491250621
 20
315.9325234648731
 30
0.0
 10
458.902001608143
 20
315.9260915353316
 30
0.0
 10
458.8954409789403
 20
315.9197143225456
 30
0.0
 10
458.8887237399249
 20
315.9134635073269
 30
0.0
 10
458.8820065009095
 20
315.9072126921092
 30
0.0
 10
458.8751225750201
 20
315.9010777685225
 30
0.0
 10
458.86806457497
 20
315.8950638726956
 30
0.0
 10
458.853948574866
 20
315.8830360810407
 30
0.0
 10
458.8391362781148
 20
315.8714924004189
 30
0.0
 10
458.8235360749804
 20
315.8604965239183
 30
0.0
 10
458.8079358718478
 20
315.8495006474177
 30
0.0
 10
458.7915494692096
 20
315.8390513883042
 30
0.0
 10
458.7742348144438
 20
315.8292475108646
 30
0.0
 10
458.7655774870618
 20
315.8243455721449
 30
0.0
 10
458.7567230115182
 20
315.8196280688653
 30
0.0
 10
458.7477443035586
 20
315.8151477706615
 30
0.0
 10
458.738765595599
 20
315.8106674724577
 30
0.0
 10
458.729639302308
 20
315.8064109297648
 30
0.0
 10
458.7203585313345
 20
315.8023885921375
 30
0.0
 10
458.7017969893913
 20
315.794343916883
 30
0.0
 10
458.6826201920466
 20
315.7872320361348
 30
0.0
 10
458.6627467698272
 20
315.7811763149166
 30
0.0
 10
458.6528100587165
 20
315.7781484543075
 30
0.0
 10
458.6426704309433
 20
315.7753802910065
 30
0.0
 10
458.6324689706307
 20
315.7729272912329
 30
0.0
 10
458.6222675103181
 20
315.7704742914603
 30
0.0
 10
458.6119826259873
 20
315.7683281517539
 30
0.0
 10
458.6016114465182
 20
315.7664994329916
 30
0.0
  0
SPLINE
  5
1F5
330
70
100
AcDbEntity
  8
Front$1
 62
     7
370
    35
100
AcDbSpline
210
0.0
220
0.0
230
1.0
 70
     8
 71
     3
 72
    17
 73
    13
 74
     0
 42
0.0000000001
 43
0.0000000001
 40
0.0
 40
0.0
 40
0.0
 40
0.0
 40
1.0
 40
1.0
 40
1.0
 40
2.0
 40
2.0
 40
2.0
 40
3.0
 40
3.0
 40
3.0
 40
4.0
 40
4.0
 40
4.0
 40
4.0
 10
436.960229965598
 20
174.1951874954429
 30
0.0
 10
437.64622181702
 20
174.2120550433383
 30
0.0
 10
438.3279442083803
 20
174.2286073705836
 30
0.0
 10
439.0012232762074
 20
174.244747043198
 30
0.0
 10
441.7354976420665
 20
174.3102923649121
 30
0.0
 10
444.2016328789841
 20
174.3792107946692
 30
0.0
 10
446.1582264873977
 20
174.4447561163833
 30
0.0
 10
448.1148200958114
 20
174.5103014380966
 30
0.0
 10
449.3703470609388
 20
174.5792198678546
 30
0.0
 10
449.8019076556638
 20
174.6447651895687
 30
0.0
 10
450.1582225727142
 20
174.6988822154389
 30
0.0
 10
449.9212389926151
 20
174.7558365037112
 30
0.0
 10
449.0988806493724
 20
174.811769907802
 30
0.0
  0
SPLINE
  5
1F6
330
70
100
AcDbEntity
  8
Front$1
 62
     7
370
    35
100
AcDbSpline
210
0.0
220
0.0
230
1.0
 70
     8
 71
     3
 72
    17
 73
    13
 74
     0
 42
0.0000000001
 43
0.0000000001
 40
0.0
 40
0.0
 40
0.0
 40
0.0
 40
1.0
 40
1.0
 40
1.0
 40
2.0
 40
2.0
 40
2.0
 40
3.0
 40
3.0
 40
3.0
 40
4.0
 40
4.0
 40
4.0
 40
4.0
 10
436.9602299655971
 20
176.7954867713151
 30
0.0
 10
434.8899661204322
 20
176.7445910841943
 30
0.0
 10
432.8840458908562
 20
176.6933806686493
 30
0.0
 10
431.0515433419086
 20
176.6446761339939
 30
0.0
 10
428.5854081049901
 20
176.5791308122798
 30
0.0
 10
426.6288144965765
 20
176.5102123825227
 30
0.0
 10
425.373287531449
 20
176.4446670608085
 30
0.0
 10
424.1177605663206
 20
176.3791217390953
 30
0.0
 10
423.6861999715966
 20
176.3102033093373
 30
0.0
 10
424.1208499051453
 20
176.2446579876232
 30
0.0
 10
424.4586711388156
 20
176.1937144587436
 30
0.0
 10
425.3044303901588
 20
176.1401234827908
 30
0.0
 10
426.6151163522636
 20
176.0871101657549
 30
0.0
  0
SPLINE
  5
1F7
330
70
100
AcDbEntity
  8
Front$1
 62
     7
370
    35
100
AcDbSpline
210
0.0
220
0.0
230
1.0
 70
     8
 71
     3
 72
    20
 73
    16
 74
     0
 42
0.0000000001
 43
0.0000000001
 40
0.0
 40
0.0
 40
0.0
 40
0.0
 40
1.0
 40
1.0
 40
1.0
 40
2.0
 40
2.0
 40
2.0
 40
3.0
 40
3.0
 40
3.0
 40
4.0
 40
4.0
 40
4.0
 40
5.0
 40
5.0
 40
5.0
 40
5.0
 10
436.9602299655971
 20
172.1950967635921
 30
0.0
 10
437.64622181702
 20
172.2119643114874
 30
0.0
 10
438.3279442083803
 20
172.2285166387319
 30
0.0
 10
439.0012232762074
 20
172.2446563113462
 30
0.0
 10
441.7354976420665
 20
172.3102016330604
 30
0.0
 10
444.2016328789841
 20
172.3791200628184
 30
0.0
 10
446.1582264873977
 20
172.4446653845316
 30
0.0
 10
448.1148200958114
 20
172.5102107062457
 30
0.0
 10
449.3703470609388
 20
172.5791291360028
 30
0.0
 10
449.8019076556638
 20
172.644674457717
 30
0.0
 10
450.2334682503878
 20
172.7102197794311
 30
0.0
 10
449.798818316839
 20
172.7791382091882
 30
0.0
 10
448.5405044188955
 20
172.8446835309023
 30
0.0
 10
448.4206108595317
 20
172.8509287626621
 30
0.0
 10
448.2934484208962
 20
172.8572419462116
 30
0.0
 10
448.1590745865924
 20
172.8636176667423
 30
0.0
  0
SPLINE
  5
1F8
330
70
100
AcDbEntity
  8
Front$1
 62
     7
370
    35
100
AcDbSpline
210
0.0
220
0.0
230
1.0
 70
     8
 71
     3
 72
    17
 73
    13
 74
     0
 42
0.0000000001
 43
0.0000000001
 40
0.0
 40
0.0
 40
0.0
 40
0.0
 40
1.0
 40
1.0
 40
1.0
 40
2.0
 40
2.0
 40
2.0
 40
3.0
 40
3.0
 40
3.0
 40
4.0
 40
4.0
 40
4.0
 40
4.0
 10
436.9602299655971
 20
174.7953960394643
 30
0.0
 10
434.8899661204322
 20
174.7445003523426
 30
0.0
 10
432.8840458908562
 20
174.6932899367984
 30
0.0
 10
431.0515433419086
 20
174.6445854021422
 30
0.0
 10
428.5854081049901
 20
174.5790400804289
 30
0.0
 10
426.6288144965765
 20
174.5101216506709
 30
0.0
 10
425.373287531449
 20
174.4445763289577
 30
0.0
 10
424.1177605663206
 20
174.3790310072436
 30
0.0
 10
423.6861999715966
 20
174.3101125774865
 30
0.0
 10
424.1208499051453
 20
174.2445672557724
 30
0.0
 10
424.3190523241801
 20
174.21467828003
 30
0.0
 10
424.6963651608175
 20
174.1835726065374
 30
0.0
 10
425.2490991781814
 20
174.1518924839565
 30
0.0
  0
SPLINE
  5
1F9
330
70
100
AcDbEntity
  8
Front$1
 62
     7
370
    35
100
AcDbSpline
210
0.0
220
0.0
230
1.0
 70
     8
 71
     3
 72
    17
 73
    13
 74
     0
 42
0.0000000001
 43
0.0000000001
 40
0.0
 40
0.0
 40
0.0
 40
0.0
 40
1.0
 40
1.0
 40
1.0
 40
2.0
 40
2.0
 40
2.0
 40
3.0
 40
3.0
 40
3.0
 40
4.0
 40
4.0
 40
4.0
 40
4.0
 10
449.9608197161714
 20
169.2938898968377
 30
0.0
 10
449.9607980954251
 20
169.2770258197688
 30
0.0
 10
449.9066154487618
 20
169.2604768713963
 30
0.0
 10
449.7996100260498
 20
169.2443404261439
 30
0.0
 10
449.3649600925
 20
169.1787951044298
 30
0.0
 10
448.1066461945565
 20
169.1098766746727
 30
0.0
 10
446.1478408637376
 20
169.0443313529585
 30
0.0
 10
444.1890355329187
 20
168.9787860312453
 30
0.0
 10
441.7214802828048
 20
168.9098676014873
 30
0.0
 10
438.9867166137455
 20
168.8443222797741
 30
0.0
 10
438.3181428160023
 20
168.8282982682076
 30
0.0
 10
437.6412854704003
 20
168.8118670179583
 30
0.0
 10
436.9602299655971
 20
168.79512384391
 30
0.0
  0
SPLINE
  5
1FA
330
70
100
AcDbEntity
  8
Front$1
 62
     7
370
    35
100
AcDbSpline
210
0.0
220
0.0
230
1.0
 70
     8
 71
     3
 72
    17
 73
    13
 74
     0
 42
0.0000000001
 43
0.0000000001
 40
0.0
 40
0.0
 40
0.0
 40
0.0
 40
1.0
 40
1.0
 40
1.0
 40
2.0
 40
2.0
 40
2.0
 40
3.0
 40
3.0
 40
3.0
 40
4.0
 40
4.0
 40
4.0
 40
4.0
 10
449.9608197161714
 20
175.2941620923911
 30
0.0
 10
449.9607980954251
 20
175.2772980153222
 30
0.0
 10
449.9066154487618
 20
175.2607490669506
 30
0.0
 10
449.7996100260498
 20
175.2446126216982
 30
0.0
 10
449.3649600925
 20
175.1790672999841
 30
0.0
 10
448.1066461945565
 20
175.110148870227
 30
0.0
 10
446.1478408637376
 20
175.0446035485129
 30
0.0
 10
444.1890355329187
 20
174.9790582267988
 30
0.0
 10
441.7214802828048
 20
174.9101397970416
 30
0.0
 10
438.9867166137455
 20
174.8445944753275
 30
0.0
 10
438.3181428160023
 20
174.8285704637619
 30
0.0
 10
437.6412854704003
 20
174.8121392135117
 30
0.0
 10
436.9602299655971
 20
174.7953960394643
 30
0.0
  0
SPLINE
  5
1FB
330
70
100
AcDbEntity
  8
Front$1
 62
     7
370
    35
100
AcDbSpline
210
0.0
220
0.0
230
1.0
 70
     8
 71
     3
 72
    17
 73
    13
 74
     0
 42
0.0000000001
 43
0.0000000001
 40
0.0
 40
0.0
 40
0.0
 40
0.0
 40
1.0
 40
1.0
 40
1.0
 40
2.0
 40
2.0
 40
2.0
 40
3.0
 40
3.0
 40
3.0
 40
4.0
 40
4.0
 40
4.0
 40
4.0
 10
436.9602299655971
 20
164.1947338361869
 30
0.0
 10
437.64622181702
 20
164.2116013840823
 30
0.0
 10
438.3279442083803
 20
164.2281537113267
 30
0.0
 10
439.0012232762074
 20
164.2442933839411
 30
0.0
 10
441.7354976420665
 20
164.3098387056552
 30
0.0
 10
444.2016328789841
 20
164.3787571354132
 30
0.0
 10
446.1582264873977
 20
164.4443024571264
 30
0.0
 10
448.1148200958114
 20
164.5098477788406
 30
0.0
 10
449.3703470609388
 20
164.5787662085977
 30
0.0
 10
449.8019076556638
 20
164.6443115303118
 30
0.0
 10
450.0778111738891
 20
164.686215691825
 30
0.0
 10
449.9969416827025
 20
164.7301686223236
 30
0.0
 10
449.5545286121496
 20
164.7743753583072
 30
0.0
  0
SPLINE
  5
1FC
330
70
100
AcDbEntity
  8
Front$1
 62
     7
370
    35
100
AcDbSpline
210
0.0
220
0.0
230
1.0
 70
     8
 71
     3
 72
    14
 73
    10
 74
     0
 42
0.0000000001
 43
0.0000000001
 40
0.0
 40
0.0
 40
0.0
 40
0.0
 40
1.0
 40
1.0
 40
1.0
 40
2.0
 40
2.0
 40
2.0
 40
3.0
 40
3.0
 40
3.0
 40
3.0
 10
423.9596402150237
 20
163.6934545258873
 30
0.0
 10
423.959574953773
 20
163.7443534013073
 30
0.0
 10
424.4448805381443
 20
163.795567367375
 30
0.0
 10
425.3799555122996
 20
163.8442752375713
 30
0.0
 10
426.638269410243
 20
163.9098205592854
 30
0.0
 10
428.597074741061
 20
163.9787389890425
 30
0.0
 10
431.064629991175
 20
164.0442843107566
 30
0.0
 10
432.8936875333547
 20
164.0928693080041
 30
0.0
 10
434.8949860590027
 20
164.1439524742245
 30
0.0
 10
436.9602299655971
 20
164.1947338361869
 30
0.0
  0
SPLINE
  5
1FD
330
70
100
AcDbEntity
  8
Front$1
 62
     7
370
    35
100
AcDbSpline
210
0.0
220
0.0
230
1.0
 70
     8
 71
     3
 72
    17
 73
    13
 74
     0
 42
0.0000000001
 43
0.0000000001
 40
0.0
 40
0.0
 40
0.0
 40
0.0
 40
1.0
 40
1.0
 40
1.0
 40
2.0
 40
2.0
 40
2.0
 40
3.0
 40
3.0
 40
3.0
 40
4.0
 40
4.0
 40
4.0
 40
4.0
 10
449.960819715503
 20
177.2942734869502
 30
0.0
 10
449.9608424366751
 20
177.2774022930516
 30
0.0
 10
449.9066593319303
 20
177.260846416395
 30
0.0
 10
449.7996100260498
 20
177.2447033535491
 30
0.0
 10
449.3649600925
 20
177.1791580318359
 30
0.0
 10
448.1066461945565
 20
177.1102396020778
 30
0.0
 10
446.1478408637376
 20
177.0446942803646
 30
0.0
 10
444.1890355329187
 20
176.9791489586505
 30
0.0
 10
441.7214802828048
 20
176.9102305288925
 30
0.0
 10
438.9867166137455
 20
176.8446852071793
 30
0.0
 10
438.3181428160023
 20
176.8286611956137
 30
0.0
 10
437.6412854704003
 20
176.8122299453635
 30
0.0
 10
436.9602299655971
 20
176.7954867713151
 30
0.0
  0
SPLINE
  5
1FE
330
70
100
AcDbEntity
  8
Front$1
 62
     7
370
    35
100
AcDbSpline
210
0.0
220
0.0
230
1.0
 70
     8
 71
     3
 72
    17
 73
    13
 74
     0
 42
0.0000000001
 43
0.0000000001
 40
0.0
 40
0.0
 40
0.0
 40
0.0
 40
1.0
 40
1.0
 40
1.0
 40
2.0
 40
2.0
 40
2.0
 40
3.0
 40
3.0
 40
3.0
 40
4.0
 40
4.0
 40
4.0
 40
4.0
 10
436.9602299655971
 20
164.7949423802074
 30
0.0
 10
434.8899661204322
 20
164.7440466930866
 30
0.0
 10
432.8840458908562
 20
164.6928362775416
 30
0.0
 10
431.0515433419086
 20
164.6441317428862
 30
0.0
 10
428.5854081049901
 20
164.5785864211721
 30
0.0
 10
426.6288144965765
 20
164.5096679914149
 30
0.0
 10
425.373287531449
 20
164.4441226697008
 30
0.0
 10
424.1177605663206
 20
164.3785773479867
 30
0.0
 10
423.6861999715966
 20
164.3096589182296
 30
0.0
 10
424.1208499051453
 20
164.2441135965155
 30
0.0
 10
424.1717472851696
 20
164.2364382585238
 30
0.0
 10
424.2346693985264
 20
164.2286616230531
 30
0.0
 10
424.3096518829197
 20
164.2207938104338
 30
0.0
  0
SPLINE
  5
1FF
330
70
100
AcDbEntity
  8
Front$1
 62
     7
370
    35
100
AcDbSpline
210
0.0
220
0.0
230
1.0
 70
     8
 71
     3
 72
    20
 73
    16
 74
     0
 42
0.0000000001
 43
0.0000000001
 40
0.0
 40
0.0
 40
0.0
 40
0.0
 40
1.0
 40
1.0
 40
1.0
 40
2.0
 40
2.0
 40
2.0
 40
3.0
 40
3.0
 40
3.0
 40
4.0
 40
4.0
 40
4.0
 40
5.0
 40
5.0
 40
5.0
 40
5.0
 10
436.960229965598
 20
176.1952782272947
 30
0.0
 10
437.64622181702
 20
176.21214577519
 30
0.0
 10
438.3279442083803
 20
176.2286981024344
 30
0.0
 10
439.0012232762074
 20
176.2448377750497
 30
0.0
 10
441.7354976420665
 20
176.3103830967629
 30
0.0
 10
444.2016328789841
 20
176.3793015265209
 30
0.0
 10
446.1582264873977
 20
176.4448468482342
 30
0.0
 10
448.1148200958114
 20
176.5103921699483
 30
0.0
 10
449.3703470609388
 20
176.5793105997054
 30
0.0
 10
449.8019076556638
 20
176.6448559214195
 30
0.0
 10
450.2334682503878
 20
176.7104012431337
 30
0.0
 10
449.798818316839
 20
176.7793196728908
 30
0.0
 10
448.5405044188955
 20
176.8448649946049
 30
0.0
 10
447.921782082989
 20
176.8770941185339
 30
0.0
 10
447.1190538845458
 20
176.9106984600339
 30
0.0
 10
446.1478408637376
 20
176.9448695311976
 30
0.0
  0
SPLINE
  5
200
330
70
100
AcDbEntity
  8
Front$1
 62
     7
370
    35
100
AcDbSpline
210
0.0
220
0.0
230
1.0
 70
     8
 71
     3
 72
    14
 73
    10
 74
     0
 42
0.0000000001
 43
0.0000000001
 40
0.0
 40
0.0
 40
0.0
 40
0.0
 40
1.0
 40
1.0
 40
1.0
 40
2.0
 40
2.0
 40
2.0
 40
3.0
 40
3.0
 40
3.0
 40
3.0
 10
423.9596402150237
 20
169.6937267214416
 30
0.0
 10
423.959574953773
 20
169.7446255968616
 30
0.0
 10
424.4448805381443
 20
169.7958395629284
 30
0.0
 10
425.3799555122996
 20
169.8445474331247
 30
0.0
 10
426.638269410243
 20
169.9100927548388
 30
0.0
 10
428.597074741061
 20
169.9790111845968
 30
0.0
 10
431.064629991175
 20
170.04455650631
 30
0.0
 10
432.8936875333547
 20
170.0931415035575
 30
0.0
 10
434.8949860590027
 20
170.1442246697788
 30
0.0
 10
436.960229965598
 20
170.1950060317404
 30
0.0
  0
SPLINE
  5
201
330
70
100
AcDbEntity
  8
Front$1
 62
     7
370
    35
100
AcDbSpline
210
0.0
220
0.0
230
1.0
 70
     8
 71
     3
 72
    14
 73
    10
 74
     0
 42
0.0000000001
 43
0.0000000001
 40
0.0
 40
0.0
 40
0.0
 40
0.0
 40
1.0
 40
1.0
 40
1.0
 40
2.0
 40
2.0
 40
2.0
 40
3.0
 40
3.0
 40
3.0
 40
3.0
 10
423.9596402150237
 20
171.6938174532924
 30
0.0
 10
423.959574953773
 20
171.7447163287124
 30
0.0
 10
424.4448805381443
 20
171.7959302947802
 30
0.0
 10
425.3799555122996
 20
171.8446381649764
 30
0.0
 10
426.638269410243
 20
171.9101834866906
 30
0.0
 10
428.597074741061
 20
171.9791019164477
 30
0.0
 10
431.064629991175
 20
172.0446472381618
 30
0.0
 10
432.8936875333547
 20
172.0932322354092
 30
0.0
 10
434.8949860590027
 20
172.1443154016306
 30
0.0
 10
436.9602299655971
 20
172.1950967635921
 30
0.0
  0
SPLINE
  5
202
330
70
100
AcDbEntity
  8
Front$1
 62
     7
370
    35
100
AcDbSpline
210
0.0
220
0.0
230
1.0
 70
     8
 71
     3
 72
    17
 73
    13
 74
     0
 42
0.0000000001
 43
0.0000000001
 40
0.0
 40
0.0
 40
0.0
 40
0.0
 40
1.0
 40
1.0
 40
1.0
 40
2.0
 40
2.0
 40
2.0
 40
3.0
 40
3.0
 40
3.0
 40
4.0
 40
4.0
 40
4.0
 40
4.0
 10
449.9608197161714
 20
171.2939806286886
 30
0.0
 10
449.9607980954251
 20
171.2771165516196
 30
0.0
 10
449.9066154487618
 20
171.2605676032481
 30
0.0
 10
449.7996100260498
 20
171.2444311579957
 30
0.0
 10
449.3649600925
 20
171.1788858362815
 30
0.0
 10
448.1066461945565
 20
171.1099674065244
 30
0.0
 10
446.1478408637376
 20
171.0444220848103
 30
0.0
 10
444.1890355329187
 20
170.9788767630962
 30
0.0
 10
441.7214802828048
 20
170.9099583333391
 30
0.0
 10
438.9867166137455
 20
170.8444130116249
 30
0.0
 10
438.3181428160023
 20
170.8283890000593
 30
0.0
 10
437.6412854704003
 20
170.8119577498091
 30
0.0
 10
436.9602299655971
 20
170.7952145757617
 30
0.0
  0
SPLINE
  5
203
330
70
100
AcDbEntity
  8
Front$1
 62
     7
370
    35
100
AcDbSpline
210
0.0
220
0.0
230
1.0
 70
     8
 71
     3
 72
    14
 73
    10
 74
     0
 42
0.0000000001
 43
0.0000000001
 40
0.0
 40
0.0
 40
0.0
 40
0.0
 40
1.0
 40
1.0
 40
1.0
 40
2.0
 40
2.0
 40
2.0
 40
3.0
 40
3.0
 40
3.0
 40
3.0
 10
423.9596402150237
 20
173.6939081851442
 30
0.0
 10
423.959574953773
 20
173.7448070605642
 30
0.0
 10
424.4448805381443
 20
173.796021026631
 30
0.0
 10
425.3799555122996
 20
173.8447288968273
 30
0.0
 10
426.638269410243
 20
173.9102742185414
 30
0.0
 10
428.597074741061
 20
173.9791926482994
 30
0.0
 10
431.064629991175
 20
174.0447379700126
 30
0.0
 10
432.8936875333547
 20
174.093322967261
 30
0.0
 10
434.8949860590027
 20
174.1444061334814
 30
0.0
 10
436.960229965598
 20
174.1951874954429
 30
0.0
  0
SPLINE
  5
204
330
70
100
AcDbEntity
  8
Front$1
 62
     7
370
    35
100
AcDbSpline
210
0.0
220
0.0
230
1.0
 70
     8
 71
     3
 72
    20
 73
    16
 74
     0
 42
0.0000000001
 43
0.0000000001
 40
0.0
 40
0.0
 40
0.0
 40
0.0
 40
1.0
 40
1.0
 40
1.0
 40
2.0
 40
2.0
 40
2.0
 40
3.0
 40
3.0
 40
3.0
 40
4.0
 40
4.0
 40
4.0
 40
5.0
 40
5.0
 40
5.0
 40
5.0
 10
436.960229965598
 20
170.1950060317404
 30
0.0
 10
437.64622181702
 20
170.2118735796357
 30
0.0
 10
438.3279442083803
 20
170.228425906881
 30
0.0
 10
439.0012232762074
 20
170.2445655794954
 30
0.0
 10
441.7354976420665
 20
170.3101109012095
 30
0.0
 10
444.2016328789841
 20
170.3790293309666
 30
0.0
 10
446.1582264873977
 20
170.4445746526808
 30
0.0
 10
448.1148200958114
 20
170.510119974394
 30
0.0
 10
449.3703470609388
 20
170.579038404152
 30
0.0
 10
449.8019076556638
 20
170.6445837258652
 30
0.0
 10
450.2334682503878
 20
170.7101290475793
 30
0.0
 10
449.798818316839
 20
170.7790474773373
 30
0.0
 10
448.5405044188955
 20
170.8445927990506
 30
0.0
 10
448.4865347010263
 20
170.8474040709652
 30
0.0
 10
448.43108353364
 20
170.8502295415846
 30
0.0
 10
448.3741554388325
 20
170.8530687255879
 30
0.0
  0
SPLINE
  5
205
330
70
100
AcDbEntity
  8
Front$1
 62
     7
370
    35
100
AcDbSpline
210
0.0
220
0.0
230
1.0
 70
     8
 71
     3
 72
    17
 73
    13
 74
     0
 42
0.0000000001
 43
0.0000000001
 40
0.0
 40
0.0
 40
0.0
 40
0.0
 40
1.0
 40
1.0
 40
1.0
 40
2.0
 40
2.0
 40
2.0
 40
3.0
 40
3.0
 40
3.0
 40
4.0
 40
4.0
 40
4.0
 40
4.0
 10
436.960229965598
 20
172.7953053076126
 30
0.0
 10
434.8899661204332
 20
172.7444096204917
 30
0.0
 10
432.8840458908562
 20
172.6931992049467
 30
0.0
 10
431.0515433419086
 20
172.6444946702913
 30
0.0
 10
428.5854081049901
 20
172.5789493485772
 30
0.0
 10
426.6288144965765
 20
172.5100309188201
 30
0.0
 10
425.373287531449
 20
172.444485597106
 30
0.0
 10
424.1177605663206
 20
172.3789402753928
 30
0.0
 10
423.6861999715966
 20
172.3100218456347
 30
0.0
 10
424.1208499051453
 20
172.2444765239206
 30
0.0
 10
424.3626488540948
 20
172.2080131802604
 30
0.0
 10
424.8692138150227
 20
172.1698809969548
 30
0.0
 10
425.6308838614468
 20
172.1312575094744
 30
0.0
  0
SPLINE
  5
206
330
70
100
AcDbEntity
  8
Front$1
 62
     7
370
    35
100
AcDbSpline
210
0.0
220
0.0
230
1.0
 70
     8
 71
     3
 72
    17
 73
    13
 74
     0
 42
0.0000000001
 43
0.0000000001
 40
0.0
 40
0.0
 40
0.0
 40
0.0
 40
1.0
 40
1.0
 40
1.0
 40
2.0
 40
2.0
 40
2.0
 40
3.0
 40
3.0
 40
3.0
 40
4.0
 40
4.0
 40
4.0
 40
4.0
 10
436.9602299655971
 20
166.7950331120591
 30
0.0
 10
434.8899661204322
 20
166.7441374249374
 30
0.0
 10
432.8840458908562
 20
166.6929270093933
 30
0.0
 10
431.0515433419086
 20
166.644222474737
 30
0.0
 10
428.5854081049901
 20
166.5786771530238
 30
0.0
 10
426.6288144965765
 20
166.5097587232658
 30
0.0
 10
425.373287531449
 20
166.4442134015526
 30
0.0
 10
424.1177605663206
 20
166.3786680798384
 30
0.0
 10
423.6861999715966
 20
166.3097496500804
 30
0.0
 10
424.1208499051453
 20
166.2442043283672
 30
0.0
 10
424.2576692835637
 20
166.2235719309301
 30
0.0
 10
424.4805588677454
 20
166.2022959684336
 30
0.0
 10
424.7890868261038
 20
166.1805830113144
 30
0.0
  0
SPLINE
  5
207
330
70
100
AcDbEntity
  8
Front$1
 62
     7
370
    35
100
AcDbSpline
210
0.0
220
0.0
230
1.0
 70
     8
 71
     3
 72
    17
 73
    13
 74
     0
 42
0.0000000001
 43
0.0000000001
 40
0.0
 40
0.0
 40
0.0
 40
0.0
 40
1.0
 40
1.0
 40
1.0
 40
2.0
 40
2.0
 40
2.0
 40
3.0
 40
3.0
 40
3.0
 40
4.0
 40
4.0
 40
4.0
 40
4.0
 10
449.9608197161714
 20
173.2940713605403
 30
0.0
 10
449.9607980954251
 20
173.2772072834714
 30
0.0
 10
449.9066154487618
 20
173.2606583350989
 30
0.0
 10
449.7996100260498
 20
173.2445218898465
 30
0.0
 10
449.3649600925
 20
173.1789765681333
 30
0.0
 10
448.1066461945565
 20
173.1100581383753
 30
0.0
 10
446.1478408637376
 20
173.0445128166611
 30
0.0
 10
444.1890355329187
 20
172.9789674949479
 30
0.0
 10
441.7214802828048
 20
172.9100490651899
 30
0.0
 10
438.9867166137455
 20
172.8445037434767
 30
0.0
 10
438.3181428160023
 20
172.8284797319111
 30
0.0
 10
437.6412854704003
 20
172.8120484816609
 30
0.0
 10
436.960229965598
 20
172.7953053076126
 30
0.0
  0
SPLINE
  5
208
330
70
100
AcDbEntity
  8
Front$1
 62
     7
370
    35
100
AcDbSpline
210
0.0
220
0.0
230
1.0
 70
     8
 71
     3
 72
    20
 73
    16
 74
     0
 42
0.0000000001
 43
0.0000000001
 40
0.0
 40
0.0
 40
0.0
 40
0.0
 40
1.0
 40
1.0
 40
1.0
 40
2.0
 40
2.0
 40
2.0
 40
3.0
 40
3.0
 40
3.0
 40
4.0
 40
4.0
 40
4.0
 40
5.0
 40
5.0
 40
5.0
 40
5.0
 10
436.9602299655971
 20
168.1949152998895
 30
0.0
 10
437.64622181702
 20
168.2117828477849
 30
0.0
 10
438.3279442083803
 20
168.2283351750293
 30
0.0
 10
439.0012232762074
 20
168.2444748476437
 30
0.0
 10
441.7354976420665
 20
168.3100201693578
 30
0.0
 10
444.2016328789841
 20
168.3789385991158
 30
0.0
 10
446.1582264873977
 20
168.444483920829
 30
0.0
 10
448.1148200958114
 20
168.5100292425431
 30
0.0
 10
449.3703470609388
 20
168.5789476723003
 30
0.0
 10
449.8019076556638
 20
168.6444929940144
 30
0.0
 10
450.2334682503878
 20
168.7100383157285
 30
0.0
 10
449.798818316839
 20
168.7789567454856
 30
0.0
 10
448.5405044188955
 20
168.8445020671997
 30
0.0
 10
448.4855809416085
 20
168.8473630202525
 30
0.0
 10
448.4291233173953
 20
168.850238671871
 30
0.0
 10
448.371136323416
 20
168.85312851041
 30
0.0
  0
SPLINE
  5
209
330
70
100
AcDbEntity
  8
Front$1
 62
     7
370
    35
100
AcDbSpline
210
0.0
220
0.0
230
1.0
 70
     8
 71
     3
 72
    14
 73
    10
 74
     0
 42
0.0000000001
 43
0.0000000001
 40
0.0
 40
0.0
 40
0.0
 40
0.0
 40
1.0
 40
1.0
 40
1.0
 40
2.0
 40
2.0
 40
2.0
 40
3.0
 40
3.0
 40
3.0
 40
3.0
 10
423.9596402150237
 20
165.693545257739
 30
0.0
 10
423.959574953773
 20
165.744444133159
 30
0.0
 10
424.4448805381443
 20
165.7956580992258
 30
0.0
 10
425.3799555122996
 20
165.8443659694221
 30
0.0
 10
426.638269410243
 20
165.9099112911363
 30
0.0
 10
428.597074741061
 20
165.9788297208943
 30
0.0
 10
431.064629991175
 20
166.0443750426075
 30
0.0
 10
432.8936875333547
 20
166.0929600398549
 30
0.0
 10
434.8949860590027
 20
166.1440432060762
 30
0.0
 10
436.9602299655971
 20
166.1948245680378
 30
0.0
  0
SPLINE
  5
20A
330
70
100
AcDbEntity
  8
Front$1
 62
     7
370
    35
100
AcDbSpline
210
0.0
220
0.0
230
1.0
 70
     8
 71
     3
 72
    14
 73
    10
 74
     0
 42
0.0000000001
 43
0.0000000001
 40
0.0
 40
0.0
 40
0.0
 40
0.0
 40
1.0
 40
1.0
 40
1.0
 40
2.0
 40
2.0
 40
2.0
 40
3.0
 40
3.0
 40
3.0
 40
3.0
 10
423.9596402150237
 20
167.6936359895899
 30
0.0
 10
423.959574953773
 20
167.7445348650099
 30
0.0
 10
424.4448805381443
 20
167.7957488310776
 30
0.0
 10
425.3799555122996
 20
167.8444567012738
 30
0.0
 10
426.638269410243
 20
167.910002022988
 30
0.0
 10
428.597074741061
 20
167.9789204527451
 30
0.0
 10
431.064629991175
 20
168.0444657744592
 30
0.0
 10
432.8936875333547
 20
168.0930507717066
 30
0.0
 10
434.8949860590027
 20
168.1441339379271
 30
0.0
 10
436.9602299655971
 20
168.1949152998895
 30
0.0
  0
SPLINE
  5
20B
330
70
100
AcDbEntity
  8
Front$1
 62
     7
370
    35
100
AcDbSpline
210
0.0
220
0.0
230
1.0
 70
     8
 71
     3
 72
    14
 73
    10
 74
     0
 42
0.0000000001
 43
0.0000000001
 40
0.0
 40
0.0
 40
0.0
 40
0.0
 40
1.0
 40
1.0
 40
1.0
 40
2.0
 40
2.0
 40
2.0
 40
3.0
 40
3.0
 40
3.0
 40
3.0
 10
423.9596402150237
 20
175.693998916995
 30
0.0
 10
423.959574953773
 20
175.744897792415
 30
0.0
 10
424.4448805381443
 20
175.7961117584827
 30
0.0
 10
425.3799555122996
 20
175.844819628679
 30
0.0
 10
426.638269410243
 20
175.9103649503931
 30
0.0
 10
428.597074741061
 20
175.9792833801502
 30
0.0
 10
431.064629991175
 20
176.0448287018644
 30
0.0
 10
432.8936875333547
 20
176.0934136991118
 30
0.0
 10
434.8949860590027
 20
176.1444968653331
 30
0.0
 10
436.960229965598
 20
176.1952782272947
 30
0.0
  0
SPLINE
  5
20C
330
70
100
AcDbEntity
  8
Front$1
 62
     7
370
    35
100
AcDbSpline
210
0.0
220
0.0
230
1.0
 70
     8
 71
     3
 72
    17
 73
    13
 74
     0
 42
0.0000000001
 43
0.0000000001
 40
0.0
 40
0.0
 40
0.0
 40
0.0
 40
1.0
 40
1.0
 40
1.0
 40
2.0
 40
2.0
 40
2.0
 40
3.0
 40
3.0
 40
3.0
 40
4.0
 40
4.0
 40
4.0
 40
4.0
 10
436.9602299655971
 20
166.1948245680378
 30
0.0
 10
437.64622181702
 20
166.2116921159331
 30
0.0
 10
438.3279442083803
 20
166.2282444431785
 30
0.0
 10
439.0012232762074
 20
166.2443841157928
 30
0.0
 10
441.7354976420665
 20
166.3099294375069
 30
0.0
 10
444.2016328789841
 20
166.3788478672641
 30
0.0
 10
446.1582264873977
 20
166.4443931889782
 30
0.0
 10
448.1148200958114
 20
166.5099385106914
 30
0.0
 10
449.3703470609388
 20
166.5788569404494
 30
0.0
 10
449.8019076556638
 20
166.6444022621626
 30
0.0
 10
450.165048689305
 20
166.6995560370178
 30
0.0
 10
449.9121580753962
 20
166.757605900525
 30
0.0
 10
449.053210405771
 20
166.8144713841438
 30
0.0
  0
SPLINE
  5
20D
330
70
100
AcDbEntity
  8
Front$1
 62
     7
370
    35
100
AcDbSpline
210
0.0
220
0.0
230
1.0
 70
     8
 71
     3
 72
    17
 73
    13
 74
     0
 42
0.0000000001
 43
0.0000000001
 40
0.0
 40
0.0
 40
0.0
 40
0.0
 40
1.0
 40
1.0
 40
1.0
 40
2.0
 40
2.0
 40
2.0
 40
3.0
 40
3.0
 40
3.0
 40
4.0
 40
4.0
 40
4.0
 40
4.0
 10
449.9608197161714
 20
165.2937084331352
 30
0.0
 10
449.9607980954251
 20
165.2768443560662
 30
0.0
 10
449.9066154487618
 20
165.2602954076938
 30
0.0
 10
449.7996100260498
 20
165.2441589624413
 30
0.0
 10
449.3649600925
 20
165.1786136407272
 30
0.0
 10
448.1066461945565
 20
165.1096952109701
 30
0.0
 10
446.1478408637376
 20
165.044149889256
 30
0.0
 10
444.1890355329187
 20
164.9786045675428
 30
0.0
 10
441.7214802828048
 20
164.9096861377848
 30
0.0
 10
438.9867166137455
 20
164.8441408160706
 30
0.0
 10
438.3181428160023
 20
164.828116804505
 30
0.0
 10
437.6412854704003
 20
164.8116855542557
 30
0.0
 10
436.9602299655971
 20
164.7949423802074
 30
0.0
  0
SPLINE
  5
20E
330
70
100
AcDbEntity
  8
Front$1
 62
     7
370
    35
100
AcDbSpline
210
0.0
220
0.0
230
1.0
 70
     8
 71
     3
 72
    17
 73
    13
 74
     0
 42
0.0000000001
 43
0.0000000001
 40
0.0
 40
0.0
 40
0.0
 40
0.0
 40
1.0
 40
1.0
 40
1.0
 40
2.0
 40
2.0
 40
2.0
 40
3.0
 40
3.0
 40
3.0
 40
4.0
 40
4.0
 40
4.0
 40
4.0
 10
436.9602299655971
 20
168.79512384391
 30
0.0
 10
434.8899661204322
 20
168.7442281567891
 30
0.0
 10
432.8840458908562
 20
168.6930177412441
 30
0.0
 10
431.0515433419086
 20
168.6443132065887
 30
0.0
 10
428.5854081049901
 20
168.5787678848746
 30
0.0
 10
426.6288144965765
 20
168.5098494551175
 30
0.0
 10
425.373287531449
 20
168.4443041334034
 30
0.0
 10
424.1177605663206
 20
168.3787588116893
 30
0.0
 10
423.6861999715966
 20
168.3098403819322
 30
0.0
 10
424.1208499051453
 20
168.244295060218
 30
0.0
 10
424.2751051961004
 20
168.2210333226885
 30
0.0
 10
424.538519402331
 20
168.1969765236854
 30
0.0
 10
424.9101518338602
 20
168.1724229109695
 30
0.0
  0
SPLINE
  5
20F
330
70
100
AcDbEntity
  8
Front$1
 62
     7
370
    35
100
AcDbSpline
210
0.0
220
0.0
230
1.0
 70
     8
 71
     3
 72
    17
 73
    13
 74
     0
 42
0.0000000001
 43
0.0000000001
 40
0.0
 40
0.0
 40
0.0
 40
0.0
 40
1.0
 40
1.0
 40
1.0
 40
2.0
 40
2.0
 40
2.0
 40
3.0
 40
3.0
 40
3.0
 40
4.0
 40
4.0
 40
4.0
 40
4.0
 10
436.9602299655971
 20
170.7952145757617
 30
0.0
 10
434.8899661204322
 20
170.74431888864
 30
0.0
 10
432.8840458908562
 20
170.6931084730959
 30
0.0
 10
431.0515433419086
 20
170.6444039384396
 30
0.0
 10
428.5854081049901
 20
170.5788586167264
 30
0.0
 10
426.6288144965765
 20
170.5099401869684
 30
0.0
 10
425.373287531449
 20
170.4443948652551
 30
0.0
 10
424.1177605663206
 20
170.378849543541
 30
0.0
 10
423.6861999715966
 20
170.309931113783
 30
0.0
 10
424.1208499051453
 20
170.2443857920698
 30
0.0
 10
424.2518341487802
 20
170.2246333344574
 30
0.0
 10
424.461761208473
 20
170.2042854969322
 30
0.0
 10
424.7503184457036
 20
170.1835230458182
 30
0.0
  0
SPLINE
  5
210
330
70
100
AcDbEntity
  8
Front$1
 62
     7
370
    35
100
AcDbSpline
210
0.0
220
0.0
230
1.0
 70
     8
 71
     3
 72
    17
 73
    13
 74
     0
 42
0.0000000001
 43
0.0000000001
 40
0.0
 40
0.0
 40
0.0
 40
0.0
 40
1.0
 40
1.0
 40
1.0
 40
2.0
 40
2.0
 40
2.0
 40
3.0
 40
3.0
 40
3.0
 40
4.0
 40
4.0
 40
4.0
 40
4.0
 10
449.9608197161714
 20
167.293799164986
 30
0.0
 10
449.9607980954251
 20
167.276935087917
 30
0.0
 10
449.9066154487618
 20
167.2603861395455
 30
0.0
 10
449.7996100260498
 20
167.2442496942931
 30
0.0
 10
449.3649600925
 20
167.178704372579
 30
0.0
 10
448.1066461945565
 20
167.1097859428209
 30
0.0
 10
446.1478408637376
 20
167.0442406211077
 30
0.0
 10
444.1890355329187
 20
166.9786952993936
 30
0.0
 10
441.7214802828048
 20
166.9097768696365
 30
0.0
 10
438.9867166137455
 20
166.8442315479224
 30
0.0
 10
438.3181428160023
 20
166.8282075363568
 30
0.0
 10
437.6412854704003
 20
166.8117762861065
 30
0.0
 10
436.9602299655971
 20
166.7950331120591
 30
0.0
  0
SPLINE
  5
211
330
70
100
AcDbEntity
  8
Front$1
 62
     7
370
    35
100
AcDbSpline
210
0.0
220
0.0
230
1.0
 70
     8
 71
     3
 72
    56
 73
    52
 74
     0
 42
0.0000000001
 43
0.0000000001
 40
0.0
 40
0.0
 40
0.0
 40
0.0
 40
1.0
 40
1.0
 40
1.0
 40
2.0
 40
2.0
 40
2.0
 40
3.0
 40
3.0
 40
3.0
 40
4.0
 40
4.0
 40
4.0
 40
5.0
 40
5.0
 40
5.0
 40
6.0
 40
6.0
 40
6.0
 40
7.0
 40
7.0
 40
7.0
 40
8.0
 40
8.0
 40
8.0
 40
9.0
 40
9.0
 40
9.0
 40
10.0
 40
10.0
 40
10.0
 40
11.0
 40
11.0
 40
11.0
 40
12.0
 40
12.0
 40
12.0
 40
13.0
 40
13.0
 40
13.0
 40
14.0
 40
14.0
 40
14.0
 40
15.0
 40
15.0
 40
15.0
 40
16.0
 40
16.0
 40
16.0
 40
17.0
 40
17.0
 40
17.0
 40
17.0
 10
415.0503337477576
 20
47.73457757243704
 30
0.0
 10
414.9839992692887
 20
47.73457757243704
 30
0.0
 10
414.9184038460307
 20
47.73859298360003
 30
0.0
 10
414.8535687389666
 20
47.74688310677811
 30
0.0
 10
414.7887336319026
 20
47.75517322995802
 30
0.0
 10
414.7246582088063
 20
47.76772881495344
 30
0.0
 10
414.6613926428608
 20
47.78517801989801
 30
0.0
 10
414.6297598598875
 20
47.79390262237029
 30
0.0
 10
414.5983816119414
 20
47.80384721687005
 30
0.0
 10
414.5674045836285
 20
47.81506645622721
 30
0.0
 10
414.5364275553147
 20
47.82628569558437
 30
0.0
 10
414.5057846314503
 20
47.83880816752571
 30
0.0
 10
414.4757579582292
 20
47.852623363362
 30
0.0
 10
414.4157046117871
 20
47.88025375503639
 30
0.0
 10
414.3578786117968
 20
47.91307230287566
 30
0.0
 10
414.3025861863561
 20
47.95215901168012
 30
0.0
 10
414.2749399736358
 20
47.97170236608326
 30
0.0
 10
414.2479305252145
 20
47.99282317348479
 30
0.0
 10
414.2216285275399
 20
48.01575667894394
 30
0.0
 10
414.208477528703
 20
48.0272234316726
 30
0.0
 10
414.1955268499677
 20
48.03912874921843
 30
0.0
 10
414.182901518875
 20
48.05138384642305
 30
0.0
 10
414.1702761877822
 20
48.06363894362767
 30
0.0
 10
414.1579429893372
 20
48.07627213300111
 30
0.0
 10
414.145910911333
 20
48.08929947904835
 30
0.0
 10
414.1218467553235
 20
48.11535417113919
 30
0.0
 10
414.0989834463661
 20
48.142980268678
 30
0.0
 10
414.0774295178398
 20
48.17235876507766
 30
0.0
 10
414.0558755893144
 20
48.2017372614755
 30
0.0
 10
414.0356285209491
 20
48.2328645175985
 30
0.0
 10
414.0168703508752
 20
48.26602722683128
 30
0.0
 10
414.0074912658392
 20
48.28260858144858
 30
0.0
 10
413.9984857419103
 20
48.29970072326614
 30
0.0
 10
413.9898875858525
 20
48.31735538745125
 30
0.0
 10
413.9812894297947
 20
48.33501005163634
 30
0.0
 10
413.9732107378695
 20
48.35299908900925
 30
0.0
 10
413.9656689476232
 20
48.37132092183129
 30
0.0
 10
413.9505853671307
 20
48.407964587479
 30
0.0
 10
413.9376332528945
 20
48.44594915764719
 30
0.0
 10
413.9269972888159
 20
48.48540824124211
 30
0.0
 10
413.9216793067771
 20
48.50513778304048
 30
0.0
 10
413.91694234449
 20
48.52523717446456
 30
0.0
 10
413.9128247384442
 20
48.54573256673575
 30
0.0
 10
413.9087071323975
 20
48.56622795900512
 30
0.0
 10
413.9052471580744
 20
48.58693433874759
 30
0.0
 10
413.9024641663946
 20
48.6078221356638
 30
0.0
 10
413.8996811747138
 20
48.62870993258002
 30
0.0
 10
413.8975727290808
 20
48.64982398347092
 30
0.0
 10
413.8961686220354
 20
48.67097361598098
 30
0.0
 10
413.8947645149901
 20
48.69212324848922
 30
0.0
 10
413.8940584055007
 20
48.71333941762713
 30
0.0
 10
413.8940584055007
 20
48.73462293836382
 30
0.0
  0
SPLINE
  5
212
330
70
100
AcDbEntity
  8
Front$1
 62
     7
370
    35
100
AcDbSpline
210
0.0
220
0.0
230
1.0
 70
     8
 71
     3
 72
    56
 73
    52
 74
     0
 42
0.0000000001
 43
0.0000000001
 40
0.0
 40
0.0
 40
0.0
 40
0.0
 40
1.0
 40
1.0
 40
1.0
 40
2.0
 40
2.0
 40
2.0
 40
3.0
 40
3.0
 40
3.0
 40
4.0
 40
4.0
 40
4.0
 40
5.0
 40
5.0
 40
5.0
 40
6.0
 40
6.0
 40
6.0
 40
7.0
 40
7.0
 40
7.0
 40
8.0
 40
8.0
 40
8.0
 40
9.0
 40
9.0
 40
9.0
 40
10.0
 40
10.0
 40
10.0
 40
11.0
 40
11.0
 40
11.0
 40
12.0
 40
12.0
 40
12.0
 40
13.0
 40
13.0
 40
13.0
 40
14.0
 40
14.0
 40
14.0
 40
15.0
 40
15.0
 40
15.0
 40
16.0
 40
16.0
 40
16.0
 40
17.0
 40
17.0
 40
17.0
 40
17.0
 10
458.8701261834375
 20
56.73498586576897
 30
0.0
 10
458.9364606619056
 20
56.73498586576897
 30
0.0
 10
459.0020560851644
 20
56.730970454606
 30
0.0
 10
459.0668911922275
 20
56.72268033142791
 30
0.0
 10
459.1317262992925
 20
56.714390208248
 30
0.0
 10
459.1958017223878
 20
56.70183462325258
 30
0.0
 10
459.2590672883343
 20
56.68438541830801
 30
0.0
 10
459.2907000713076
 20
56.67566081583572
 30
0.0
 10
459.3220783192537
 20
56.66571622133597
 30
0.0
 10
459.3530553475666
 20
56.65449698197881
 30
0.0
 10
459.3840323758795
 20
56.64327774262165
 30
0.0
 10
459.4146752997439
 20
56.63075527068031
 30
0.0
 10
459.444701972965
 20
56.61694007484403
 30
0.0
 10
459.5047553194071
 20
56.58930968316963
 30
0.0
 10
459.5625813193983
 20
56.55649113533036
 30
0.0
 10
459.617873744839
 20
56.5174044265259
 30
0.0
 10
459.6455199575594
 20
56.49786107212276
 30
0.0
 10
459.6725294059797
 20
56.47674026472123
 30
0.0
 10
459.6988314036552
 20
56.45380675926208
 30
0.0
 10
459.7119824024921
 20
56.44234000653341
 30
0.0
 10
459.7249330812265
 20
56.43043468898759
 30
0.0
 10
459.7375584123201
 20
56.41817959178297
 30
0.0
 10
459.7501837434119
 20
56.40592449457836
 30
0.0
 10
459.762516941857
 20
56.39329130520309
 30
0.0
 10
459.7745490198613
 20
56.38026395915767
 30
0.0
 10
459.7986131758716
 20
56.35420926706683
 30
0.0
 10
459.821476484829
 20
56.3265831695262
 30
0.0
 10
459.8430304133544
 20
56.29720467312836
 30
0.0
 10
459.8645843418816
 20
56.26782617673052
 30
0.0
 10
459.8848314102451
 20
56.23669892060752
 30
0.0
 10
459.903589580319
 20
56.20353621137474
 30
0.0
 10
459.9129686653559
 20
56.18695485675743
 30
0.0
 10
459.9219741892848
 20
56.16986271493988
 30
0.0
 10
459.9305723453417
 20
56.15220805075478
 30
0.0
 10
459.9391705014004
 20
56.13455338656968
 30
0.0
 10
459.9472491933247
 20
56.11656434919678
 30
0.0
 10
459.954790983571
 20
56.09824251637474
 30
0.0
 10
459.9698745640635
 20
56.06159885072703
 30
0.0
 10
459.9828266783005
 20
56.02361428055883
 30
0.0
 10
459.9934626423783
 20
55.98415519696391
 30
0.0
 10
459.9987806244171
 20
55.96442565516554
 30
0.0
 10
460.0035175867051
 20
55.94432626374146
 30
0.0
 10
460.0076351927509
 20
55.92383087147027
 30
0.0
 10
460.0117527987968
 20
55.9033354792009
 30
0.0
 10
460.0152127731198
 20
55.88262909945843
 30
0.0
 10
460.0179957647997
 20
55.86174130254221
 30
0.0
 10
460.0207787564813
 20
55.840853505626
 30
0.0
 10
460.0228872021143
 20
55.8197394547351
 30
0.0
 10
460.0242913091587
 20
55.79858982222503
 30
0.0
 10
460.025695416205
 20
55.7774401897168
 30
0.0
 10
460.0264015256944
 20
55.75622402057888
 30
0.0
 10
460.0264015256944
 20
55.73494049984219
 30
0.0
  0
SPLINE
  5
213
330
70
100
AcDbEntity
  8
Front$1
 62
     7
370
    35
100
AcDbSpline
210
0.0
220
0.0
230
1.0
 70
     8
 71
     3
 72
    53
 73
    49
 74
     0
 42
0.0000000001
 43
0.0000000001
 40
0.0
 40
0.0
 40
0.0
 40
0.0
 40
1.0
 40
1.0
 40
1.0
 40
2.0
 40
2.0
 40
2.0
 40
3.0
 40
3.0
 40
3.0
 40
4.0
 40
4.0
 40
4.0
 40
5.0
 40
5.0
 40
5.0
 40
6.0
 40
6.0
 40
6.0
 40
7.0
 40
7.0
 40
7.0
 40
8.0
 40
8.0
 40
8.0
 40
9.0
 40
9.0
 40
9.0
 40
10.0
 40
10.0
 40
10.0
 40
11.0
 40
11.0
 40
11.0
 40
12.0
 40
12.0
 40
12.0
 40
13.0
 40
13.0
 40
13.0
 40
14.0
 40
14.0
 40
14.0
 40
15.0
 40
15.0
 40
15.0
 40
16.0
 40
16.0
 40
16.0
 40
16.0
 10
413.8940584055007
 20
55.73494049984219
 30
0.0
 10
413.8940584055007
 20
55.7775549240032
 30
0.0
 10
413.896877229823
 20
55.81946726848037
 30
0.0
 10
413.9023293576746
 20
55.8607253432674
 30
0.0
 10
413.905055421601
 20
55.88135438066093
 30
0.0
 10
413.9084426479358
 20
55.90181919281349
 30
0.0
 10
413.9124830882837
 20
55.9221222372289
 30
0.0
 10
413.9165235286318
 20
55.9424252816425
 30
0.0
 10
413.9212249765424
 20
55.96259534190358
 30
0.0
 10
413.9265645429222
 20
55.98254410354456
 30
0.0
 10
413.937243675682
 20
56.02244162682291
 30
0.0
 10
413.9501871861702
 20
56.06046696253907
 30
0.0
 10
413.9651083022445
 20
56.09687746989584
 30
0.0
 10
413.9800294183178
 20
56.1332879772508
 30
0.0
 10
413.9969327494172
 20
56.16807983644503
 30
0.0
 10
414.0156660469801
 20
56.20140063362123
 30
0.0
 10
414.025032695762
 20
56.21806103220842
 30
0.0
 10
414.0348680015904
 20
56.23436696144199
 30
0.0
 10
414.0451316217404
 20
56.250284079033
 30
0.0
 10
414.0553952418895
 20
56.26620119662402
 30
0.0
 10
414.0660594250467
 20
56.28168442850437
 30
0.0
 10
414.0770340252839
 20
56.29666520883984
 30
0.0
 10
414.0989832257573
 20
56.32662676951077
 30
0.0
 10
414.1221052481396
 20
56.35451654858844
 30
0.0
 10
414.1462556079213
 20
56.38063697126745
 30
0.0
 10
414.1945563274857
 20
56.43287781662184
 30
0.0
 10
414.2469427522801
 20
56.47809467904335
 30
0.0
 10
414.3028395534056
 20
56.51758347694704
 30
0.0
 10
414.3168137536868
 20
56.52745567642341
 30
0.0
 10
414.3309588674883
 20
56.53692763464824
 30
0.0
 10
414.3452037775059
 20
56.54598375389468
 30
0.0
 10
414.3594486875226
 20
56.55503987314114
 30
0.0
 10
414.3738134877566
 20
56.56369375239592
 30
0.0
 10
414.3882926213591
 20
56.57197181570882
 30
0.0
 10
414.4172508885649
 20
56.58852794233644
 30
0.0
 10
414.4466664892442
 20
56.60358080519836
 30
0.0
 10
414.4765076732883
 20
56.61728469055742
 30
0.0
 10
414.5361900413754
 20
56.64469246127556
 30
0.0
 10
414.5975681807476
 20
56.66673345936397
 30
0.0
 10
414.6605004287912
 20
56.68413899568804
 30
0.0
 10
414.6919665528129
 20
56.6928417638519
 30
0.0
 10
414.7238603376481
 20
56.70038448188643
 30
0.0
 10
414.7560548004912
 20
56.70679394313447
 30
0.0
 10
414.7882492633343
 20
56.71320340438069
 30
0.0
 10
414.8206156345641
 20
56.71845720856254
 30
0.0
 10
414.8531492800357
 20
56.72262663604669
 30
0.0
 10
414.918216570978
 20
56.73096549101501
 30
0.0
 10
414.9839518252738
 20
56.73498586576897
 30
0.0
 10
415.0503337477576
 20
56.73498586576897
 30
0.0
  0
SPLINE
  5
214
330
70
100
AcDbEntity
  8
Front$1
 62
     7
370
    35
100
AcDbSpline
210
0.0
220
0.0
230
1.0
 70
     8
 71
     3
 72
    53
 73
    49
 74
     0
 42
0.0000000001
 43
0.0000000001
 40
0.0
 40
0.0
 40
0.0
 40
0.0
 40
1.0
 40
1.0
 40
1.0
 40
2.0
 40
2.0
 40
2.0
 40
3.0
 40
3.0
 40
3.0
 40
4.0
 40
4.0
 40
4.0
 40
5.0
 40
5.0
 40
5.0
 40
6.0
 40
6.0
 40
6.0
 40
7.0
 40
7.0
 40
7.0
 40
8.0
 40
8.0
 40
8.0
 40
9.0
 40
9.0
 40
9.0
 40
10.0
 40
10.0
 40
10.0
 40
11.0
 40
11.0
 40
11.0
 40
12.0
 40
12.0
 40
12.0
 40
13.0
 40
13.0
 40
13.0
 40
14.0
 40
14.0
 40
14.0
 40
15.0
 40
15.0
 40
15.0
 40
16.0
 40
16.0
 40
16.0
 40
16.0
 10
460.0264015256944
 20
48.73462293836382
 30
0.0
 10
460.0264015256944
 20
48.69200851420282
 30
0.0
 10
460.0235827013712
 20
48.65009616972566
 30
0.0
 10
460.0181305735204
 20
48.60883809493862
 30
0.0
 10
460.0154045095933
 20
48.5882090575451
 30
0.0
 10
460.0120172832594
 20
48.56774424539253
 30
0.0
 10
460.0079768429114
 20
48.54744120097712
 30
0.0
 10
460.0039364025633
 20
48.52713815656352
 30
0.0
 10
459.9992349546519
 20
48.50696809630244
 30
0.0
 10
459.993895388272
 20
48.48701933466145
 30
0.0
 10
459.9832162555121
 20
48.44712181138311
 30
0.0
 10
459.970272745024
 20
48.40909647566696
 30
0.0
 10
459.9553516289506
 20
48.37268596831018
 30
0.0
 10
459.9404305128773
 20
48.33627546095522
 30
0.0
 10
459.9235271817779
 20
48.30148360176099
 30
0.0
 10
459.904793884214
 20
48.26816280458479
 30
0.0
 10
459.8954272354331
 20
48.2515024059976
 30
0.0
 10
459.8855919296038
 20
48.23519647676403
 30
0.0
 10
459.8753283094538
 20
48.21927935917301
 30
0.0
 10
459.8650646893056
 20
48.203362241582
 30
0.0
 10
459.8544005061484
 20
48.18787900970164
 30
0.0
 10
459.8434259059104
 20
48.17289822936619
 30
0.0
 10
459.8214767054378
 20
48.14293666869525
 30
0.0
 10
459.7983546830564
 20
48.11504688961758
 30
0.0
 10
459.7742043232738
 20
48.08892646693857
 30
0.0
 10
459.7259036037085
 20
48.03668562158418
 30
0.0
 10
459.673517178915
 20
47.99146875916266
 30
0.0
 10
459.6176203777885
 20
47.95197996125899
 30
0.0
 10
459.6036461775074
 20
47.9421077617826
 30
0.0
 10
459.5895010637068
 20
47.93263580355779
 30
0.0
 10
459.5752561536901
 20
47.92357968431133
 30
0.0
 10
459.5610112436715
 20
47.91452356506488
 30
0.0
 10
459.5466464434375
 20
47.9058696858101
 30
0.0
 10
459.5321673098351
 20
47.8975916224972
 30
0.0
 10
459.5032090426302
 20
47.88103549586958
 30
0.0
 10
459.4737934419499
 20
47.86598263300766
 30
0.0
 10
459.4439522579068
 20
47.85227874764859
 30
0.0
 10
459.3842698898188
 20
47.82487097693047
 30
0.0
 10
459.3228917504474
 20
47.80282997884206
 30
0.0
 10
459.2599595024039
 20
47.78542444251797
 30
0.0
 10
459.2284933783812
 20
47.77672167435412
 30
0.0
 10
459.1965995935479
 20
47.76917895631959
 30
0.0
 10
459.1644051307048
 20
47.76276949507155
 30
0.0
 10
459.1322106678599
 20
47.75636003382532
 30
0.0
 10
459.0998442966301
 20
47.75110622964348
 30
0.0
 10
459.0673106511585
 20
47.74693680215932
 30
0.0
 10
459.0022433602171
 20
47.73859794718918
 30
0.0
 10
458.9365081059204
 20
47.73457757243704
 30
0.0
 10
458.8701261834375
 20
47.73457757243704
 30
0.0
  0
SPLINE
  5
215
330
70
100
AcDbEntity
  8
Front$1
 62
     7
370
    35
100
AcDbSpline
210
0.0
220
0.0
230
1.0
 70
     8
 71
     3
 72
   155
 73
   151
 74
     0
 42
0.0000000001
 43
0.0000000001
 40
0.0
 40
0.0
 40
0.0
 40
0.0
 40
1.0
 40
1.0
 40
1.0
 40
2.0
 40
2.0
 40
2.0
 40
3.0
 40
3.0
 40
3.0
 40
4.0
 40
4.0
 40
4.0
 40
5.0
 40
5.0
 40
5.0
 40
6.0
 40
6.0
 40
6.0
 40
7.0
 40
7.0
 40
7.0
 40
8.0
 40
8.0
 40
8.0
 40
9.0
 40
9.0
 40
9.0
 40
10.0
 40
10.0
 40
10.0
 40
11.0
 40
11.0
 40
11.0
 40
12.0
 40
12.0
 40
12.0
 40
13.0
 40
13.0
 40
13.0
 40
14.0
 40
14.0
 40
14.0
 40
15.0
 40
15.0
 40
15.0
 40
16.0
 40
16.0
 40
16.0
 40
17.0
 40
17.0
 40
17.0
 40
18.0
 40
18.0
 40
18.0
 40
19.0
 40
19.0
 40
19.0
 40
20.0
 40
20.0
 40
20.0
 40
21.0
 40
21.0
 40
21.0
 40
22.0
 40
22.0
 40
22.0
 40
23.0
 40
23.0
 40
23.0
 40
24.0
 40
24.0
 40
24.0
 40
25.0
 40
25.0
 40
25.0
 40
26.0
 40
26.0
 40
26.0
 40
27.0
 40
27.0
 40
27.0
 40
28.0
 40
28.0
 40
28.0
 40
29.0
 40
29.0
 40
29.0
 40
30.0
 40
30.0
 40
30.0
 40
31.0
 40
31.0
 40
31.0
 40
32.0
 40
32.0
 40
32.0
 40
33.0
 40
33.0
 40
33.0
 40
34.0
 40
34.0
 40
34.0
 40
35.0
 40
35.0
 40
35.0
 40
36.0
 40
36.0
 40
36.0
 40
37.0
 40
37.0
 40
37.0
 40
38.0
 40
38.0
 40
38.0
 40
39.0
 40
39.0
 40
39.0
 40
40.0
 40
40.0
 40
40.0
 40
41.0
 40
41.0
 40
41.0
 40
42.0
 40
42.0
 40
42.0
 40
43.0
 40
43.0
 40
43.0
 40
44.0
 40
44.0
 40
44.0
 40
45.0
 40
45.0
 40
45.0
 40
46.0
 40
46.0
 40
46.0
 40
47.0
 40
47.0
 40
47.0
 40
48.0
 40
48.0
 40
48.0
 40
49.0
 40
49.0
 40
49.0
 40
50.0
 40
50.0
 40
50.0
 40
50.0
 10
419.4594360618984
 20
47.73457757243704
 30
0.0
 10
419.6917462188175
 20
47.73457757243704
 30
0.0
 10
419.9285661907915
 20
47.75243972857424
 30
0.0
 10
420.1697090426214
 20
47.79098270761278
 30
0.0
 10
420.2902804685363
 20
47.81025419713114
 30
0.0
 10
420.4119313392429
 20
47.83471857468248
 30
0.0
 10
420.5346269151796
 20
47.86490735126608
 30
0.0
 10
420.565300809164
 20
47.87245454541152
 30
0.0
 10
420.5960348225008
 20
47.88035958466207
 30
0.0
 10
420.6267504175057
 20
47.88860931607269
 30
0.0
 10
420.6574660125097
 20
47.8968590474833
 30
0.0
 10
420.6881833440566
 20
47.90545839423794
 30
0.0
 10
420.7189001471443
 20
47.91441285845758
 30
0.0
 10
420.7803337533196
 20
47.93232178689686
 30
0.0
 10
420.8417652456573
 20
47.95165118519617
 30
0.0
 10
420.9031746510045
 20
47.97245181070866
 30
0.0
 10
421.0259934616987
 20
48.01405306173364
 30
0.0
 10
421.1487266115018
 20
48.0615297614895
 30
0.0
 10
421.2711860780273
 20
48.11538865206967
 30
0.0
 10
421.3936455445527
 20
48.16924754264983
 30
0.0
 10
421.5158325374195
 20
48.22948460295629
 30
0.0
 10
421.6375086387361
 20
48.29678258100102
 30
0.0
 10
421.6983466893934
 20
48.33043157002248
 30
0.0
 10
421.7590945987312
 20
48.36587264374611
 30
0.0
 10
421.8195973350948
 20
48.40314027891508
 30
0.0
 10
421.8801000714575
 20
48.44040791408224
 30
0.0
 10
421.9400427913351
 20
48.47930637917489
 30
0.0
 10
421.9993833828848
 20
48.51987862907662
 30
0.0
 10
422.1180645659824
 20
48.60102312888193
 30
0.0
 10
422.2343436076489
 20
48.68885134730044
 30
0.0
 10
422.3478176851531
 20
48.78382692946615
 30
0.0
 10
422.4612917626563
 20
48.8788025116337
 30
0.0
 10
422.5719641354417
 20
48.98091999107965
 30
0.0
 10
422.6793100931163
 20
49.09085923520615
 30
0.0
 10
422.7061465825345
 20
49.11834404623732
 30
0.0
 10
422.7327744258418
 20
49.14631902637302
 30
0.0
 10
422.7591837822001
 20
49.17479767600162
 30
0.0
 10
422.7855931385583
 20
49.20327632563203
 30
0.0
 10
422.8118217807905
 20
49.23230221325866
 30
0.0
 10
422.8377124324533
 20
49.26172165818752
 30
0.0
 10
422.8894937357799
 20
49.32056054804343
 30
0.0
 10
422.9399064205645
 20
49.38094202944921
 30
0.0
 10
422.9889038903839
 20
49.44288376084114
 30
0.0
 10
423.0868988300235
 20
49.56676722362499
 30
0.0
 10
423.179245234739
 20
49.69687862598584
 30
0.0
 10
423.2654417976745
 20
49.8334992074233
 30
0.0
 10
423.3516383606111
 20
49.97011978885893
 30
0.0
 10
423.4316915418121
 20
50.11324358738057
 30
0.0
 10
423.5048632778207
 20
50.26339743329299
 30
0.0
 10
423.5231562118224
 20
50.3009358947711
 30
0.0
 10
423.541040755982
 20
50.33897012551642
 30
0.0
 10
423.5583632767502
 20
50.37719375375309
 30
0.0
 10
423.5756857975174
 20
50.41541738198976
 30
0.0
 10
423.5924717283414
 20
50.45387934299288
 30
0.0
 10
423.6087207617738
 20
50.49257835371463
 30
0.0
 10
423.6412188286367
 20
50.56997637515815
 30
0.0
 10
423.6715693059314
 20
50.6483225954762
 30
0.0
 10
423.6997528987976
 20
50.7276153432922
 30
0.0
 10
423.7561200845293
 20
50.88620083892419
 30
0.0
 10
423.8038408462216
 20
51.04856215842665
 30
0.0
 10
423.8425262689288
 20
51.21480250426611
 30
0.0
 10
423.8618689802824
 20
51.29792267718404
 30
0.0
 10
423.8789478504576
 20
51.3820150679312
 30
0.0
 10
423.8936796687994
 20
51.46710926530431
 30
0.0
 10
423.9010455779707
 20
51.50965636399087
 30
0.0
 10
423.9078243262293
 20
51.55245410405587
 30
0.0
 10
423.9140029019436
 20
51.5955074202011
 30
0.0
 10
423.920181477657
 20
51.63856073634633
 30
0.0
 10
423.9257259407258
 20
51.68163639418708
 30
0.0
 10
423.9306375794167
 20
51.72468922611187
 30
0.0
 10
423.95028413418
 20
51.89690055381652
 30
0.0
 10
423.9598718009164
 20
52.06898496878238
 30
0.0
 10
423.9596361227158
 20
52.24094584375416
 30
0.0
 10
423.9594004445152
 20
52.41290671872412
 30
0.0
 10
423.9493414213784
 20
52.58474405369816
 30
0.0
 10
423.929301148857
 20
52.75645543518658
 30
0.0
 10
423.924291080727
 20
52.79938328055869
 30
0.0
 10
423.9186552429946
 20
52.84230322525582
 30
0.0
 10
423.9123871826632
 20
52.88521517284607
 30
0.0
 10
423.9061191223318
 20
52.92812712043633
 30
0.0
 10
423.899208015784
 20
52.97108381852559
 30
0.0
 10
423.891705696812
 20
53.01377032305754
 30
0.0
 10
423.8767010588672
 20
53.09914333211782
 30
0.0
 10
423.8593086678601
 20
53.1836472185405
 30
0.0
 10
423.8395896829733
 20
53.26729905333923
 30
0.0
 10
423.8198706980856
 20
53.35095088813796
 30
0.0
 10
423.7978251193189
 20
53.43375067131091
 30
0.0
 10
423.7734910777907
 20
53.51570587045717
 30
0.0
 10
423.7613240570262
 20
53.55668347002938
 30
0.0
 10
423.7485845754772
 20
53.59744977875561
 30
0.0
 10
423.7352754071198
 20
53.63800488578817
 30
0.0
 10
423.7219662387624
 20
53.67855999282074
 30
0.0
 10
423.7080694432052
 20
53.71895326817685
 30
0.0
 10
423.6936459074904
 20
53.75902065875743
 30
0.0
 10
423.6359517646296
 20
53.91929022107979
 30
0.0
 10
423.5703998925355
 20
54.07295032756337
 30
0.0
 10
423.4978262635813
 20
54.2205415083572
 30
0.0
 10
423.4252526346272
 20
54.36813268915102
 30
0.0
 10
423.3456489974687
 20
54.50964835696504
 30
0.0
 10
423.2595559403635
 20
54.64536801105714
 30
0.0
 10
423.1734628832591
 20
54.78108766514742
 30
0.0
 10
423.0808761224753
 20
54.91100814802848
 30
0.0
 10
422.9821323223959
 20
55.03521890246156
 30
0.0
 10
422.9574463723765
 20
55.0662715910712
 30
0.0
 10
422.9323344728173
 20
55.09701297607171
 30
0.0
 10
422.9069992251324
 20
55.12721073243665
 30
0.0
 10
422.8816639774485
 20
55.1574084888016
 30
0.0
 10
422.8560824129308
 20
55.18709392370329
 30
0.0
 10
422.8302657466365
 20
55.21628188756768
 30
0.0
 10
422.7786324140479
 20
55.27465781529645
 30
0.0
 10
422.7260586743541
 20
55.331043858876
 30
0.0
 10
422.672622299151
 20
55.3855390195622
 30
0.0
 10
422.565749548743
 20
55.49452934093642
 30
0.0
 10
422.4554343653217
 20
55.59596976967259
 30
0.0
 10
422.3421773320733
 20
55.69044954615129
 30
0.0
 10
422.228920298824
 20
55.78492932262998
 30
0.0
 10
422.1127184814895
 20
55.87244384675068
 30
0.0
 10
421.9939582499419
 20
55.95338826456828
 30
0.0
 10
421.964268192054
 20
55.97362436902404
 30
0.0
 10
421.9344177857428
 20
55.9934490654141
 30
0.0
 10
421.9044122329733
 20
56.01286706548489
 30
0.0
 10
421.8744066802036
 20
56.0322850655557
 30
0.0
 10
421.8442163179633
 20
56.0513137003145
 30
0.0
 10
421.8140158168953
 20
56.06985558267115
 30
0.0
 10
421.7536148147583
 20
56.10693934738447
 30
0.0
 10
421.6930661523047
 20
56.14215072509432
 30
0.0
 10
421.6324050995754
 20
56.17559926410104
 30
0.0
 10
421.5110829941168
 20
56.24249634211446
 30
0.0
 10
421.3893148077704
 20
56.30235457297931
 30
0.0
 10
421.2673317461885
 20
56.355867808521
 30
0.0
 10
421.1453486846067
 20
56.40938104406268
 30
0.0
 10
421.0231495573298
 20
56.4565451734743
 30
0.0
 10
420.9009163008358
 20
56.49787591022868
 30
0.0
 10
420.7786830443419
 20
56.53920664698489
 30
0.0
 10
420.6564149118912
 20
56.57470151152302
 30
0.0
 10
420.534258859252
 20
56.6047466292548
 30
0.0
 10
420.5037198460923
 20
56.61225790868775
 30
0.0
 10
420.4731876956502
 20
56.61942804002137
 30
0.0
 10
420.4426644359609
 20
56.62626203058244
 30
0.0
 10
420.4121411762708
 20
56.63309602114168
 30
0.0
 10
420.3816158422796
 20
56.63959568864084
 30
0.0
 10
420.3511785588116
 20
56.64574903714856
 30
0.0
 10
420.2903039918756
 20
56.65805573416219
 30
0.0
 10
420.2297098374847
 20
56.6689948273106
 30
0.0
 10
420.1693991801294
 20
56.67863024627149
 30
0.0
 10
420.0487778654196
 20
56.69790108419329
 30
0.0
 10
419.9292908772786
 20
56.71196414288897
 30
0.0
 10
419.8109579607017
 20
56.72123574386751
 30
0.0
 10
419.6926250441256
 20
56.73050734484604
 30
0.0
 10
419.5754460786629
 20
56.73498586576897
 30
0.0
 10
419.4594360618984
 20
56.73498586576897
 30
0.0
  0
SPLINE
  5
216
330
70
100
AcDbEntity
  8
Front$1
 62
     7
370
    35
100
AcDbSpline
210
0.0
220
0.0
230
1.0
 70
     8
 71
     3
 72
   155
 73
   151
 74
     0
 42
0.0000000001
 43
0.0000000001
 40
0.0
 40
0.0
 40
0.0
 40
0.0
 40
1.0
 40
1.0
 40
1.0
 40
2.0
 40
2.0
 40
2.0
 40
3.0
 40
3.0
 40
3.0
 40
4.0
 40
4.0
 40
4.0
 40
5.0
 40
5.0
 40
5.0
 40
6.0
 40
6.0
 40
6.0
 40
7.0
 40
7.0
 40
7.0
 40
8.0
 40
8.0
 40
8.0
 40
9.0
 40
9.0
 40
9.0
 40
10.0
 40
10.0
 40
10.0
 40
11.0
 40
11.0
 40
11.0
 40
12.0
 40
12.0
 40
12.0
 40
13.0
 40
13.0
 40
13.0
 40
14.0
 40
14.0
 40
14.0
 40
15.0
 40
15.0
 40
15.0
 40
16.0
 40
16.0
 40
16.0
 40
17.0
 40
17.0
 40
17.0
 40
18.0
 40
18.0
 40
18.0
 40
19.0
 40
19.0
 40
19.0
 40
20.0
 40
20.0
 40
20.0
 40
21.0
 40
21.0
 40
21.0
 40
22.0
 40
22.0
 40
22.0
 40
23.0
 40
23.0
 40
23.0
 40
24.0
 40
24.0
 40
24.0
 40
25.0
 40
25.0
 40
25.0
 40
26.0
 40
26.0
 40
26.0
 40
27.0
 40
27.0
 40
27.0
 40
28.0
 40
28.0
 40
28.0
 40
29.0
 40
29.0
 40
29.0
 40
30.0
 40
30.0
 40
30.0
 40
31.0
 40
31.0
 40
31.0
 40
32.0
 40
32.0
 40
32.0
 40
33.0
 40
33.0
 40
33.0
 40
34.0
 40
34.0
 40
34.0
 40
35.0
 40
35.0
 40
35.0
 40
36.0
 40
36.0
 40
36.0
 40
37.0
 40
37.0
 40
37.0
 40
38.0
 40
38.0
 40
38.0
 40
39.0
 40
39.0
 40
39.0
 40
40.0
 40
40.0
 40
40.0
 40
41.0
 40
41.0
 40
41.0
 40
42.0
 40
42.0
 40
42.0
 40
43.0
 40
43.0
 40
43.0
 40
44.0
 40
44.0
 40
44.0
 40
45.0
 40
45.0
 40
45.0
 40
46.0
 40
46.0
 40
46.0
 40
47.0
 40
47.0
 40
47.0
 40
48.0
 40
48.0
 40
48.0
 40
49.0
 40
49.0
 40
49.0
 40
50.0
 40
50.0
 40
50.0
 40
50.0
 10
454.4610238692967
 20
56.73498586576897
 30
0.0
 10
454.2287137123767
 20
56.73498586576897
 30
0.0
 10
453.9918937404036
 20
56.71712370963177
 30
0.0
 10
453.7507508885737
 20
56.67858073059324
 30
0.0
 10
453.6301794626597
 20
56.65930924107488
 30
0.0
 10
453.5085285919522
 20
56.63484486352354
 30
0.0
 10
453.3858330160146
 20
56.60465608693994
 30
0.0
 10
453.3551591220311
 20
56.59710889279449
 30
0.0
 10
453.3244251086943
 20
56.58920385354395
 30
0.0
 10
453.2937095136894
 20
56.58095412213334
 30
0.0
 10
453.2629939186845
 20
56.57270439072272
 30
0.0
 10
453.2322765871376
 20
56.56410504396808
 30
0.0
 10
453.2015597840509
 20
56.55515057974844
 30
0.0
 10
453.1401261778755
 20
56.53724165130916
 30
0.0
 10
453.0786946855369
 20
56.51791225300986
 30
0.0
 10
453.0172852801897
 20
56.49711162749736
 30
0.0
 10
452.8944664694972
 20
56.45551037647237
 30
0.0
 10
452.7717333196924
 20
56.40803367671651
 30
0.0
 10
452.6492738531669
 20
56.35417478613636
 30
0.0
 10
452.5268143866415
 20
56.3003158955562
 30
0.0
 10
452.4046273937747
 20
56.24007883524973
 30
0.0
 10
452.28295129246
 20
56.17278085720499
 30
0.0
 10
452.2221132418017
 20
56.13913186818354
 30
0.0
 10
452.1613653324639
 20
56.10369079445991
 30
0.0
 10
452.1008625961003
 20
56.06642315929093
 30
0.0
 10
452.0403598597368
 20
56.02915552412378
 30
0.0
 10
451.9804171398591
 20
55.99025705903113
 30
0.0
 10
451.9210765483112
 20
55.94968480912758
 30
0.0
 10
451.8023953652118
 20
55.86854030932409
 30
0.0
 10
451.6861163235462
 20
55.78071209090558
 30
0.0
 10
451.572642246043
 20
55.68573650873805
 30
0.0
 10
451.4591681685378
 20
55.59076092657233
 30
0.0
 10
451.3484957957534
 20
55.48864344712638
 30
0.0
 10
451.2411498380788
 20
55.37870420299987
 30
0.0
 10
451.2143133486606
 20
55.35121939196869
 30
0.0
 10
451.1876855053523
 20
55.323244411833
 30
0.0
 10
451.1612761489941
 20
55.29476576220258
 30
0.0
 10
451.1348667926377
 20
55.26628711257399
 30
0.0
 10
451.1086381504046
 20
55.23726122494736
 30
0.0
 10
451.0827474987418
 20
55.2078417800185
 30
0.0
 10
451.0309661954161
 20
55.14900289016259
 30
0.0
 10
450.9805535106298
 20
55.08862140875681
 30
0.0
 10
450.9315560408103
 20
55.02667967736488
 30
0.0
 10
450.8335611011716
 20
54.90279621458103
 30
0.0
 10
450.7412146964561
 20
54.77268481222018
 30
0.0
 10
450.6550181335206
 20
54.63606423078272
 30
0.0
 10
450.5688215705832
 20
54.49944364934708
 30
0.0
 10
450.488768389383
 20
54.35631985082546
 30
0.0
 10
450.4155966533744
 20
54.20616600491303
 30
0.0
 10
450.3973037193718
 20
54.16862754343492
 30
0.0
 10
450.3794191752131
 20
54.1305933126896
 30
0.0
 10
450.3620966544458
 20
54.09236968445293
 30
0.0
 10
450.3447741336767
 20
54.05414605621627
 30
0.0
 10
450.3279882028528
 20
54.01568409521314
 30
0.0
 10
450.3117391694213
 20
53.97698508449138
 30
0.0
 10
450.2792411025584
 20
53.89958706304788
 30
0.0
 10
450.2488906252637
 20
53.82124084272982
 30
0.0
 10
450.2207070323966
 20
53.74194809491382
 30
0.0
 10
450.1643398466658
 20
53.58336259928183
 30
0.0
 10
450.1166190849726
 20
53.42100127977937
 30
0.0
 10
450.0779336622654
 20
53.25476093393991
 30
0.0
 10
450.0585909509118
 20
53.17164076102199
 30
0.0
 10
450.0415120807374
 20
53.087548370273
 30
0.0
 10
450.0267802623948
 20
53.0024541729017
 30
0.0
 10
450.0194143532244
 20
52.95990707421515
 30
0.0
 10
450.0126356049658
 20
52.91710933415015
 30
0.0
 10
450.0064570292506
 20
52.87405601800492
 30
0.0
 10
450.0002784535372
 20
52.83100270185968
 30
0.0
 10
449.9947339904683
 20
52.78792704401894
 30
0.0
 10
449.9898223517775
 20
52.74487421209414
 30
0.0
 10
449.9701757970151
 20
52.5726628843895
 30
0.0
 10
449.9605881302787
 20
52.40057846942363
 30
0.0
 10
449.9608238084793
 20
52.22861759445186
 30
0.0
 10
449.9610594866799
 20
52.05665671948191
 30
0.0
 10
449.9711185098167
 20
51.88481938450786
 30
0.0
 10
449.9911587823381
 20
51.71310800301944
 30
0.0
 10
449.9961688504681
 20
51.67018015764734
 30
0.0
 10
450.0018046882014
 20
51.62726021295021
 30
0.0
 10
450.0080727485328
 20
51.58434826535994
 30
0.0
 10
450.0143408088643
 20
51.54143631776969
 30
0.0
 10
450.0212519154102
 20
51.49847961968044
 30
0.0
 10
450.0287542343831
 20
51.45579311514848
 30
0.0
 10
450.043758872327
 20
51.3704201060882
 30
0.0
 10
450.061151263335
 20
51.28591621966553
 30
0.0
 10
450.0808702482227
 20
51.20226438486679
 30
0.0
 10
450.1005892331086
 20
51.11861255006806
 30
0.0
 10
450.1226348118762
 20
51.0358127668951
 30
0.0
 10
450.1469688534053
 20
50.95385756774885
 30
0.0
 10
450.159135874168
 20
50.91287996817664
 30
0.0
 10
450.1718753557179
 20
50.87211365945041
 30
0.0
 10
450.1851845240744
 20
50.83155855241784
 30
0.0
 10
450.1984936924327
 20
50.79100344538528
 30
0.0
 10
450.2123904879899
 20
50.75061017002918
 30
0.0
 10
450.2268140237047
 20
50.71054277944859
 30
0.0
 10
450.2845081665655
 20
50.55027321712623
 30
0.0
 10
450.3500600386596
 20
50.39661311064264
 30
0.0
 10
450.4226336676128
 20
50.24902192984882
 30
0.0
 10
450.495207296568
 20
50.10143074905499
 30
0.0
 10
450.5748109337255
 20
49.95991508124098
 30
0.0
 10
450.6609039908307
 20
49.82419542714888
 30
0.0
 10
450.746997047936
 20
49.6884757730586
 30
0.0
 10
450.8395838087198
 20
49.55855529017753
 30
0.0
 10
450.9383276087992
 20
49.43434453574446
 30
0.0
 10
450.9630135588176
 20
49.40329184713482
 30
0.0
 10
450.9881254583778
 20
49.37255046213431
 30
0.0
 10
451.0134607060627
 20
49.34235270576937
 30
0.0
 10
451.0387959537456
 20
49.31215494940443
 30
0.0
 10
451.0643775182652
 20
49.28246951450273
 30
0.0
 10
451.0901941845586
 20
49.25328155063835
 30
0.0
 10
451.1418275171472
 20
49.19490562290957
 30
0.0
 10
451.1944012568401
 20
49.13851957933002
 30
0.0
 10
451.2478376320451
 20
49.08402441864382
 30
0.0
 10
451.3547103824512
 20
48.9750340972696
 30
0.0
 10
451.4650255658725
 20
48.87359366853343
 30
0.0
 10
451.5782825991228
 20
48.77911389205474
 30
0.0
 10
451.6915396323711
 20
48.68463411557605
 30
0.0
 10
451.8077414497056
 20
48.59711959145534
 30
0.0
 10
451.9265016812532
 20
48.51617517363775
 30
0.0
 10
451.9561917391402
 20
48.49593906918198
 30
0.0
 10
451.9860421454523
 20
48.47611437279192
 30
0.0
 10
452.0160476982218
 20
48.45669637272113
 30
0.0
 10
452.0460532509914
 20
48.43727837265032
 30
0.0
 10
452.0762436132318
 20
48.41824973789153
 30
0.0
 10
452.1064441142989
 20
48.39970785553487
 30
0.0
 10
452.1668451164368
 20
48.36262409082156
 30
0.0
 10
452.2273937788904
 20
48.3274127131117
 30
0.0
 10
452.2880548316188
 20
48.29396417410499
 30
0.0
 10
452.4093769370774
 20
48.22706709608974
 30
0.0
 10
452.5311451234247
 20
48.16720886522671
 30
0.0
 10
452.6531281850057
 20
48.11369562968502
 30
0.0
 10
452.7751112465884
 20
48.06018239414334
 30
0.0
 10
452.8973103738644
 20
48.01301826473173
 30
0.0
 10
453.0195436303584
 20
47.97168752797733
 30
0.0
 10
453.1417768868522
 20
47.93035679122112
 30
0.0
 10
453.2640450193048
 20
47.89486192668301
 30
0.0
 10
453.3862010719421
 20
47.86481680895121
 30
0.0
 10
453.4167400851019
 20
47.85730552951827
 30
0.0
 10
453.4472722355458
 20
47.85013539818464
 30
0.0
 10
453.4777954952351
 20
47.84330140762358
 30
0.0
 10
453.5083187549243
 20
47.83646741706434
 30
0.0
 10
453.5388440889146
 20
47.82996774956518
 30
0.0
 10
453.5692813723835
 20
47.82381440105746
 30
0.0
 10
453.6301559393195
 20
47.81150770404383
 30
0.0
 10
453.6907500937104
 20
47.80056861089542
 30
0.0
 10
453.7510607510649
 20
47.79093319193452
 30
0.0
 10
453.8716820657755
 20
47.77166235401273
 30
0.0
 10
453.9911690539156
 20
47.75759929531704
 30
0.0
 10
454.1095019704934
 20
47.74832769433851
 30
0.0
 10
454.2278348870695
 20
47.73905609335997
 30
0.0
 10
454.3450138525313
 20
47.73457757243704
 30
0.0
 10
454.4610238692967
 20
47.73457757243704
 30
0.0
  0
SPLINE
  5
217
330
70
100
AcDbEntity
  8
Front$1
 62
     7
370
    35
100
AcDbSpline
210
0.0
220
0.0
230
1.0
 70
     8
 71
     3
 72
   158
 73
   154
 74
     0
 42
0.0000000001
 43
0.0000000001
 40
0.0
 40
0.0
 40
0.0
 40
0.0
 40
1.0
 40
1.0
 40
1.0
 40
2.0
 40
2.0
 40
2.0
 40
3.0
 40
3.0
 40
3.0
 40
4.0
 40
4.0
 40
4.0
 40
5.0
 40
5.0
 40
5.0
 40
6.0
 40
6.0
 40
6.0
 40
7.0
 40
7.0
 40
7.0
 40
8.0
 40
8.0
 40
8.0
 40
9.0
 40
9.0
 40
9.0
 40
10.0
 40
10.0
 40
10.0
 40
11.0
 40
11.0
 40
11.0
 40
12.0
 40
12.0
 40
12.0
 40
13.0
 40
13.0
 40
13.0
 40
14.0
 40
14.0
 40
14.0
 40
15.0
 40
15.0
 40
15.0
 40
16.0
 40
16.0
 40
16.0
 40
17.0
 40
17.0
 40
17.0
 40
18.0
 40
18.0
 40
18.0
 40
19.0
 40
19.0
 40
19.0
 40
20.0
 40
20.0
 40
20.0
 40
21.0
 40
21.0
 40
21.0
 40
22.0
 40
22.0
 40
22.0
 40
23.0
 40
23.0
 40
23.0
 40
24.0
 40
24.0
 40
24.0
 40
25.0
 40
25.0
 40
25.0
 40
26.0
 40
26.0
 40
26.0
 40
27.0
 40
27.0
 40
27.0
 40
28.0
 40
28.0
 40
28.0
 40
29.0
 40
29.0
 40
29.0
 40
30.0
 40
30.0
 40
30.0
 40
31.0
 40
31.0
 40
31.0
 40
32.0
 40
32.0
 40
32.0
 40
33.0
 40
33.0
 40
33.0
 40
34.0
 40
34.0
 40
34.0
 40
35.0
 40
35.0
 40
35.0
 40
36.0
 40
36.0
 40
36.0
 40
37.0
 40
37.0
 40
37.0
 40
38.0
 40
38.0
 40
38.0
 40
39.0
 40
39.0
 40
39.0
 40
40.0
 40
40.0
 40
40.0
 40
41.0
 40
41.0
 40
41.0
 40
42.0
 40
42.0
 40
42.0
 40
43.0
 40
43.0
 40
43.0
 40
44.0
 40
44.0
 40
44.0
 40
45.0
 40
45.0
 40
45.0
 40
46.0
 40
46.0
 40
46.0
 40
47.0
 40
47.0
 40
47.0
 40
48.0
 40
48.0
 40
48.0
 40
49.0
 40
49.0
 40
49.0
 40
50.0
 40
50.0
 40
50.0
 40
51.0
 40
51.0
 40
51.0
 40
51.0
 10
418.7863286040637
 20
57.73503123169394
 30
0.0
 10
418.9395308883067
 20
57.73503123169394
 30
0.0
 10
419.0939468148026
 20
57.72910528611828
 30
0.0
 10
419.2495337614473
 20
57.71691493746584
 30
0.0
 10
419.405120708091
 20
57.7047245888134
 30
0.0
 10
419.5618788425999
 20
57.68627174199719
 30
0.0
 10
419.7197586278016
 20
57.66108783130767
 30
0.0
 10
419.7986985204034
 20
57.64849587596291
 30
0.0
 10
419.8779187030996
 20
57.63421895943975
 30
0.0
 10
419.957412097151
 20
57.6181835049756
 30
0.0
 10
419.9971587941773
 20
57.61016577774353
 30
0.0
 10
420.0369491896035
 20
57.60171257136789
 30
0.0
 10
420.0766955397284
 20
57.59283646493895
 30
0.0
 10
420.1164418898533
 20
57.58396035851001
 30
0.0
 10
420.1561686685781
 20
57.57465592925109
 30
0.0
 10
420.195873578009
 20
57.56491952164288
 30
0.0
 10
420.3546932157332
 20
57.52597389121729
 30
0.0
 10
420.5131629447487
 20
57.48011660722659
 30
0.0
 10
420.6710941135288
 20
57.42695536330757
 30
0.0
 10
420.8290252823089
 20
57.37379411938855
 30
0.0
 10
420.986418821918
 20
57.31333174871543
 30
0.0
 10
421.1430421151598
 20
57.2450154507369
 30
0.0
 10
421.2996654084027
 20
57.17669915275838
 30
0.0
 10
421.4555199565747
 20
57.10053373246956
 30
0.0
 10
421.6103113551553
 20
57.01575007206884
 30
0.0
 10
421.6490092048006
 20
56.99455415696866
 30
0.0
 10
421.6876402375073
 20
56.97281832530279
 30
0.0
 10
421.7261990460174
 20
56.95052778715217
 30
0.0
 10
421.7647578545284
 20
56.92823724900154
 30
0.0
 10
421.8032677604051
 20
56.9053777563804
 30
0.0
 10
421.8416492008882
 20
56.88197827760268
 30
0.0
 10
421.9184120818535
 20
56.83517932004543
 30
0.0
 10
421.9942836048458
 20
56.78645432890516
 30
0.0
 10
422.0692213391975
 20
56.73577060947536
 30
0.0
 10
422.2190968079003
 20
56.63440317061759
 30
0.0
 10
422.3652447655904
 20
56.52521355790122
 30
0.0
 10
422.5072452874428
 20
56.40780263766647
 30
0.0
 10
422.6492458092953
 20
56.29039171742988
 30
0.0
 10
422.7871023984244
 20
56.16476455513475
 30
0.0
 10
422.9202513593135
 20
56.03028703158816
 30
0.0
 10
422.9868258397582
 20
55.96304826981395
 30
0.0
 10
423.0522208771162
 20
55.89359283171325
 30
0.0
 10
423.116347250373
 20
55.82181164856592
 30
0.0
 10
423.148410437002
 20
55.78592105699318
 30
0.0
 10
423.1801773044753
 20
55.74942375555656
 30
0.0
 10
423.2115693111945
 20
55.71238166194053
 30
0.0
 10
423.2429613179138
 20
55.67533956832448
 30
0.0
 10
423.2738652509624
 20
55.637887538227
 30
0.0
 10
423.3042779685638
 20
55.60002592003548
 30
0.0
 10
423.425928838973
 20
55.44857944727301
 30
0.0
 10
423.5397377840272
 20
55.29059489187966
 30
0.0
 10
423.645368542685
 20
55.12597475992151
 30
0.0
 10
423.7509993013418
 20
54.96135462796519
 30
0.0
 10
423.8484565486159
 20
54.79010212937464
 30
0.0
 10
423.9371450699809
 20
54.61190045416151
 30
0.0
 10
423.9814893306629
 20
54.52279961655586
 30
0.0
 10
424.0236369888707
 20
54.43195780711903
 30
0.0
 10
424.0634819248161
 20
54.33930953089839
 30
0.0
 10
424.0834043927889
 20
54.29298539278716
 30
0.0
 10
424.1027508071828
 20
54.24620933679034
 30
0.0
 10
424.1215054265248
 20
54.19897118898552
 30
0.0
 10
424.1402600458677
 20
54.15173304117889
 30
0.0
 10
424.158440349106
 20
54.10398454347159
 30
0.0
 10
424.175972116237
 20
54.05587028077571
 30
0.0
 10
424.2460991847647
 20
53.86341322998851
 30
0.0
 10
424.3051730113911
 20
53.66712908715271
 30
0.0
 10
424.3529503914133
 20
53.46698054967965
 30
0.0
 10
424.3768390814247
 20
53.36690628094402
 30
0.0
 10
424.397897549893
 20
53.26586356910593
 30
0.0
 10
424.4160554222398
 20
53.16383261678675
 30
0.0
 10
424.4251343584137
 20
53.11281714062715
 30
0.0
 10
424.4334866062963
 20
53.06154186979802
 30
0.0
 10
424.441060103998
 20
53.01033654195089
 30
0.0
 10
424.4486336016989
 20
52.95913121410376
 30
0.0
 10
424.4554433356825
 20
52.90791682706731
 30
0.0
 10
424.4614967279512
 20
52.85669348072588
 30
0.0
 10
424.4857102970236
 20
52.65180009536198
 30
0.0
 10
424.4978581728728
 20
52.44676383702608
 30
0.0
 10
424.4981219505107
 20
52.24158719275874
 30
0.0
 10
424.4983857281486
 20
52.03641054848958
 30
0.0
 10
424.4867654075751
 20
51.8310935182908
 30
0.0
 10
424.4629892951843
 20
51.62563256342401
 30
0.0
 10
424.4570452670859
 20
51.57426732470776
 30
0.0
 10
424.4503391982143
 20
51.52289306009333
 30
0.0
 10
424.4428621057696
 20
51.47150965132095
 30
0.0
 10
424.4353850133247
 20
51.42012624254857
 30
0.0
 10
424.427164930943
 20
51.36893596067238
 30
0.0
 10
424.4182374128686
 20
51.31807604892128
 30
0.0
 10
424.4003823767179
 20
51.21635622541726
 30
0.0
 10
424.3796733599338
 20
51.11577582962127
 30
0.0
 10
424.3562059681371
 20
51.0163014744594
 30
0.0
 10
424.3092711845429
 20
50.81735276413565
 30
0.0
 10
424.2513268358088
 20
50.62281759078178
 30
0.0
 10
424.182811122173
 20
50.43257192072815
 30
0.0
 10
424.148553265355
 20
50.33744908570224
 30
0.0
 10
424.1116462934533
 20
50.24340139372362
 30
0.0
 10
424.0721099275506
 20
50.15042902434107
 30
0.0
 10
424.0523417445992
 20
50.10394283965069
 30
0.0
 10
424.0319158677984
 20
50.05772564204381
 30
0.0
 10
424.0108327203961
 20
50.01177838662079
 30
0.0
 10
423.9897495729938
 20
49.96583113119777
 30
0.0
 10
423.967981793753
 20
49.92009873607639
 30
0.0
 10
423.9456185873141
 20
49.87476432532639
 30
0.0
 10
423.8561657615582
 20
49.69342668232639
 30
0.0
 10
423.7580955073472
 20
49.52014459328893
 30
0.0
 10
423.6522411659088
 20
49.35432682565988
 30
0.0
 10
423.5463868244705
 20
49.18850905802901
 30
0.0
 10
423.4327410734185
 20
49.03016189465415
 30
0.0
 10
423.3118427023036
 20
48.8789761814478
 30
0.0
 10
423.2513935167453
 20
48.80338332484462
 30
0.0
 10
423.1891272762423
 20
48.72958463333453
 30
0.0
 10
423.1250906036784
 20
48.65756213974965
 30
0.0
 10
423.0930722673956
 20
48.6215508929563
 30
0.0
 10
423.0605774723735
 20
48.5859481555708
 30
0.0
 10
423.027722346932
 20
48.55087120614553
 30
0.0
 10
422.9948672214905
 20
48.51579425672025
 30
0.0
 10
422.9617140517475
 20
48.48130745213893
 30
0.0
 10
422.9282742145869
 20
48.44739586157266
 30
0.0
 10
422.7945148659427
 20
48.31174949930574
 30
0.0
 10
422.6561836132241
 20
48.1852817686995
 30
0.0
 10
422.5138786782454
 20
48.06725402085612
 30
0.0
 10
422.3715737432667
 20
47.94922627301093
 30
0.0
 10
422.2252912102076
 20
47.83964458365335
 30
0.0
 10
422.0754771307128
 20
47.73802992413766
 30
0.0
 10
422.000570090965
 20
47.68722259437891
 30
0.0
 10
421.924778161614
 20
47.63841049589973
 30
0.0
 10
421.8481466475796
 20
47.59155227375413
 30
0.0
 10
421.8098308905628
 20
47.56812316268042
 30
0.0
 10
421.7712628875442
 20
47.54515860190076
 30
0.0
 10
421.7326135669591
 20
47.52274934193337
 30
0.0
 10
421.6939642463739
 20
47.50034008196599
 30
0.0
 10
421.6552370965855
 20
47.47848637833704
 30
0.0
 10
421.6164376498518
 20
47.45717373300431
 30
0.0
 10
421.4612398629151
 20
47.37192315166976
 30
0.0
 10
421.3048913588818
 20
47.29530936291121
 30
0.0
 10
421.147693592924
 20
47.22657929343585
 30
0.0
 10
420.9904958269662
 20
47.15784922396051
 30
0.0
 10
420.83244727909
 20
47.09700755568156
 30
0.0
 10
420.6737863470334
 20
47.04351503463658
 30
0.0
 10
420.5151254149768
 20
46.99002251359161
 30
0.0
 10
420.3558511558503
 20
46.9438818906965
 30
0.0
 10
420.1961570734892
 20
46.90471298328157
 30
0.0
 10
420.1163100323083
 20
46.88512852957501
 30
0.0
 10
420.0366440226816
 20
46.8673604674841
 30
0.0
 10
419.9572594617193
 20
46.85134914561422
 30
0.0
 10
419.877874900756
 20
46.83533782374616
 30
0.0
 10
419.7987420645531
 20
46.82107603992153
 30
0.0
 10
419.7198691629828
 20
46.80849323979237
 30
0.0
 10
419.562123359844
 20
46.78332763953039
 30
0.0
 10
419.4054178728565
 20
46.76486946080331
 30
0.0
 10
419.2498101060145
 20
46.75267015903592
 30
0.0
 10
419.0942023391726
 20
46.74047085727034
 30
0.0
 10
418.9396921057932
 20
46.73453220651208
 30
0.0
 10
418.7863286040637
 20
46.73453220651208
 30
0.0
  0
SPLINE
  5
218
330
70
100
AcDbEntity
  8
Front$1
 62
     7
370
    35
100
AcDbSpline
210
0.0
220
0.0
230
1.0
 70
     8
 71
     3
 72
    62
 73
    58
 74
     0
 42
0.0000000001
 43
0.0000000001
 40
0.0
 40
0.0
 40
0.0
 40
0.0
 40
1.0
 40
1.0
 40
1.0
 40
2.0
 40
2.0
 40
2.0
 40
3.0
 40
3.0
 40
3.0
 40
4.0
 40
4.0
 40
4.0
 40
5.0
 40
5.0
 40
5.0
 40
6.0
 40
6.0
 40
6.0
 40
7.0
 40
7.0
 40
7.0
 40
8.0
 40
8.0
 40
8.0
 40
9.0
 40
9.0
 40
9.0
 40
10.0
 40
10.0
 40
10.0
 40
11.0
 40
11.0
 40
11.0
 40
12.0
 40
12.0
 40
12.0
 40
13.0
 40
13.0
 40
13.0
 40
14.0
 40
14.0
 40
14.0
 40
15.0
 40
15.0
 40
15.0
 40
16.0
 40
16.0
 40
16.0
 40
17.0
 40
17.0
 40
17.0
 40
18.0
 40
18.0
 40
18.0
 40
19.0
 40
19.0
 40
19.0
 40
19.0
 10
413.0068979608823
 20
48.73462293836382
 30
0.0
 10
413.0068979608823
 20
48.69806234867974
 30
0.0
 10
413.0074390730678
 20
48.6615671527652
 30
0.0
 10
413.0085184974432
 20
48.62513696278075
 30
0.0
 10
413.0090582096308
 20
48.6069218677876
 30
0.0
 10
413.009732499866
 20
48.58872302427698
 30
0.0
 10
413.010541707481
 20
48.5705404556702
 30
0.0
 10
413.011350915096
 20
48.55235788706341
 30
0.0
 10
413.0122962467921
 20
48.53417527248893
 30
0.0
 10
413.013370912593
 20
48.51610125769003
 30
0.0
 10
413.0176695757972
 20
48.44380519849437
 30
0.0
 10
413.0240403332736
 20
48.37292100462764
 30
0.0
 10
413.0323796204265
 20
48.30336612631981
 30
0.0
 10
413.0407189075786
 20
48.23381124801199
 30
0.0
 10
413.0510277473276
 20
48.16558634248576
 30
0.0
 10
413.063288026804
 20
48.0986606790957
 30
0.0
 10
413.0755483062803
 20
48.03173501570381
 30
0.0
 10
413.0897600254847
 20
47.96610859445173
 30
0.0
 10
413.105981556705
 20
47.90179569396423
 30
0.0
 10
413.1222030879244
 20
47.83748279347673
 30
0.0
 10
413.1400695677802
 20
47.77592787859794
 30
0.0
 10
413.1594701540743
 20
47.71692962717497
 30
0.0
 10
413.1788707403684
 20
47.65793137575019
 30
0.0
 10
413.1998099478387
 20
47.60147917228642
 30
0.0
 10
413.2222475871121
 20
47.54743557945949
 30
0.0
 10
413.2446852263846
 20
47.49339198663256
 30
0.0
 10
413.268621834657
 20
47.44175810791239
 30
0.0
 10
413.294065008541
 20
47.39247425632311
 30
0.0
 10
413.3067865954835
 20
47.36783233052847
 30
0.0
 10
413.3198855167193
 20
47.34377901771404
 30
0.0
 10
413.3333667937513
 20
47.32031321331851
 30
0.0
 10
413.3468480707824
 20
47.29684740892298
 30
0.0
 10
413.3606348978819
 20
47.27410631052953
 30
0.0
 10
413.3746594313424
 20
47.25215994181053
 30
0.0
 10
413.4307575651855
 20
47.16437446694181
 30
0.0
 10
413.490936192732
 20
47.08865071438594
 30
0.0
 10
413.5550507165362
 20
47.0236699424604
 30
0.0
 10
413.5871079784374
 20
46.99117955649671
 30
0.0
 10
413.6201554220397
 20
46.9613971752351
 30
0.0
 10
413.6542079192968
 20
46.9342713114911
 30
0.0
 10
413.6712341679249
 20
46.92070837961909
 30
0.0
 10
413.6884922651488
 20
46.90782879513062
 30
0.0
 10
413.7059068077405
 20
46.89567412657561
 30
0.0
 10
413.7233213503322
 20
46.8835194580206
 30
0.0
 10
413.7409137528274
 20
46.87207233378285
 30
0.0
 10
413.7586839369078
 20
46.8613187005958
 30
0.0
 10
413.7764541209872
 20
46.85056506740875
 30
0.0
 10
413.7944193690036
 20
46.84049748793586
 30
0.0
 10
413.8124766129858
 20
46.8311555149994
 30
0.0
 10
413.830533856967
 20
46.82181354206114
 30
0.0
 10
413.848700139376
 20
46.81318537755942
 30
0.0
 10
413.8669748915863
 20
46.80524960479305
 30
0.0
 10
413.903524396006
 20
46.78937805926397
 30
0.0
 10
413.9405074934593
 20
46.77627188539554
 30
0.0
 10
413.9779233493627
 20
46.76581555722441
 30
0.0
 10
414.0527550611705
 20
46.74490290088033
 30
0.0
 10
414.1293134728803
 20
46.73453220651208
 30
0.0
 10
414.2076454316866
 20
46.73453220651208
 30
0.0
  0
SPLINE
  5
219
330
70
100
AcDbEntity
  8
Front$1
 62
     7
370
    35
100
AcDbSpline
210
0.0
220
0.0
230
1.0
 70
     8
 71
     3
 72
    59
 73
    55
 74
     0
 42
0.0000000001
 43
0.0000000001
 40
0.0
 40
0.0
 40
0.0
 40
0.0
 40
1.0
 40
1.0
 40
1.0
 40
2.0
 40
2.0
 40
2.0
 40
3.0
 40
3.0
 40
3.0
 40
4.0
 40
4.0
 40
4.0
 40
5.0
 40
5.0
 40
5.0
 40
6.0
 40
6.0
 40
6.0
 40
7.0
 40
7.0
 40
7.0
 40
8.0
 40
8.0
 40
8.0
 40
9.0
 40
9.0
 40
9.0
 40
10.0
 40
10.0
 40
10.0
 40
11.0
 40
11.0
 40
11.0
 40
12.0
 40
12.0
 40
12.0
 40
13.0
 40
13.0
 40
13.0
 40
14.0
 40
14.0
 40
14.0
 40
15.0
 40
15.0
 40
15.0
 40
16.0
 40
16.0
 40
16.0
 40
17.0
 40
17.0
 40
17.0
 40
18.0
 40
18.0
 40
18.0
 40
18.0
 10
414.2076454316866
 20
57.73503123169394
 30
0.0
 10
414.1293124215235
 20
57.73503123169394
 30
0.0
 10
414.0525425499972
 20
57.72466185539269
 30
0.0
 10
413.9773107335395
 20
57.70357642968156
 30
0.0
 10
413.9585027794255
 20
57.69830507325242
 30
0.0
 10
413.9397912086206
 20
57.69235914415003
 30
0.0
 10
413.9211761504311
 20
57.68572310267882
 30
0.0
 10
413.9025610922417
 20
57.67908706120943
 30
0.0
 10
413.8840139636177
 20
57.67174663345213
 30
0.0
 10
413.8656886139251
 20
57.66375404755854
 30
0.0
 10
413.82903791454
 20
57.64776887577136
 30
0.0
 10
413.793182361418
 20
57.62915558752865
 30
0.0
 10
413.7581046028745
 20
57.60789386938268
 30
0.0
 10
413.6879490857872
 20
57.5653704330889
 30
0.0
 10
413.6208904432642
 20
57.5123257624673
 30
0.0
 10
413.5569519376286
 20
57.4478160499857
 30
0.0
 10
413.5249826848112
 20
57.41556119374582
 30
0.0
 10
413.4937967798187
 20
57.38042369190953
 30
0.0
 10
413.4634220854577
 20
57.34215621750809
 30
0.0
 10
413.4482347382772
 20
57.32302248030646
 30
0.0
 10
413.4332120711624
 20
57.3030474426796
 30
0.0
 10
413.41853983487
 20
57.28245129869538
 30
0.0
 10
413.4038675985776
 20
57.26185515471115
 30
0.0
 10
413.389526014931
 20
57.24061901453206
 30
0.0
 10
413.3755125977468
 20
57.21873714399226
 30
0.0
 10
413.3474857633782
 20
57.17497340291629
 30
0.0
 10
413.3207693378635
 20
57.12863165431372
 30
0.0
 10
413.2953692927594
 20
57.0796109852854
 30
0.0
 10
413.2699692476562
 20
57.03059031625707
 30
0.0
 10
413.2458849983431
 20
56.97889227242922
 30
0.0
 10
413.2231622976223
 20
56.92432770558844
 30
0.0
 10
413.2118009472624
 20
56.89704542216896
 30
0.0
 10
413.2007806514539
 20
56.86904500540368
 30
0.0
 10
413.19011182557
 20
56.84029207636922
 30
0.0
 10
413.1794429996862
 20
56.81153914733659
 30
0.0
 10
413.1692163359239
 20
56.78227551600503
 30
0.0
 10
413.1594459706912
 20
56.75256026427814
 30
0.0
 10
413.1399052402248
 20
56.69312976082256
 30
0.0
 10
413.1221578197719
 20
56.6318213812483
 30
0.0
 10
413.1061923451106
 20
56.56860292564488
 30
0.0
 10
413.0902268704485
 20
56.50538447003964
 30
0.0
 10
413.0760426816541
 20
56.44025676074853
 30
0.0
 10
413.0636951971337
 20
56.37312081474556
 30
0.0
 10
413.0575214548725
 20
56.33955284174589
 30
0.0
 10
413.0518079806615
 20
56.30548170303518
 30
0.0
 10
413.0465691781609
 20
56.27088734294375
 30
0.0
 10
413.0413303756604
 20
56.23629298285414
 30
0.0
 10
413.0365609109794
 20
56.20110169059626
 30
0.0
 10
413.0323381539155
 20
56.16585130825296
 30
0.0
 10
413.0238926397878
 20
56.09535054356638
 30
0.0
 10
413.0175551700049
 20
56.02419278366141
 30
0.0
 10
413.0133066273483
 20
55.95237828696008
 30
0.0
 10
413.0090580846909
 20
55.88056379025693
 30
0.0
 10
413.0068979608823
 20
55.80809271743601
 30
0.0
 10
413.0068979608823
 20
55.73494049984219
 30
0.0
  0
SPLINE
  5
21A
330
70
100
AcDbEntity
  8
Front$1
 62
     7
370
    35
100
AcDbSpline
210
0.0
220
0.0
230
1.0
 70
     8
 71
     3
 72
   158
 73
   154
 74
     0
 42
0.0000000001
 43
0.0000000001
 40
0.0
 40
0.0
 40
0.0
 40
0.0
 40
1.0
 40
1.0
 40
1.0
 40
2.0
 40
2.0
 40
2.0
 40
3.0
 40
3.0
 40
3.0
 40
4.0
 40
4.0
 40
4.0
 40
5.0
 40
5.0
 40
5.0
 40
6.0
 40
6.0
 40
6.0
 40
7.0
 40
7.0
 40
7.0
 40
8.0
 40
8.0
 40
8.0
 40
9.0
 40
9.0
 40
9.0
 40
10.0
 40
10.0
 40
10.0
 40
11.0
 40
11.0
 40
11.0
 40
12.0
 40
12.0
 40
12.0
 40
13.0
 40
13.0
 40
13.0
 40
14.0
 40
14.0
 40
14.0
 40
15.0
 40
15.0
 40
15.0
 40
16.0
 40
16.0
 40
16.0
 40
17.0
 40
17.0
 40
17.0
 40
18.0
 40
18.0
 40
18.0
 40
19.0
 40
19.0
 40
19.0
 40
20.0
 40
20.0
 40
20.0
 40
21.0
 40
21.0
 40
21.0
 40
22.0
 40
22.0
 40
22.0
 40
23.0
 40
23.0
 40
23.0
 40
24.0
 40
24.0
 40
24.0
 40
25.0
 40
25.0
 40
25.0
 40
26.0
 40
26.0
 40
26.0
 40
27.0
 40
27.0
 40
27.0
 40
28.0
 40
28.0
 40
28.0
 40
29.0
 40
29.0
 40
29.0
 40
30.0
 40
30.0
 40
30.0
 40
31.0
 40
31.0
 40
31.0
 40
32.0
 40
32.0
 40
32.0
 40
33.0
 40
33.0
 40
33.0
 40
34.0
 40
34.0
 40
34.0
 40
35.0
 40
35.0
 40
35.0
 40
36.0
 40
36.0
 40
36.0
 40
37.0
 40
37.0
 40
37.0
 40
38.0
 40
38.0
 40
38.0
 40
39.0
 40
39.0
 40
39.0
 40
40.0
 40
40.0
 40
40.0
 40
41.0
 40
41.0
 40
41.0
 40
42.0
 40
42.0
 40
42.0
 40
43.0
 40
43.0
 40
43.0
 40
44.0
 40
44.0
 40
44.0
 40
45.0
 40
45.0
 40
45.0
 40
46.0
 40
46.0
 40
46.0
 40
47.0
 40
47.0
 40
47.0
 40
48.0
 40
48.0
 40
48.0
 40
49.0
 40
49.0
 40
49.0
 40
50.0
 40
50.0
 40
50.0
 40
51.0
 40
51.0
 40
51.0
 40
51.0
 10
455.1341313271314
 20
46.73453220651208
 30
0.0
 10
454.9809290428893
 20
46.73453220651208
 30
0.0
 10
454.8265131163916
 20
46.74045815208773
 30
0.0
 10
454.6709261697487
 20
46.75264850074017
 30
0.0
 10
454.5153392231041
 20
46.76483884939261
 30
0.0
 10
454.3585810885961
 20
46.78329169620883
 30
0.0
 10
454.2007013033926
 20
46.80847560689835
 30
0.0
 10
454.1217614107917
 20
46.82106756224311
 30
0.0
 10
454.0425412280947
 20
46.83534447876627
 30
0.0
 10
453.963047834044
 20
46.85137993323041
 30
0.0
 10
453.9233011370178
 20
46.85939766046248
 30
0.0
 10
453.8835107415907
 20
46.86785086683812
 30
0.0
 10
453.8437643914658
 20
46.87672697326706
 30
0.0
 10
453.8040180413409
 20
46.88560307969601
 30
0.0
 10
453.7642912626161
 20
46.89490750895493
 30
0.0
 10
453.7245863531861
 20
46.90464391656314
 30
0.0
 10
453.5657667154628
 20
46.94358954698873
 30
0.0
 10
453.4072969864464
 20
46.98944683097943
 30
0.0
 10
453.2493658176663
 20
47.04260807489845
 30
0.0
 10
453.0914346488862
 20
47.09576931881747
 30
0.0
 10
452.9340411092761
 20
47.15623168949059
 30
0.0
 10
452.7774178160343
 20
47.22454798746912
 30
0.0
 10
452.6207945227924
 20
47.29286428544765
 30
0.0
 10
452.4649399746194
 20
47.36902970573646
 30
0.0
 10
452.3101485760398
 20
47.45381336613718
 30
0.0
 10
452.2714507263954
 20
47.47500928123736
 30
0.0
 10
452.2328196936887
 20
47.49674511290322
 30
0.0
 10
452.1942608851768
 20
47.51903565105386
 30
0.0
 10
452.1557020766667
 20
47.54132618920448
 30
0.0
 10
452.11719217079
 20
47.56418568182562
 30
0.0
 10
452.0788107303069
 20
47.58758516060334
 30
0.0
 10
452.0020478493406
 20
47.6343841181606
 30
0.0
 10
451.9261763263493
 20
47.68310910930085
 30
0.0
 10
451.8512385919966
 20
47.73379282873065
 30
0.0
 10
451.7013631232948
 20
47.83516026758843
 30
0.0
 10
451.5552151656047
 20
47.9443498803048
 30
0.0
 10
451.4132146437514
 20
48.06176080053956
 30
0.0
 10
451.2712141218998
 20
48.17917172077613
 30
0.0
 10
451.1333575327717
 20
48.30479888307127
 30
0.0
 10
451.0002085718806
 20
48.43927640661786
 30
0.0
 10
450.933634091436
 20
48.50651516839207
 30
0.0
 10
450.868239054078
 20
48.57597060649277
 30
0.0
 10
450.8041126808221
 20
48.64775178964009
 30
0.0
 10
450.7720494941931
 20
48.68364238121285
 30
0.0
 10
450.7402826267188
 20
48.72013968264946
 30
0.0
 10
450.7088906200006
 20
48.75718177626549
 30
0.0
 10
450.6774986132804
 20
48.79422386988153
 30
0.0
 10
450.6465946802327
 20
48.83167589997902
 30
0.0
 10
450.6161819626304
 20
48.86953751817054
 30
0.0
 10
450.4945310922212
 20
49.02098399093302
 30
0.0
 10
450.380722147167
 20
49.17896854632636
 30
0.0
 10
450.2750913885101
 20
49.3435886782845
 30
0.0
 10
450.1694606298533
 20
49.50820881024083
 30
0.0
 10
450.0720033825782
 20
49.67946130883138
 30
0.0
 10
449.9833148612142
 20
49.85766298404451
 30
0.0
 10
449.9389706005322
 20
49.94676382165017
 30
0.0
 10
449.8968229423244
 20
50.03760563108517
 30
0.0
 10
449.856978006379
 20
50.13025390730764
 30
0.0
 10
449.8370555384062
 20
50.17657804541887
 30
0.0
 10
449.8177091240122
 20
50.22335410141568
 30
0.0
 10
449.7989545046693
 20
50.2705922492205
 30
0.0
 10
449.7801998853274
 20
50.31783039702713
 30
0.0
 10
449.7620195820891
 20
50.36557889473442
 30
0.0
 10
449.7444878149572
 20
50.41369315743032
 30
0.0
 10
449.6743607464305
 20
50.60615020821751
 30
0.0
 10
449.6152869198031
 20
50.8024343510533
 30
0.0
 10
449.5675095397809
 20
51.00258288852637
 30
0.0
 10
449.5436208497704
 20
51.102657157262
 30
0.0
 10
449.5225623813021
 20
51.20369986910009
 30
0.0
 10
449.5044045089553
 20
51.30573082141927
 30
0.0
 10
449.4953255727814
 20
51.35674629757886
 30
0.0
 10
449.4869733248988
 20
51.408021568408
 30
0.0
 10
449.4793998271971
 20
51.45922689625513
 30
0.0
 10
449.4718263294953
 20
51.51043222410226
 30
0.0
 10
449.4650165955118
 20
51.56164661113871
 30
0.0
 10
449.4589632032439
 20
51.61286995748014
 30
0.0
 10
449.4347496341715
 20
51.81776334284404
 30
0.0
 10
449.4226017583223
 20
52.02279960117994
 30
0.0
 10
449.4223379806844
 20
52.22797624544728
 30
0.0
 10
449.4220742030465
 20
52.43315288971643
 30
0.0
 10
449.43369452362
 20
52.63846991991522
 30
0.0
 10
449.4574706360108
 20
52.84393087478202
 30
0.0
 10
449.4634146641082
 20
52.89529611349826
 30
0.0
 10
449.4701207329808
 20
52.94667037811269
 30
0.0
 10
449.4775978254256
 20
52.99805378688507
 30
0.0
 10
449.4850749178704
 20
53.04943719565745
 30
0.0
 10
449.4932950002512
 20
53.10062747753363
 30
0.0
 10
449.5022225183265
 20
53.15148738928474
 30
0.0
 10
449.5200775544763
 20
53.25320721278877
 30
0.0
 10
449.5407865712604
 20
53.35378760858475
 30
0.0
 10
449.564253963058
 20
53.45326196374663
 30
0.0
 10
449.6111887466522
 20
53.65221067407038
 30
0.0
 10
449.6691330953863
 20
53.84674584742424
 30
0.0
 10
449.7376488090221
 20
54.03699151747787
 30
0.0
 10
449.7719066658401
 20
54.13211435250378
 30
0.0
 10
449.8088136377409
 20
54.22616204448241
 30
0.0
 10
449.8483500036436
 20
54.31913441386496
 30
0.0
 10
449.868118186595
 20
54.36562059855532
 30
0.0
 10
449.8885440633967
 20
54.41183779616221
 30
0.0
 10
449.9096272107981
 20
54.45778505158523
 30
0.0
 10
449.9307103582005
 20
54.50373230700825
 30
0.0
 10
449.9524781374421
 20
54.54946470212963
 30
0.0
 10
449.974841343881
 20
54.59479911287963
 30
0.0
 10
450.0642941696368
 20
54.77613675587964
 30
0.0
 10
450.1623644238479
 20
54.94941884491709
 30
0.0
 10
450.2682187652863
 20
55.11523661254614
 30
0.0
 10
450.3740731067246
 20
55.28105438017701
 30
0.0
 10
450.4877188577757
 20
55.43940154355187
 30
0.0
 10
450.6086172288924
 20
55.59058725675822
 30
0.0
 10
450.6690664144498
 20
55.6661801133614
 30
0.0
 10
450.7313326549519
 20
55.7399788048715
 30
0.0
 10
450.7953693275176
 20
55.81200129845638
 30
0.0
 10
450.8273876637995
 20
55.84801254524973
 30
0.0
 10
450.8598824588207
 20
55.88361528263522
 30
0.0
 10
450.8927375842631
 20
55.9186922320605
 30
0.0
 10
450.9255927097037
 20
55.95376918148577
 30
0.0
 10
450.9587458794467
 20
55.98825598606708
 30
0.0
 10
450.9921857166082
 20
56.02216757663336
 30
0.0
 10
451.1259450652524
 20
56.15781393890029
 30
0.0
 10
451.2642763179701
 20
56.28428166950652
 30
0.0
 10
451.4065812529497
 20
56.4023094173499
 30
0.0
 10
451.5488861879275
 20
56.52033716519508
 30
0.0
 10
451.6951687209875
 20
56.62991885455267
 30
0.0
 10
451.8449828004813
 20
56.73153351406836
 30
0.0
 10
451.9198898402301
 20
56.78234084382712
 30
0.0
 10
451.9956817695802
 20
56.83115294230629
 30
0.0
 10
452.0723132836155
 20
56.87801116445189
 30
0.0
 10
452.1106290406314
 20
56.90144027552378
 30
0.0
 10
452.1491970436509
 20
56.92440483630526
 30
0.0
 10
452.1878463642351
 20
56.94681409627264
 30
0.0
 10
452.2264956848212
 20
56.96922335624003
 30
0.0
 10
452.2652228346087
 20
56.99107705986898
 30
0.0
 10
452.3040222813433
 20
57.01238970520171
 30
0.0
 10
452.45922006828
 20
57.09764028653626
 30
0.0
 10
452.6155685723133
 20
57.17425407529481
 30
0.0
 10
452.7727663382702
 20
57.24298414477016
 30
0.0
 10
452.9299641042289
 20
57.31171421424551
 30
0.0
 10
453.088012652106
 20
57.37255588252446
 30
0.0
 10
453.2466735841626
 20
57.42604840356944
 30
0.0
 10
453.4053345162174
 20
57.47954092461441
 30
0.0
 10
453.5646087753447
 20
57.52568154750952
 30
0.0
 10
453.724302857705
 20
57.56485045492263
 30
0.0
 10
453.8041498988859
 20
57.58443490863101
 30
0.0
 10
453.8838159085135
 20
57.60220297072192
 30
0.0
 10
453.9632004694758
 20
57.61821429258998
 30
0.0
 10
454.0425850304382
 20
57.63422561445986
 30
0.0
 10
454.1217178666411
 20
57.64848739828448
 30
0.0
 10
454.2005907682123
 20
57.66107019841365
 30
0.0
 10
454.3583365713511
 20
57.68623579867562
 30
0.0
 10
454.5150420583377
 20
57.70469397740271
 30
0.0
 10
454.6706498251806
 20
57.71689327916829
 30
0.0
 10
454.8262575920216
 20
57.72909258093569
 30
0.0
 10
454.9807678254019
 20
57.73503123169394
 30
0.0
 10
455.1341313271314
 20
57.73503123169394
 30
0.0
  0
SPLINE
  5
21B
330
70
100
AcDbEntity
  8
Front$1
 62
     7
370
    35
100
AcDbSpline
210
0.0
220
0.0
230
1.0
 70
     8
 71
     3
 72
    32
 73
    28
 74
     0
 42
0.0000000001
 43
0.0000000001
 40
0.0
 40
0.0
 40
0.0
 40
0.0
 40
1.0
 40
1.0
 40
1.0
 40
2.0
 40
2.0
 40
2.0
 40
3.0
 40
3.0
 40
3.0
 40
4.0
 40
4.0
 40
4.0
 40
5.0
 40
5.0
 40
5.0
 40
6.0
 40
6.0
 40
6.0
 40
7.0
 40
7.0
 40
7.0
 40
8.0
 40
8.0
 40
8.0
 40
9.0
 40
9.0
 40
9.0
 40
9.0
 10
427.5661682030285
 20
317.2845547219722
 30
0.0
 10
427.566446443704
 20
317.285237818257
 30
0.0
 10
427.5678490553464
 20
317.2886849450588
 30
0.0
 10
427.5703598966165
 20
317.2949020594697
 30
0.0
 10
427.5732106956747
 20
317.3019609461126
 30
0.0
 10
427.5774909791435
 20
317.3125915664559
 30
0.0
 10
427.5830923024223
 20
317.3267401112962
 30
0.0
 10
427.5858929640608
 20
317.3338143837164
 30
0.0
 10
427.5890265724402
 20
317.3417777184986
 30
0.0
 10
427.5924479564901
 20
317.3505583822743
 30
0.0
 10
427.5958693405391
 20
317.3593390460501
 30
0.0
 10
427.5995806615737
 20
317.3689423467131
 30
0.0
 10
427.603546588939
 20
317.3793311390482
 30
0.0
 10
427.6114784436677
 20
317.4001087237184
 30
0.0
 10
427.6204357144534
 20
317.4240333716198
 30
0.0
 10
427.630061076662
 20
317.4507558887681
 30
0.0
 10
427.6396864388707
 20
317.4774784059164
 30
0.0
 10
427.6499831456458
 20
317.5070019306204
 30
0.0
 10
427.6604620110856
 20
317.5388764375975
 30
0.0
 10
427.6709408765254
 20
317.5707509445747
 30
0.0
 10
427.681608412674
 20
317.6049826073259
 30
0.0
 10
427.6917727555773
 20
317.6409529841358
 30
0.0
 10
427.7019370984808
 20
317.6769233609466
 30
0.0
 10
427.7116127106446
 20
317.7146460088224
 30
0.0
 10
427.7197551630879
 20
317.7531929544257
 30
0.0
 10
427.7278976155303
 20
317.7917399000289
 30
0.0
 10
427.7345460750503
 20
317.8311475192249
 30
0.0
 10
427.7379304016258
 20
317.8698305489815
 30
0.0
  0
SPLINE
  5
21C
330
70
100
AcDbEntity
  8
Front$1
 62
     7
370
    35
100
AcDbSpline
210
0.0
220
0.0
230
1.0
 70
     8
 71
     3
 72
   164
 73
   160
 74
     0
 42
0.0000000001
 43
0.0000000001
 40
0.0
 40
0.0
 40
0.0
 40
0.0
 40
1.0
 40
1.0
 40
1.0
 40
2.0
 40
2.0
 40
2.0
 40
3.0
 40
3.0
 40
3.0
 40
4.0
 40
4.0
 40
4.0
 40
5.0
 40
5.0
 40
5.0
 40
6.0
 40
6.0
 40
6.0
 40
7.0
 40
7.0
 40
7.0
 40
8.0
 40
8.0
 40
8.0
 40
9.0
 40
9.0
 40
9.0
 40
10.0
 40
10.0
 40
10.0
 40
11.0
 40
11.0
 40
11.0
 40
12.0
 40
12.0
 40
12.0
 40
13.0
 40
13.0
 40
13.0
 40
14.0
 40
14.0
 40
14.0
 40
15.0
 40
15.0
 40
15.0
 40
16.0
 40
16.0
 40
16.0
 40
17.0
 40
17.0
 40
17.0
 40
18.0
 40
18.0
 40
18.0
 40
19.0
 40
19.0
 40
19.0
 40
20.0
 40
20.0
 40
20.0
 40
21.0
 40
21.0
 40
21.0
 40
22.0
 40
22.0
 40
22.0
 40
23.0
 40
23.0
 40
23.0
 40
24.0
 40
24.0
 40
24.0
 40
25.0
 40
25.0
 40
25.0
 40
26.0
 40
26.0
 40
26.0
 40
27.0
 40
27.0
 40
27.0
 40
28.0
 40
28.0
 40
28.0
 40
29.0
 40
29.0
 40
29.0
 40
30.0
 40
30.0
 40
30.0
 40
31.0
 40
31.0
 40
31.0
 40
32.0
 40
32.0
 40
32.0
 40
33.0
 40
33.0
 40
33.0
 40
34.0
 40
34.0
 40
34.0
 40
35.0
 40
35.0
 40
35.0
 40
36.0
 40
36.0
 40
36.0
 40
37.0
 40
37.0
 40
37.0
 40
38.0
 40
38.0
 40
38.0
 40
39.0
 40
39.0
 40
39.0
 40
40.0
 40
40.0
 40
40.0
 40
41.0
 40
41.0
 40
41.0
 40
42.0
 40
42.0
 40
42.0
 40
43.0
 40
43.0
 40
43.0
 40
44.0
 40
44.0
 40
44.0
 40
45.0
 40
45.0
 40
45.0
 40
46.0
 40
46.0
 40
46.0
 40
47.0
 40
47.0
 40
47.0
 40
48.0
 40
48.0
 40
48.0
 40
49.0
 40
49.0
 40
49.0
 40
50.0
 40
50.0
 40
50.0
 40
51.0
 40
51.0
 40
51.0
 40
52.0
 40
52.0
 40
52.0
 40
53.0
 40
53.0
 40
53.0
 40
53.0
 10
427.7379304016267
 20
317.8698305489815
 30
0.0
 10
427.7946279100933
 20
317.9043433444285
 30
0.0
 10
427.8545070591253
 20
317.9406382925208
 30
0.0
 10
427.9174733271593
 20
317.9785971266756
 30
0.0
 10
427.9804395951924
 20
318.0165559608304
 30
0.0
 10
428.0465925724247
 20
318.0562375636518
 30
0.0
 10
428.1153212065382
 20
318.0972096817086
 30
0.0
 10
428.2527784747644
 20
318.1791539178221
 30
0.0
 10
428.4007902311259
 20
318.2664216170861
 30
0.0
 10
428.5586200024545
 20
318.3579969619859
 30
0.0
 10
428.7164497737831
 20
318.4495723068858
 30
0.0
 10
428.8841033711396
 20
318.5454625565908
 30
0.0
 10
429.0612417510692
 20
318.6447508095926
 30
0.0
 10
429.1498109410349
 20
318.6943949360939
 30
0.0
 10
429.2407569616243
 20
318.7448894340869
 30
0.0
 10
429.3340699562441
 20
318.7961208799579
 30
0.0
 10
429.3807264535534
 20
318.8217366028939
 30
0.0
 10
429.4279750236401
 20
318.8475365427603
 30
0.0
 10
429.4758164135246
 20
318.8735062740634
 30
0.0
 10
429.5236578034091
 20
318.8994760053665
 30
0.0
 10
429.5720097470876
 20
318.9255706391932
 30
0.0
 10
429.6207723804773
 20
318.9517231132013
 30
0.0
 10
429.8158229140372
 20
319.0563330092345
 30
0.0
 10
430.0178910248005
 20
319.1621259079948
 30
0.0
 10
430.2268249144353
 20
319.2680895721596
 30
0.0
 10
430.4357588040702
 20
319.3740532363254
 30
0.0
 10
430.6515592201085
 20
319.4801942208123
 30
0.0
 10
430.8743553079002
 20
319.5854122335031
 30
0.0
 10
431.0971513956911
 20
319.6906302461939
 30
0.0
 10
431.326940905099
 20
319.7949327829592
 30
0.0
 10
431.5641452568461
 20
319.8970274153644
 30
0.0
 10
431.6234463447826
 20
319.922551073465
 30
0.0
 10
431.6832124047732
 20
319.9479354747727
 30
0.0
 10
431.743453253609
 20
319.9731576222366
 30
0.0
 10
431.8036941024447
 20
319.9983797697005
 30
0.0
 10
431.8644646165412
 20
320.0234618466602
 30
0.0
 10
431.9255797693113
 20
320.0483000864242
 30
0.0
 10
432.0478100748532
 20
320.0979765659531
 30
0.0
 10
432.171271424997
 20
320.1466219731619
 30
0.0
 10
432.2959963393714
 20
320.1940538889439
 30
0.0
 10
432.5454461681192
 20
320.2889177205088
 30
0.0
 10
432.7999374309001
 20
320.3789466116869
 30
0.0
 10
433.0598789919585
 20
320.4624790085782
 30
0.0
 10
433.3198205530161
 20
320.5460114054686
 30
0.0
 10
433.5852104428377
 20
320.6230522543529
 30
0.0
 10
433.8566753047198
 20
320.691605845851
 30
0.0
 10
433.9924077356609
 20
320.7258826416
 30
0.0
 10
434.12966248681
 20
320.7580319239305
 30
0.0
 10
434.2685411624625
 20
320.787767290245
 30
0.0
 10
434.3379805002878
 20
320.8026349734018
 30
0.0
 10
434.4078260765563
 20
320.8168987706276
 30
0.0
 10
434.4780922049685
 20
320.8305203704094
 30
0.0
 10
434.5132252691737
 20
320.8373311703008
 30
0.0
 10
434.5484875649908
 20
320.8439856984096
 30
0.0
 10
434.5837763995359
 20
320.8504601537125
 30
0.0
 10
434.619065234081
 20
320.8569346090162
 30
0.0
 10
434.6543871035455
 20
320.8632307211619
 30
0.0
 10
434.689742068681
 20
320.8693451025538
 30
0.0
 10
434.9725817897624
 20
320.9182601536941
 30
0.0
 10
435.2575396338161
 20
320.9555444366188
 30
0.0
 10
435.5446919027363
 20
320.9797498478201
 30
0.0
 10
435.8318441716574
 20
321.0039552590215
 30
0.0
 10
436.1211915218063
 20
321.0150719716931
 30
0.0
 10
436.4128286857185
 20
321.0119052338296
 30
0.0
 10
436.4857379766963
 20
321.0111135493644
 30
0.0
 10
436.5587904456269
 20
321.0094307898098
 30
0.0
 10
436.6319876890311
 20
321.0068418508044
 30
0.0
 10
436.6685863107331
 20
321.0055473813018
 30
0.0
 10
436.7052211260543
 20
321.0040263669362
 30
0.0
 10
436.7418923389687
 20
321.0022771101713
 30
0.0
 10
436.778563551883
 20
321.0005278534054
 30
0.0
 10
436.8153010541918
 20
320.9985484266845
 30
0.0
 10
436.8519874892154
 20
320.9963446080219
 30
0.0
 10
436.9987332293103
 20
320.9875293333717
 30
0.0
 10
437.1446282363804
 20
320.9751317146984
 30
0.0
 10
437.2897020912005
 20
320.9592756053498
 30
0.0
 10
437.5798498008398
 20
320.9275633866528
 30
0.0
 10
437.8667115343833
 20
320.8820012631231
 30
0.0
 10
438.15054804403
 20
320.8238198416057
 30
0.0
 10
438.434384553676
 20
320.7656384200873
 30
0.0
 10
438.7151974989328
 20
320.6948475228855
 30
0.0
 10
438.9932591526831
 20
320.612872160641
 30
0.0
 10
439.0627745661213
 20
320.5923783200806
 30
0.0
 10
439.1321508614782
 20
320.5711736283019
 30
0.0
 10
439.2010099410917
 20
320.5494079848932
 30
0.0
 10
439.2698690207043
 20
320.5276423414834
 30
0.0
 10
439.3382982143493
 20
320.5052906573846
 30
0.0
 10
439.4063159726683
 20
320.4823875320635
 30
0.0
 10
439.5423514893064
 20
320.4365812814203
 30
0.0
 10
439.6767412646395
 20
320.3885692658887
 30
0.0
 10
439.809614973632
 20
320.3386048866905
 30
0.0
 10
440.0753623916188
 20
320.2386761282942
 30
0.0
 10
440.3350609494809
 20
320.1309588185941
 30
0.0
 10
440.589542385056
 20
320.0172053059487
 30
0.0
 10
440.8440238206303
 20
319.9034517933033
 30
0.0
 10
441.0932851251555
 20
319.7836574444527
 30
0.0
 10
441.3379288701198
 20
319.6592683791623
 30
0.0
 10
441.4602507426025
 20
319.5970738465167
 30
0.0
 10
441.5814149362322
 20
319.5337262879438
 30
0.0
 10
441.7014784033827
 20
319.4693832480734
 30
0.0
 10
441.7615101369583
 20
319.4372117281382
 30
0.0
 10
441.8212665084156
 20
319.4047911191292
 30
0.0
 10
441.8807535846845
 20
319.3721398882171
 30
0.0
 10
441.9402406609533
 20
319.3394886573051
 30
0.0
 10
441.9993454179129
 20
319.3066686185229
 30
0.0
 10
442.0580128214842
 20
319.2737363075248
 30
0.0
 10
442.2926824357682
 20
319.1420070635304
 30
0.0
 10
442.5207232433749
 20
319.0083095783212
 30
0.0
 10
442.7427295412826
 20
318.8737408415172
 30
0.0
 10
442.9647358391902
 20
318.7391721047134
 30
0.0
 10
443.1807038909465
 20
318.6037260742314
 30
0.0
 10
443.3909588246869
 20
318.4683324541083
 30
0.0
 10
443.6012137584275
 20
318.3329388339862
 30
0.0
 10
443.805754296799
 20
318.1975925631914
 30
0.0
 10
444.0046735357136
 20
318.0631383616255
 30
0.0
 10
444.2035927746283
 20
317.9286841600606
 30
0.0
 10
444.3968917762686
 20
317.7951169498183
 30
0.0
 10
444.5844334602051
 20
317.6632715095475
 30
0.0
 10
444.678204302173
 20
317.5973487894125
 30
0.0
 10
444.7705321566163
 20
317.5318568093508
 30
0.0
 10
444.8613757351122
 20
317.4669054891638
 30
0.0
 10
444.9522193136072
 20
317.4019541689759
 30
0.0
 10
445.041066120586
 20
317.3379099534131
 30
0.0
 10
445.1278190503726
 20
317.2749338229587
 30
0.0
 10
445.3013249099458
 20
317.1489815620498
 30
0.0
 10
445.4665795007031
 20
317.0272195705347
 30
0.0
 10
445.6232047461617
 20
316.9105493276666
 30
0.0
 10
445.7798299916194
 20
316.7938790847984
 30
0.0
 10
445.9278321663641
 20
316.6822928226766
 30
0.0
 10
446.0664667402097
 20
316.5768648688108
 30
0.0
 10
446.1011253836714
 20
316.5505078803435
 30
0.0
 10
446.1351964609921
 20
316.5245369775748
 30
0.0
 10
446.1686638223055
 20
316.4989716594637
 30
0.0
 10
446.2021311836196
 20
316.4734063413525
 30
0.0
 10
446.2350148470759
 20
316.4482312463715
 30
0.0
 10
446.2672335553834
 20
316.4235155908555
 30
0.0
 10
446.3316709720002
 20
316.3740842798234
 30
0.0
 10
446.3930855591643
 20
316.326770050443
 30
0.0
 10
446.4514206669746
 20
316.2816764968984
 30
0.0
 10
446.568090882597
 20
316.1914893898093
 30
0.0
 10
446.6724731683171
 20
316.1101677255747
 30
0.0
 10
446.7637854212953
 20
316.0387110613083
 30
0.0
 10
446.8550976742736
 20
315.967254397041
 30
0.0
 10
446.9333515729631
 20
315.9056522891479
 30
0.0
 10
446.9972129621218
 20
315.8552439382583
 30
0.0
 10
447.0051956357665
 20
315.8489428943976
 30
0.0
 10
447.0129525637666
 20
315.8428173213988
 30
0.0
 10
447.0204803560172
 20
315.83687035808
 30
0.0
 10
447.0280081482687
 20
315.8309233947621
 30
0.0
 10
447.0353101182936
 20
315.8251524171356
 30
0.0
 10
447.0423513084206
 20
315.819585513148
 30
0.0
 10
447.0564336886764
 20
315.8084517051729
 30
0.0
 10
447.0695026363037
 20
315.7981106984398
 30
0.0
 10
447.0815640275604
 20
315.7885614465686
 30
0.0
 10
447.105686810075
 20
315.7694629428243
 30
0.0
 10
447.1257793671084
 20
315.7535314585221
 30
0.0
 10
447.1418599800927
 20
315.7407730294226
 30
0.0
 10
447.1739247223849
 20
315.7153327217966
 30
0.0
 10
447.190068151357
 20
315.7024923842073
 30
0.0
 10
447.1900729623503
 20
315.7024884968887
 30
0.0
  0
SPLINE
  5
21D
330
70
100
AcDbEntity
  8
Front$1
 62
     7
370
    35
100
AcDbSpline
210
0.0
220
0.0
230
1.0
 70
     8
 71
     3
 72
    50
 73
    46
 74
     0
 42
0.0000000001
 43
0.0000000001
 40
0.0
 40
0.0
 40
0.0
 40
0.0
 40
1.0
 40
1.0
 40
1.0
 40
2.0
 40
2.0
 40
2.0
 40
3.0
 40
3.0
 40
3.0
 40
4.0
 40
4.0
 40
4.0
 40
5.0
 40
5.0
 40
5.0
 40
6.0
 40
6.0
 40
6.0
 40
7.0
 40
7.0
 40
7.0
 40
8.0
 40
8.0
 40
8.0
 40
9.0
 40
9.0
 40
9.0
 40
10.0
 40
10.0
 40
10.0
 40
11.0
 40
11.0
 40
11.0
 40
12.0
 40
12.0
 40
12.0
 40
13.0
 40
13.0
 40
13.0
 40
14.0
 40
14.0
 40
14.0
 40
15.0
 40
15.0
 40
15.0
 40
15.0
 10
448.359187780381
 20
316.3658970718816
 30
0.0
 10
448.3618662211001
 20
316.3965117893877
 30
0.0
 10
448.3718503860764
 20
316.426955992717
 30
0.0
 10
448.3887485388414
 20
316.4572163325038
 30
0.0
 10
448.3971976152242
 20
316.4723465023972
 30
0.0
 10
448.4073876115271
 20
316.487429025643
 30
0.0
 10
448.4193425333887
 20
316.5024518174742
 30
0.0
 10
448.4253199943204
 20
316.5099632133888
 30
0.0
 10
448.43173943923
 20
316.5174595646149
 30
0.0
 10
448.4386086718232
 20
316.5249386285986
 30
0.0
 10
448.4454779044154
 20
316.5324176925824
 30
0.0
 10
448.4527927971567
 20
316.5398720239173
 30
0.0
 10
448.4604874370806
 20
316.547235442732
 30
0.0
 10
448.4912659967785
 20
316.5766891179919
 30
0.0
 10
448.5283152045695
 20
316.6049872868298
 30
0.0
 10
448.5716218920979
 20
316.6319414577811
 30
0.0
 10
448.5932752358621
 20
316.6454185432558
 30
0.0
 10
448.6165038901181
 20
316.6585565316073
 30
0.0
 10
448.6413782422751
 20
316.6713096952126
 30
0.0
 10
448.6538154183535
 20
316.6776862770148
 30
0.0
 10
448.6666648239689
 20
316.6839663920837
 30
0.0
 10
448.6799406982863
 20
316.6901425144133
 30
0.0
 10
448.6932165726038
 20
316.6963186367429
 30
0.0
 10
448.7069280274617
 20
316.7023926844968
 30
0.0
 10
448.72092726165
 20
316.7082914068014
 30
0.0
 10
448.7769241984032
 20
316.731886296021
 30
0.0
 10
448.8380265156084
 20
316.7529720851208
 30
0.0
 10
448.9045203822898
 20
316.7711111907229
 30
0.0
 10
448.9377673156305
 20
316.7801807435244
 30
0.0
 10
448.9723728207409
 20
316.7885084817808
 30
0.0
 10
449.0084427097599
 20
316.7959970742368
 30
0.0
 10
449.0445125987789
 20
316.8034856666936
 30
0.0
 10
449.081371118793
 20
316.8099934013535
 30
0.0
 10
449.1190153386651
 20
316.8154890497435
 30
0.0
 10
449.1943037784103
 20
316.8264803465226
 30
0.0
 10
449.2727069496258
 20
316.8334556820464
 30
0.0
 10
449.3545124865877
 20
316.8358217307114
 30
0.0
 10
449.3749638708277
 20
316.8364132428769
 30
0.0
 10
449.3956914961418
 20
316.8367133758966
 30
0.0
 10
449.4164490809553
 20
316.8367091229129
 30
0.0
 10
449.4372066657688
 20
316.8367048699301
 30
0.0
 10
449.4580023849657
 20
316.8363986200102
 30
0.0
 10
449.4788360866977
 20
316.8357891625119
 30
0.0
 10
449.5205034901618
 20
316.8345702475135
 30
0.0
 10
449.5623224727141
 20
316.8321403585205
 30
0.0
 10
449.6042959582846
 20
316.8284681543646
 30
0.0
  0
SPLINE
  5
21E
330
70
100
AcDbEntity
  8
Front$1
 62
     7
370
    35
100
AcDbSpline
210
0.0
220
0.0
230
1.0
 70
     8
 71
     3
 72
   185
 73
   181
 74
     0
 42
0.0000000001
 43
0.0000000001
 40
0.0
 40
0.0
 40
0.0
 40
0.0
 40
1.0
 40
1.0
 40
1.0
 40
2.0
 40
2.0
 40
2.0
 40
3.0
 40
3.0
 40
3.0
 40
4.0
 40
4.0
 40
4.0
 40
5.0
 40
5.0
 40
5.0
 40
6.0
 40
6.0
 40
6.0
 40
7.0
 40
7.0
 40
7.0
 40
8.0
 40
8.0
 40
8.0
 40
9.0
 40
9.0
 40
9.0
 40
10.0
 40
10.0
 40
10.0
 40
11.0
 40
11.0
 40
11.0
 40
12.0
 40
12.0
 40
12.0
 40
13.0
 40
13.0
 40
13.0
 40
14.0
 40
14.0
 40
14.0
 40
15.0
 40
15.0
 40
15.0
 40
16.0
 40
16.0
 40
16.0
 40
17.0
 40
17.0
 40
17.0
 40
18.0
 40
18.0
 40
18.0
 40
19.0
 40
19.0
 40
19.0
 40
20.0
 40
20.0
 40
20.0
 40
21.0
 40
21.0
 40
21.0
 40
22.0
 40
22.0
 40
22.0
 40
23.0
 40
23.0
 40
23.0
 40
24.0
 40
24.0
 40
24.0
 40
25.0
 40
25.0
 40
25.0
 40
26.0
 40
26.0
 40
26.0
 40
27.0
 40
27.0
 40
27.0
 40
28.0
 40
28.0
 40
28.0
 40
29.0
 40
29.0
 40
29.0
 40
30.0
 40
30.0
 40
30.0
 40
31.0
 40
31.0
 40
31.0
 40
32.0
 40
32.0
 40
32.0
 40
33.0
 40
33.0
 40
33.0
 40
34.0
 40
34.0
 40
34.0
 40
35.0
 40
35.0
 40
35.0
 40
36.0
 40
36.0
 40
36.0
 40
37.0
 40
37.0
 40
37.0
 40
38.0
 40
38.0
 40
38.0
 40
39.0
 40
39.0
 40
39.0
 40
40.0
 40
40.0
 40
40.0
 40
41.0
 40
41.0
 40
41.0
 40
42.0
 40
42.0
 40
42.0
 40
43.0
 40
43.0
 40
43.0
 40
44.0
 40
44.0
 40
44.0
 40
45.0
 40
45.0
 40
45.0
 40
46.0
 40
46.0
 40
46.0
 40
47.0
 40
47.0
 40
47.0
 40
48.0
 40
48.0
 40
48.0
 40
49.0
 40
49.0
 40
49.0
 40
50.0
 40
50.0
 40
50.0
 40
51.0
 40
51.0
 40
51.0
 40
52.0
 40
52.0
 40
52.0
 40
53.0
 40
53.0
 40
53.0
 40
54.0
 40
54.0
 40
54.0
 40
55.0
 40
55.0
 40
55.0
 40
56.0
 40
56.0
 40
56.0
 40
57.0
 40
57.0
 40
57.0
 40
58.0
 40
58.0
 40
58.0
 40
59.0
 40
59.0
 40
59.0
 40
60.0
 40
60.0
 40
60.0
 40
60.0
 10
446.1077430522627
 20
314.6076889709448
 30
0.0
 10
446.1077358543907
 20
314.6076949970247
 30
0.0
 10
446.1062988924149
 20
314.6090568104537
 30
0.0
 10
446.1034481206889
 20
314.6117602476961
 30
0.0
 10
446.0935494902687
 20
314.6211472939767
 30
0.0
 10
446.0666011668299
 20
314.6467132817424
 30
0.0
 10
446.0226397053266
 20
314.6882781016175
 30
0.0
 10
446.0116493399501
 20
314.6986693065865
 30
0.0
 10
445.9995926755563
 20
314.7100623365459
 30
0.0
 10
445.9864642793117
 20
314.7224581428972
 30
0.0
 10
445.9733358830671
 20
314.7348539492487
 30
0.0
 10
445.9591021445494
 20
314.7482841888832
 30
0.0
 10
445.943912772882
 20
314.7626028086333
 30
0.0
 10
445.9135340295469
 20
314.7912400481337
 30
0.0
 10
445.8792947350502
 20
314.823467375024
 30
0.0
 10
445.8414070599992
 20
314.8590417464293
 30
0.0
 10
445.765631709898
 20
314.9301904892382
 30
0.0
 10
445.6753030717236
 20
315.014698626429
 30
0.0
 10
445.5715398751526
 20
315.1110652157231
 30
0.0
 10
445.5196582768667
 20
315.1592485103693
 30
0.0
 10
445.4644072456285
 20
315.2104044157122
 30
0.0
 10
445.4058688449895
 20
315.2643847310465
 30
0.0
 10
445.3765996446691
 20
315.291374888714
 30
0.0
 10
445.3465080541473
 20
315.3190714920402
 30
0.0
 10
445.3156011639293
 20
315.3474578695523
 30
0.0
 10
445.2846942737105
 20
315.3758442470644
 30
0.0
 10
445.2529305416837
 20
315.4049582637672
 30
0.0
 10
445.220534959547
 20
315.4345835758495
 30
0.0
 10
445.0909526309987
 20
315.5530848241797
 30
0.0
 10
444.9508527754105
 20
315.680153737555
 30
0.0
 10
444.801180052007
 20
315.8142598362083
 30
0.0
 10
444.6515073286036
 20
315.9483659348607
 30
0.0
 10
444.4922522740353
 20
316.089523032917
 30
0.0
 10
444.3238444242342
 20
316.2365067937844
 30
0.0
 10
444.2396404993332
 20
316.3099986742182
 30
0.0
 10
444.153141257374
 20
316.3849507047225
 30
0.0
 10
444.0643597546359
 20
316.4612243474175
 30
0.0
 10
444.0199690032677
 20
316.4993611687642
 30
0.0
 10
443.9749867762075
 20
316.5378455501741
 30
0.0
 10
443.9296336436582
 20
316.5764732541693
 30
0.0
 10
443.8842805111089
 20
316.6151009581645
 30
0.0
 10
443.8385095002295
 20
316.6539125244417
 30
0.0
 10
443.7923247284816
 20
316.692889466719
 30
0.0
 10
443.60758564149
 20
316.8487972358271
 30
0.0
 10
443.4162544668279
 20
317.0073474500678
 30
0.0
 10
443.2183639034228
 20
317.1674053929482
 30
0.0
 10
443.0204733400187
 20
317.3274633358297
 30
0.0
 10
442.8160241612013
 20
317.4890382435178
 30
0.0
 10
442.6046908941944
 20
317.6509618887458
 30
0.0
 10
442.3933576271874
 20
317.8128855339737
 30
0.0
 10
442.1751462690135
 20
317.975168304838
 30
0.0
 10
441.9493232439244
 20
318.1364639434951
 30
0.0
 10
441.8364117313794
 20
318.2171117628231
 30
0.0
 10
441.7215904591057
 20
318.2975091124963
 30
0.0
 10
441.6047192095802
 20
318.3774569668558
 30
0.0
 10
441.5462835848175
 20
318.4174308940356
 30
0.0
 10
441.4873348988494
 20
318.4572920567934
 30
0.0
 10
441.4278518740448
 20
318.4970128846953
 30
0.0
 10
441.3683688492401
 20
318.5367337125981
 30
0.0
 10
441.3083006226506
 20
318.5763465577256
 30
0.0
 10
441.2479076749932
 20
318.6156388298568
 30
0.0
 10
441.0063358843626
 20
318.7728079183835
 30
0.0
 10
440.7589330810051
 20
318.9253485892514
 30
0.0
 10
440.5046730760414
 20
319.0711611354136
 30
0.0
 10
440.2504130710767
 20
319.2169736815767
 30
0.0
 10
439.9893075374339
 20
319.3560755166345
 30
0.0
 10
439.7198105176212
 20
319.4857052074212
 30
0.0
 10
439.5850620077153
 20
319.5505200528141
 30
0.0
 10
439.4482065131423
 20
319.612954983294
 30
0.0
 10
439.3089848402541
 20
319.6725788891772
 30
0.0
 10
439.169763167365
 20
319.7322027950604
 30
0.0
 10
439.0281760982043
 20
319.7890165976005
 30
0.0
 10
438.8839076984859
 20
319.8425160812531
 30
0.0
 10
438.847840598556
 20
319.8558909521662
 30
0.0
 10
438.8115710313541
 20
319.8690704174878
 30
0.0
 10
438.7752290500311
 20
319.8819980107846
 30
0.0
 10
438.738887068709
 20
319.8949256040815
 30
0.0
 10
438.7024759509304
 20
319.9076007506255
 30
0.0
 10
438.6659944366083
 20
319.9200178766796
 30
0.0
 10
438.5930314079632
 20
319.9448521287877
 30
0.0
 10
438.5197867931428
 20
319.9686542989339
 30
0.0
 10
438.4462504934426
 20
319.9913785229992
 30
0.0
 10
438.2991778940414
 20
320.0368269711307
 30
0.0
 10
438.1509385551189
 20
320.0779636349398
 30
0.0
 10
438.0014495112391
 20
320.1144268991356
 30
0.0
 10
437.7024714234794
 20
320.1873534275273
 30
0.0
 10
437.3984922005811
 20
320.2415579956387
 30
0.0
 10
437.0888505383208
 20
320.2743534173606
 30
0.0
 10
437.0114401227565
 20
320.2825522727908
 30
0.0
 10
436.9336759768184
 20
320.2894152299359
 30
0.0
 10
436.8555482714136
 20
320.2949055222107
 30
0.0
 10
436.8164844187122
 20
320.297650668348
 30
0.0
 10
436.7772796973322
 20
320.3000548752261
 30
0.0
 10
436.7381550185464
 20
320.3021033631239
 30
0.0
 10
436.6990303397606
 20
320.3041518510218
 30
0.0
 10
436.6599687253965
 20
320.305847285601
 30
0.0
 10
436.6209695419465
 20
320.3071932783578
 30
0.0
 10
436.4649728081467
 20
320.312577249385
 30
0.0
 10
436.3099749689645
 20
320.3123701512422
 30
0.0
 10
436.1559370277882
 20
320.306869637755
 30
0.0
 10
435.8478611454366
 20
320.2958686107804
 30
0.0
 10
435.5436221836352
 20
320.2636705445484
 30
0.0
 10
435.2429306958947
 20
320.2130772001892
 30
0.0
 10
435.0925849520254
 20
320.1877805280101
 30
0.0
 10
434.9431266542223
 20
320.1578920894717
 30
0.0
 10
434.7945244366155
 20
320.1237881089856
 30
0.0
 10
434.7573738822129
 20
320.1152621138644
 30
0.0
 10
434.7202557029141
 20
320.1064670285141
 30
0.0
 10
434.6833335340034
 20
320.0974503695734
 30
0.0
 10
434.6464113650926
 20
320.0884337106327
 30
0.0
 10
434.6096521221998
 20
320.0791880309207
 30
0.0
 10
434.5730512017471
 20
320.0697230252144
 30
0.0
 10
434.4998493608418
 20
320.050793013801
 30
0.0
 10
434.4272808096921
 20
320.0309856984068
 30
0.0
 10
434.3553124794762
 20
320.010372705241
 30
0.0
 10
434.0674391586089
 20
319.9279207325771
 30
0.0
 10
433.7891132731101
 20
319.8326676560382
 30
0.0
 10
433.5187048922152
 20
319.728421952791
 30
0.0
 10
433.2482965113204
 20
319.6241762495438
 30
0.0
 10
432.9858186045367
 20
319.51091434515
 30
0.0
 10
432.7302372512058
 20
319.3915079763355
 30
0.0
 10
432.6024465745404
 20
319.3318047919283
 30
0.0
 10
432.4763880924292
 20
319.2705531032298
 30
0.0
 10
432.3519759609143
 20
319.2080492596943
 30
0.0
 10
432.2275638293985
 20
319.1455454161587
 30
0.0
 10
432.1055778177005
 20
319.082182067481
 30
0.0
 10
431.9859392211628
 20
319.0182846227281
 30
0.0
 10
431.7466620280875
 20
318.8904897332232
 30
0.0
 10
431.5166287500187
 20
318.7605282414716
 30
0.0
 10
431.2950258864147
 20
318.6302443903078
 30
0.0
 10
431.0734230228099
 20
318.499960539144
 30
0.0
 10
430.8602580642955
 20
318.3693385505585
 30
0.0
 10
430.6552304585165
 20
318.2398975535361
 30
0.0
 10
430.5527166556275
 20
318.1751770550254
 30
0.0
 10
430.4522444471076
 20
318.1107481994723
 30
0.0
 10
430.3538188651364
 20
318.0467874001069
 30
0.0
 10
430.3046060741507
 20
318.0148070004252
 30
0.0
 10
430.2559053773174
 20
317.9829435395677
 30
0.0
 10
430.207720078225
 20
317.9512188655517
 30
0.0
 10
430.1595347791326
 20
317.9194941915366
 30
0.0
 10
430.1119325656536
 20
317.8879525500524
 30
0.0
 10
430.0650422685594
 20
317.8567008990031
 30
0.0
 10
429.8774810801833
 20
317.7316942948037
 30
0.0
 10
429.70063274117
 20
317.6109085449652
 30
0.0
 10
429.534538815883
 20
317.4955566069912
 30
0.0
 10
429.3684448905951
 20
317.380204669018
 30
0.0
 10
429.2131022474404
 20
317.2702753322492
 30
0.0
 10
429.069061943962
 20
317.1670594082307
 30
0.0
 10
428.9970417922232
 20
317.1154514462214
 30
0.0
 10
428.9278553703879
 20
317.0655240402139
 30
0.0
 10
428.8616268636133
 20
317.0174603333235
 30
0.0
 10
428.8450697369198
 20
317.0054444066009
 30
0.0
 10
428.8286941934557
 20
316.993542493201
 30
0.0
 10
428.812552581342
 20
316.9817941398469
 30
0.0
 10
428.7964109692293
 20
316.9700457864938
 30
0.0
 10
428.780491483697
 20
316.958442408094
 30
0.0
 10
428.7647942005324
 20
316.9469856142868
 30
0.0
 10
428.7333996342022
 20
316.9240720266716
 30
0.0
 10
428.7028938773428
 20
316.9017447774249
 30
0.0
 10
428.6732798225948
 20
316.88001735324
 30
0.0
 10
428.5548236036029
 20
316.7931076565001
 30
0.0
 10
428.4505893321102
 20
316.7157776239446
 30
0.0
 10
428.3611167930275
 20
316.6490138788249
 30
0.0
 10
428.2716442539449
 20
316.5822501337052
 30
0.0
 10
428.1969231370294
 20
316.5260417118661
 30
0.0
 10
428.1381456087055
 20
316.4816865368885
 30
0.0
 10
428.1307984176655
 20
316.4761421400162
 30
0.0
 10
428.1236955763634
 20
316.4707791407646
 30
0.0
 10
428.1168697595886
 20
316.4656228418153
 30
0.0
 10
428.1100439428146
 20
316.460466542866
 30
0.0
 10
428.1034903288372
 20
316.4555133807517
 30
0.0
 10
428.0972080872788
 20
316.4507631982442
 30
0.0
 10
428.0846436041628
 20
316.4412628332311
 30
0.0
 10
428.0731646107224
 20
316.4325743866502
 30
0.0
 10
428.0627617434119
 20
316.4246953533921
 30
0.0
 10
428.0419560087921
 20
316.4089372868739
 30
0.0
 10
428.0254547786953
 20
316.3964168736438
 30
0.0
 10
428.0132241745969
 20
316.387131621028
 30
0.0
 10
427.995721367135
 20
316.3738438073214
 30
0.0
 10
427.9869449438383
 20
316.3671724523965
 30
0.0
 10
427.9869648738049
 20
316.3671856207129
 30
0.0
  0
SPLINE
  5
21F
330
70
100
AcDbEntity
  8
Front$1
 62
     7
370
    35
100
AcDbSpline
210
0.0
220
0.0
230
1.0
 70
     8
 71
     3
 72
    62
 73
    58
 74
     0
 42
0.0000000001
 43
0.0000000001
 40
0.0
 40
0.0
 40
0.0
 40
0.0
 40
1.0
 40
1.0
 40
1.0
 40
2.0
 40
2.0
 40
2.0
 40
3.0
 40
3.0
 40
3.0
 40
4.0
 40
4.0
 40
4.0
 40
5.0
 40
5.0
 40
5.0
 40
6.0
 40
6.0
 40
6.0
 40
7.0
 40
7.0
 40
7.0
 40
8.0
 40
8.0
 40
8.0
 40
9.0
 40
9.0
 40
9.0
 40
10.0
 40
10.0
 40
10.0
 40
11.0
 40
11.0
 40
11.0
 40
12.0
 40
12.0
 40
12.0
 40
13.0
 40
13.0
 40
13.0
 40
14.0
 40
14.0
 40
14.0
 40
15.0
 40
15.0
 40
15.0
 40
16.0
 40
16.0
 40
16.0
 40
17.0
 40
17.0
 40
17.0
 40
18.0
 40
18.0
 40
18.0
 40
19.0
 40
19.0
 40
19.0
 40
19.0
 10
460.913561970312
 20
55.73494049984219
 30
0.0
 10
460.913561970312
 20
55.77150108952628
 30
0.0
 10
460.9130208581263
 20
55.80799628544082
 30
0.0
 10
460.911941433751
 20
55.84442647542528
 30
0.0
 10
460.9114017215651
 20
55.86264157041842
 30
0.0
 10
460.91072743133
 20
55.88084041392903
 30
0.0
 10
460.9099182237132
 20
55.89902298253583
 30
0.0
 10
460.9091090160982
 20
55.91720555114261
 30
0.0
 10
460.908163684402
 20
55.93538816571708
 30
0.0
 10
460.9070890186012
 20
55.953462180516
 30
0.0
 10
460.9027903553978
 20
56.02575823971164
 30
0.0
 10
460.8964195979206
 20
56.09664243357838
 30
0.0
 10
460.8880803107677
 20
56.1661973118862
 30
0.0
 10
460.8797410236165
 20
56.23575219019404
 30
0.0
 10
460.8694321838684
 20
56.30397709572026
 30
0.0
 10
460.8571719043903
 20
56.37090275911032
 30
0.0
 10
460.8449116249139
 20
56.43782842250221
 30
0.0
 10
460.8306999057094
 20
56.5034548437543
 30
0.0
 10
460.8144783744901
 20
56.56776774424179
 30
0.0
 10
460.7982568432707
 20
56.63208064472929
 30
0.0
 10
460.7803903634139
 20
56.69363555960808
 30
0.0
 10
460.7609897771198
 20
56.75263381103104
 30
0.0
 10
460.7415891908276
 20
56.81163206245583
 30
0.0
 10
460.7206499833555
 20
56.8680842659196
 30
0.0
 10
460.698212344083
 20
56.92212785874653
 30
0.0
 10
460.6757747048105
 20
56.97617145157346
 30
0.0
 10
460.651838096539
 20
57.02780533029363
 30
0.0
 10
460.6263949226541
 20
57.07708918188291
 30
0.0
 10
460.6136733357106
 20
57.10173110767755
 30
0.0
 10
460.6005744144749
 20
57.12578442049198
 30
0.0
 10
460.5870931374429
 20
57.14925022488751
 30
0.0
 10
460.5736118604126
 20
57.17271602928303
 30
0.0
 10
460.5598250333132
 20
57.19545712767649
 30
0.0
 10
460.5458004998527
 20
57.21740349639367
 30
0.0
 10
460.4897023660087
 20
57.30518897126422
 30
0.0
 10
460.4295237384631
 20
57.38091272382007
 30
0.0
 10
460.3654092146589
 20
57.44589349574562
 30
0.0
 10
460.3333519527568
 20
57.4783838817093
 30
0.0
 10
460.3003045091554
 20
57.50816626297091
 30
0.0
 10
460.2662520118992
 20
57.53529212671492
 30
0.0
 10
460.2492257632693
 20
57.54885505858692
 30
0.0
 10
460.2319676660463
 20
57.5617346430754
 30
0.0
 10
460.2145531234546
 20
57.57388931163041
 30
0.0
 10
460.1971385808629
 20
57.58604398018542
 30
0.0
 10
460.1795461783677
 20
57.59749110442317
 30
0.0
 10
460.1617759942874
 20
57.60824473761022
 30
0.0
 10
460.144005810207
 20
57.61899837079727
 30
0.0
 10
460.1260405621906
 20
57.62906595027016
 30
0.0
 10
460.1079833182084
 20
57.63840792320661
 30
0.0
 10
460.089926074228
 20
57.64774989614489
 30
0.0
 10
460.0717597918191
 20
57.6563780606466
 30
0.0
 10
460.0534850396088
 20
57.66431383341296
 30
0.0
 10
460.0169355351881
 20
57.68018537894204
 30
0.0
 10
459.9799524377358
 20
57.69329155280866
 30
0.0
 10
459.9425365818315
 20
57.70374788098161
 30
0.0
 10
459.8677048700246
 20
57.72466053732569
 30
0.0
 10
459.7911464583157
 20
57.73503123169394
 30
0.0
 10
459.7128144995076
 20
57.73503123169394
 30
0.0
  0
SPLINE
  5
220
330
70
100
AcDbEntity
  8
Front$1
 62
     7
370
    35
100
AcDbSpline
210
0.0
220
0.0
230
1.0
 70
     8
 71
     3
 72
    59
 73
    55
 74
     0
 42
0.0000000001
 43
0.0000000001
 40
0.0
 40
0.0
 40
0.0
 40
0.0
 40
1.0
 40
1.0
 40
1.0
 40
2.0
 40
2.0
 40
2.0
 40
3.0
 40
3.0
 40
3.0
 40
4.0
 40
4.0
 40
4.0
 40
5.0
 40
5.0
 40
5.0
 40
6.0
 40
6.0
 40
6.0
 40
7.0
 40
7.0
 40
7.0
 40
8.0
 40
8.0
 40
8.0
 40
9.0
 40
9.0
 40
9.0
 40
10.0
 40
10.0
 40
10.0
 40
11.0
 40
11.0
 40
11.0
 40
12.0
 40
12.0
 40
12.0
 40
13.0
 40
13.0
 40
13.0
 40
14.0
 40
14.0
 40
14.0
 40
15.0
 40
15.0
 40
15.0
 40
16.0
 40
16.0
 40
16.0
 40
17.0
 40
17.0
 40
17.0
 40
18.0
 40
18.0
 40
18.0
 40
18.0
 10
459.7128144995076
 20
46.73453220651208
 30
0.0
 10
459.7911475096716
 20
46.73453220651208
 30
0.0
 10
459.8679173811979
 20
46.74490158281332
 30
0.0
 10
459.9431491976556
 20
46.76598700852446
 30
0.0
 10
459.9619571517687
 20
46.77125836495179
 30
0.0
 10
459.9806687225736
 20
46.77720429405598
 30
0.0
 10
459.999283780764
 20
46.7838403355272
 30
0.0
 10
460.0178988389525
 20
46.79047637699659
 30
0.0
 10
460.0364459675765
 20
46.79781680475389
 30
0.0
 10
460.0547713172691
 20
46.80580939064748
 30
0.0
 10
460.0914220166542
 20
46.82179456243466
 30
0.0
 10
460.1272775697761
 20
46.84040785067736
 30
0.0
 10
460.1623553283206
 20
46.86166956882334
 30
0.0
 10
460.2325108454079
 20
46.90419300511712
 30
0.0
 10
460.29956948793
 20
46.95723767573872
 30
0.0
 10
460.3635079935665
 20
47.02174738822032
 30
0.0
 10
460.3954772463839
 20
47.0540022444602
 30
0.0
 10
460.4266631513764
 20
47.08913974629649
 30
0.0
 10
460.4570378457374
 20
47.12740722069793
 30
0.0
 10
460.4722251929179
 20
47.14654095789774
 30
0.0
 10
460.4872478600336
 20
47.16651599552642
 30
0.0
 10
460.5019200963251
 20
47.18711213951064
 30
0.0
 10
460.5165923326167
 20
47.20770828349486
 30
0.0
 10
460.5309339162631
 20
47.22894442367397
 30
0.0
 10
460.5449473334483
 20
47.25082629421376
 30
0.0
 10
460.5729741678169
 20
47.29459003528972
 30
0.0
 10
460.5996905933316
 20
47.3409317838923
 30
0.0
 10
460.6250906384357
 20
47.38995245292062
 30
0.0
 10
460.6504906835398
 20
47.43897312194895
 30
0.0
 10
460.6745749328529
 20
47.4906711657768
 30
0.0
 10
460.6972976335728
 20
47.54523573261758
 30
0.0
 10
460.7086589839327
 20
47.57251801603707
 30
0.0
 10
460.7196792797403
 20
47.60051843280234
 30
0.0
 10
460.7303481056241
 20
47.62927136183679
 30
0.0
 10
460.7410169315098
 20
47.65802429086943
 30
0.0
 10
460.7512435952703
 20
47.68728792220099
 30
0.0
 10
460.7610139605039
 20
47.71700317392787
 30
0.0
 10
460.7805546909694
 20
47.77643367738164
 30
0.0
 10
460.7983021114232
 20
47.83774205695772
 30
0.0
 10
460.8142675860854
 20
47.90096051256114
 30
0.0
 10
460.8302330607457
 20
47.96417896816637
 30
0.0
 10
460.8444172495401
 20
48.0293066774575
 30
0.0
 10
460.8567647340605
 20
48.09644262346046
 30
0.0
 10
460.8629384763226
 20
48.13001059646012
 30
0.0
 10
460.8686519505336
 20
48.16408173517084
 30
0.0
 10
460.8738907530332
 20
48.19867609526045
 30
0.0
 10
460.8791295555347
 20
48.23327045535188
 30
0.0
 10
460.8838990202148
 20
48.26846174760976
 30
0.0
 10
460.8881217772796
 20
48.30371212995306
 30
0.0
 10
460.8965672914073
 20
48.37421289463964
 30
0.0
 10
460.9029047611893
 20
48.4453706545446
 30
0.0
 10
460.9071533038458
 20
48.51718515124594
 30
0.0
 10
460.9114018465042
 20
48.58899964794909
 30
0.0
 10
460.913561970312
 20
48.66147072077001
 30
0.0
 10
460.913561970312
 20
48.73462293836382
 30
0.0
  0
SPLINE
  5
221
330
70
100
AcDbEntity
  8
Front$1
 62
     7
370
    13
100
AcDbSpline
210
0.0
220
0.0
230
1.0
 70
     8
 71
     3
 72
    17
 73
    13
 74
     0
 42
0.0000000001
 43
0.0000000001
 40
0.0
 40
0.0
 40
0.0
 40
0.0
 40
1.0
 40
1.0
 40
1.0
 40
2.0
 40
2.0
 40
2.0
 40
3.0
 40
3.0
 40
3.0
 40
4.0
 40
4.0
 40
4.0
 40
4.0
 10
494.2927882328003
 20
188.4037180457344
 30
0.0
 10
499.7606808709242
 20
186.2281806637957
 30
0.0
 10
498.7233862756893
 20
181.0493869141628
 30
0.0
 10
495.8745931035373
 20
178.3333159405283
 30
0.0
 10
494.9292404464358
 20
177.4320062431788
 30
0.0
 10
493.7844057239781
 20
176.8018913632095
 30
0.0
 10
492.9234169540195
 20
175.8234571904386
 30
0.0
 10
492.0692664594771
 20
174.852794085752
 30
0.0
 10
491.4944710140734
 20
173.5393226644428
 30
0.0
 10
491.4863364198172
 20
172.2800732939804
 30
0.0
 10
491.4643254278399
 20
168.8727333676643
 30
0.0
 10
495.5911922915893
 20
165.8623869262374
 30
0.0
 10
496.7832401003579
 20
163.4025838975931
 30
0.0
  0
SPLINE
  5
222
330
70
100
AcDbEntity
  8
Front$1
 62
     7
370
    13
100
AcDbSpline
210
0.0
220
0.0
230
1.0
 70
     8
 71
     3
 72
    17
 73
    13
 74
     0
 42
0.0000000001
 43
0.0000000001
 40
0.0
 40
0.0
 40
0.0
 40
0.0
 40
1.0
 40
1.0
 40
1.0
 40
2.0
 40
2.0
 40
2.0
 40
3.0
 40
3.0
 40
3.0
 40
4.0
 40
4.0
 40
4.0
 40
4.0
 10
379.6276716983948
 20
163.4025838975931
 30
0.0
 10
374.1597790602709
 20
165.5781212795318
 30
0.0
 10
375.1970736555068
 20
170.7569150291638
 30
0.0
 10
378.0458668276578
 20
173.4729860027982
 30
0.0
 10
378.9912194847602
 20
174.3742957001486
 30
0.0
 10
380.1360542072162
 20
175.004410580118
 30
0.0
 10
380.9970429771756
 20
175.982844752888
 30
0.0
 10
381.8511934717171
 20
176.9535078575754
 30
0.0
 10
382.4259889171226
 20
178.2669792788838
 30
0.0
 10
382.4341235113779
 20
179.5262286493471
 30
0.0
 10
382.4561345033553
 20
182.9335685756623
 30
0.0
 10
378.3292676396059
 20
185.9439150170892
 30
0.0
 10
377.1372198308382
 20
188.4037180457344
 30
0.0
  0
LINE
  5
223
330
70
100
AcDbEntity
  8
Front$1
 62
     7
370
    25
100
AcDbLine
 10
449.9608197226307
 20
163.4025843111276
 30
0.0
 11
449.9608197226307
 21
188.4037184592689
 31
0.0
  0
LINE
  5
224
330
70
100
AcDbEntity
  8
Front$1
 62
     7
370
    25
100
AcDbLine
 10
496.7832397686979
 20
163.4025843111276
 30
0.0
 11
449.9608197226307
 21
163.4025843111276
 31
0.0
  0
SPLINE
  5
225
330
70
100
AcDbEntity
  8
Front$1
 62
     7
370
    25
100
AcDbSpline
210
0.0
220
0.0
230
1.0
 70
     8
 71
     3
 72
    17
 73
    13
 74
     0
 42
0.0000000001
 43
0.0000000001
 40
0.0
 40
0.0
 40
0.0
 40
0.0
 40
1.0
 40
1.0
 40
1.0
 40
2.0
 40
2.0
 40
2.0
 40
3.0
 40
3.0
 40
3.0
 40
4.0
 40
4.0
 40
4.0
 40
4.0
 10
494.2927882328003
 20
188.4037180457344
 30
0.0
 10
499.7606808709242
 20
186.2281806637957
 30
0.0
 10
498.7233862756893
 20
181.0493869141628
 30
0.0
 10
495.8745931035373
 20
178.3333159405283
 30
0.0
 10
494.9292404464358
 20
177.4320062431788
 30
0.0
 10
493.7844057239781
 20
176.8018913632095
 30
0.0
 10
492.9234169540195
 20
175.8234571904386
 30
0.0
 10
492.0692664594771
 20
174.852794085752
 30
0.0
 10
491.4944710140734
 20
173.5393226644428
 30
0.0
 10
491.4863364198172
 20
172.2800732939804
 30
0.0
 10
491.4643254278399
 20
168.8727333676643
 30
0.0
 10
495.5911922915893
 20
165.8623869262374
 30
0.0
 10
496.7832401003579
 20
163.4025838975931
 30
0.0
  0
LINE
  5
226
330
70
100
AcDbEntity
  8
Front$1
 62
     7
370
    25
100
AcDbLine
 10
449.9608197226307
 20
188.4037184592689
 30
0.0
 11
494.2927877921647
 21
188.4037184592689
 31
0.0
  0
SPLINE
  5
227
330
70
100
AcDbEntity
  8
Front$1
 62
     7
370
    25
100
AcDbSpline
210
0.0
220
0.0
230
1.0
 70
     8
 71
     3
 72
    17
 73
    13
 74
     0
 42
0.0000000001
 43
0.0000000001
 40
0.0
 40
0.0
 40
0.0
 40
0.0
 40
1.0
 40
1.0
 40
1.0
 40
2.0
 40
2.0
 40
2.0
 40
3.0
 40
3.0
 40
3.0
 40
4.0
 40
4.0
 40
4.0
 40
4.0
 10
379.6276716983948
 20
163.4025838975931
 30
0.0
 10
374.1597790602709
 20
165.5781212795318
 30
0.0
 10
375.1970736555068
 20
170.7569150291638
 30
0.0
 10
378.0458668276578
 20
173.4729860027982
 30
0.0
 10
378.9912194847602
 20
174.3742957001486
 30
0.0
 10
380.1360542072162
 20
175.004410580118
 30
0.0
 10
380.9970429771756
 20
175.982844752888
 30
0.0
 10
381.8511934717171
 20
176.9535078575754
 30
0.0
 10
382.4259889171226
 20
178.2669792788838
 30
0.0
 10
382.4341235113779
 20
179.5262286493471
 30
0.0
 10
382.4561345033553
 20
182.9335685756623
 30
0.0
 10
378.3292676396059
 20
185.9439150170892
 30
0.0
 10
377.1372198308382
 20
188.4037180457344
 30
0.0
  0
LINE
  5
228
330
70
100
AcDbEntity
  8
Front$1
 62
     7
370
    25
100
AcDbLine
 10
423.9596402085644
 20
163.4025843111276
 30
0.0
 11
379.6276721390305
 21
163.4025843111276
 31
0.0
  0
LINE
  5
229
330
70
100
AcDbEntity
  8
Front$1
 62
     7
370
    25
100
AcDbLine
 10
423.9596402085644
 20
188.4037184592689
 30
0.0
 11
423.9596402085644
 21
163.4025843111276
 31
0.0
  0
LINE
  5
22A
330
70
100
AcDbEntity
  8
Front$1
 62
     7
370
    25
100
AcDbLine
 10
377.1372201624963
 20
188.4037184592689
 30
0.0
 11
423.9596402085644
 21
188.4037184592689
 31
0.0
  0
INSERT
  5
22C
330
70
100
AcDbEntity
  8
Front$1
100
AcDbBlockReference
  2
Block_6
 10
0.0
 20
0.0
 30
0.0
  0
ENDSEC
  0
SECTION
  2
OBJECTS
  0
DICTIONARY
  5
C
330
0
100
AcDbDictionary
281
     1
  3
ACAD_COLOR
350
63
  3
ACAD_DETAILVIEWSTYLE
350
6A
  3
ACAD_GROUP
350
D
  3
ACAD_LAYOUT
350
62
  3
ACAD_MATERIAL
350
10
  3
ACAD_MLEADERSTYLE
350
66
  3
ACAD_MLINESTYLE
350
5F
  3
ACAD_PLOTSETTINGS
350
61
  3
ACAD_PLOTSTYLENAME
350
E
  3
ACAD_SCALELIST
350
42
  3
ACAD_SECTIONVIEWSTYLE
350
68
  3
ACAD_TABLESTYLE
350
64
  3
ACAD_VISUALSTYLE
350
29
  3
ACDB_RECOMPOSE_DATA
350
24E
  3
AcDbVariableDictionary
350
246
  0
DICTIONARY
  5
63
102
{ACAD_REACTORS
330
C
102
}
330
C
100
AcDbDictionary
281
     1
  0
DICTIONARY
  5
6A
102
{ACAD_REACTORS
330
C
102
}
330
C
100
AcDbDictionary
281
     1
  3
Imperial24
350
6B
  0
DICTIONARY
  5
D
102
{ACAD_REACTORS
330
C
102
}
330
C
100
AcDbDictionary
281
     1
  0
DICTIONARY
  5
62
102
{ACAD_REACTORS
330
C
102
}
330
C
100
AcDbDictionary
281
     1
  3
Layout1
350
6F
  3
Layout2
350
77
  3
Model
350
73
  0
DICTIONARY
  5
10
102
{ACAD_REACTORS
330
C
102
}
330
C
100
AcDbDictionary
281
     1
  3
ByBlock
350
19
  3
ByLayer
350
11
  3
Global
350
21
  0
DICTIONARY
  5
66
102
{ACAD_REACTORS
330
C
102
}
330
C
100
AcDbDictionary
281
     1
  3
Standard
350
67
  0
DICTIONARY
  5
5F
102
{ACAD_REACTORS
330
C
102
}
330
C
100
AcDbDictionary
281
     1
  3
Standard
350
60
  0
DICTIONARY
  5
61
102
{ACAD_REACTORS
330
C
102
}
330
C
100
AcDbDictionary
281
     1
  0
ACDBDICTIONARYWDFLT
  5
E
102
{ACAD_REACTORS
330
C
102
}
330
C
100
AcDbDictionary
281
     1
  3
Normal
350
F
100
AcDbDictionaryWithDefault
340
F
  0
DICTIONARY
  5
42
102
{ACAD_REACTORS
330
C
102
}
330
C
100
AcDbDictionary
281
     1
  3
A0
350
43
  3
A1
350
44
  3
A2
350
45
  3
A3
350
46
  3
A4
350
47
  3
A5
350
48
  3
A6
350
49
  3
A7
350
4A
  3
A8
350
4B
  3
A9
350
4C
  3
B0
350
4D
  3
B1
350
4E
  3
B2
350
4F
  3
B3
350
50
  3
B4
350
51
  3
B5
350
52
  3
B6
350
53
  0
DICTIONARY
  5
68
102
{ACAD_REACTORS
330
C
102
}
330
C
100
AcDbDictionary
281
     1
  3
Imperial24
350
69
  0
DICTIONARY
  5
64
102
{ACAD_REACTORS
330
C
102
}
330
C
100
AcDbDictionary
281
     1
  3
Standard
350
65
  0
DICTIONARY
  5
29
102
{ACAD_REACTORS
330
C
102
}
330
C
100
AcDbDictionary
281
     1
  3
2dWireframe
350
2F
  3
Basic
350
2E
  3
Brighten
350
35
  3
ColorChange
350
39
  3
Conceptual
350
32
  3
Dim
350
34
  3
EdgeColorOff
350
41
  3
Facepattern
350
38
  3
Flat
350
2A
  3
FlatWithEdges
350
2B
  3
Gouraud
350
2C
  3
GouraudWithEdges
350
2D
  3
Hidden
350
31
  3
JitterOff
350
3F
  3
Linepattern
350
37
  3
OverhangOff
350
40
  3
Realistic
350
33
  3
Shaded
350
3E
  3
Shaded with edges
350
3D
  3
Shades of Gray
350
3A
  3
Sketchy
350
3B
  3
Thicken
350
36
  3
Wireframe
350
30
  3
X-Ray
350
3C
  0
XRECORD
  5
24E
102
{ACAD_REACTORS
330
C
102
}
330
C
100
AcDbXrecord
280
     1
 90
        1
330
65
  0
DICTIONARY
  5
246
102
{ACAD_REACTORS
330
C
102
}
330
C
100
AcDbDictionary
281
     1
  3
CANNOSCALE
350
24B
  3
CMLEADERSTYLE
350
248
  3
CTABLESTYLE
350
247
  3
CVIEWDETAILSTYLE
350
249
  3
CVIEWSECTIONSTYLE
350
24A
  0
ACDBDETAILVIEWSTYLE
  5
6B
102
{ACAD_REACTORS
330
6A
102
}
330
6A
100
AcDbModelDocViewStyle
 70
     0
  3
Imperial24
290
     1
300
Imperial24
 90
        0
100
AcDbDetailViewStyle
 70
     0
 71
     0
 90
        3
 71
     1
340
55
 62
   256
 40
0.24
340
0
 62
   256
 40
0.24
300

 40
0.36
280
     3
 71
     2
340
5D
 90
       25
 62
   256
 71
     3
340
55
 62
   256
 40
0.24
 90
        1
 40
0.75
 90
        1
300
%<\AcVar ViewType \f "%tc1">% %<\AcVar ViewDetailId>%\PSCALE %<\AcVar ViewScale \f "%sn">%
 71
     4
340
5D
 90
       25
 62
   256
340
5D
 90
       25
 62
   256
280
     0
  0
LAYOUT
  5
6F
102
{ACAD_REACTORS
330
62
102
}
330
62
100
AcDbPlotSettings
  1

  2

  4

  6

 40
0.0
 41
0.0
 42
0.0
 43
0.0
 44
0.0
 45
0.0
 46
0.0
 47
0.0
 48
0.0
 49
0.0
140
0.0
141
0.0
142
1.0
143
1.0
 70
   688
 72
     0
 73
     0
 74
     5
  7

 75
    16
147
1.0
 76
     0
 77
     2
 78
   300
148
0.0
149
0.0
100
AcDbLayout
  1
Layout1
 70
     1
 71
     1
 10
0.0
 20
0.0
 11
12.0
 21
9.0
 12
0.0
 22
0.0
 32
0.0
 14
0.0
 24
0.0
 34
0.0
 15
0.0
 25
0.0
 35
0.0
146
0.0
 13
0.0
 23
0.0
 33
0.0
 16
1.0
 26
0.0
 36
0.0
 17
0.0
 27
1.0
 37
0.0
 76
     0
330
6C
  0
LAYOUT
  5
77
102
{ACAD_REACTORS
330
62
102
}
330
62
100
AcDbPlotSettings
  1

  2

  4

  6

 40
0.0
 41
0.0
 42
0.0
 43
0.0
 44
0.0
 45
0.0
 46
0.0
 47
0.0
 48
0.0
 49
0.0
140
0.0
141
0.0
142
1.0
143
1.0
 70
   688
 72
     0
 73
     0
 74
     5
  7

 75
    16
147
1.0
 76
     0
 77
     2
 78
   300
148
0.0
149
0.0
100
AcDbLayout
  1
Layout2
 70
     1
 71
     2
 10
0.0
 20
0.0
 11
12.0
 21
9.0
 12
0.0
 22
0.0
 32
0.0
 14
0.0
 24
0.0
 34
0.0
 15
0.0
 25
0.0
 35
0.0
146
0.0
 13
0.0
 23
0.0
 33
0.0
 16
1.0
 26
0.0
 36
0.0
 17
0.0
 27
1.0
 37
0.0
 76
     0
330
74
  0
LAYOUT
  5
73
102
{ACAD_REACTORS
330
62
102
}
330
62
100
AcDbPlotSettings
  1

  2

  4

  6

 40
0.0
 41
0.0
 42
0.0
 43
0.0
 44
0.0
 45
0.0
 46
0.0
 47
0.0
 48
0.0
 49
0.0
140
0.0
141
0.0
142
1.0
143
1.0
 70
  1712
 72
     0
 73
     0
 74
     0
  7

 75
     0
147
1.0
 76
     0
 77
     2
 78
   300
148
0.0
149
0.0
100
AcDbLayout
  1
Model
 70
     1
 71
     0
 10
0.0
 20
0.0
 11
12.0
 21
9.0
 12
0.0
 22
0.0
 32
0.0
 14
0.0
 24
0.0
 34
0.0
 15
0.0
 25
0.0
 35
0.0
146
0.0
 13
0.0
 23
0.0
 33
0.0
 16
1.0
 26
0.0
 36
0.0
 17
0.0
 27
1.0
 37
0.0
 76
     0
330
70
  0
MATERIAL
  5
19
102
{ACAD_XDICTIONARY
360
1A
102
}
102
{ACAD_REACTORS
330
10
102
}
330
10
100
AcDbMaterial
  1
ByBlock
 72
     0
 43
0.0208333333333333
 43
0.0
 43
0.0
 43
0.0
 43
0.0
 43
0.0208333333333333
 43
0.0
 43
0.0
 43
0.0
 43
0.0
 43
1.0
 43
0.0
 43
0.0
 43
0.0
 43
0.0
 43
1.0
 77
     0
 47
0.0208333333333333
 47
0.0
 47
0.0
 47
0.0
 47
0.0
 47
0.0208333333333333
 47
0.0
 47
0.0
 47
0.0
 47
0.0
 47
1.0
 47
0.0
 47
0.0
 47
0.0
 47
0.0
 47
1.0
171
     0
 49
0.0208333333333333
 49
0.0
 49
0.0
 49
0.0
 49
0.0
 49
0.0208333333333333
 49
0.0
 49
0.0
 49
0.0
 49
0.0
 49
1.0
 49
0.0
 49
0.0
 49
0.0
 49
0.0
 49
1.0
175
     0
142
0.0208333333333333
142
0.0
142
0.0
142
0.0
142
0.0
142
0.0208333333333333
142
0.0
142
0.0
142
0.0
142
0.0
142
1.0
142
0.0
142
0.0
142
0.0
142
0.0
142
1.0
179
     0
144
0.0208333333333333
144
0.0
144
0.0
144
0.0
144
0.0
144
0.0208333333333333
144
0.0
144
0.0
144
0.0
144
0.0
144
1.0
144
0.0
144
0.0
144
0.0
144
0.0
144
1.0
147
0.0208333333333333
147
0.0
147
0.0
147
0.0
147
0.0
147
0.0208333333333333
147
0.0
147
0.0
147
0.0
147
0.0
147
1.0
147
0.0
147
0.0
147
0.0
147
0.0
147
1.0
  0
MATERIAL
  5
11
102
{ACAD_XDICTIONARY
360
12
102
}
102
{ACAD_REACTORS
330
10
102
}
330
10
100
AcDbMaterial
  1
ByLayer
 72
     0
 43
0.0208333333333333
 43
0.0
 43
0.0
 43
0.0
 43
0.0
 43
0.0208333333333333
 43
0.0
 43
0.0
 43
0.0
 43
0.0
 43
1.0
 43
0.0
 43
0.0
 43
0.0
 43
0.0
 43
1.0
 77
     0
 47
0.0208333333333333
 47
0.0
 47
0.0
 47
0.0
 47
0.0
 47
0.0208333333333333
 47
0.0
 47
0.0
 47
0.0
 47
0.0
 47
1.0
 47
0.0
 47
0.0
 47
0.0
 47
0.0
 47
1.0
171
     0
 49
0.0208333333333333
 49
0.0
 49
0.0
 49
0.0
 49
0.0
 49
0.0208333333333333
 49
0.0
 49
0.0
 49
0.0
 49
0.0
 49
1.0
 49
0.0
 49
0.0
 49
0.0
 49
0.0
 49
1.0
175
     0
142
0.0208333333333333
142
0.0
142
0.0
142
0.0
142
0.0
142
0.0208333333333333
142
0.0
142
0.0
142
0.0
142
0.0
142
1.0
142
0.0
142
0.0
142
0.0
142
0.0
142
1.0
179
     0
144
0.0208333333333333
144
0.0
144
0.0
144
0.0
144
0.0
144
0.0208333333333333
144
0.0
144
0.0
144
0.0
144
0.0
144
1.0
144
0.0
144
0.0
144
0.0
144
0.0
144
1.0
147
0.0208333333333333
147
0.0
147
0.0
147
0.0
147
0.0
147
0.0208333333333333
147
0.0
147
0.0
147
0.0
147
0.0
147
1.0
147
0.0
147
0.0
147
0.0
147
0.0
147
1.0
  0
MATERIAL
  5
21
102
{ACAD_XDICTIONARY
360
22
102
}
102
{ACAD_REACTORS
330
10
102
}
330
10
100
AcDbMaterial
  1
Global
 72
     0
 43
0.0208333333333333
 43
0.0
 43
0.0
 43
0.0
 43
0.0
 43
0.0208333333333333
 43
0.0
 43
0.0
 43
0.0
 43
0.0
 43
1.0
 43
0.0
 43
0.0
 43
0.0
 43
0.0
 43
1.0
 77
     0
 47
0.0208333333333333
 47
0.0
 47
0.0
 47
0.0
 47
0.0
 47
0.0208333333333333
 47
0.0
 47
0.0
 47
0.0
 47
0.0
 47
1.0
 47
0.0
 47
0.0
 47
0.0
 47
0.0
 47
1.0
171
     0
 49
0.0208333333333333
 49
0.0
 49
0.0
 49
0.0
 49
0.0
 49
0.0208333333333333
 49
0.0
 49
0.0
 49
0.0
 49
0.0
 49
1.0
 49
0.0
 49
0.0
 49
0.0
 49
0.0
 49
1.0
175
     0
142
0.0208333333333333
142
0.0
142
0.0
142
0.0
142
0.0
142
0.0208333333333333
142
0.0
142
0.0
142
0.0
142
0.0
142
1.0
142
0.0
142
0.0
142
0.0
142
0.0
142
1.0
179
     0
144
0.0208333333333333
144
0.0
144
0.0
144
0.0
144
0.0
144
0.0208333333333333
144
0.0
144
0.0
144
0.0
144
0.0
144
1.0
144
0.0
144
0.0
144
0.0
144
0.0
144
1.0
147
0.0208333333333333
147
0.0
147
0.0
147
0.0
147
0.0
147
0.0208333333333333
147
0.0
147
0.0
147
0.0
147
0.0
147
1.0
147
0.0
147
0.0
147
0.0
147
0.0
147
1.0
  0
MLEADERSTYLE
  5
67
102
{ACAD_REACTORS
330
66
102
}
330
66
100
AcDbMLeaderStyle
179
     2
170
     2
171
     1
172
     0
 90
        2
 40
0.0
 41
0.0
173
     1
 91
-1056964608
340
5B
 92
       -2
290
     1
 42
0.09
291
     1
 43
0.36
  3
Standard
 44
0.18
300

342
55
174
     1
178
     6
175
     1
176
     0
 93
-1056964608
 45
0.18
292
     0
297
     0
 46
0.18
 94
-1056964608
 47
1.0
 49
1.0
140
1.0
293
     1
141
0.0
294
     1
177
     0
142
1.0
295
     1
296
     0
143
0.125
271
     0
272
     9
273
     9
298
     1
  0
MLINESTYLE
  5
60
102
{ACAD_REACTORS
330
5F
102
}
330
5F
100
AcDbMlineStyle
  2
STANDARD
 70
     0
  3

 62
   256
 51
90.0
 52
90.0
 71
     2
 49
0.5
 62
   256
  6
BYLAYER
 49
-0.5
 62
   256
  6
BYLAYER
  0
ACDBPLACEHOLDER
  5
F
102
{ACAD_REACTORS
330
E
102
}
330
E
  0
SCALE
  5
43
102
{ACAD_REACTORS
330
42
102
}
330
42
100
AcDbScale
 70
     0
300
1:1
140
1.0
141
1.0
290
     1
  0
SCALE
  5
44
102
{ACAD_REACTORS
330
42
102
}
330
42
100
AcDbScale
 70
     0
300
1/128" = 1'-0"
140
0.0078125
141
12.0
290
     0
  0
SCALE
  5
45
102
{ACAD_REACTORS
330
42
102
}
330
42
100
AcDbScale
 70
     0
300
1/64" = 1'-0"
140
0.015625
141
12.0
290
     0
  0
SCALE
  5
46
102
{ACAD_REACTORS
330
42
102
}
330
42
100
AcDbScale
 70
     0
300
1/32" = 1'-0"
140
0.03125
141
12.0
290
     0
  0
SCALE
  5
47
102
{ACAD_REACTORS
330
42
102
}
330
42
100
AcDbScale
 70
     0
300
1/16" = 1'-0"
140
0.0625
141
12.0
290
     0
  0
SCALE
  5
48
102
{ACAD_REACTORS
330
42
102
}
330
42
100
AcDbScale
 70
     0
300
3/32" = 1'-0"
140
0.09375
141
12.0
290
     0
  0
SCALE
  5
49
102
{ACAD_REACTORS
330
42
102
}
330
42
100
AcDbScale
 70
     0
300
1/8" = 1'-0"
140
0.125
141
12.0
290
     0
  0
SCALE
  5
4A
102
{ACAD_REACTORS
330
42
102
}
330
42
100
AcDbScale
 70
     0
300
3/16" = 1'-0"
140
0.1875
141
12.0
290
     0
  0
SCALE
  5
4B
102
{ACAD_REACTORS
330
42
102
}
330
42
100
AcDbScale
 70
     0
300
1/4" = 1'-0"
140
0.25
141
12.0
290
     0
  0
SCALE
  5
4C
102
{ACAD_REACTORS
330
42
102
}
330
42
100
AcDbScale
 70
     0
300
3/8" = 1'-0"
140
0.375
141
12.0
290
     0
  0
SCALE
  5
4D
102
{ACAD_REACTORS
330
42
102
}
330
42
100
AcDbScale
 70
     0
300
1/2" = 1'-0"
140
0.5
141
12.0
290
     0
  0
SCALE
  5
4E
102
{ACAD_REACTORS
330
42
102
}
330
42
100
AcDbScale
 70
     0
300
3/4" = 1'-0"
140
0.75
141
12.0
290
     0
  0
SCALE
  5
4F
102
{ACAD_REACTORS
330
42
102
}
330
42
100
AcDbScale
 70
     0
300
1" = 1'-0"
140
1.0
141
12.0
290
     0
  0
SCALE
  5
50
102
{ACAD_REACTORS
330
42
102
}
330
42
100
AcDbScale
 70
     0
300
1-1/2" = 1'-0"
140
1.5
141
12.0
290
     0
  0
SCALE
  5
51
102
{ACAD_REACTORS
330
42
102
}
330
42
100
AcDbScale
 70
     0
300
3" = 1'-0"
140
3.0
141
12.0
290
     0
  0
SCALE
  5
52
102
{ACAD_REACTORS
330
42
102
}
330
42
100
AcDbScale
 70
     0
300
6" = 1'-0"
140
6.0
141
12.0
290
     0
  0
SCALE
  5
53
102
{ACAD_REACTORS
330
42
102
}
330
42
100
AcDbScale
 70
     0
300
1'-0" = 1'-0"
140
12.0
141
12.0
290
     0
  0
ACDBSECTIONVIEWSTYLE
  5
69
102
{ACAD_REACTORS
330
68
102
}
330
68
100
AcDbModelDocViewStyle
 70
     0
  3
Imperial24
290
     1
300
Imperial24
 90
        0
100
AcDbSectionViewStyle
 70
     0
 71
     0
 90
       78
 71
     1
340
55
 62
   256
 40
0.24
340
0
340
0
 62
   256
 40
0.24
300
I, O, Q, S, X, Z
 40
0.48
 90
        3
 40
0.18
 90
        1
 71
     2
340
5D
 90
       25
 62
   256
340
5D
 90
       50
 62
   256
 40
0.24
 40
0.0
 40
0.24
 71
     3
340
55
 62
   256
 40
0.24
 90
        1
 40
0.75
 90
        1
300
%<\AcVar ViewType \f "%tc1">% %<\AcVar ViewSectionStartId>%-%<\AcVar ViewSectionEndId>%\PSCALE %<\AcVar ViewScale \f "%sn">%
 71
     4
 62
   256
 62
   257
300
ANSI31
 40
1.0
 90
        0
290
     0
290
     0
 90
        6
 40
0.0
 40
1.570796326794896
 40
0.2617993877991494
 40
1.308996938995747
 40
-0.2617993877991494
 40
1.832595714594046
  0
TABLESTYLE
  5
65
102
{ACAD_XDICTIONARY
360
24C
102
}
102
{ACAD_REACTORS
330
64
102
}
330
64
100
AcDbTableStyle
280
     0
  3
Standard
 70
     0
 71
     0
 40
0.06
 41
0.06
280
     0
281
     0
  7
Standard
140
0.18
170
     2
 62
     0
 63
     7
283
     0
 90
      512
 91
        0
  1

274
    -2
284
     1
 64
     0
275
    -2
285
     1
 65
     0
276
    -2
286
     1
 66
     0
277
    -2
287
     1
 67
     0
278
    -2
288
     1
 68
     0
279
    -2
289
     1
 69
     0
  7
Standard
140
0.25
170
     5
 62
     0
 63
     7
283
     0
 90
      512
 91
        0
  1

274
    -2
284
     1
 64
     0
275
    -2
285
     1
 65
     0
276
    -2
286
     1
 66
     0
277
    -2
287
     1
 67
     0
278
    -2
288
     1
 68
     0
279
    -2
289
     1
 69
     0
  7
Standard
140
0.18
170
     5
 62
     0
 63
     7
283
     0
 90
      512
 91
        0
  1

274
    -2
284
     1
 64
     0
275
    -2
285
     1
 65
     0
276
    -2
286
     1
 66
     0
277
    -2
287
     1
 67
     0
278
    -2
288
     1
 68
     0
279
    -2
289
     1
 69
     0
  0
VISUALSTYLE
  5
2F
102
{ACAD_REACTORS
330
29
102
}
330
29
100
AcDbVisualStyle
  2
2dWireframe
 70
     4
177
     3
291
     0
 70
    58
 90
        0
176
     1
 90
        2
176
     1
 90
        0
176
     1
 90
        0
176
     1
 40
0.6
176
     1
 40
30.0
176
     1
 62
     7
420
 16777215
176
     1
 90
        1
176
     1
 90
        4
176
     1
 62
     7
176
     1
 62
   257
176
     1
 90
        1
176
     1
 90
        1
176
     1
 40
1.0
176
     1
 90
        0
176
     1
 62
   257
176
     1
 40
1.0
176
     1
 90
        1
176
     1
 90
        6
176
     1
 90
        2
176
     1
 62
     7
176
     1
 90
        5
176
     1
 90
        0
176
     1
 90
        0
176
     1
290
     0
176
     1
 90
        1
176
     1
 40
0.0
176
     1
 90
        0
176
     1
290
     1
176
     1
290
     1
176
     1
290
     0
176
     1
290
     0
176
     1
290
     0
176
     1
290
     0
176
     1
290
     0
176
     1
290
     0
176
     1
290
     0
176
     1
 90
       50
176
     1
 40
0.0
176
     1
 40
1.0
176
     1
 90
        0
176
     1
 62
    18
420
        0
176
     1
 90
       50
176
     1
 90
        3
176
     1
 62
     5
420
      255
176
     1
290
     0
176
     1
 90
       50
176
     1
 90
       50
176
     1
 90
       50
176
     1
290
     0
176
     1
 90
       50
176
     1
 62
   256
176
     0
 40
1.0
176
     0
 90
        2
176
     1
  1
strokes_ogs.tif
176
     1
290
     0
176
     1
 40
1.0
176
     1
 40
1.0
176
     1
  0
VISUALSTYLE
  5
2E
102
{ACAD_REACTORS
330
29
102
}
330
29
100
AcDbVisualStyle
  2
Basic
 70
     7
177
     3
291
     1
 70
    58
 90
        1
176
     1
 90
        0
176
     1
 90
        1
176
     1
 90
        0
176
     1
 40
0.6
176
     1
 40
30.0
176
     1
 62
     7
420
 16777215
176
     1
 90
        0
176
     1
 90
        4
176
     1
 62
     7
176
     1
 62
   257
176
     1
 90
        1
176
     1
 90
        1
176
     1
 40
1.0
176
     1
 90
        8
176
     1
 62
     7
176
     1
 40
1.0
176
     1
 90
        1
176
     1
 90
        6
176
     1
 90
        2
176
     1
 62
     7
176
     1
 90
        5
176
     1
 90
        0
176
     1
 90
        0
176
     1
290
     0
176
     1
 90
        1
176
     1
 40
0.0
176
     1
 90
        0
176
     1
290
     0
176
     1
290
     1
176
     1
290
     1
176
     1
290
     0
176
     1
290
     0
176
     1
290
     0
176
     1
290
     0
176
     1
290
     0
176
     1
290
     0
176
     1
 90
       50
176
     1
 40
0.0
176
     1
 40
1.0
176
     1
 90
        0
176
     1
 62
    18
420
        0
176
     1
 90
       50
176
     1
 90
        3
176
     1
 62
     5
420
      255
176
     1
290
     0
176
     1
 90
       50
176
     1
 90
       50
176
     1
 90
       50
176
     1
290
     0
176
     1
 90
       50
176
     1
 62
   256
176
     0
 40
1.0
176
     0
 90
        2
176
     1
  1
strokes_ogs.tif
176
     1
290
     0
176
     1
 40
1.0
176
     1
 40
1.0
176
     1
  0
VISUALSTYLE
  5
35
102
{ACAD_REACTORS
330
29
102
}
330
29
100
AcDbVisualStyle
  2
Brighten
 70
    12
177
     3
291
     1
 70
    58
 90
        2
176
     1
 90
        2
176
     1
 90
        0
176
     1
 90
        0
176
     1
 40
0.6
176
     1
 40
30.0
176
     1
 62
     7
420
 16777215
176
     1
 90
        1
176
     1
 90
        4
176
     1
 62
     7
176
     1
 62
   257
176
     1
 90
        1
176
     1
 90
        1
176
     1
 40
1.0
176
     1
 90
        8
176
     1
 62
     7
176
     1
 40
1.0
176
     1
 90
        1
176
     1
 90
        6
176
     1
 90
        2
176
     1
 62
     7
176
     1
 90
        5
176
     1
 90
        0
176
     1
 90
        0
176
     1
290
     0
176
     1
 90
        1
176
     1
 40
50.0
176
     1
 90
        0
176
     1
290
     0
176
     1
290
     1
176
     1
290
     1
176
     1
290
     0
176
     1
290
     0
176
     1
290
     0
176
     1
290
     0
176
     1
290
     0
176
     1
290
     0
176
     1
 90
       50
176
     1
 40
0.0
176
     1
 40
1.0
176
     1
 90
        0
176
     1
 62
    18
420
        0
176
     1
 90
       50
176
     1
 90
        3
176
     1
 62
     5
420
      255
176
     1
290
     0
176
     1
 90
       50
176
     1
 90
       50
176
     1
 90
       50
176
     1
290
     0
176
     1
 90
       50
176
     1
 62
   256
176
     0
 40
1.0
176
     0
 90
        2
176
     1
  1
strokes_ogs.tif
176
     1
290
     0
176
     1
 40
1.0
176
     1
 40
1.0
176
     1
  0
VISUALSTYLE
  5
39
102
{ACAD_REACTORS
330
29
102
}
330
29
100
AcDbVisualStyle
  2
ColorChange
 70
    16
177
     3
291
     1
 70
    58
 90
        2
176
     1
 90
        2
176
     1
 90
        3
176
     1
 90
        0
176
     1
 40
0.6
176
     1
 40
30.0
176
     1
 62
     8
420
  8421504
176
     1
 90
        1
176
     1
 90
        4
176
     1
 62
     7
176
     1
 62
   257
176
     1
 90
        1
176
     1
 90
        1
176
     1
 40
1.0
176
     1
 90
        8
176
     1
 62
     8
420
  8421504
176
     1
 40
1.0
176
     1
 90
        1
176
     1
 90
        6
176
     1
 90
        2
176
     1
 62
     7
176
     1
 90
        5
176
     1
 90
        0
176
     1
 90
        0
176
     1
290
     0
176
     1
 90
        1
176
     1
 40
0.0
176
     1
 90
        0
176
     1
290
     0
176
     1
290
     1
176
     1
290
     1
176
     1
290
     0
176
     1
290
     0
176
     1
290
     0
176
     1
290
     0
176
     1
290
     0
176
     1
290
     0
176
     1
 90
       50
176
     1
 40
0.0
176
     1
 40
1.0
176
     1
 90
        0
176
     1
 62
    18
420
        0
176
     1
 90
       50
176
     1
 90
        3
176
     1
 62
     5
420
      255
176
     1
290
     0
176
     1
 90
       50
176
     1
 90
       50
176
     1
 90
       50
176
     1
290
     0
176
     1
 90
       50
176
     1
 62
   256
176
     0
 40
1.0
176
     0
 90
        2
176
     1
  1
strokes_ogs.tif
176
     1
290
     0
176
     1
 40
1.0
176
     1
 40
1.0
176
     1
  0
VISUALSTYLE
  5
32
102
{ACAD_REACTORS
330
29
102
}
330
29
100
AcDbVisualStyle
  2
Conceptual
 70
     9
177
     3
291
     0
 70
    58
 90
        3
176
     1
 90
        2
176
     1
 90
        0
176
     1
 90
        0
176
     1
 40
0.6
176
     1
 40
30.0
176
     1
 62
     7
420
 16777215
176
     1
 90
        2
176
     1
 90
        2
176
     1
 62
     7
176
     1
 62
   257
176
     1
 90
        1
176
     1
 90
        1
176
     1
 40
179.0
176
     1
 90
        8
176
     1
 62
     7
176
     1
 40
1.0
176
     1
 90
        1
176
     1
 90
        6
176
     1
 90
        2
176
     1
 62
     7
176
     1
 90
        3
176
     1
 90
        0
176
     1
 90
        0
176
     1
290
     0
176
     1
 90
        1
176
     1
 40
0.0
176
     1
 90
        0
176
     1
290
     0
176
     1
290
     1
176
     1
290
     1
176
     1
290
     0
176
     1
290
     0
176
     1
290
     0
176
     1
290
     0
176
     1
290
     0
176
     1
290
     0
176
     1
 90
       50
176
     1
 40
0.0
176
     1
 40
1.0
176
     1
 90
        0
176
     1
 62
    18
420
        0
176
     1
 90
       50
176
     1
 90
        3
176
     1
 62
     5
420
      255
176
     1
290
     0
176
     1
 90
       50
176
     1
 90
       50
176
     1
 90
       50
176
     1
290
     0
176
     1
 90
       50
176
     1
 62
   256
176
     0
 40
1.0
176
     0
 90
        2
176
     1
  1
strokes_ogs.tif
176
     1
290
     0
176
     1
 40
1.0
176
     1
 40
1.0
176
     1
  0
VISUALSTYLE
  5
34
102
{ACAD_REACTORS
330
29
102
}
330
29
100
AcDbVisualStyle
  2
Dim
 70
    11
177
     3
291
     1
 70
    58
 90
        2
176
     1
 90
        2
176
     1
 90
        0
176
     1
 90
        0
176
     1
 40
0.6
176
     1
 40
30.0
176
     1
 62
     7
420
 16777215
176
     1
 90
        1
176
     1
 90
        4
176
     1
 62
     7
176
     1
 62
   257
176
     1
 90
        1
176
     1
 90
        1
176
     1
 40
1.0
176
     1
 90
        8
176
     1
 62
     7
176
     1
 40
1.0
176
     1
 90
        1
176
     1
 90
        6
176
     1
 90
        2
176
     1
 62
     7
176
     1
 90
        5
176
     1
 90
        0
176
     1
 90
        0
176
     1
290
     0
176
     1
 90
        1
176
     1
 40
-50.0
176
     1
 90
        0
176
     1
290
     0
176
     1
290
     1
176
     1
290
     1
176
     1
290
     0
176
     1
290
     0
176
     1
290
     0
176
     1
290
     0
176
     1
290
     0
176
     1
290
     0
176
     1
 90
       50
176
     1
 40
0.0
176
     1
 40
1.0
176
     1
 90
        0
176
     1
 62
    18
420
        0
176
     1
 90
       50
176
     1
 90
        3
176
     1
 62
     5
420
      255
176
     1
290
     0
176
     1
 90
       50
176
     1
 90
       50
176
     1
 90
       50
176
     1
290
     0
176
     1
 90
       50
176
     1
 62
   256
176
     0
 40
1.0
176
     0
 90
        2
176
     1
  1
strokes_ogs.tif
176
     1
290
     0
176
     1
 40
1.0
176
     1
 40
1.0
176
     1
  0
VISUALSTYLE
  5
41
102
{ACAD_REACTORS
330
29
102
}
330
29
100
AcDbVisualStyle
  2
EdgeColorOff
 70
    22
177
     3
291
     1
 70
    58
 90
        2
176
     0
 90
        2
176
     0
 90
        0
176
     0
 90
        0
176
     0
 40
0.6
176
     0
 40
30.0
176
     0
 62
     7
420
 16777215
176
     0
 90
        1
176
     0
 90
        4
176
     0
 62
     7
176
     0
 62
   257
176
     0
 90
        1
176
     0
 90
        1
176
     0
 40
1.0
176
     0
 90
        8
176
     2
 62
     7
176
     0
 40
1.0
176
     0
 90
        1
176
     0
 90
        6
176
     0
 90
        2
176
     0
 62
     7
176
     0
 90
        5
176
     0
 90
        0
176
     0
 90
        0
176
     0
290
     0
176
     0
 90
        1
176
     0
 40
0.0
176
     0
 90
        0
176
     0
290
     0
176
     0
290
     1
176
     0
290
     1
176
     0
290
     0
176
     0
290
     0
176
     0
290
     0
176
     0
290
     0
176
     0
290
     0
176
     0
290
     0
176
     0
 90
       50
176
     0
 40
0.0
176
     0
 40
1.0
176
     0
 90
        0
176
     0
 62
    18
420
        0
176
     0
 90
       50
176
     0
 90
        3
176
     0
 62
     5
420
      255
176
     0
290
     0
176
     0
 90
       50
176
     0
 90
       50
176
     0
 90
       50
176
     0
290
     0
176
     0
 90
       50
176
     0
 62
   256
176
     0
 40
1.0
176
     0
 90
        2
176
     0
  1
strokes_ogs.tif
176
     0
290
     0
176
     0
 40
1.0
176
     0
 40
1.0
176
     0
  0
VISUALSTYLE
  5
38
102
{ACAD_REACTORS
330
29
102
}
330
29
100
AcDbVisualStyle
  2
Facepattern
 70
    15
177
     3
291
     1
 70
    58
 90
        2
176
     1
 90
        2
176
     1
 90
        0
176
     1
 90
        0
176
     1
 40
0.6
176
     1
 40
30.0
176
     1
 62
     7
420
 16777215
176
     1
 90
        1
176
     1
 90
        4
176
     1
 62
     7
176
     1
 62
   257
176
     1
 90
        1
176
     1
 90
        1
176
     1
 40
1.0
176
     1
 90
        8
176
     1
 62
     7
176
     1
 40
1.0
176
     1
 90
        1
176
     1
 90
        6
176
     1
 90
        2
176
     1
 62
     7
176
     1
 90
        5
176
     1
 90
        0
176
     1
 90
        0
176
     1
290
     0
176
     1
 90
        1
176
     1
 40
0.0
176
     1
 90
        0
176
     1
290
     0
176
     1
290
     1
176
     1
290
     1
176
     1
290
     0
176
     1
290
     0
176
     1
290
     0
176
     1
290
     0
176
     1
290
     0
176
     1
290
     0
176
     1
 90
       50
176
     1
 40
0.0
176
     1
 40
1.0
176
     1
 90
        0
176
     1
 62
    18
420
        0
176
     1
 90
       50
176
     1
 90
        3
176
     1
 62
     5
420
      255
176
     1
290
     0
176
     1
 90
       50
176
     1
 90
       50
176
     1
 90
       50
176
     1
290
     0
176
     1
 90
       50
176
     1
 62
   256
176
     0
 40
1.0
176
     0
 90
        2
176
     1
  1
strokes_ogs.tif
176
     1
290
     0
176
     1
 40
1.0
176
     1
 40
1.0
176
     1
  0
VISUALSTYLE
  5
2A
102
{ACAD_REACTORS
330
29
102
}
330
29
100
AcDbVisualStyle
  2
Flat
 70
     0
177
     3
291
     1
 70
    58
 90
        2
176
     1
 90
        1
176
     1
 90
        1
176
     1
 90
        2
176
     1
 40
0.6
176
     1
 40
30.0
176
     1
 62
     7
420
 16777215
176
     1
 90
        0
176
     1
 90
        0
176
     1
 62
     7
176
     1
 62
   257
176
     1
 90
        1
176
     1
 90
        1
176
     1
 40
1.0
176
     1
 90
        8
176
     1
 62
     7
176
     1
 40
1.0
176
     1
 90
        1
176
     1
 90
        6
176
     1
 90
        2
176
     1
 62
     7
176
     1
 90
        5
176
     1
 90
        0
176
     1
 90
        0
176
     1
290
     0
176
     1
 90
       13
176
     1
 40
0.0
176
     1
 90
        0
176
     1
290
     0
176
     1
290
     1
176
     1
290
     1
176
     1
290
     0
176
     1
290
     0
176
     1
290
     0
176
     1
290
     0
176
     1
290
     0
176
     1
290
     0
176
     1
 90
       50
176
     1
 40
0.0
176
     1
 40
1.0
176
     1
 90
        0
176
     1
 62
    18
420
        0
176
     1
 90
       50
176
     1
 90
        3
176
     1
 62
     5
420
      255
176
     1
290
     0
176
     1
 90
       50
176
     1
 90
       50
176
     1
 90
       50
176
     1
290
     0
176
     1
 90
       50
176
     1
 62
   256
176
     0
 40
1.0
176
     0
 90
        2
176
     1
  1
strokes_ogs.tif
176
     1
290
     0
176
     1
 40
1.0
176
     1
 40
1.0
176
     1
  0
VISUALSTYLE
  5
2B
102
{ACAD_REACTORS
330
29
102
}
330
29
100
AcDbVisualStyle
  2
FlatWithEdges
 70
     1
177
     3
291
     1
 70
    58
 90
        2
176
     1
 90
        1
176
     1
 90
        1
176
     1
 90
        2
176
     1
 40
0.6
176
     1
 40
30.0
176
     1
 62
     7
420
 16777215
176
     1
 90
        1
176
     1
 90
        0
176
     1
 62
     7
176
     1
 62
   257
176
     1
 90
        1
176
     1
 90
        1
176
     1
 40
1.0
176
     1
 90
        0
176
     1
 62
   257
176
     1
 40
1.0
176
     1
 90
        1
176
     1
 90
        6
176
     1
 90
        2
176
     1
 62
     7
176
     1
 90
        5
176
     1
 90
        0
176
     1
 90
        0
176
     1
290
     0
176
     1
 90
       13
176
     1
 40
0.0
176
     1
 90
        0
176
     1
290
     0
176
     1
290
     1
176
     1
290
     1
176
     1
290
     0
176
     1
290
     0
176
     1
290
     0
176
     1
290
     0
176
     1
290
     0
176
     1
290
     0
176
     1
 90
       50
176
     1
 40
0.0
176
     1
 40
1.0
176
     1
 90
        0
176
     1
 62
    18
420
        0
176
     1
 90
       50
176
     1
 90
        3
176
     1
 62
     5
420
      255
176
     1
290
     0
176
     1
 90
       50
176
     1
 90
       50
176
     1
 90
       50
176
     1
290
     0
176
     1
 90
       50
176
     1
 62
   256
176
     0
 40
1.0
176
     0
 90
        2
176
     1
  1
strokes_ogs.tif
176
     1
290
     0
176
     1
 40
1.0
176
     1
 40
1.0
176
     1
  0
VISUALSTYLE
  5
2C
102
{ACAD_REACTORS
330
29
102
}
330
29
100
AcDbVisualStyle
  2
Gouraud
 70
     2
177
     3
291
     1
 70
    58
 90
        2
176
     1
 90
        2
176
     1
 90
        1
176
     1
 90
        2
176
     1
 40
0.6
176
     1
 40
30.0
176
     1
 62
     7
420
 16777215
176
     1
 90
        0
176
     1
 90
        0
176
     1
 62
     7
176
     1
 62
   257
176
     1
 90
        1
176
     1
 90
        1
176
     1
 40
1.0
176
     1
 90
        0
176
     1
 62
     7
176
     1
 40
1.0
176
     1
 90
        1
176
     1
 90
        6
176
     1
 90
        2
176
     1
 62
     7
176
     1
 90
        5
176
     1
 90
        0
176
     1
 90
        0
176
     1
290
     0
176
     1
 90
       13
176
     1
 40
0.0
176
     1
 90
        0
176
     1
290
     0
176
     1
290
     1
176
     1
290
     1
176
     1
290
     0
176
     1
290
     0
176
     1
290
     0
176
     1
290
     0
176
     1
290
     0
176
     1
290
     0
176
     1
 90
       50
176
     1
 40
0.0
176
     1
 40
1.0
176
     1
 90
        0
176
     1
 62
    18
420
        0
176
     1
 90
       50
176
     1
 90
        3
176
     1
 62
     5
420
      255
176
     1
290
     0
176
     1
 90
       50
176
     1
 90
       50
176
     1
 90
       50
176
     1
290
     0
176
     1
 90
       50
176
     1
 62
   256
176
     0
 40
1.0
176
     0
 90
        2
176
     1
  1
strokes_ogs.tif
176
     1
290
     0
176
     1
 40
1.0
176
     1
 40
1.0
176
     1
  0
VISUALSTYLE
  5
2D
102
{ACAD_REACTORS
330
29
102
}
330
29
100
AcDbVisualStyle
  2
GouraudWithEdges
 70
     3
177
     3
291
     1
 70
    58
 90
        2
176
     1
 90
        2
176
     1
 90
        1
176
     1
 90
        2
176
     1
 40
0.6
176
     1
 40
30.0
176
     1
 62
     7
420
 16777215
176
     1
 90
        1
176
     1
 90
        0
176
     1
 62
     7
176
     1
 62
   257
176
     1
 90
        1
176
     1
 90
        1
176
     1
 40
1.0
176
     1
 90
        0
176
     1
 62
   257
176
     1
 40
1.0
176
     1
 90
        1
176
     1
 90
        6
176
     1
 90
        2
176
     1
 62
     7
176
     1
 90
        5
176
     1
 90
        0
176
     1
 90
        0
176
     1
290
     0
176
     1
 90
       13
176
     1
 40
0.0
176
     1
 90
        0
176
     1
290
     0
176
     1
290
     1
176
     1
290
     1
176
     1
290
     0
176
     1
290
     0
176
     1
290
     0
176
     1
290
     0
176
     1
290
     0
176
     1
290
     0
176
     1
 90
       50
176
     1
 40
0.0
176
     1
 40
1.0
176
     1
 90
        0
176
     1
 62
    18
420
        0
176
     1
 90
       50
176
     1
 90
        3
176
     1
 62
     5
420
      255
176
     1
290
     0
176
     1
 90
       50
176
     1
 90
       50
176
     1
 90
       50
176
     1
290
     0
176
     1
 90
       50
176
     1
 62
   256
176
     0
 40
1.0
176
     0
 90
        2
176
     1
  1
strokes_ogs.tif
176
     1
290
     0
176
     1
 40
1.0
176
     1
 40
1.0
176
     1
  0
VISUALSTYLE
  5
31
102
{ACAD_REACTORS
330
29
102
}
330
29
100
AcDbVisualStyle
  2
Hidden
 70
     6
177
     3
291
     0
 70
    58
 90
        1
176
     1
 90
        2
176
     1
 90
        2
176
     1
 90
        0
176
     1
 40
0.6
176
     1
 40
30.0
176
     1
 62
     7
420
 16777215
176
     1
 90
        2
176
     1
 90
        2
176
     1
 62
     7
176
     1
 62
   257
176
     1
 90
        2
176
     1
 90
        1
176
     1
 40
40.0
176
     1
 90
        0
176
     1
 62
   257
176
     1
 40
1.0
176
     1
 90
        1
176
     1
 90
        6
176
     1
 90
        2
176
     1
 62
     7
176
     1
 90
        3
176
     1
 90
        0
176
     1
 90
        0
176
     1
290
     0
176
     1
 90
        1
176
     1
 40
0.0
176
     1
 90
        0
176
     1
290
     0
176
     1
290
     1
176
     1
290
     1
176
     1
290
     0
176
     1
290
     0
176
     1
290
     0
176
     1
290
     0
176
     1
290
     0
176
     1
290
     0
176
     1
 90
       50
176
     1
 40
0.0
176
     1
 40
1.0
176
     1
 90
        0
176
     1
 62
    18
420
        0
176
     1
 90
       50
176
     1
 90
        3
176
     1
 62
     5
420
      255
176
     1
290
     0
176
     1
 90
       50
176
     1
 90
       50
176
     1
 90
       50
176
     1
290
     0
176
     1
 90
       50
176
     1
 62
   256
176
     0
 40
1.0
176
     0
 90
        2
176
     1
  1
strokes_ogs.tif
176
     1
290
     0
176
     1
 40
1.0
176
     1
 40
1.0
176
     1
  0
VISUALSTYLE
  5
3F
102
{ACAD_REACTORS
330
29
102
}
330
29
100
AcDbVisualStyle
  2
JitterOff
 70
    20
177
     3
291
     1
 70
    58
 90
        2
176
     0
 90
        2
176
     0
 90
        0
176
     0
 90
        0
176
     0
 40
0.6
176
     0
 40
30.0
176
     0
 62
     7
420
 16777215
176
     0
 90
        1
176
     0
 90
        4
176
     0
 62
     7
176
     0
 62
   257
176
     0
 90
        1
176
     0
 90
        1
176
     0
 40
1.0
176
     0
 90
       10
176
     2
 62
     7
176
     0
 40
1.0
176
     0
 90
        1
176
     0
 90
        6
176
     0
 90
        2
176
     0
 62
     7
176
     0
 90
        5
176
     0
 90
        0
176
     0
 90
        0
176
     0
290
     0
176
     0
 90
        1
176
     0
 40
0.0
176
     0
 90
        0
176
     0
290
     0
176
     0
290
     1
176
     0
290
     1
176
     0
290
     0
176
     0
290
     0
176
     0
290
     0
176
     0
290
     0
176
     0
290
     0
176
     0
290
     0
176
     0
 90
       50
176
     0
 40
0.0
176
     0
 40
1.0
176
     0
 90
        0
176
     0
 62
    18
420
        0
176
     0
 90
       50
176
     0
 90
        3
176
     0
 62
     5
420
      255
176
     0
290
     0
176
     0
 90
       50
176
     0
 90
       50
176
     0
 90
       50
176
     0
290
     0
176
     0
 90
       50
176
     0
 62
   256
176
     0
 40
1.0
176
     0
 90
        2
176
     0
  1
strokes_ogs.tif
176
     0
290
     0
176
     0
 40
1.0
176
     0
 40
1.0
176
     0
  0
VISUALSTYLE
  5
37
102
{ACAD_REACTORS
330
29
102
}
330
29
100
AcDbVisualStyle
  2
Linepattern
 70
    14
177
     3
291
     1
 70
    58
 90
        2
176
     1
 90
        2
176
     1
 90
        0
176
     1
 90
        0
176
     1
 40
0.6
176
     1
 40
30.0
176
     1
 62
     7
420
 16777215
176
     1
 90
        1
176
     1
 90
        4
176
     1
 62
     7
176
     1
 62
   257
176
     1
 90
        7
176
     1
 90
        7
176
     1
 40
1.0
176
     1
 90
        8
176
     1
 62
     7
176
     1
 40
1.0
176
     1
 90
        1
176
     1
 90
        6
176
     1
 90
        2
176
     1
 62
     7
176
     1
 90
        5
176
     1
 90
        0
176
     1
 90
        0
176
     1
290
     0
176
     1
 90
        1
176
     1
 40
0.0
176
     1
 90
        0
176
     1
290
     0
176
     1
290
     1
176
     1
290
     1
176
     1
290
     0
176
     1
290
     0
176
     1
290
     0
176
     1
290
     0
176
     1
290
     0
176
     1
290
     0
176
     1
 90
       50
176
     1
 40
0.0
176
     1
 40
1.0
176
     1
 90
        0
176
     1
 62
    18
420
        0
176
     1
 90
       50
176
     1
 90
        3
176
     1
 62
     5
420
      255
176
     1
290
     0
176
     1
 90
       50
176
     1
 90
       50
176
     1
 90
       50
176
     1
290
     0
176
     1
 90
       50
176
     1
 62
   256
176
     0
 40
1.0
176
     0
 90
        2
176
     1
  1
strokes_ogs.tif
176
     1
290
     0
176
     1
 40
1.0
176
     1
 40
1.0
176
     1
  0
VISUALSTYLE
  5
40
102
{ACAD_REACTORS
330
29
102
}
330
29
100
AcDbVisualStyle
  2
OverhangOff
 70
    21
177
     3
291
     1
 70
    58
 90
        2
176
     0
 90
        2
176
     0
 90
        0
176
     0
 90
        0
176
     0
 40
0.6
176
     0
 40
30.0
176
     0
 62
     7
420
 16777215
176
     0
 90
        1
176
     0
 90
        4
176
     0
 62
     7
176
     0
 62
   257
176
     0
 90
        1
176
     0
 90
        1
176
     0
 40
1.0
176
     0
 90
        9
176
     2
 62
     7
176
     0
 40
1.0
176
     0
 90
        1
176
     0
 90
        6
176
     0
 90
        2
176
     0
 62
     7
176
     0
 90
        5
176
     0
 90
        0
176
     0
 90
        0
176
     0
290
     0
176
     0
 90
        1
176
     0
 40
0.0
176
     0
 90
        0
176
     0
290
     0
176
     0
290
     1
176
     0
290
     1
176
     0
290
     0
176
     0
290
     0
176
     0
290
     0
176
     0
290
     0
176
     0
290
     0
176
     0
290
     0
176
     0
 90
       50
176
     0
 40
0.0
176
     0
 40
1.0
176
     0
 90
        0
176
     0
 62
    18
420
        0
176
     0
 90
       50
176
     0
 90
        3
176
     0
 62
     5
420
      255
176
     0
290
     0
176
     0
 90
       50
176
     0
 90
       50
176
     0
 90
       50
176
     0
290
     0
176
     0
 90
       50
176
     0
 62
   256
176
     0
 40
1.0
176
     0
 90
        2
176
     0
  1
strokes_ogs.tif
176
     0
290
     0
176
     0
 40
1.0
176
     0
 40
1.0
176
     0
  0
VISUALSTYLE
  5
33
102
{ACAD_REACTORS
330
29
102
}
330
29
100
AcDbVisualStyle
  2
Realistic
 70
     8
177
     3
291
     0
 70
    58
 90
        2
176
     1
 90
        3
176
     1
 90
        0
176
     1
 90
        2
176
     1
 40
0.6
176
     1
 40
30.0
176
     1
 62
     7
420
 16777215
176
     1
 90
        0
176
     1
 90
        0
176
     1
 62
     7
176
     1
 62
   257
176
     1
 90
        1
176
     1
 90
        1
176
     1
 40
1.0
176
     1
 90
        8
176
     1
 62
   257
176
     1
 40
1.0
176
     1
 90
        1
176
     1
 90
        6
176
     1
 90
        2
176
     1
 62
     7
176
     1
 90
        3
176
     1
 90
        0
176
     1
 90
        0
176
     1
290
     0
176
     1
 90
       13
176
     1
 40
0.0
176
     1
 90
        0
176
     1
290
     0
176
     1
290
     1
176
     1
290
     1
176
     1
290
     0
176
     1
290
     0
176
     1
290
     0
176
     1
290
     0
176
     1
290
     0
176
     1
290
     0
176
     1
 90
       50
176
     1
 40
0.0
176
     1
 40
1.0
176
     1
 90
        0
176
     1
 62
    18
420
        0
176
     1
 90
       50
176
     1
 90
        3
176
     1
 62
     5
420
      255
176
     1
290
     0
176
     1
 90
       50
176
     1
 90
       50
176
     1
 90
       50
176
     1
290
     0
176
     1
 90
       50
176
     1
 62
   256
176
     0
 40
1.0
176
     0
 90
        2
176
     1
  1
strokes_ogs.tif
176
     1
290
     0
176
     1
 40
1.0
176
     1
 40
1.0
176
     1
  0
VISUALSTYLE
  5
3E
102
{ACAD_REACTORS
330
29
102
}
330
29
100
AcDbVisualStyle
  2
Shaded
 70
    27
177
     3
291
     0
 70
    58
 90
        2
176
     1
 90
        2
176
     1
 90
        1
176
     1
 90
        2
176
     1
 40
0.6
176
     1
 40
30.0
176
     1
 62
     7
420
 16777215
176
     1
 90
        0
176
     1
 90
        4
176
     1
 62
     7
176
     1
 62
   257
176
     1
 90
        1
176
     1
 90
        1
176
     1
 40
1.0
176
     1
 90
        8
176
     1
 62
   257
176
     1
 40
1.0
176
     1
 90
        1
176
     1
 90
        6
176
     1
 90
        2
176
     1
 62
     8
420
  7895160
176
     1
 90
        3
176
     1
 90
        0
176
     1
 90
        0
176
     1
290
     0
176
     1
 90
        5
176
     1
 40
0.0
176
     1
 90
        0
176
     1
290
     0
176
     1
290
     1
176
     1
290
     1
176
     1
290
     0
176
     1
290
     0
176
     1
290
     0
176
     1
290
     0
176
     1
290
     0
176
     1
290
     0
176
     1
 90
       50
176
     1
 40
0.0
176
     1
 40
1.0
176
     1
 90
        0
176
     1
 62
    18
420
        0
176
     1
 90
       50
176
     1
 90
        3
176
     1
 62
     5
420
      255
176
     1
290
     0
176
     1
 90
       50
176
     1
 90
       50
176
     1
 90
       50
176
     1
290
     0
176
     1
 90
       50
176
     1
 62
   256
176
     0
 40
1.0
176
     0
 90
        2
176
     1
  1
strokes_ogs.tif
176
     1
290
     0
176
     1
 40
1.0
176
     1
 40
1.0
176
     1
  0
VISUALSTYLE
  5
3D
102
{ACAD_REACTORS
330
29
102
}
330
29
100
AcDbVisualStyle
  2
Shaded with edges
 70
    26
177
     3
291
     0
 70
    58
 90
        2
176
     1
 90
        2
176
     1
 90
        1
176
     1
 90
        2
176
     1
 40
0.6
176
     1
 40
30.0
176
     1
 62
     7
420
 16777215
176
     1
 90
        1
176
     1
 90
        2
176
     1
 62
     7
176
     1
 62
   257
176
     1
 90
        2
176
     1
 90
        1
176
     1
 40
1.0
176
     1
 90
        8
176
     1
 62
   257
176
     1
 40
1.0
176
     1
 90
        1
176
     1
 90
        6
176
     1
 90
        2
176
     1
 62
     7
176
     1
 90
        3
176
     1
 90
        0
176
     1
 90
        0
176
     1
290
     0
176
     1
 90
        5
176
     1
 40
0.0
176
     1
 90
        0
176
     1
290
     0
176
     1
290
     1
176
     1
290
     1
176
     1
290
     0
176
     1
290
     0
176
     1
290
     0
176
     1
290
     0
176
     1
290
     0
176
     1
290
     0
176
     1
 90
       50
176
     1
 40
0.0
176
     1
 40
1.0
176
     1
 90
        0
176
     1
 62
    18
420
        0
176
     1
 90
       50
176
     1
 90
        3
176
     1
 62
     5
420
      255
176
     1
290
     0
176
     1
 90
       50
176
     1
 90
       50
176
     1
 90
       50
176
     1
290
     0
176
     1
 90
       50
176
     1
 62
   256
176
     0
 40
1.0
176
     0
 90
        2
176
     1
  1
strokes_ogs.tif
176
     1
290
     0
176
     1
 40
1.0
176
     1
 40
1.0
176
     1
  0
VISUALSTYLE
  5
3A
102
{ACAD_REACTORS
330
29
102
}
330
29
100
AcDbVisualStyle
  2
Shades of Gray
 70
    23
177
     3
291
     0
 70
    58
 90
        2
176
     1
 90
        2
176
     1
 90
        3
176
     1
 90
        0
176
     1
 40
0.6
176
     1
 40
30.0
176
     1
 62
     7
420
 16777215
176
     1
 90
        2
176
     1
 90
        2
176
     1
 62
     7
176
     1
 62
     7
176
     1
 90
        1
176
     1
 90
        1
176
     1
 40
40.0
176
     1
 90
        8
176
     1
 62
     7
176
     1
 40
1.0
176
     1
 90
        1
176
     1
 90
        6
176
     1
 90
        2
176
     1
 62
     7
176
     1
 90
        3
176
     1
 90
        0
176
     1
 90
        0
176
     1
290
     0
176
     1
 90
        1
176
     1
 40
0.0
176
     1
 90
        0
176
     1
290
     0
176
     1
290
     1
176
     1
290
     1
176
     1
290
     0
176
     1
290
     0
176
     1
290
     0
176
     1
290
     0
176
     1
290
     0
176
     1
290
     0
176
     1
 90
       50
176
     1
 40
0.0
176
     1
 40
1.0
176
     1
 90
        0
176
     1
 62
    18
420
        0
176
     1
 90
       50
176
     1
 90
        3
176
     1
 62
     5
420
      255
176
     1
290
     0
176
     1
 90
       50
176
     1
 90
       50
176
     1
 90
       50
176
     1
290
     0
176
     1
 90
       50
176
     1
 62
   256
176
     0
 40
1.0
176
     0
 90
        2
176
     1
  1
strokes_ogs.tif
176
     1
290
     0
176
     1
 40
1.0
176
     1
 40
1.0
176
     1
  0
VISUALSTYLE
  5
3B
102
{ACAD_REACTORS
330
29
102
}
330
29
100
AcDbVisualStyle
  2
Sketchy
 70
    24
177
     3
291
     0
 70
    58
 90
        1
176
     1
 90
        2
176
     1
 90
        2
176
     1
 90
        0
176
     1
 40
0.6
176
     1
 40
30.0
176
     1
 62
     7
420
 16777215
176
     1
 90
        2
176
     1
 90
        2
176
     1
 62
     7
176
     1
 62
     7
176
     1
 90
        1
176
     1
 90
        1
176
     1
 40
40.0
176
     1
 90
       11
176
     1
 62
     7
176
     1
 40
1.0
176
     1
 90
        1
176
     1
 90
        6
176
     1
 90
        2
176
     1
 62
     7
176
     1
 90
        6
176
     1
 90
        0
176
     1
 90
        0
176
     1
290
     0
176
     1
 90
        1
176
     1
 40
0.0
176
     1
 90
        0
176
     1
290
     0
176
     1
290
     1
176
     1
290
     1
176
     1
290
     0
176
     1
290
     0
176
     1
290
     0
176
     1
290
     0
176
     1
290
     0
176
     1
290
     0
176
     1
 90
       50
176
     1
 40
0.0
176
     1
 40
1.0
176
     1
 90
        0
176
     1
 62
    18
420
        0
176
     1
 90
       50
176
     1
 90
        3
176
     1
 62
     5
420
      255
176
     1
290
     0
176
     1
 90
       50
176
     1
 90
       50
176
     1
 90
       50
176
     1
290
     0
176
     1
 90
       50
176
     1
 62
   256
176
     0
 40
1.0
176
     0
 90
        2
176
     1
  1
strokes_ogs.tif
176
     1
290
     0
176
     1
 40
1.0
176
     1
 40
1.0
176
     1
  0
VISUALSTYLE
  5
36
102
{ACAD_REACTORS
330
29
102
}
330
29
100
AcDbVisualStyle
  2
Thicken
 70
    13
177
     3
291
     1
 70
    58
 90
        2
176
     1
 90
        2
176
     1
 90
        0
176
     1
 90
        0
176
     1
 40
0.6
176
     1
 40
30.0
176
     1
 62
     7
420
 16777215
176
     1
 90
        1
176
     1
 90
        4
176
     1
 62
     7
176
     1
 62
   257
176
     1
 90
        1
176
     1
 90
        1
176
     1
 40
1.0
176
     1
 90
       12
176
     1
 62
     7
176
     1
 40
1.0
176
     1
 90
        1
176
     1
 90
        6
176
     1
 90
        2
176
     1
 62
     7
176
     1
 90
        5
176
     1
 90
        0
176
     1
 90
        0
176
     1
290
     0
176
     1
 90
        1
176
     1
 40
0.0
176
     1
 90
        0
176
     1
290
     0
176
     1
290
     1
176
     1
290
     1
176
     1
290
     0
176
     1
290
     0
176
     1
290
     0
176
     1
290
     0
176
     1
290
     0
176
     1
290
     0
176
     1
 90
       50
176
     1
 40
0.0
176
     1
 40
1.0
176
     1
 90
        0
176
     1
 62
    18
420
        0
176
     1
 90
       50
176
     1
 90
        3
176
     1
 62
     5
420
      255
176
     1
290
     0
176
     1
 90
       50
176
     1
 90
       50
176
     1
 90
       50
176
     1
290
     0
176
     1
 90
       50
176
     1
 62
   256
176
     0
 40
1.0
176
     0
 90
        2
176
     1
  1
strokes_ogs.tif
176
     1
290
     0
176
     1
 40
1.0
176
     1
 40
1.0
176
     1
  0
VISUALSTYLE
  5
30
102
{ACAD_REACTORS
330
29
102
}
330
29
100
AcDbVisualStyle
  2
Wireframe
 70
     5
177
     3
291
     0
 70
    58
 90
        0
176
     1
 90
        2
176
     1
 90
        0
176
     1
 90
        0
176
     1
 40
0.6
176
     1
 40
30.0
176
     1
 62
     7
420
 16777215
176
     1
 90
        1
176
     1
 90
        4
176
     1
 62
     7
176
     1
 62
   257
176
     1
 90
        1
176
     1
 90
        1
176
     1
 40
1.0
176
     1
 90
        0
176
     1
 62
   257
176
     1
 40
1.0
176
     1
 90
        1
176
     1
 90
        6
176
     1
 90
        2
176
     1
 62
     7
176
     1
 90
        3
176
     1
 90
        0
176
     1
 90
        0
176
     1
290
     0
176
     1
 90
        1
176
     1
 40
0.0
176
     1
 90
        0
176
     1
290
     0
176
     1
290
     1
176
     1
290
     1
176
     1
290
     0
176
     1
290
     0
176
     1
290
     0
176
     1
290
     0
176
     1
290
     0
176
     1
290
     0
176
     1
 90
       50
176
     1
 40
0.0
176
     1
 40
1.0
176
     1
 90
        0
176
     1
 62
    18
420
        0
176
     1
 90
       50
176
     1
 90
        3
176
     1
 62
     5
420
      255
176
     1
290
     0
176
     1
 90
       50
176
     1
 90
       50
176
     1
 90
       50
176
     1
290
     0
176
     1
 90
       50
176
     1
 62
   256
176
     0
 40
1.0
176
     0
 90
        2
176
     1
  1
strokes_ogs.tif
176
     1
290
     0
176
     1
 40
1.0
176
     1
 40
1.0
176
     1
  0
VISUALSTYLE
  5
3C
102
{ACAD_REACTORS
330
29
102
}
330
29
100
AcDbVisualStyle
  2
X-Ray
 70
    25
177
     3
291
     0
 70
    58
 90
        2
176
     1
 90
        2
176
     1
 90
        1
176
     1
 90
        1
176
     1
 40
0.5
176
     1
 40
30.0
176
     1
 62
     7
420
 16777215
176
     1
 90
        1
176
     1
 90
        0
176
     1
 62
     7
176
     1
 62
   257
176
     1
 90
        1
176
     1
 90
        1
176
     1
 40
1.0
176
     1
 90
        8
176
     1
 62
     7
176
     1
 40
1.0
176
     1
 90
        1
176
     1
 90
        6
176
     1
 90
        2
176
     1
 62
     7
176
     1
 90
        3
176
     1
 90
        0
176
     1
 90
        0
176
     1
290
     0
176
     1
 90
       13
176
     1
 40
0.0
176
     1
 90
        0
176
     1
290
     0
176
     1
290
     1
176
     1
290
     1
176
     1
290
     0
176
     1
290
     0
176
     1
290
     0
176
     1
290
     0
176
     1
290
     0
176
     1
290
     0
176
     1
 90
       50
176
     1
 40
0.0
176
     1
 40
1.0
176
     1
 90
        0
176
     1
 62
    18
420
        0
176
     1
 90
       50
176
     1
 90
        3
176
     1
 62
     5
420
      255
176
     1
290
     0
176
     1
 90
       50
176
     1
 90
       50
176
     1
 90
       50
176
     1
290
     0
176
     1
 90
       50
176
     1
 62
   256
176
     0
 40
1.0
176
     0
 90
        2
176
     1
  1
strokes_ogs.tif
176
     1
290
     0
176
     1
 40
1.0
176
     1
 40
1.0
176
     1
  0
DICTIONARYVAR
  5
24B
102
{ACAD_REACTORS
330
246
102
}
330
246
100
DictionaryVariables
280
     0
  1
1:1
  0
DICTIONARYVAR
  5
248
102
{ACAD_REACTORS
330
246
102
}
330
246
100
DictionaryVariables
280
     0
  1
STANDARD
  0
DICTIONARYVAR
  5
247
102
{ACAD_REACTORS
330
246
102
}
330
246
100
DictionaryVariables
280
     0
  1
STANDARD
  0
DICTIONARYVAR
  5
249
102
{ACAD_REACTORS
330
246
102
}
330
246
100
DictionaryVariables
280
     0
  1
Imperial24
  0
DICTIONARYVAR
  5
24A
102
{ACAD_REACTORS
330
246
102
}
330
246
100
DictionaryVariables
280
     0
  1
Imperial24
  0
DICTIONARY
  5
1A
330
19
100
AcDbDictionary
280
     1
281
     1
  3
BUMPTILE
360
1C
  3
DIFFUSETILE
360
1B
  3
OPACITYTILE
360
1F
  3
REFLECTIONTILE
360
1E
  3
REFRACTIONTILE
360
20
  3
SPECULARTILE
360
1D
  0
DICTIONARY
  5
12
330
11
100
AcDbDictionary
280
     1
281
     1
  3
BUMPTILE
360
14
  3
DIFFUSETILE
360
13
  3
OPACITYTILE
360
17
  3
REFLECTIONTILE
360
16
  3
REFRACTIONTILE
360
18
  3
SPECULARTILE
360
15
  0
DICTIONARY
  5
22
330
21
100
AcDbDictionary
280
     1
281
     1
  3
BUMPTILE
360
24
  3
DIFFUSETILE
360
23
  3
OPACITYTILE
360
27
  3
REFLECTIONTILE
360
26
  3
REFRACTIONTILE
360
28
  3
SPECULARTILE
360
25
  0
DICTIONARY
  5
24C
330
65
100
AcDbDictionary
280
     1
281
     1
  3
ACAD_ROUNDTRIP_2008_TABLESTYLE_CELLSTYLEMAP
360
24D
  0
XRECORD
  5
1C
102
{ACAD_REACTORS
330
1A
102
}
330
1A
100
AcDbXrecord
280
     1
270
     1
271
     1
  0
XRECORD
  5
1B
102
{ACAD_REACTORS
330
1A
102
}
330
1A
100
AcDbXrecord
280
     1
270
     1
271
     1
  0
XRECORD
  5
1F
102
{ACAD_REACTORS
330
1A
102
}
330
1A
100
AcDbXrecord
280
     1
270
     1
271
     1
  0
XRECORD
  5
1E
102
{ACAD_REACTORS
330
1A
102
}
330
1A
100
AcDbXrecord
280
     1
270
     1
271
     1
  0
XRECORD
  5
20
102
{ACAD_REACTORS
330
1A
102
}
330
1A
100
AcDbXrecord
280
     1
270
     1
271
     1
  0
XRECORD
  5
1D
102
{ACAD_REACTORS
330
1A
102
}
330
1A
100
AcDbXrecord
280
     1
270
     1
271
     1
  0
XRECORD
  5
14
102
{ACAD_REACTORS
330
12
102
}
330
12
100
AcDbXrecord
280
     1
270
     1
271
     1
  0
XRECORD
  5
13
102
{ACAD_REACTORS
330
12
102
}
330
12
100
AcDbXrecord
280
     1
270
     1
271
     1
  0
XRECORD
  5
17
102
{ACAD_REACTORS
330
12
102
}
330
12
100
AcDbXrecord
280
     1
270
     1
271
     1
  0
XRECORD
  5
16
102
{ACAD_REACTORS
330
12
102
}
330
12
100
AcDbXrecord
280
     1
270
     1
271
     1
  0
XRECORD
  5
18
102
{ACAD_REACTORS
330
12
102
}
330
12
100
AcDbXrecord
280
     1
270
     1
271
     1
  0
XRECORD
  5
15
102
{ACAD_REACTORS
330
12
102
}
330
12
100
AcDbXrecord
280
     1
270
     1
271
     1
  0
XRECORD
  5
24
102
{ACAD_REACTORS
330
22
102
}
330
22
100
AcDbXrecord
280
     1
270
     1
271
     1
  0
XRECORD
  5
23
102
{ACAD_REACTORS
330
22
102
}
330
22
100
AcDbXrecord
280
     1
270
     1
271
     1
  0
XRECORD
  5
27
102
{ACAD_REACTORS
330
22
102
}
330
22
100
AcDbXrecord
280
     1
270
     1
271
     1
  0
XRECORD
  5
26
102
{ACAD_REACTORS
330
22
102
}
330
22
100
AcDbXrecord
280
     1
270
     1
271
     1
  0
XRECORD
  5
28
102
{ACAD_REACTORS
330
22
102
}
330
22
100
AcDbXrecord
280
     1
270
     1
271
     1
  0
XRECORD
  5
25
102
{ACAD_REACTORS
330
22
102
}
330
22
100
AcDbXrecord
280
     1
270
     1
271
     1
  0
CELLSTYLEMAP
  5
24D
102
{ACAD_REACTORS
330
24C
102
}
330
24C
100
AcDbCellStyleMap
 90
        3
300
CELLSTYLE
  1
TABLEFORMAT_BEGIN
 90
        5
170
     1
 91
        0
 92
    32768
 62
   257
 93
        1
300
CONTENTFORMAT
  1
CONTENTFORMAT_BEGIN
 90
        0
 91
        0
 92
      512
 93
        0
300

 40
0.0
140
1.0
 94
        5
 62
     0
340
55
144
0.25
309
CONTENTFORMAT_END
171
     0
 94
        0
309
TABLEFORMAT_END
  1
CELLSTYLE_BEGIN
 90
        1
 91
        1
300
_TITLE
309
CELLSTYLE_END
300
CELLSTYLE
  1
TABLEFORMAT_BEGIN
 90
        5
170
     1
 91
        0
 92
        0
 62
   257
 93
        1
300
CONTENTFORMAT
  1
CONTENTFORMAT_BEGIN
 90
        0
 91
        0
 92
      512
 93
        0
300

 40
0.0
140
1.0
 94
        5
 62
     0
340
55
144
0.18
309
CONTENTFORMAT_END
171
     0
 94
        0
309
TABLEFORMAT_END
  1
CELLSTYLE_BEGIN
 90
        2
 91
        1
300
_HEADER
309
CELLSTYLE_END
300
CELLSTYLE
  1
TABLEFORMAT_BEGIN
 90
        5
170
     1
 91
        0
 92
        0
 62
   257
 93
        1
300
CONTENTFORMAT
  1
CONTENTFORMAT_BEGIN
 90
        0
 91
        0
 92
      512
 93
        0
300

 40
0.0
140
1.0
 94
        2
 62
     0
340
55
144
0.18
309
CONTENTFORMAT_END
171
     0
 94
        0
309
TABLEFORMAT_END
  1
CELLSTYLE_BEGIN
 90
        3
 91
        2
300
_DATA
309
CELLSTYLE_END
  0
ENDSEC
  0
EOF
