  0
SECTION
  2
HEADER
  9
$ACADVER
  1
AC1015
  9
$ACADMAINTVER
 70
     6
  9
$DWGCODEPAGE
  3
UNDEFINED
  9
$INSBASE
 10
0.0
 20
0.0
 30
0.0
  9
$EXTMIN
 10
-32.05
 20
-32.05
 30
0.0
  9
$EXTMAX
 10
1258.45
 20
893.05
 30
0.0
  9
$LIMMIN
 10
-32.05
 20
-32.05
  9
$LIMMAX
 10
1258.45
 20
893.05
  9
$ORTHOMODE
 70
     0
  9
$REGENMODE
 70
     1
  9
$FILLMODE
 70
     1
  9
$QTEXTMODE
 70
     0
  9
$MIRRTEXT
 70
     1
  9
$LTSCALE
 40
1.0
  9
$ATTMODE
 70
     1
  9
$TEXTSIZE
 40
3.0
  9
$TRACEWID
 40
0.05
  9
$TEXTSTYLE
  7
STANDARD
  9
$CLAYER
  8
0
  9
$CELTYPE
  6
ByBlock
  9
$CECOLOR
 62
   256
  9
$CELTSCALE
 40
1.0
  9
$DISPSILH
 70
     0
  9
$DIMSCALE
 40
1.0
  9
$DIMASZ
 40
19.5259201423987
  9
$DIMEXO
 40
1.0
  9
$DIMDLI
 40
0.38
  9
$DIMRND
 40
0.0
  9
$DIMDLE
 40
0.0
  9
$DIMEXE
 40
1.0
  9
$DIMTP
 40
0.0
  9
$DIMTM
 40
0.0
  9
$DIMTXT
 40
3.0
  9
$DIMCEN
 40
1.0
  9
$DIMTSZ
 40
0.0
  9
$DIMTOL
 70
     0
  9
$DIMLIM
 70
     0
  9
$DIMTIH
 70
     1
  9
$DIMTOH
 70
     1
  9
$DIMSE1
 70
     0
  9
$DIMSE2
 70
     0
  9
$DIMTAD
 70
     0
  9
$DIMZIN
 70
     0
  9
$DIMBLK
  1

  9
$DIMASO
 70
     1
  9
$DIMSHO
 70
     1
  9
$DIMPOST
  1

  9
$DIMAPOST
  1

  9
$DIMALT
 70
     0
  9
$DIMALTD
 70
     2
  9
$DIMALTF
 40
25.4
  9
$DIMLFAC
 40
1.0
  9
$DIMTOFL
 70
     0
  9
$DIMTVP
 40
0.0
  9
$DIMTIX
 70
     0
  9
$DIMSOXD
 70
     0
  9
$DIMSAH
 70
     0
  9
$DIMBLK1
  1

  9
$DIMBLK2
  1

  9
$DIMSTYLE
  2
Standard
  9
$DIMCLRD
 70
     0
  9
$DIMCLRE
 70
     0
  9
$DIMCLRT
 70
     0
  9
$DIMTFAC
 40
1.0
  9
$DIMGAP
 40
0.09
  9
$DIMJUST
 70
     0
  9
$DIMSD1
 70
     0
  9
$DIMSD2
 70
     0
  9
$DIMTOLJ
 70
     1
  9
$DIMTZIN
 70
     0
  9
$DIMALTZ
 70
     0
  9
$DIMALTTZ
 70
     0
  9
$DIMUPT
 70
     0
  9
$DIMDEC
 70
     4
  9
$DIMTDEC
 70
     4
  9
$DIMALTU
 70
     2
  9
$DIMALTTD
 70
     2
  9
$DIMTXSTY
  7
STANDARD
  9
$DIMAUNIT
 70
     0
  9
$DIMADEC
 70
     0
  9
$DIMALTRND
 40
0.0
  9
$DIMAZIN
 70
     0
  9
$DIMDSEP
 70
    46
  9
$DIMATFIT
 70
     3
  9
$DIMFRAC
 70
     0
  9
$DIMLDRBLK
  1

  9
$DIMLUNIT
 70
     2
  9
$DIMLWD
 70
    -2
  9
$DIMLWE
 70
    -2
  9
$DIMTMOVE
 70
     0
  9
$LUNITS
 70
     2
  9
$LUPREC
 70
     4
  9
$SKETCHINC
 40
0.1
  9
$FILLETRAD
 40
0.0
  9
$AUNITS
 70
     0
  9
$AUPREC
 70
     4
  9
$MENU
  1
acad
  9
$ELEVATION
 40
0.0
  9
$PELEVATION
 40
0.0
  9
$THICKNESS
 40
0.0
  9
$LIMCHECK
 70
     0
  9
$CHAMFERA
 40
0.0
  9
$CHAMFERB
 40
0.0
  9
$CHAMFERC
 40
1.0
  9
$CHAMFERD
 40
0.0
  9
$SKPOLY
 70
     0
  9
$TDCREATE
 40
2453872.556546759
  9
$TDUCREATE
 40
2453872.681546759
  9
$TDUPDATE
 40
2453872.556546771
  9
$TDUUPDATE
 40
2453872.681546771
  9
$TDINDWG
 40
0.0000000116
  9
$TDUSRTIMER
 40
0.0000000116
  9
$USRTIMER
 70
     1
  9
$ANGBASE
 50
0.0
  9
$ANGDIR
 70
     0
  9
$PDMODE
 70
     0
  9
$PDSIZE
 40
0.0
  9
$PLINEWID
 40
0.0
  9
$SPLFRAME
 70
     0
  9
$SPLINETYPE
 70
     6
  9
$SPLINESEGS
 70
     8
  9
$HANDSEED
  5
F7
  9
$SURFTAB1
 70
     6
  9
$SURFTAB2
 70
     6
  9
$SURFTYPE
 70
     6
  9
$SURFU
 70
     6
  9
$SURFV
 70
     6
  9
$UCSBASE
  2

  9
$UCSNAME
  2

  9
$UCSORG
 10
0.0
 20
0.0
 30
0.0
  9
$UCSXDIR
 10
1.0
 20
0.0
 30
0.0
  9
$UCSYDIR
 10
0.0
 20
1.0
 30
0.0
  9
$UCSORTHOREF
  2

  9
$UCSORTHOVIEW
 70
     0
  9
$UCSORGTOP
 10
0.0
 20
0.0
 30
0.0
  9
$UCSORGBOTTOM
 10
0.0
 20
0.0
 30
0.0
  9
$UCSORGLEFT
 10
0.0
 20
0.0
 30
0.0
  9
$UCSORGRIGHT
 10
0.0
 20
0.0
 30
0.0
  9
$UCSORGFRONT
 10
0.0
 20
0.0
 30
0.0
  9
$UCSORGBACK
 10
0.0
 20
0.0
 30
0.0
  9
$PUCSBASE
  2

  9
$PUCSNAME
  2

  9
$PUCSORG
 10
0.0
 20
0.0
 30
0.0
  9
$PUCSXDIR
 10
1.0
 20
0.0
 30
0.0
  9
$PUCSYDIR
 10
0.0
 20
1.0
 30
0.0
  9
$PUCSORTHOREF
  2

  9
$PUCSORTHOVIEW
 70
     0
  9
$PUCSORGTOP
 10
0.0
 20
0.0
 30
0.0
  9
$PUCSORGBOTTOM
 10
0.0
 20
0.0
 30
0.0
  9
$PUCSORGLEFT
 10
0.0
 20
0.0
 30
0.0
  9
$PUCSORGRIGHT
 10
0.0
 20
0.0
 30
0.0
  9
$PUCSORGFRONT
 10
0.0
 20
0.0
 30
0.0
  9
$PUCSORGBACK
 10
0.0
 20
0.0
 30
0.0
  9
$USERI1
 70
     0
  9
$USERI2
 70
     0
  9
$USERI3
 70
     0
  9
$USERI4
 70
     0
  9
$USERI5
 70
     0
  9
$USERR1
 40
0.0
  9
$USERR2
 40
0.0
  9
$USERR3
 40
0.0
  9
$USERR4
 40
0.0
  9
$USERR5
 40
0.0
  9
$WORLDVIEW
 70
     1
  9
$SHADEDGE
 70
     3
  9
$SHADEDIF
 70
    70
  9
$TILEMODE
 70
     1
  9
$MAXACTVP
 70
    64
  9
$PINSBASE
 10
0.0
 20
0.0
 30
0.0
  9
$PLIMCHECK
 70
     0
  9
$PEXTMIN
 10
1.000000000000000E+20
 20
1.000000000000000E+20
 30
1.000000000000000E+20
  9
$PEXTMAX
 10
-1.000000000000000E+20
 20
-1.000000000000000E+20
 30
-1.000000000000000E+20
  9
$PLIMMIN
 10
0.0
 20
0.0
  9
$PLIMMAX
 10
12.0
 20
9.0
  9
$UNITMODE
 70
     0
  9
$VISRETAIN
 70
     1
  9
$PLINEGEN
 70
     0
  9
$PSLTSCALE
 70
     1
  9
$TREEDEPTH
 70
  3020
  9
$CMLSTYLE
  2
Standard
  9
$CMLJUST
 70
     0
  9
$CMLSCALE
 40
1.0
  9
$PROXYGRAPHICS
 70
     1
  9
$MEASUREMENT
 70
     0
  9
$CELWEIGHT
370
    -1
  9
$ENDCAPS
280
     0
  9
$JOINSTYLE
280
     0
  9
$LWDISPLAY
290
     0
  9
$INSUNITS
 70
     0
  9
$HYPERLINKBASE
  1

  9
$STYLESHEET
  1

  9
$XEDIT
290
     1
  9
$CEPSNTYPE
380
     0
  9
$PSTYLEMODE
290
     0
  9
$FINGERPRINTGUID
  2
{FAEB1C30-E019-11D5-929B-00C0DF256EC4}
  9
$VERSIONGUID
  2
{FAEB1C32-E019-11D5-929B-00C0DF256EC4}
  9
$EXTNAMES
290
     1
  9
$PSVPSCALE
 40
0.0
  9
$OLESTARTUP
290
     0
  0
ENDSEC
  0
SECTION
  2
CLASSES
  0
CLASS
  1
ACDBDICTIONARYWDFLT
  2
AcDbDictionaryWithDefault
  3
ObjectDBX Classes
 90
        0
280
     0
281
     0
  0
CLASS
  1
TABLESTYLE
  2
AcDbTableStyle
  3
ObjectDBX Classes
 90
     2047
280
     0
281
     0
  0
CLASS
  1
DICTIONARYVAR
  2
AcDbDictionaryVar
  3
ObjectDBX Classes
 90
        0
280
     0
281
     0
  0
CLASS
  1
ACDBPLACEHOLDER
  2
AcDbPlaceHolder
  3
ObjectDBX Classes
 90
        0
280
     0
281
     0
  0
CLASS
  1
LAYOUT
  2
AcDbLayout
  3
ObjectDBX Classes
 90
        0
280
     0
281
     0
  0
ENDSEC
  0
SECTION
  2
TABLES
  0
TABLE
  2
VPORT
  5
8
330
0
100
AcDbSymbolTable
 70
     1
  0
VPORT
  5
EE
330
8
100
AcDbSymbolTableRecord
100
AcDbViewportTableRecord
  2
*Active
 70
     0
 10
0.0
 20
0.0
 11
1.0
 21
1.0
 12
10.42990654205607
 22
4.5
 13
0.0
 23
0.0
 14
0.5
 24
0.5
 15
0.5
 25
0.5
 16
0.0
 26
0.0
 36
1.0
 17
0.0
 27
0.0
 37
0.0
 40
9.0
 41
1.972972972850329
 42
50.0
 43
0.0
 44
0.0
 50
0.0
 51
0.0
 71
     0
 72
   100
 73
     1
 74
     3
 75
     0
 76
     0
 77
     0
 78
     0
281
     0
 65
     1
110
0.0
120
0.0
130
0.0
111
1.0
121
0.0
131
0.0
112
0.0
122
1.0
132
0.0
 79
     0
146
0.0
  0
ENDTAB
  0
TABLE
  2
LTYPE
  5
5
330
0
100
AcDbSymbolTable
 70
     9
  0
LTYPE
  5
10
330
5
100
AcDbSymbolTableRecord
100
AcDbLinetypeTableRecord
  2
ByBlock
 70
     0
  3

 72
    65
 73
     0
 40
0.0
  0
LTYPE
  5
11
330
5
100
AcDbSymbolTableRecord
100
AcDbLinetypeTableRecord
  2
ByLayer
 70
     0
  3

 72
    65
 73
     0
 40
0.0
  0
LTYPE
  5
1B
330
5
100
AcDbSymbolTableRecord
100
AcDbLinetypeTableRecord
  2
CONTINUOUS
 70
     0
  3
Solid line
 72
    65
 73
     0
 40
0.0
  0
LTYPE
  5
1C
330
5
100
AcDbSymbolTableRecord
100
AcDbLinetypeTableRecord
  2
HIDDEN
 70
     0
  3
_ _ _ _ _ _ _ _ _ _ _ _ _ _ _ _ _ _ _ _ 
 72
    65
 73
     2
 40
0.375
 49
0.25
 74
     0
 49
-0.125
 74
     0
  0
LTYPE
  5
1D
330
5
100
AcDbSymbolTableRecord
100
AcDbLinetypeTableRecord
  2
DASHED
 70
     0
  3
__ __ __ __ __ __ __ __ __ __ __ __ __  
 72
    65
 73
     2
 40
0.75
 49
0.5
 74
     0
 49
-0.25
 74
     0
  0
LTYPE
  5
1E
330
5
100
AcDbSymbolTableRecord
100
AcDbLinetypeTableRecord
  2
CENTER
 70
     0
  3
____ _ ____ _ ____ _ ____ _ ____ _ ____ 
 72
    65
 73
     4
 40
2.0
 49
1.25
 74
     0
 49
-0.25
 74
     0
 49
0.25
 74
     0
 49
-0.25
 74
     0
  0
LTYPE
  5
1F
330
5
100
AcDbSymbolTableRecord
100
AcDbLinetypeTableRecord
  2
PHANTOM
 70
     0
  3
_____ _ _ _____ _ _ _____ _ _ _____ _ _ 
 72
    65
 73
     6
 40
2.5
 49
1.25
 74
     0
 49
-0.25
 74
     0
 49
0.25
 74
     0
 49
-0.25
 74
     0
 49
0.25
 74
     0
 49
-0.25
 74
     0
  0
LTYPE
  5
20
330
5
100
AcDbSymbolTableRecord
100
AcDbLinetypeTableRecord
  2
DOT
 70
     0
  3
........................................
 72
    65
 73
     2
 40
0.25
 49
0.0
 74
     0
 49
-0.25
 74
     0
  0
LTYPE
  5
21
330
5
100
AcDbSymbolTableRecord
100
AcDbLinetypeTableRecord
  2
DASHDOT
 70
     0
  3
__ . __ . __ . __ . __ . __ . __ . __ . 
 72
    65
 73
     4
 40
1.0
 49
0.5
 74
     0
 49
-0.25
 74
     0
 49
0.0
 74
     0
 49
-0.25
 74
     0
  0
LTYPE
  5
22
330
5
100
AcDbSymbolTableRecord
100
AcDbLinetypeTableRecord
  2
BORDER
 70
     0
  3
__ __ . __ __ . __ __ . __ __ . __ __ . 
 72
    65
 73
     6
 40
1.75
 49
0.5
 74
     0
 49
-0.25
 74
     0
 49
0.5
 74
     0
 49
-0.25
 74
     0
 49
0.0
 74
     0
 49
-0.25
 74
     0
  0
LTYPE
  5
23
330
5
100
AcDbSymbolTableRecord
100
AcDbLinetypeTableRecord
  2
DIVIDE
 70
     0
  3
__ . . __ . . __ . . __ . . __ . . __ . 
 72
    65
 73
     6
 40
1.25
 49
0.5
 74
     0
 49
-0.25
 74
     0
 49
0.0
 74
     0
 49
-0.25
 74
     0
 49
0.0
 74
     0
 49
-0.25
 74
     0
  0
ENDTAB
  0
TABLE
  2
LAYER
  5
2
330
0
100
AcDbSymbolTable
 70
     5
  0
LAYER
  5
24
330
2
100
AcDbSymbolTableRecord
100
AcDbLayerTableRecord
  2
0
 70
     0
 62
     7
  6
CONTINUOUS
370
    -3
390
F
  0
LAYER
  5
25
330
2
100
AcDbSymbolTableRecord
100
AcDbLayerTableRecord
  2
0010010007
 70
     0
 62
     7
  6
CONTINUOUS
370
    -3
390
F
  0
LAYER
  5
26
330
2
100
AcDbSymbolTableRecord
100
AcDbLayerTableRecord
  2
0020010004
 70
     0
 62
     4
  6
CONTINUOUS
370
    -3
390
F
  0
LAYER
  5
27
330
2
100
AcDbSymbolTableRecord
100
AcDbLayerTableRecord
  2
0030010002
 70
     0
 62
     2
  6
CONTINUOUS
370
    -3
390
F
  0
LAYER
  5
28
330
2
100
AcDbSymbolTableRecord
100
AcDbLayerTableRecord
  2
0010020007
 70
     0
 62
     7
  6
HIDDEN
370
    -3
390
F
  0
ENDTAB
  0
TABLE
  2
STYLE
  5
3
330
0
100
AcDbSymbolTable
 70
     1
  0
STYLE
  5
29
330
3
100
AcDbSymbolTableRecord
100
AcDbTextStyleTableRecord
  2
STANDARD
 70
     0
 40
0.0
 41
1.0
 50
0.0
 71
     0
 42
0.2
  3
txt
  4

  0
ENDTAB
  0
TABLE
  2
VIEW
  5
6
330
0
100
AcDbSymbolTable
 70
     1
  0
VIEW
  5
2A
330
6
100
AcDbSymbolTableRecord
100
AcDbViewTableRecord
  2
1
 70
     0
 40
20600.0
 10
29641.0
 20
34500.0
 41
1.0
 11
0.0
 21
0.0
 31
1.0
 12
0.0
 22
0.0
 32
0.0
 42
50.0
 43
0.0
 44
0.0
 50
0.0
 71
     0
281
     0
 72
     0
  0
ENDTAB
  0
TABLE
  2
UCS
  5
7
330
0
100
AcDbSymbolTable
 70
     0
  0
ENDTAB
  0
TABLE
  2
APPID
  5
9
330
0
100
AcDbSymbolTable
 70
     1
  0
APPID
  5
2B
330
9
100
AcDbSymbolTableRecord
100
AcDbRegAppTableRecord
  2
ACAD
 70
     0
  0
ENDTAB
  0
TABLE
  2
DIMSTYLE
  5
A
330
0
100
AcDbSymbolTable
 70
     1
100
AcDbDimStyleTable
  0
DIMSTYLE
105
2C
330
A
100
AcDbSymbolTableRecord
100
AcDbDimStyleTableRecord
  2
Standard
 70
     0
340
29
  0
ENDTAB
  0
TABLE
  2
BLOCK_RECORD
  5
1
330
0
100
AcDbSymbolTable
 70
     0
  0
BLOCK_RECORD
  5
18
330
1
100
AcDbSymbolTableRecord
100
AcDbBlockTableRecord
  2
*Model_Space
340
19
  0
BLOCK_RECORD
  5
16
330
1
100
AcDbSymbolTableRecord
100
AcDbBlockTableRecord
  2
*Paper_Space
340
17
  0
ENDTAB
  0
ENDSEC
  0
SECTION
  2
BLOCKS
  0
BLOCK
  5
F3
330
18
100
AcDbEntity
  8
0
100
AcDbBlockBegin
  2
*Model_Space
 70
     0
 71
     0
 10
0.0
 20
0.0
 30
0.0
  3
*Model_Space
  1

  0
ENDBLK
  5
F4
330
18
100
AcDbEntity
  8
0
100
AcDbBlockEnd
  0
BLOCK
  5
F5
330
16
100
AcDbEntity
 67
     1
  8
0
100
AcDbBlockBegin
  2
*Paper_Space
 70
     0
 71
     0
 10
0.0
 20
0.0
 30
0.0
  3
*Paper_Space
  1

  0
ENDBLK
  5
F6
330
16
100
AcDbEntity
 67
     1
  8
0
100
AcDbBlockEnd
  0
ENDSEC
  0
SECTION
  2
ENTITIES
  0
ARC
  5
2D
330
18
100
AcDbEntity
  8
0010010007
100
AcDbCircle
 10
470.0
 20
376.5
 30
0.0
 40
125.0
100
AcDbArc
 50
0.0
 51
90.0
  0
LINE
  5
2E
330
18
100
AcDbEntity
  8
0010010007
100
AcDbLine
 10
595.0
 20
376.5
 30
0.0
 11
595.0
 21
176.5
 31
0.0
  0
ARC
  5
2F
330
18
100
AcDbEntity
  8
0010010007
100
AcDbCircle
 10
470.0
 20
176.500000000002
 30
0.0
 40
125.0
100
AcDbArc
 50
270.0
 51
0.0
  0
ARC
  5
30
330
18
100
AcDbEntity
  8
0010010007
100
AcDbCircle
 10
170.0
 20
176.500000000002
 30
0.0
 40
125.0
100
AcDbArc
 50
180.0
 51
270.0
  0
LINE
  5
31
330
18
100
AcDbEntity
  8
0010010007
100
AcDbLine
 10
170.000000000002
 20
51.5000000000018
 30
0.0
 11
470.000000000002
 21
51.5000000000018
 31
0.0
  0
LINE
  5
32
330
18
100
AcDbEntity
  8
0010010007
100
AcDbLine
 10
45.0
 20
176.500000000002
 30
0.0
 11
45.0
 21
376.500000000002
 31
0.0
  0
ARC
  5
33
330
18
100
AcDbEntity
  8
0010010007
100
AcDbCircle
 10
170.0
 20
376.500000000002
 30
0.0
 40
125.0
100
AcDbArc
 50
90.0
 51
180.0
  0
LINE
  5
34
330
18
100
AcDbEntity
  8
0010010007
100
AcDbLine
 10
170.0
 20
501.5
 30
0.0
 11
470.0
 21
501.499999999999
 31
0.0
  0
ARC
  5
35
330
18
100
AcDbEntity
  8
0020010004
100
AcDbCircle
 10
448.158600000002
 20
352.666120000002
 30
0.0
 40
70.0
100
AcDbArc
 50
0.0
 51
88.53386999999999
  0
ARC
  5
36
330
18
100
AcDbEntity
  8
0020010004
100
AcDbCircle
 10
320.000000000004
 20
-4654.6672
 30
0.0
 40
5078.97311
100
AcDbArc
 50
88.53388
 51
90.0
  0
ARC
  5
37
330
18
100
AcDbEntity
  8
0020010004
100
AcDbCircle
 10
308.350470000001
 20
-2166.00978
 30
0.0
 40
2436.34245
100
AcDbArc
 50
85.56818
 51
87.62084000000002
  0
ARC
  5
38
330
18
100
AcDbEntity
  8
0020010004
100
AcDbCircle
 10
498.158600000002
 20
282.98819
 30
0.0
 40
20.0
100
AcDbArc
 50
265.56818
 51
0.0
  0
LINE
  5
39
330
18
100
AcDbEntity
  8
0020010004
100
AcDbLine
 10
518.158600000002
 20
282.98819
 30
0.0
 11
518.158600000002
 21
352.66612
 31
0.0
  0
ARC
  5
3A
330
18
100
AcDbEntity
  8
0020010004
100
AcDbCircle
 10
319.904999999999
 20
-1908.40883
 30
0.0
 40
2178.48406
100
AcDbArc
 50
87.64322
 51
89.9975
  0
ARC
  5
3B
330
18
100
AcDbEntity
  8
0020010004
100
AcDbCircle
 10
191.841400000001
 20
352.66612
 30
0.0
 40
70.0
100
AcDbArc
 50
91.46613000000001
 51
180.0
  0
ARC
  5
3C
330
18
100
AcDbEntity
  8
0020010004
100
AcDbCircle
 10
320.000000000004
 20
-4654.6672
 30
0.0
 40
5078.97311
100
AcDbArc
 50
90.0
 51
91.46612000000002
  0
ARC
  5
3D
330
18
100
AcDbEntity
  8
0020010004
100
AcDbCircle
 10
331.649529999999
 20
-2166.00978
 30
0.0
 40
2436.34245
100
AcDbArc
 50
92.37916
 51
94.43182
  0
ARC
  5
3E
330
18
100
AcDbEntity
  8
0020010004
100
AcDbCircle
 10
141.841400000001
 20
282.98819
 30
0.0
 40
20.0
100
AcDbArc
 50
180.0
 51
274.43182
  0
LINE
  5
3F
330
18
100
AcDbEntity
  8
0020010004
100
AcDbLine
 10
121.841400000001
 20
282.98819
 30
0.0
 11
121.841400000001
 21
352.66612
 31
0.0
  0
ARC
  5
40
330
18
100
AcDbEntity
  8
0020010004
100
AcDbCircle
 10
320.095000000001
 20
-1908.40883
 30
0.0
 40
2178.48406
100
AcDbArc
 50
90.0025
 51
92.35678000000002
  0
LINE
  5
41
330
18
100
AcDbEntity
  8
0020010004
100
AcDbLine
 10
155.0
 20
101.500000000002
 30
0.0
 11
485.0
 21
101.500000000002
 31
0.0
  0
LINE
  5
42
330
18
100
AcDbEntity
  8
0020010004
100
AcDbLine
 10
485.000000000002
 20
114.227920000005
 30
0.0
 11
155.000000000002
 21
114.227920000005
 31
0.0
  0
LINE
  5
43
330
18
100
AcDbEntity
  8
0020010004
100
AcDbLine
 10
155.0
 20
114.227920000005
 30
0.0
 11
485.0
 21
114.227920000005
 31
0.0
  0
LINE
  5
44
330
18
100
AcDbEntity
  8
0020010004
100
AcDbLine
 10
155.0
 20
126.955840000002
 30
0.0
 11
485.0
 21
126.955840000002
 31
0.0
  0
LINE
  5
45
330
18
100
AcDbEntity
  8
0020010004
100
AcDbLine
 10
155.0
 20
139.683770000001
 30
0.0
 11
485.0
 21
139.683770000001
 31
0.0
  0
LINE
  5
46
330
18
100
AcDbEntity
  8
0020010004
100
AcDbLine
 10
155.0
 20
152.411690000004
 30
0.0
 11
485.0
 21
152.411690000004
 31
0.0
  0
LINE
  5
47
330
18
100
AcDbEntity
  8
0020010004
100
AcDbLine
 10
155.0
 20
165.139610000002
 30
0.0
 11
485.0
 21
165.139610000002
 31
0.0
  0
LINE
  5
48
330
18
100
AcDbEntity
  8
0020010004
100
AcDbLine
 10
155.0
 20
177.86753
 30
0.0
 11
485.0
 21
177.86753
 31
0.0
  0
LINE
  5
49
330
18
100
AcDbEntity
  8
0020010004
100
AcDbLine
 10
155.0
 20
190.595450000004
 30
0.0
 11
485.0
 21
190.595450000004
 31
0.0
  0
LINE
  5
4A
330
18
100
AcDbEntity
  8
0020010004
100
AcDbLine
 10
155.0
 20
203.323380000003
 30
0.0
 11
485.0
 21
203.323380000003
 31
0.0
  0
LINE
  5
4B
330
18
100
AcDbEntity
  8
0020010004
100
AcDbLine
 10
155.0
 20
216.051300000001
 30
0.0
 11
485.0
 21
216.051300000001
 31
0.0
  0
CIRCLE
  5
4C
330
18
100
AcDbEntity
  8
0010010007
100
AcDbCircle
 10
320.0
 20
351.500000000002
 30
0.0
 40
27.5
  0
CIRCLE
  5
4D
330
18
100
AcDbEntity
  8
0020010004
100
AcDbCircle
 10
320.0
 20
351.500000000002
 30
0.0
 40
37.09889
  0
ARC
  5
4E
330
18
100
AcDbEntity
  8
0010010007
100
AcDbCircle
 10
170.0
 20
176.500000000002
 30
0.0
 40
100.0
100
AcDbArc
 50
180.0
 51
270.0
  0
LINE
  5
4F
330
18
100
AcDbEntity
  8
0010010007
100
AcDbLine
 10
70.0
 20
176.500000000002
 30
0.0
 11
70.0
 21
376.500000000002
 31
0.0
  0
ARC
  5
50
330
18
100
AcDbEntity
  8
0010010007
100
AcDbCircle
 10
170.0
 20
376.500000000002
 30
0.0
 40
100.0
100
AcDbArc
 50
90.0
 51
180.0
  0
LINE
  5
51
330
18
100
AcDbEntity
  8
0010010007
100
AcDbLine
 10
170.0
 20
476.500000000001
 30
0.0
 11
470.0
 21
476.500000000001
 31
0.0
  0
ARC
  5
52
330
18
100
AcDbEntity
  8
0010010007
100
AcDbCircle
 10
470.0
 20
376.5
 30
0.0
 40
100.0
100
AcDbArc
 50
0.0
 51
90.0
  0
LINE
  5
53
330
18
100
AcDbEntity
  8
0010010007
100
AcDbLine
 10
570.0
 20
376.5
 30
0.0
 11
570.0
 21
176.5
 31
0.0
  0
ARC
  5
54
330
18
100
AcDbEntity
  8
0010010007
100
AcDbCircle
 10
470.0
 20
176.500000000002
 30
0.0
 40
100.0
100
AcDbArc
 50
270.0
 51
0.0
  0
LINE
  5
55
330
18
100
AcDbEntity
  8
0010010007
100
AcDbLine
 10
470.0
 20
76.5
 30
0.0
 11
170.0
 21
76.5
 31
0.0
  0
LINE
  5
56
330
18
100
AcDbEntity
  8
0010010007
100
AcDbLine
 10
1200.0
 20
533.0
 30
0.0
 11
0.0
 21
533.0
 31
0.0
  0
LINE
  5
57
330
18
100
AcDbEntity
  8
0010010007
100
AcDbLine
 10
1200.0
 20
550.0
 30
0.0
 11
1200.0
 21
0.0
 31
0.0
  0
LINE
  5
58
330
18
100
AcDbEntity
  8
0010010007
100
AcDbLine
 10
1200.0
 20
550.0
 30
0.0
 11
0.0
 21
550.0
 31
0.0
  0
LINE
  5
59
330
18
100
AcDbEntity
  8
0010010007
100
AcDbLine
 10
0.0
 20
0.0
 30
0.0
 11
1200.0
 21
0.0
 31
0.0
  0
LINE
  5
5A
330
18
100
AcDbEntity
  8
0010010007
100
AcDbLine
 10
0.0
 20
0.0
 30
0.0
 11
0.0
 21
550.0
 31
0.0
  0
ARC
  5
5B
330
18
100
AcDbEntity
  8
0010010007
100
AcDbCircle
 10
730.0
 20
376.500000000002
 30
0.0
 40
125.0
100
AcDbArc
 50
90.0
 51
180.0
  0
LINE
  5
5C
330
18
100
AcDbEntity
  8
0010010007
100
AcDbLine
 10
605.0
 20
376.5
 30
0.0
 11
605.0
 21
176.5
 31
0.0
  0
ARC
  5
5D
330
18
100
AcDbEntity
  8
0010010007
100
AcDbCircle
 10
730.0
 20
176.500000000002
 30
0.0
 40
125.0
100
AcDbArc
 50
180.0
 51
270.0
  0
ARC
  5
5E
330
18
100
AcDbEntity
  8
0010010007
100
AcDbCircle
 10
1030.0
 20
176.500000000002
 30
0.0
 40
125.0
100
AcDbArc
 50
270.0
 51
0.0
  0
LINE
  5
5F
330
18
100
AcDbEntity
  8
0010010007
100
AcDbLine
 10
1030.0
 20
51.5000000000018
 30
0.0
 11
730.0
 21
51.5000000000017
 31
0.0
  0
LINE
  5
60
330
18
100
AcDbEntity
  8
0010010007
100
AcDbLine
 10
1155.0
 20
176.500000000002
 30
0.0
 11
1155.0
 21
376.500000000002
 31
0.0
  0
ARC
  5
61
330
18
100
AcDbEntity
  8
0010010007
100
AcDbCircle
 10
1030.0
 20
376.5
 30
0.0
 40
125.0
100
AcDbArc
 50
0.0
 51
90.0
  0
LINE
  5
62
330
18
100
AcDbEntity
  8
0010010007
100
AcDbLine
 10
1030.0
 20
501.5
 30
0.0
 11
730.0
 21
501.499999999999
 31
0.0
  0
CIRCLE
  5
63
330
18
100
AcDbEntity
  8
0010010007
100
AcDbCircle
 10
880.0
 20
351.500000000002
 30
0.0
 40
27.5
  0
CIRCLE
  5
64
330
18
100
AcDbEntity
  8
0020010004
100
AcDbCircle
 10
880.0
 20
351.500000000002
 30
0.0
 40
37.09889
  0
ARC
  5
65
330
18
100
AcDbEntity
  8
0010010007
100
AcDbCircle
 10
1030.0
 20
176.500000000002
 30
0.0
 40
100.0
100
AcDbArc
 50
270.0
 51
0.0
  0
LINE
  5
66
330
18
100
AcDbEntity
  8
0010010007
100
AcDbLine
 10
1130.0
 20
176.500000000002
 30
0.0
 11
1130.0
 21
376.500000000002
 31
0.0
  0
ARC
  5
67
330
18
100
AcDbEntity
  8
0010010007
100
AcDbCircle
 10
1030.0
 20
376.5
 30
0.0
 40
100.0
100
AcDbArc
 50
0.0
 51
90.0
  0
LINE
  5
68
330
18
100
AcDbEntity
  8
0010010007
100
AcDbLine
 10
1030.0
 20
476.5
 30
0.0
 11
730.0
 21
476.499999999999
 31
0.0
  0
ARC
  5
69
330
18
100
AcDbEntity
  8
0010010007
100
AcDbCircle
 10
730.0
 20
376.500000000002
 30
0.0
 40
100.0
100
AcDbArc
 50
90.0
 51
180.0
  0
LINE
  5
6A
330
18
100
AcDbEntity
  8
0010010007
100
AcDbLine
 10
630.0
 20
376.5
 30
0.0
 11
630.0
 21
176.5
 31
0.0
  0
ARC
  5
6B
330
18
100
AcDbEntity
  8
0010010007
100
AcDbCircle
 10
730.0
 20
176.500000000002
 30
0.0
 40
100.0
100
AcDbArc
 50
180.0
 51
270.0
  0
LINE
  5
6C
330
18
100
AcDbEntity
  8
0010010007
100
AcDbLine
 10
730.0000000000021
 20
76.50000000000181
 30
0.0
 11
1030.0
 21
76.5000000000019
 31
0.0
  0
LINE
  5
6D
330
18
100
AcDbEntity
  8
0030010002
100
AcDbLine
 10
0.0
 20
551.0
 30
0.0
 11
0.0
 21
650.999999870729
 31
0.0
  0
LINE
  5
6E
330
18
100
AcDbEntity
  8
0030010002
100
AcDbLine
 10
1200.0
 20
551.0
 30
0.0
 11
1200.0
 21
650.999999870729
 31
0.0
  0
SOLID
  5
6F
330
18
100
AcDbEntity
  8
0030010002
100
AcDbTrace
 10
19.5259201423968
 20
645.671207591967
 30
0.0
 11
19.5259201423968
 21
654.328792149492
 31
0.0
 12
0.0
 22
649.999999870729
 32
0.0
 13
0.0
 23
649.999999870729
 33
0.0
  0
SOLID
  5
70
330
18
100
AcDbEntity
  8
0030010002
100
AcDbTrace
 10
1180.4740798576
 20
654.328792149492
 30
0.0
 11
1180.4740798576
 21
645.671207591967
 31
0.0
 12
1200.0
 22
649.999999870729
 32
0.0
 13
1200.0
 23
649.999999870729
 33
0.0
  0
LINE
  5
71
330
18
100
AcDbEntity
  8
0030010002
100
AcDbLine
 10
0.0
 20
649.999999870729
 30
0.0
 11
1200.0
 21
649.999999870729
 31
0.0
  0
TEXT
  5
72
330
18
100
AcDbEntity
  8
0030010002
100
AcDbText
 10
558.749999877395
 20
665.000000824404
 30
0.0
 40
30.0000019073486
  1
1200
 41
0.75
100
AcDbText
  0
LINE
  5
73
330
18
100
AcDbEntity
  8
0030010002
100
AcDbLine
 10
1201.0
 20
550.0
 30
0.0
 11
1301.0
 21
550.0
 31
0.0
  0
LINE
  5
74
330
18
100
AcDbEntity
  8
0030010002
100
AcDbLine
 10
1201.0
 20
0.0
 30
0.0
 11
1301.0
 21
0.0
 31
0.0
  0
SOLID
  5
75
330
18
100
AcDbEntity
  8
0030010002
100
AcDbTrace
 10
1295.67120772124
 20
530.4740798576011
 30
0.0
 11
1304.32879227876
 21
530.4740798576011
 31
0.0
 12
1300.0
 22
550.0
 32
0.0
 13
1300.0
 23
550.0
 33
0.0
  0
SOLID
  5
76
330
18
100
AcDbEntity
  8
0030010002
100
AcDbTrace
 10
1304.32879227876
 20
19.5259201423987
 30
0.0
 11
1295.67120772124
 21
19.5259201423987
 31
0.0
 12
1300.0
 22
0.0
 32
0.0
 13
1300.0
 23
0.0
 33
0.0
  0
LINE
  5
77
330
18
100
AcDbEntity
  8
0030010002
100
AcDbLine
 10
1300.0
 20
550.0
 30
0.0
 11
1300.0
 21
0.0
 31
0.0
  0
TEXT
  5
78
330
18
100
AcDbEntity
  8
0030010002
100
AcDbText
 10
1284.99999904633
 20
244.999995592651
 30
0.0
 40
30.0000019073486
  1
550
 50
90.0
 41
0.75
100
AcDbText
  0
LINE
  5
79
330
18
100
AcDbEntity
  8
0010010007
100
AcDbLine
 10
-622.763278580198
 20
51.5
 30
0.0
 11
-622.763278580198
 21
501.5
 31
0.0
  0
ARC
  5
7A
330
18
100
AcDbEntity
  8
0010010007
100
AcDbCircle
 10
-622.763278580198
 20
57.3540999999987
 30
0.0
 40
2.5
100
AcDbArc
 50
180.0
 51
253.39845
  0
ARC
  5
7B
330
18
100
AcDbEntity
  8
0010010007
100
AcDbCircle
 10
-623.763278580198
 20
54.0
 30
0.0
 40
1.0
100
AcDbArc
 50
0.0
 51
73.39845
  0
LINE
  5
7C
330
18
100
AcDbEntity
  8
0010010007
100
AcDbLine
 10
-621.763278580198
 20
51.5
 30
0.0
 11
-622.763278580198
 21
51.5
 31
0.0
  0
LINE
  5
7D
330
18
100
AcDbEntity
  8
0010010007
100
AcDbLine
 10
-625.263278580198
 20
276.5
 30
0.0
 11
-625.263278580198
 21
57.35410000000002
 31
0.0
  0
LINE
  5
7E
330
18
100
AcDbEntity
  8
0010010007
100
AcDbLine
 10
-625.263278580198
 20
276.5
 30
0.0
 11
-625.263278580198
 21
495.645900000001
 31
0.0
  0
LINE
  5
7F
330
18
100
AcDbEntity
  8
0010020007
100
AcDbLine
 10
-563.147938580198
 20
88.6153399999985
 30
0.0
 11
-550.263278580198
 21
101.499999999998
 31
0.0
  0
ARC
  5
80
330
18
100
AcDbEntity
  8
0010010007
100
AcDbCircle
 10
-435.9554685802
 20
272.37635
 30
0.0
 40
40.0
100
AcDbArc
 50
315.0
 51
358.0
  0
LINE
  5
81
330
18
100
AcDbEntity
  8
0010010007
100
AcDbLine
 10
-395.979838580199
 20
270.980369999999
 30
0.0
 11
-395.263278580199
 21
291.499999999999
 31
0.0
  0
LINE
  5
82
330
18
100
AcDbEntity
  8
0010010007
100
AcDbLine
 10
-415.263278580198
 20
351.5
 30
0.0
 11
-415.263278580198
 21
291.5
 31
0.0
  0
LINE
  5
83
330
18
100
AcDbEntity
  8
0010010007
100
AcDbLine
 10
-415.263278580198
 20
351.5
 30
0.0
 11
-415.263278580198
 21
411.5
 31
0.0
  0
ARC
  5
84
330
18
100
AcDbEntity
  8
0010010007
100
AcDbCircle
 10
-455.838788580197
 20
427.28219
 30
0.0
 40
40.0
100
AcDbArc
 50
2.00002000000001
 51
85.24778000000001
  0
LINE
  5
85
330
18
100
AcDbEntity
  8
0010010007
100
AcDbLine
 10
-415.263278580198
 20
411.5
 30
0.0
 11
-415.863158580198
 21
428.67818
 31
0.0
  0
LINE
  5
86
330
18
100
AcDbEntity
  8
0010020007
100
AcDbLine
 10
-550.263278580198
 20
101.5
 30
0.0
 11
-545.667088580198
 21
109.63173
 31
0.0
  0
LINE
  5
87
330
18
100
AcDbEntity
  8
0010020007
100
AcDbLine
 10
-545.667088580198
 20
109.631729999999
 30
0.0
 11
-537.535358580198
 21
114.227919999999
 31
0.0
  0
LINE
  5
88
330
18
100
AcDbEntity
  8
0010020007
100
AcDbLine
 10
-532.9391585801971
 20
122.35965
 30
0.0
 11
-524.807438580197
 21
126.95584
 31
0.0
  0
LINE
  5
89
330
18
100
AcDbEntity
  8
0010020007
100
AcDbLine
 10
-520.2112385801991
 20
135.08757
 30
0.0
 11
-512.079508580199
 21
139.68377
 31
0.0
  0
LINE
  5
8A
330
18
100
AcDbEntity
  8
0010020007
100
AcDbLine
 10
-507.483318580198
 20
147.815489999999
 30
0.0
 11
-499.351588580198
 21
152.411689999999
 31
0.0
  0
LINE
  5
8B
330
18
100
AcDbEntity
  8
0010020007
100
AcDbLine
 10
-494.755398580197
 20
160.54342
 30
0.0
 11
-486.623668580197
 21
165.13961
 31
0.0
  0
LINE
  5
8C
330
18
100
AcDbEntity
  8
0010020007
100
AcDbLine
 10
-482.027478580199
 20
173.271339999999
 30
0.0
 11
-473.895748580199
 21
177.867529999999
 31
0.0
  0
LINE
  5
8D
330
18
100
AcDbEntity
  8
0010020007
100
AcDbLine
 10
-469.299548580198
 20
185.999259999999
 30
0.0
 11
-461.167828580198
 21
190.595449999999
 31
0.0
  0
LINE
  5
8E
330
18
100
AcDbEntity
  8
0010020007
100
AcDbLine
 10
-456.571628580197
 20
198.72718
 30
0.0
 11
-448.439898580197
 21
203.32338
 31
0.0
  0
LINE
  5
8F
330
18
100
AcDbEntity
  8
0010020007
100
AcDbLine
 10
-443.8437085802
 20
211.455099999999
 30
0.0
 11
-435.7119785802
 21
216.051299999999
 31
0.0
  0
LINE
  5
90
330
18
100
AcDbEntity
  8
0010020007
100
AcDbLine
 10
-537.535358580197
 20
114.227919999999
 30
0.0
 11
-532.9391585801971
 21
122.359649999999
 31
0.0
  0
LINE
  5
91
330
18
100
AcDbEntity
  8
0010020007
100
AcDbLine
 10
-524.807438580199
 20
126.955840000001
 30
0.0
 11
-520.2112385801991
 21
135.087570000001
 31
0.0
  0
LINE
  5
92
330
18
100
AcDbEntity
  8
0010020007
100
AcDbLine
 10
-512.079508580198
 20
139.68377
 30
0.0
 11
-507.483318580198
 21
147.81549
 31
0.0
  0
LINE
  5
93
330
18
100
AcDbEntity
  8
0010020007
100
AcDbLine
 10
-499.351588580197
 20
152.411689999999
 30
0.0
 11
-494.755398580197
 21
160.543419999999
 31
0.0
  0
LINE
  5
94
330
18
100
AcDbEntity
  8
0010020007
100
AcDbLine
 10
-486.6236685802
 20
165.13961
 30
0.0
 11
-482.0274785802
 21
173.27134
 31
0.0
  0
LINE
  5
95
330
18
100
AcDbEntity
  8
0010020007
100
AcDbLine
 10
-473.895748580198
 20
177.86753
 30
0.0
 11
-469.299548580198
 21
185.99926
 31
0.0
  0
LINE
  5
96
330
18
100
AcDbEntity
  8
0010020007
100
AcDbLine
 10
-461.167828580197
 20
190.595449999999
 30
0.0
 11
-456.571628580197
 21
198.727179999999
 31
0.0
  0
LINE
  5
97
330
18
100
AcDbEntity
  8
0010020007
100
AcDbLine
 10
-448.439898580196
 20
203.32338
 30
0.0
 11
-443.843708580196
 21
211.4551
 31
0.0
  0
LINE
  5
98
330
18
100
AcDbEntity
  8
0010010007
100
AcDbLine
 10
-411.8523585802
 20
379.0
 30
0.0
 11
-413.917757490612
 21
386.708193316615
 31
0.0
  0
LINE
  5
99
330
18
100
AcDbEntity
  8
0010010007
100
AcDbLine
 10
-413.838558580199
 20
386.380639999999
 30
0.0
 11
-413.838558580199
 21
351.499999999999
 31
0.0
  0
LINE
  5
9A
330
18
100
AcDbEntity
  8
0010010007
100
AcDbLine
 10
-411.8523585802
 20
379.0
 30
0.0
 11
-411.8523585802
 21
351.5
 31
0.0
  0
LINE
  5
9B
330
18
100
AcDbEntity
  8
0010010007
100
AcDbLine
 10
-411.8523585802
 20
324.0
 30
0.0
 11
-413.917757490612
 21
316.291806683385
 31
0.0
  0
LINE
  5
9C
330
18
100
AcDbEntity
  8
0010010007
100
AcDbLine
 10
-413.838558580199
 20
316.619359999999
 30
0.0
 11
-413.838558580199
 21
351.499999999999
 31
0.0
  0
LINE
  5
9D
330
18
100
AcDbEntity
  8
0010010007
100
AcDbLine
 10
-411.8523585802
 20
324.0
 30
0.0
 11
-411.8523585802
 21
351.5
 31
0.0
  0
ARC
  5
9E
330
18
100
AcDbEntity
  8
0010010007
100
AcDbCircle
 10
-413.263278580198
 20
314.401923788646
 30
0.0
 40
1.99999999999996
100
AcDbArc
 50
109.10130703968
 51
174.193617295437
  0
ARC
  5
9F
330
18
100
AcDbEntity
  8
0010010007
100
AcDbCircle
 10
-413.263278580198
 20
388.598076211352
 30
0.0
 40
1.99999999999996
100
AcDbArc
 50
185.806382704563
 51
250.89869296032
  0
LINE
  5
A0
330
18
100
AcDbEntity
  8
0010020007
100
AcDbLine
 10
-550.263278580198
 20
101.499999999998
 30
0.0
 11
-435.711978580199
 21
216.051299999999
 31
0.0
  0
ARC
  5
A1
330
18
100
AcDbEntity
  8
0010010007
100
AcDbCircle
 10
-622.763278580198
 20
495.645900000001
 30
0.0
 40
2.5
100
AcDbArc
 50
106.60155
 51
180.0
  0
ARC
  5
A2
330
18
100
AcDbEntity
  8
0010010007
100
AcDbCircle
 10
-623.763278580198
 20
499.0
 30
0.0
 40
1.0
100
AcDbArc
 50
286.60155
 51
0.0
  0
LINE
  5
A3
330
18
100
AcDbEntity
  8
0010010007
100
AcDbLine
 10
-621.763278580198
 20
501.5
 30
0.0
 11
-622.763278580198
 21
501.5
 31
0.0
  0
LINE
  5
A4
330
18
100
AcDbEntity
  8
0010010007
100
AcDbLine
 10
-671.763278567749
 20
534.999999874256
 30
0.0
 11
-671.763278567749
 21
547.9999998712
 31
0.0
  0
LINE
  5
A5
330
18
100
AcDbEntity
  8
0010010007
100
AcDbLine
 10
-591.763278587274
 20
1.99999999949978
 30
0.0
 11
-591.763278587274
 21
549.999999870729
 31
0.0
  0
LINE
  5
A6
330
18
100
AcDbEntity
  8
0010010007
100
AcDbLine
 10
-669.763278917551
 20
549.999999870729
 30
0.0
 11
-591.763278587274
 21
549.999999870729
 31
0.0
  0
LINE
  5
A7
330
18
100
AcDbEntity
  8
0010010007
100
AcDbLine
 10
-669.763278568214
 20
532.999999874724
 30
0.0
 11
-622.763278579941
 21
532.999999874724
 31
0.0
  0
ARC
  5
A8
330
18
100
AcDbEntity
  8
0010010007
100
AcDbCircle
 10
-669.763278568214
 20
534.999999874256
 30
0.0
 40
1.99999999953002
100
AcDbArc
 50
180.0
 51
270.0
  0
ARC
  5
A9
330
18
100
AcDbEntity
  8
0010010007
100
AcDbCircle
 10
-622.763278579947
 20
531.999999874959
 30
0.0
 40
0.999999999765008
100
AcDbArc
 50
0.0001782028217576
 51
89.99999999965471
  0
LINE
  5
AA
330
18
100
AcDbEntity
  8
0010010007
100
AcDbLine
 10
-621.763278580198
 20
532.000002985185
 30
0.0
 11
-621.763278580198
 21
264.999999937714
 31
0.0
  0
LINE
  5
AB
330
18
100
AcDbEntity
  8
0010010007
100
AcDbLine
 10
-621.763278580198
 20
264.999999937712
 30
0.0
 11
-621.763278580198
 21
1.999999479423252
 31
0.0
  0
LINE
  5
AC
330
18
100
AcDbEntity
  8
0010010007
100
AcDbLine
 10
-619.763278580645
 20
0.0
 30
0.0
 11
-593.763278586783
 21
0.0
 31
0.0
  0
ARC
  5
AD
330
18
100
AcDbEntity
  8
0010010007
100
AcDbCircle
 10
-619.7632785807
 20
1.99999999952888
 30
0.0
 40
1.99999999953008
100
AcDbArc
 50
180.000014899878
 51
270.000000000744
  0
ARC
  5
AE
330
18
100
AcDbEntity
  8
0010010007
100
AcDbCircle
 10
-593.763278586772
 20
1.99999999952888
 30
0.0
 40
1.99999999953002
100
AcDbArc
 50
270.0
 51
359.999999999199
  0
ARC
  5
AF
330
18
100
AcDbEntity
  8
0010010007
100
AcDbCircle
 10
-669.763278568214
 20
547.999999871197
 30
0.0
 40
1.99999999953002
100
AcDbArc
 50
90.00001000768241
 51
180.0
  0
LINE
  5
B0
330
18
100
AcDbEntity
  8
0030010002
100
AcDbLine
 10
-621.763278580198
 20
0.999999479423423
 30
0.0
 11
-621.763278580198
 21
-101.0
 31
0.0
  0
LINE
  5
B1
330
18
100
AcDbEntity
  8
0030010002
100
AcDbLine
 10
-591.763278587274
 20
0.999999999501085
 30
0.0
 11
-591.763278587274
 21
-101.0
 31
0.0
  0
SOLID
  5
B2
330
18
100
AcDbEntity
  8
0030010002
100
AcDbTrace
 10
-641.289198722597
 20
-95.67120772123781
 30
0.0
 11
-641.289198722597
 21
-104.328792278762
 31
0.0
 12
-621.763278580198
 22
-99.9999999999998
 32
0.0
 13
-621.763278580198
 23
-99.9999999999998
 33
0.0
  0
LINE
  5
B3
330
18
100
AcDbEntity
  8
0030010002
100
AcDbLine
 10
-622.763278580198
 20
-99.9999999999998
 30
0.0
 11
-621.763278580198
 21
-99.9999999999998
 31
0.0
  0
SOLID
  5
B4
330
18
100
AcDbEntity
  8
0030010002
100
AcDbTrace
 10
-572.237358444875
 20
-104.328792278762
 30
0.0
 11
-572.237358444875
 21
-95.67120772123781
 31
0.0
 12
-591.763278587274
 22
-99.9999999999998
 32
0.0
 13
-591.763278587274
 23
-99.9999999999998
 33
0.0
  0
LINE
  5
B5
330
18
100
AcDbEntity
  8
0030010002
100
AcDbLine
 10
-590.763278587274
 20
-99.9999999999998
 30
0.0
 11
-591.763278587274
 21
-99.9999999999998
 31
0.0
  0
TEXT
  5
B6
330
18
100
AcDbEntity
  8
0030010002
100
AcDbText
 10
-557.55830463834
 20
-86.73261087569701
 30
0.0
 40
30.0000019073486
  1
30
 41
0.75
100
AcDbText
  0
LINE
  5
B7
330
18
100
AcDbEntity
  8
0030010002
100
AcDbLine
 10
-637.916398421195
 20
-100.0
 30
0.0
 11
-511.52502550993
 21
-100.0
 31
0.0
  0
LINE
  5
B8
330
18
100
AcDbEntity
  8
0030010002
100
AcDbLine
 10
-670.763278917551
 20
549.999999870729
 30
0.0
 11
-772.763278567749
 21
549.999999870729
 31
0.0
  0
LINE
  5
B9
330
18
100
AcDbEntity
  8
0030010002
100
AcDbLine
 10
-670.763278568214
 20
532.999999874724
 30
0.0
 11
-772.763278567749
 21
532.999999874724
 31
0.0
  0
SOLID
  5
BA
330
18
100
AcDbEntity
  8
0030010002
100
AcDbTrace
 10
-767.4344862889871
 20
569.525920013128
 30
0.0
 11
-776.092070846511
 21
569.525920013128
 31
0.0
 12
-771.763278567749
 22
549.999999870729
 32
0.0
 13
-771.763278567749
 23
549.999999870729
 33
0.0
  0
LINE
  5
BB
330
18
100
AcDbEntity
  8
0030010002
100
AcDbLine
 10
-771.763278567749
 20
550.999999870729
 30
0.0
 11
-771.763278567749
 21
549.999999870729
 31
0.0
  0
SOLID
  5
BC
330
18
100
AcDbEntity
  8
0030010002
100
AcDbTrace
 10
-776.092070846511
 20
513.474079732325
 30
0.0
 11
-767.4344862889871
 21
513.474079732325
 31
0.0
 12
-771.763278567749
 22
532.999999874724
 32
0.0
 13
-771.763278567749
 23
532.999999874724
 33
0.0
  0
LINE
  5
BD
330
18
100
AcDbEntity
  8
0030010002
100
AcDbLine
 10
-771.763278567749
 20
531.999999874724
 30
0.0
 11
-771.763278567749
 21
532.999999874724
 31
0.0
  0
TEXT
  5
BE
330
18
100
AcDbEntity
  8
0030010002
100
AcDbText
 10
-784.52455558853
 20
574.945740422235
 30
0.0
 40
30.0000019073486
  1
17
 50
90.0
 41
0.75
100
AcDbText
  0
LINE
  5
BF
330
18
100
AcDbEntity
  8
0030010002
100
AcDbLine
 10
-771.763278567749
 20
516.903779782065
 30
0.0
 11
-771.763278567749
 21
615.775257562216
 31
0.0
  0
ARC
  5
C0
330
18
100
AcDbEntity
  8
0010010007
100
AcDbCircle
 10
-681.065578580197
 20
3075.54218
 30
0.0
 40
3000.0
100
AcDbArc
 50
271.705800278374
 51
271.73527
  0
ARC
  5
C1
330
18
100
AcDbEntity
  8
0010010007
100
AcDbCircle
 10
-455.838788580197
 20
125.71781
 30
0.0
 40
40.0
100
AcDbArc
 50
274.75222
 51
357.99998
  0
LINE
  5
C2
330
18
100
AcDbEntity
  8
0010010007
100
AcDbLine
 10
-415.263278580198
 20
141.5
 30
0.0
 11
-415.863158580198
 21
124.32182
 31
0.0
  0
ARC
  5
C3
330
18
100
AcDbEntity
  8
0010010007
100
AcDbCircle
 10
-701.065578580201
 20
3075.54218
 30
0.0
 40
3000.0
100
AcDbArc
 50
273.684263874046
 51
274.75222
  0
ARC
  5
C4
330
18
100
AcDbEntity
  8
0010010007
100
AcDbCircle
 10
-701.065578580201
 20
-2522.54218
 30
0.0
 40
3000.0
100
AcDbArc
 50
85.24778000000001
 51
87.9120177194492
  0
LINE
  5
C5
330
18
100
AcDbEntity
  8
0010010007
100
AcDbLine
 10
-395.263278580198
 20
351.5
 30
0.0
 11
-395.263278580198
 21
291.5
 31
0.0
  0
LINE
  5
C6
330
18
100
AcDbEntity
  8
0010010007
100
AcDbLine
 10
-395.263278580198
 20
351.5
 30
0.0
 11
-395.263278580198
 21
411.5
 31
0.0
  0
ARC
  5
C7
330
18
100
AcDbEntity
  8
0010010007
100
AcDbCircle
 10
-435.838788580197
 20
427.28219
 30
0.0
 40
40.0
100
AcDbArc
 50
2.00002000000001
 51
85.24778000000001
  0
LINE
  5
C8
330
18
100
AcDbEntity
  8
0010010007
100
AcDbLine
 10
-395.263278580198
 20
411.5
 30
0.0
 11
-395.863158580198
 21
428.67818
 31
0.0
  0
LINE
  5
C9
330
18
100
AcDbEntity
  8
0010010007
100
AcDbLine
 10
-391.8523585802
 20
379.0
 30
0.0
 11
-393.917757490612
 21
386.708193316615
 31
0.0
  0
LINE
  5
CA
330
18
100
AcDbEntity
  8
0010010007
100
AcDbLine
 10
-393.838558580199
 20
386.380639999999
 30
0.0
 11
-393.838558580199
 21
351.499999999999
 31
0.0
  0
LINE
  5
CB
330
18
100
AcDbEntity
  8
0010010007
100
AcDbLine
 10
-391.8523585802
 20
379.0
 30
0.0
 11
-391.8523585802
 21
351.5
 31
0.0
  0
LINE
  5
CC
330
18
100
AcDbEntity
  8
0010010007
100
AcDbLine
 10
-391.8523585802
 20
324.0
 30
0.0
 11
-393.917757490612
 21
316.291806683385
 31
0.0
  0
LINE
  5
CD
330
18
100
AcDbEntity
  8
0010010007
100
AcDbLine
 10
-393.838558580199
 20
316.619359999999
 30
0.0
 11
-393.838558580199
 21
351.499999999999
 31
0.0
  0
LINE
  5
CE
330
18
100
AcDbEntity
  8
0010010007
100
AcDbLine
 10
-391.8523585802
 20
324.0
 30
0.0
 11
-391.8523585802
 21
351.5
 31
0.0
  0
ARC
  5
CF
330
18
100
AcDbEntity
  8
0010010007
100
AcDbCircle
 10
-393.263278580198
 20
314.401923788646
 30
0.0
 40
1.99999999999996
100
AcDbArc
 50
109.10130703968
 51
174.193617295437
  0
ARC
  5
D0
330
18
100
AcDbEntity
  8
0010010007
100
AcDbCircle
 10
-393.263278580198
 20
388.598076211352
 30
0.0
 40
1.99999999999996
100
AcDbArc
 50
185.806382704563
 51
250.89869296032
  0
ARC
  5
D1
330
18
100
AcDbEntity
  8
0010010007
100
AcDbCircle
 10
-681.065578580199
 20
-2522.54218
 30
0.0
 40
3000.0
100
AcDbArc
 50
85.24778000000001
 51
88.2941997216263
  0
LINE
  5
D2
330
18
100
AcDbEntity
  8
0010010007
100
AcDbLine
 10
-415.263278580198
 20
141.5
 30
0.0
 11
-415.263278580198
 21
236.5
 31
0.0
  0
LINE
  5
D3
330
18
100
AcDbEntity
  8
0010010007
100
AcDbLine
 10
-415.263278580198
 20
236.5
 30
0.0
 11
-415.263278580198
 21
291.5
 31
0.0
  0
ARC
  5
D4
330
18
100
AcDbEntity
  8
0010010007
100
AcDbCircle
 10
-701.065578580201
 20
3075.54218
 30
0.0
 40
3000.0
100
AcDbArc
 50
272.087982280551
 51
272.262624020564
  0
ARC
  5
D5
330
18
100
AcDbEntity
  8
0010010007
100
AcDbCircle
 10
-701.065578580201
 20
3075.54218
 30
0.0
 40
3000.0
100
AcDbArc
 50
272.262624020564
 51
273.684263874046
  0
LINE
  5
D6
330
18
100
AcDbEntity
  8
0030010002
100
AcDbLine
 10
-671.763278567749
 20
548.9999998712
 30
0.0
 11
-671.763278567749
 21
750.999999870729
 31
0.0
  0
LINE
  5
D7
330
18
100
AcDbEntity
  8
0030010002
100
AcDbLine
 10
-621.763278580198
 20
533.000002985185
 30
0.0
 11
-621.763278580198
 21
750.999999870729
 31
0.0
  0
SOLID
  5
D8
330
18
100
AcDbEntity
  8
0030010002
100
AcDbTrace
 10
-691.289198710148
 20
754.328792149492
 30
0.0
 11
-691.289198710148
 21
745.671207591967
 31
0.0
 12
-671.763278567749
 22
749.999999870729
 32
0.0
 13
-671.763278567749
 23
749.999999870729
 33
0.0
  0
LINE
  5
D9
330
18
100
AcDbEntity
  8
0030010002
100
AcDbLine
 10
-672.763278567749
 20
749.999999870729
 30
0.0
 11
-671.763278567749
 21
749.999999870729
 31
0.0
  0
SOLID
  5
DA
330
18
100
AcDbEntity
  8
0030010002
100
AcDbTrace
 10
-602.237358437799
 20
745.671207591967
 30
0.0
 11
-602.237358437799
 21
754.328792149492
 31
0.0
 12
-621.763278580198
 22
749.999999870729
 32
0.0
 13
-621.763278580198
 23
749.999999870729
 33
0.0
  0
LINE
  5
DB
330
18
100
AcDbEntity
  8
0030010002
100
AcDbLine
 10
-620.763278580198
 20
749.999999870729
 30
0.0
 11
-621.763278580198
 21
749.999999870729
 31
0.0
  0
TEXT
  5
DC
330
18
100
AcDbEntity
  8
0030010002
100
AcDbText
 10
-667.135860119459
 20
765.327696888196
 30
0.0
 40
30.0000019073486
  1
50
 41
0.75
100
AcDbText
  0
LINE
  5
DD
330
18
100
AcDbEntity
  8
0030010002
100
AcDbLine
 10
-621.763278580198
 20
533.000002985185
 30
0.0
 11
-621.763278580198
 21
750.999999870729
 31
0.0
  0
LINE
  5
DE
330
18
100
AcDbEntity
  8
0030010002
100
AcDbLine
 10
-395.263278580198
 20
412.5
 30
0.0
 11
-395.263278580198
 21
750.999999870729
 31
0.0
  0
SOLID
  5
DF
330
18
100
AcDbEntity
  8
0030010002
100
AcDbTrace
 10
-602.237358437799
 20
745.671207591967
 30
0.0
 11
-602.237358437799
 21
754.328792149492
 31
0.0
 12
-621.763278580198
 22
749.999999870729
 32
0.0
 13
-621.763278580198
 23
749.999999870729
 33
0.0
  0
SOLID
  5
E0
330
18
100
AcDbEntity
  8
0030010002
100
AcDbTrace
 10
-414.789198722597
 20
754.328792149492
 30
0.0
 11
-414.789198722597
 21
745.671207591967
 31
0.0
 12
-395.263278580198
 22
749.999999870729
 32
0.0
 13
-395.263278580198
 23
749.999999870729
 33
0.0
  0
LINE
  5
E1
330
18
100
AcDbEntity
  8
0030010002
100
AcDbLine
 10
-621.763278580198
 20
749.999999870729
 30
0.0
 11
-395.263278580198
 21
749.999999870729
 31
0.0
  0
TEXT
  5
E2
330
18
100
AcDbEntity
  8
0030010002
100
AcDbText
 10
-561.013279418057
 20
765.000000824404
 30
0.0
 40
30.0000019073486
  1
226.5
 41
0.75
100
AcDbText
  0
LINE
  5
E3
330
18
100
AcDbEntity
  8
0030010002
100
AcDbLine
 10
-602.374922563497
 20
749.999999870729
 30
0.0
 11
-691.0885356538551
 21
749.999999870729
 31
0.0
  0
LINE
  5
E4
330
18
100
AcDbEntity
  8
0030010002
100
AcDbLine
 10
-621.763278580198
 20
533.000002985185
 30
0.0
 11
-621.763278580198
 21
650.999999870729
 31
0.0
  0
LINE
  5
E5
330
18
100
AcDbEntity
  8
0030010002
100
AcDbLine
 10
-415.263278580198
 20
412.5
 30
0.0
 11
-415.263278580198
 21
650.999999870729
 31
0.0
  0
SOLID
  5
E6
330
18
100
AcDbEntity
  8
0030010002
100
AcDbTrace
 10
-602.237358437799
 20
645.671207591967
 30
0.0
 11
-602.237358437799
 21
654.328792149492
 31
0.0
 12
-621.763278580198
 22
649.999999870729
 32
0.0
 13
-621.763278580198
 23
649.999999870729
 33
0.0
  0
SOLID
  5
E7
330
18
100
AcDbEntity
  8
0030010002
100
AcDbTrace
 10
-434.789198722597
 20
654.328792149492
 30
0.0
 11
-434.789198722597
 21
645.671207591967
 31
0.0
 12
-415.263278580198
 22
649.999999870729
 32
0.0
 13
-415.263278580198
 23
649.999999870729
 33
0.0
  0
LINE
  5
E8
330
18
100
AcDbEntity
  8
0030010002
100
AcDbLine
 10
-621.763278580198
 20
649.999999870729
 30
0.0
 11
-415.263278580198
 21
649.999999870729
 31
0.0
  0
TEXT
  5
E9
330
18
100
AcDbEntity
  8
0030010002
100
AcDbText
 10
-571.013279418057
 20
665.000000824404
 30
0.0
 40
30.0000019073486
  1
206.5
 41
0.75
100
AcDbText
  0
ARC
  5
EA
330
18
100
AcDbEntity
  8
0010020007
100
AcDbCircle
 10
-591.432208580198
 20
116.899609999999
 30
0.0
 40
40.0
100
AcDbArc
 50
282.718661252355
 51
315.0
  0
ARC
  5
EB
330
18
100
AcDbEntity
  8
0010010007
100
AcDbCircle
 10
-591.432208580198
 20
116.899609999999
 30
0.0
 40
40.0
100
AcDbArc
 50
271.73527
 51
282.718661252355
  0
LINE
  5
EC
330
18
100
AcDbEntity
  8
0010020007
100
AcDbLine
 10
-435.711978580199
 20
216.051299999999
 30
0.0
 11
-415.263278580198
 21
236.5
 31
0.0
  0
LINE
  5
ED
330
18
100
AcDbEntity
  8
0010010007
100
AcDbLine
 10
-415.263278580198
 20
236.5
 30
0.0
 11
-407.671198580199
 21
244.092079999999
 31
0.0
  0
ENDSEC
  0
SECTION
  2
OBJECTS
  0
DICTIONARY
  5
C
330
0
100
AcDbDictionary
281
     1
  3
ACAD_GROUP
350
D
  3
ACAD_LAYOUT
350
15
  3
ACAD_MLINESTYLE
350
12
  3
ACAD_PLOTSETTINGS
350
14
  3
ACAD_PLOTSTYLENAME
350
E
  3
ACAD_TABLESTYLE
350
EF
  3
AcDbVariableDictionary
350
F1
  0
DICTIONARY
  5
D
102
{ACAD_REACTORS
330
C
102
}
330
C
100
AcDbDictionary
281
     1
  0
DICTIONARY
  5
15
102
{ACAD_REACTORS
330
C
102
}
330
C
100
AcDbDictionary
281
     1
  3
Layout1
350
17
  3
Model
350
19
  0
DICTIONARY
  5
12
102
{ACAD_REACTORS
330
C
102
}
330
C
100
AcDbDictionary
281
     1
  3
Standard
350
13
  0
DICTIONARY
  5
14
102
{ACAD_REACTORS
330
C
102
}
330
C
100
AcDbDictionary
281
     1
  0
ACDBDICTIONARYWDFLT
  5
E
102
{ACAD_REACTORS
330
C
102
}
330
C
100
AcDbDictionary
281
     1
  3
Normal
350
F
100
AcDbDictionaryWithDefault
340
F
  0
DICTIONARY
  5
EF
102
{ACAD_REACTORS
330
C
102
}
330
C
100
AcDbDictionary
281
     1
  3
Standard
350
F0
  0
DICTIONARY
  5
F1
102
{ACAD_REACTORS
330
C
102
}
330
C
100
AcDbDictionary
281
     1
  3
CTABLESTYLE
350
F2
  0
LAYOUT
  5
17
102
{ACAD_REACTORS
330
15
102
}
330
15
100
AcDbPlotSettings
  1

  2

  4

  6

 40
0.0
 41
0.0
 42
0.0
 43
0.0
 44
0.0
 45
0.0
 46
0.0
 47
0.0
 48
0.0
 49
0.0
140
0.0
141
0.0
142
1.0
143
1.0
 70
   688
 72
     0
 73
     0
 74
     5
  7

 75
    16
147
1.0
148
0.0
149
0.0
100
AcDbLayout
  1
Layout1
 70
     1
 71
     1
 10
0.0
 20
0.0
 11
12.0
 21
9.0
 12
0.0
 22
0.0
 32
0.0
 14
1.000000000000000E+20
 24
1.000000000000000E+20
 34
1.000000000000000E+20
 15
-1.000000000000000E+20
 25
-1.000000000000000E+20
 35
-1.000000000000000E+20
146
0.0
 13
0.0
 23
0.0
 33
0.0
 16
1.0
 26
0.0
 36
0.0
 17
0.0
 27
1.0
 37
0.0
 76
     0
330
16
  0
LAYOUT
  5
19
102
{ACAD_REACTORS
330
15
102
}
330
15
100
AcDbPlotSettings
  1

  2

  4

  6

 40
0.0
 41
0.0
 42
0.0
 43
0.0
 44
0.0
 45
0.0
 46
0.0
 47
0.0
 48
0.0
 49
0.0
140
0.0
141
0.0
142
1.0
143
1.0
 70
  1712
 72
     0
 73
     0
 74
     0
  7

 75
     0
147
1.0
148
0.0
149
0.0
100
AcDbLayout
  1
Model
 70
     1
 71
     0
 10
0.0
 20
0.0
 11
0.0
 21
0.0
 12
0.0
 22
0.0
 32
0.0
 14
-32.05
 24
-32.05
 34
0.0
 15
1258.45
 25
893.05
 35
0.0
146
0.0
 13
0.0
 23
0.0
 33
0.0
 16
1.0
 26
0.0
 36
0.0
 17
0.0
 27
1.0
 37
0.0
 76
     0
330
18
  0
MLINESTYLE
  5
13
102
{ACAD_REACTORS
330
12
102
}
330
12
100
AcDbMlineStyle
  2
Standard
 70
     0
  3

 62
   256
 51
90.0
 52
90.0
 71
     2
 49
0.5
 62
   256
  6
BYLAYER
 49
-0.5
 62
   256
  6
BYLAYER
  0
ACDBPLACEHOLDER
  5
F
102
{ACAD_REACTORS
330
E
102
}
330
E
  0
TABLESTYLE
  5
F0
102
{ACAD_REACTORS
330
EF
102
}
330
EF
100
AcDbTableStyle
  3
Standard
 70
     0
 71
     0
 40
0.06
 41
0.06
280
     0
281
     0
  7
STANDARD
140
0.18
170
     2
 62
     0
 63
     7
283
     0
274
    -2
284
     1
 64
     0
275
    -2
285
     1
 65
     0
276
    -2
286
     1
 66
     0
277
    -2
287
     1
 67
     0
278
    -2
288
     1
 68
     0
279
    -2
289
     1
 69
     0
  7
STANDARD
140
0.25
170
     5
 62
     0
 63
     7
283
     0
274
    -2
284
     1
 64
     0
275
    -2
285
     1
 65
     0
276
    -2
286
     1
 66
     0
277
    -2
287
     1
 67
     0
278
    -2
288
     1
 68
     0
279
    -2
289
     1
 69
     0
  7
STANDARD
140
0.18
170
     5
 62
     0
 63
     7
283
     0
274
    -2
284
     1
 64
     0
275
    -2
285
     1
 65
     0
276
    -2
286
     1
 66
     0
277
    -2
287
     1
 67
     0
278
    -2
288
     1
 68
     0
279
    -2
289
     1
 69
     0
  0
DICTIONARYVAR
  5
F2
102
{ACAD_REACTORS
330
F1
102
}
330
F1
100
DictionaryVariables
280
     0
  1
Standard
  0
ENDSEC
  0
EOF
