  0
SECTION
  2
HEADER
  9
$ACADVER
  1
AC1015
  9
$ACADMAINTVER
 70
     6
  9
$DWGCODEPAGE
  3
UNDEFINED
  9
$INSBASE
 10
0.0
 20
0.0
 30
0.0
  9
$EXTMIN
 10
-32.05
 20
-32.05
 30
0.0
  9
$EXTMAX
 10
1258.45
 20
893.05
 30
0.0
  9
$LIMMIN
 10
-32.05
 20
-32.05
  9
$LIMMAX
 10
1258.45
 20
893.05
  9
$ORTHOMODE
 70
     0
  9
$REGENMODE
 70
     1
  9
$FILLMODE
 70
     1
  9
$QTEXTMODE
 70
     0
  9
$MIRRTEXT
 70
     1
  9
$LTSCALE
 40
1.0
  9
$ATTMODE
 70
     1
  9
$TEXTSIZE
 40
3.0
  9
$TRACEWID
 40
0.05
  9
$TEXTSTYLE
  7
STANDARD
  9
$CLAYER
  8
0
  9
$CELTYPE
  6
ByBlock
  9
$CECOLOR
 62
   256
  9
$CELTSCALE
 40
1.0
  9
$DISPSILH
 70
     0
  9
$DIMSCALE
 40
1.0
  9
$DIMASZ
 40
19.5259201423987
  9
$DIMEXO
 40
1.0
  9
$DIMDLI
 40
0.38
  9
$DIMRND
 40
0.0
  9
$DIMDLE
 40
0.0
  9
$DIMEXE
 40
1.0
  9
$DIMTP
 40
0.0
  9
$DIMTM
 40
0.0
  9
$DIMTXT
 40
3.0
  9
$DIMCEN
 40
1.0
  9
$DIMTSZ
 40
0.0
  9
$DIMTOL
 70
     0
  9
$DIMLIM
 70
     0
  9
$DIMTIH
 70
     1
  9
$DIMTOH
 70
     1
  9
$DIMSE1
 70
     0
  9
$DIMSE2
 70
     0
  9
$DIMTAD
 70
     0
  9
$DIMZIN
 70
     0
  9
$DIMBLK
  1

  9
$DIMASO
 70
     1
  9
$DIMSHO
 70
     1
  9
$DIMPOST
  1

  9
$DIMAPOST
  1

  9
$DIMALT
 70
     0
  9
$DIMALTD
 70
     2
  9
$DIMALTF
 40
25.4
  9
$DIMLFAC
 40
1.0
  9
$DIMTOFL
 70
     0
  9
$DIMTVP
 40
0.0
  9
$DIMTIX
 70
     0
  9
$DIMSOXD
 70
     0
  9
$DIMSAH
 70
     0
  9
$DIMBLK1
  1

  9
$DIMBLK2
  1

  9
$DIMSTYLE
  2
Standard
  9
$DIMCLRD
 70
     0
  9
$DIMCLRE
 70
     0
  9
$DIMCLRT
 70
     0
  9
$DIMTFAC
 40
1.0
  9
$DIMGAP
 40
0.09
  9
$DIMJUST
 70
     0
  9
$DIMSD1
 70
     0
  9
$DIMSD2
 70
     0
  9
$DIMTOLJ
 70
     1
  9
$DIMTZIN
 70
     0
  9
$DIMALTZ
 70
     0
  9
$DIMALTTZ
 70
     0
  9
$DIMUPT
 70
     0
  9
$DIMDEC
 70
     4
  9
$DIMTDEC
 70
     4
  9
$DIMALTU
 70
     2
  9
$DIMALTTD
 70
     2
  9
$DIMTXSTY
  7
STANDARD
  9
$DIMAUNIT
 70
     0
  9
$DIMADEC
 70
     0
  9
$DIMALTRND
 40
0.0
  9
$DIMAZIN
 70
     0
  9
$DIMDSEP
 70
    46
  9
$DIMATFIT
 70
     3
  9
$DIMFRAC
 70
     0
  9
$DIMLDRBLK
  1

  9
$DIMLUNIT
 70
     2
  9
$DIMLWD
 70
    -2
  9
$DIMLWE
 70
    -2
  9
$DIMTMOVE
 70
     0
  9
$LUNITS
 70
     2
  9
$LUPREC
 70
     4
  9
$SKETCHINC
 40
0.1
  9
$FILLETRAD
 40
0.0
  9
$AUNITS
 70
     0
  9
$AUPREC
 70
     4
  9
$MENU
  1
acad
  9
$ELEVATION
 40
0.0
  9
$PELEVATION
 40
0.0
  9
$THICKNESS
 40
0.0
  9
$LIMCHECK
 70
     0
  9
$CHAMFERA
 40
0.0
  9
$CHAMFERB
 40
0.0
  9
$CHAMFERC
 40
1.0
  9
$CHAMFERD
 40
0.0
  9
$SKPOLY
 70
     0
  9
$TDCREATE
 40
2453872.556539352
  9
$TDUCREATE
 40
2453872.681539352
  9
$TDUPDATE
 40
2453872.556539363
  9
$TDUUPDATE
 40
2453872.681539363
  9
$TDINDWG
 40
0.0000000116
  9
$TDUSRTIMER
 40
0.0000000116
  9
$USRTIMER
 70
     1
  9
$ANGBASE
 50
0.0
  9
$ANGDIR
 70
     0
  9
$PDMODE
 70
     0
  9
$PDSIZE
 40
0.0
  9
$PLINEWID
 40
0.0
  9
$SPLFRAME
 70
     0
  9
$SPLINETYPE
 70
     6
  9
$SPLINESEGS
 70
     8
  9
$HANDSEED
  5
D4
  9
$SURFTAB1
 70
     6
  9
$SURFTAB2
 70
     6
  9
$SURFTYPE
 70
     6
  9
$SURFU
 70
     6
  9
$SURFV
 70
     6
  9
$UCSBASE
  2

  9
$UCSNAME
  2

  9
$UCSORG
 10
0.0
 20
0.0
 30
0.0
  9
$UCSXDIR
 10
1.0
 20
0.0
 30
0.0
  9
$UCSYDIR
 10
0.0
 20
1.0
 30
0.0
  9
$UCSORTHOREF
  2

  9
$UCSORTHOVIEW
 70
     0
  9
$UCSORGTOP
 10
0.0
 20
0.0
 30
0.0
  9
$UCSORGBOTTOM
 10
0.0
 20
0.0
 30
0.0
  9
$UCSORGLEFT
 10
0.0
 20
0.0
 30
0.0
  9
$UCSORGRIGHT
 10
0.0
 20
0.0
 30
0.0
  9
$UCSORGFRONT
 10
0.0
 20
0.0
 30
0.0
  9
$UCSORGBACK
 10
0.0
 20
0.0
 30
0.0
  9
$PUCSBASE
  2

  9
$PUCSNAME
  2

  9
$PUCSORG
 10
0.0
 20
0.0
 30
0.0
  9
$PUCSXDIR
 10
1.0
 20
0.0
 30
0.0
  9
$PUCSYDIR
 10
0.0
 20
1.0
 30
0.0
  9
$PUCSORTHOREF
  2

  9
$PUCSORTHOVIEW
 70
     0
  9
$PUCSORGTOP
 10
0.0
 20
0.0
 30
0.0
  9
$PUCSORGBOTTOM
 10
0.0
 20
0.0
 30
0.0
  9
$PUCSORGLEFT
 10
0.0
 20
0.0
 30
0.0
  9
$PUCSORGRIGHT
 10
0.0
 20
0.0
 30
0.0
  9
$PUCSORGFRONT
 10
0.0
 20
0.0
 30
0.0
  9
$PUCSORGBACK
 10
0.0
 20
0.0
 30
0.0
  9
$USERI1
 70
     0
  9
$USERI2
 70
     0
  9
$USERI3
 70
     0
  9
$USERI4
 70
     0
  9
$USERI5
 70
     0
  9
$USERR1
 40
0.0
  9
$USERR2
 40
0.0
  9
$USERR3
 40
0.0
  9
$USERR4
 40
0.0
  9
$USERR5
 40
0.0
  9
$WORLDVIEW
 70
     1
  9
$SHADEDGE
 70
     3
  9
$SHADEDIF
 70
    70
  9
$TILEMODE
 70
     1
  9
$MAXACTVP
 70
    64
  9
$PINSBASE
 10
0.0
 20
0.0
 30
0.0
  9
$PLIMCHECK
 70
     0
  9
$PEXTMIN
 10
1.000000000000000E+20
 20
1.000000000000000E+20
 30
1.000000000000000E+20
  9
$PEXTMAX
 10
-1.000000000000000E+20
 20
-1.000000000000000E+20
 30
-1.000000000000000E+20
  9
$PLIMMIN
 10
0.0
 20
0.0
  9
$PLIMMAX
 10
12.0
 20
9.0
  9
$UNITMODE
 70
     0
  9
$VISRETAIN
 70
     1
  9
$PLINEGEN
 70
     0
  9
$PSLTSCALE
 70
     1
  9
$TREEDEPTH
 70
  3020
  9
$CMLSTYLE
  2
Standard
  9
$CMLJUST
 70
     0
  9
$CMLSCALE
 40
1.0
  9
$PROXYGRAPHICS
 70
     1
  9
$MEASUREMENT
 70
     0
  9
$CELWEIGHT
370
    -1
  9
$ENDCAPS
280
     0
  9
$JOINSTYLE
280
     0
  9
$LWDISPLAY
290
     0
  9
$INSUNITS
 70
     0
  9
$HYPERLINKBASE
  1

  9
$STYLESHEET
  1

  9
$XEDIT
290
     1
  9
$CEPSNTYPE
380
     0
  9
$PSTYLEMODE
290
     0
  9
$FINGERPRINTGUID
  2
{FAEB1C30-E019-11D5-929B-00C0DF256EC4}
  9
$VERSIONGUID
  2
{FAEB1C32-E019-11D5-929B-00C0DF256EC4}
  9
$EXTNAMES
290
     1
  9
$PSVPSCALE
 40
0.0
  9
$OLESTARTUP
290
     0
  0
ENDSEC
  0
SECTION
  2
CLASSES
  0
CLASS
  1
ACDBDICTIONARYWDFLT
  2
AcDbDictionaryWithDefault
  3
ObjectDBX Classes
 90
        0
280
     0
281
     0
  0
CLASS
  1
TABLESTYLE
  2
AcDbTableStyle
  3
ObjectDBX Classes
 90
     2047
280
     0
281
     0
  0
CLASS
  1
DICTIONARYVAR
  2
AcDbDictionaryVar
  3
ObjectDBX Classes
 90
        0
280
     0
281
     0
  0
CLASS
  1
ACDBPLACEHOLDER
  2
AcDbPlaceHolder
  3
ObjectDBX Classes
 90
        0
280
     0
281
     0
  0
CLASS
  1
LAYOUT
  2
AcDbLayout
  3
ObjectDBX Classes
 90
        0
280
     0
281
     0
  0
ENDSEC
  0
SECTION
  2
TABLES
  0
TABLE
  2
VPORT
  5
8
330
0
100
AcDbSymbolTable
 70
     1
  0
VPORT
  5
CB
330
8
100
AcDbSymbolTableRecord
100
AcDbViewportTableRecord
  2
*Active
 70
     0
 10
0.0
 20
0.0
 11
1.0
 21
1.0
 12
10.42990654205607
 22
4.5
 13
0.0
 23
0.0
 14
0.5
 24
0.5
 15
0.5
 25
0.5
 16
0.0
 26
0.0
 36
1.0
 17
0.0
 27
0.0
 37
0.0
 40
9.0
 41
1.972972972850329
 42
50.0
 43
0.0
 44
0.0
 50
0.0
 51
0.0
 71
     0
 72
   100
 73
     1
 74
     3
 75
     0
 76
     0
 77
     0
 78
     0
281
     0
 65
     1
110
0.0
120
0.0
130
0.0
111
1.0
121
0.0
131
0.0
112
0.0
122
1.0
132
0.0
 79
     0
146
0.0
  0
ENDTAB
  0
TABLE
  2
LTYPE
  5
5
330
0
100
AcDbSymbolTable
 70
     9
  0
LTYPE
  5
10
330
5
100
AcDbSymbolTableRecord
100
AcDbLinetypeTableRecord
  2
ByBlock
 70
     0
  3

 72
    65
 73
     0
 40
0.0
  0
LTYPE
  5
11
330
5
100
AcDbSymbolTableRecord
100
AcDbLinetypeTableRecord
  2
ByLayer
 70
     0
  3

 72
    65
 73
     0
 40
0.0
  0
LTYPE
  5
1B
330
5
100
AcDbSymbolTableRecord
100
AcDbLinetypeTableRecord
  2
CONTINUOUS
 70
     0
  3
Solid line
 72
    65
 73
     0
 40
0.0
  0
LTYPE
  5
1C
330
5
100
AcDbSymbolTableRecord
100
AcDbLinetypeTableRecord
  2
HIDDEN
 70
     0
  3
_ _ _ _ _ _ _ _ _ _ _ _ _ _ _ _ _ _ _ _ 
 72
    65
 73
     2
 40
0.375
 49
0.25
 74
     0
 49
-0.125
 74
     0
  0
LTYPE
  5
1D
330
5
100
AcDbSymbolTableRecord
100
AcDbLinetypeTableRecord
  2
DASHED
 70
     0
  3
__ __ __ __ __ __ __ __ __ __ __ __ __  
 72
    65
 73
     2
 40
0.75
 49
0.5
 74
     0
 49
-0.25
 74
     0
  0
LTYPE
  5
1E
330
5
100
AcDbSymbolTableRecord
100
AcDbLinetypeTableRecord
  2
CENTER
 70
     0
  3
____ _ ____ _ ____ _ ____ _ ____ _ ____ 
 72
    65
 73
     4
 40
2.0
 49
1.25
 74
     0
 49
-0.25
 74
     0
 49
0.25
 74
     0
 49
-0.25
 74
     0
  0
LTYPE
  5
1F
330
5
100
AcDbSymbolTableRecord
100
AcDbLinetypeTableRecord
  2
PHANTOM
 70
     0
  3
_____ _ _ _____ _ _ _____ _ _ _____ _ _ 
 72
    65
 73
     6
 40
2.5
 49
1.25
 74
     0
 49
-0.25
 74
     0
 49
0.25
 74
     0
 49
-0.25
 74
     0
 49
0.25
 74
     0
 49
-0.25
 74
     0
  0
LTYPE
  5
20
330
5
100
AcDbSymbolTableRecord
100
AcDbLinetypeTableRecord
  2
DOT
 70
     0
  3
........................................
 72
    65
 73
     2
 40
0.25
 49
0.0
 74
     0
 49
-0.25
 74
     0
  0
LTYPE
  5
21
330
5
100
AcDbSymbolTableRecord
100
AcDbLinetypeTableRecord
  2
DASHDOT
 70
     0
  3
__ . __ . __ . __ . __ . __ . __ . __ . 
 72
    65
 73
     4
 40
1.0
 49
0.5
 74
     0
 49
-0.25
 74
     0
 49
0.0
 74
     0
 49
-0.25
 74
     0
  0
LTYPE
  5
22
330
5
100
AcDbSymbolTableRecord
100
AcDbLinetypeTableRecord
  2
BORDER
 70
     0
  3
__ __ . __ __ . __ __ . __ __ . __ __ . 
 72
    65
 73
     6
 40
1.75
 49
0.5
 74
     0
 49
-0.25
 74
     0
 49
0.5
 74
     0
 49
-0.25
 74
     0
 49
0.0
 74
     0
 49
-0.25
 74
     0
  0
LTYPE
  5
23
330
5
100
AcDbSymbolTableRecord
100
AcDbLinetypeTableRecord
  2
DIVIDE
 70
     0
  3
__ . . __ . . __ . . __ . . __ . . __ . 
 72
    65
 73
     6
 40
1.25
 49
0.5
 74
     0
 49
-0.25
 74
     0
 49
0.0
 74
     0
 49
-0.25
 74
     0
 49
0.0
 74
     0
 49
-0.25
 74
     0
  0
ENDTAB
  0
TABLE
  2
LAYER
  5
2
330
0
100
AcDbSymbolTable
 70
     4
  0
LAYER
  5
24
330
2
100
AcDbSymbolTableRecord
100
AcDbLayerTableRecord
  2
0
 70
     0
 62
     7
  6
CONTINUOUS
370
    -3
390
F
  0
LAYER
  5
25
330
2
100
AcDbSymbolTableRecord
100
AcDbLayerTableRecord
  2
0010010007
 70
     0
 62
     7
  6
CONTINUOUS
370
    -3
390
F
  0
LAYER
  5
26
330
2
100
AcDbSymbolTableRecord
100
AcDbLayerTableRecord
  2
0020010004
 70
     0
 62
     4
  6
CONTINUOUS
370
    -3
390
F
  0
LAYER
  5
27
330
2
100
AcDbSymbolTableRecord
100
AcDbLayerTableRecord
  2
0030010002
 70
     0
 62
     2
  6
CONTINUOUS
370
    -3
390
F
  0
ENDTAB
  0
TABLE
  2
STYLE
  5
3
330
0
100
AcDbSymbolTable
 70
     1
  0
STYLE
  5
28
330
3
100
AcDbSymbolTableRecord
100
AcDbTextStyleTableRecord
  2
STANDARD
 70
     0
 40
0.0
 41
1.0
 50
0.0
 71
     0
 42
0.2
  3
txt
  4

  0
ENDTAB
  0
TABLE
  2
VIEW
  5
6
330
0
100
AcDbSymbolTable
 70
     1
  0
VIEW
  5
29
330
6
100
AcDbSymbolTableRecord
100
AcDbViewTableRecord
  2
1
 70
     0
 40
20600.0
 10
29641.0
 20
34500.0
 41
1.0
 11
0.0
 21
0.0
 31
1.0
 12
0.0
 22
0.0
 32
0.0
 42
50.0
 43
0.0
 44
0.0
 50
0.0
 71
     0
281
     0
 72
     0
  0
ENDTAB
  0
TABLE
  2
UCS
  5
7
330
0
100
AcDbSymbolTable
 70
     0
  0
ENDTAB
  0
TABLE
  2
APPID
  5
9
330
0
100
AcDbSymbolTable
 70
     1
  0
APPID
  5
2A
330
9
100
AcDbSymbolTableRecord
100
AcDbRegAppTableRecord
  2
ACAD
 70
     0
  0
ENDTAB
  0
TABLE
  2
DIMSTYLE
  5
A
330
0
100
AcDbSymbolTable
 70
     1
100
AcDbDimStyleTable
  0
DIMSTYLE
105
2B
330
A
100
AcDbSymbolTableRecord
100
AcDbDimStyleTableRecord
  2
Standard
 70
     0
340
28
  0
ENDTAB
  0
TABLE
  2
BLOCK_RECORD
  5
1
330
0
100
AcDbSymbolTable
 70
     0
  0
BLOCK_RECORD
  5
18
330
1
100
AcDbSymbolTableRecord
100
AcDbBlockTableRecord
  2
*Model_Space
340
19
  0
BLOCK_RECORD
  5
16
330
1
100
AcDbSymbolTableRecord
100
AcDbBlockTableRecord
  2
*Paper_Space
340
17
  0
ENDTAB
  0
ENDSEC
  0
SECTION
  2
BLOCKS
  0
BLOCK
  5
D0
330
18
100
AcDbEntity
  8
0
100
AcDbBlockBegin
  2
*Model_Space
 70
     0
 71
     0
 10
0.0
 20
0.0
 30
0.0
  3
*Model_Space
  1

  0
ENDBLK
  5
D1
330
18
100
AcDbEntity
  8
0
100
AcDbBlockEnd
  0
BLOCK
  5
D2
330
16
100
AcDbEntity
 67
     1
  8
0
100
AcDbBlockBegin
  2
*Paper_Space
 70
     0
 71
     0
 10
0.0
 20
0.0
 30
0.0
  3
*Paper_Space
  1

  0
ENDBLK
  5
D3
330
16
100
AcDbEntity
 67
     1
  8
0
100
AcDbBlockEnd
  0
ENDSEC
  0
SECTION
  2
ENTITIES
  0
ARC
  5
2C
330
18
100
AcDbEntity
  8
0010010007
100
AcDbCircle
 10
2.48837999999887
 20
127.7907
 30
0.0
 40
100.0
100
AcDbArc
 50
182.93269
 51
267.83236
  0
ARC
  5
2D
330
18
100
AcDbEntity
  8
0010010007
100
AcDbCircle
 10
297.511620000001
 20
322.2093
 30
0.0
 40
100.0
100
AcDbArc
 50
2.93269
 51
87.83235999999999
  0
ARC
  5
2E
330
18
100
AcDbEntity
  8
0010010007
100
AcDbCircle
 10
297.511620000001
 20
127.7907
 30
0.0
 40
100.0
100
AcDbArc
 50
272.16765
 51
357.06731
  0
ARC
  5
2F
330
18
100
AcDbEntity
  8
0010010007
100
AcDbCircle
 10
2.48837999999887
 20
322.2093
 30
0.0
 40
100.0
100
AcDbArc
 50
92.16765
 51
177.06731
  0
ARC
  5
30
330
18
100
AcDbEntity
  8
0010010007
100
AcDbCircle
 10
150.0
 20
4025.0
 30
0.0
 40
4000.0
100
AcDbArc
 50
267.83236
 51
272.16764
  0
ARC
  5
31
330
18
100
AcDbEntity
  8
0010010007
100
AcDbCircle
 10
-1600.0
 20
225.0
 30
0.0
 40
2000.0
100
AcDbArc
 50
357.06731
 51
2.93269
  0
ARC
  5
32
330
18
100
AcDbEntity
  8
0010010007
100
AcDbCircle
 10
150.0
 20
-3575.0
 30
0.0
 40
4000.0
100
AcDbArc
 50
87.83235999999999
 51
92.16764000000001
  0
ARC
  5
33
330
18
100
AcDbEntity
  8
0010010007
100
AcDbCircle
 10
1900.0
 20
225.0
 30
0.0
 40
2000.0
100
AcDbArc
 50
177.06731
 51
182.93269
  0
ARC
  5
34
330
18
100
AcDbEntity
  8
0010010007
100
AcDbCircle
 10
-647.033834719323
 20
65.39961000000039
 30
0.0
 40
41.0
100
AcDbArc
 50
271.73527
 51
315.0
  0
ARC
  5
35
330
18
100
AcDbEntity
  8
0010010007
100
AcDbCircle
 10
-678.364904719323
 20
5.85410000000047
 30
0.0
 40
2.5
100
AcDbArc
 50
180.0
 51
253.39845
  0
ARC
  5
36
330
18
100
AcDbEntity
  8
0010010007
100
AcDbCircle
 10
-679.364904719323
 20
2.49999999999909
 30
0.0
 40
1.0
100
AcDbArc
 50
0.0
 51
73.39845
  0
LINE
  5
37
330
18
100
AcDbEntity
  8
0010010007
100
AcDbLine
 10
-660.864904719323
 20
24.0
 30
0.0
 11
-671.864904719323
 21
24.0
 31
0.0
  0
LINE
  5
38
330
18
100
AcDbEntity
  8
0010010007
100
AcDbLine
 10
-677.364904719323
 20
0.0
 30
0.0
 11
-678.364904719323
 21
0.0
 31
0.0
  0
LINE
  5
39
330
18
100
AcDbEntity
  8
0010010007
100
AcDbLine
 10
-680.864904719323
 20
225.0
 30
0.0
 11
-680.864904719323
 21
5.854099999999988
 31
0.0
  0
LINE
  5
3A
330
18
100
AcDbEntity
  8
0010010007
100
AcDbLine
 10
-678.364904719323
 20
450.0
 30
0.0
 11
-678.364904719323
 21
0.0
 31
0.0
  0
ARC
  5
3B
330
18
100
AcDbEntity
  8
0010010007
100
AcDbCircle
 10
-678.364904719323
 20
444.1459
 30
0.0
 40
2.5
100
AcDbArc
 50
106.60155
 51
180.0
  0
LINE
  5
3C
330
18
100
AcDbEntity
  8
0010010007
100
AcDbLine
 10
-660.864904719323
 20
426.0
 30
0.0
 11
-671.864904719323
 21
426.0
 31
0.0
  0
LINE
  5
3D
330
18
100
AcDbEntity
  8
0010010007
100
AcDbLine
 10
-677.364904719323
 20
450.0
 30
0.0
 11
-678.364904719323
 21
450.0
 31
0.0
  0
LINE
  5
3E
330
18
100
AcDbEntity
  8
0010010007
100
AcDbLine
 10
-680.864904719323
 20
225.0
 30
0.0
 11
-680.864904719323
 21
444.1459
 31
0.0
  0
ARC
  5
3F
330
18
100
AcDbEntity
  8
0010010007
100
AcDbCircle
 10
-736.6672047193219
 20
3024.04218
 30
0.0
 40
3001.0
100
AcDbArc
 50
271.44787
 51
271.73527
  0
ARC
  5
40
330
18
100
AcDbEntity
  8
0020010004
100
AcDbCircle
 10
21.8414000000012
 20
301.16612
 30
0.0
 40
70.0
100
AcDbArc
 50
91.46613000000001
 51
180.0
  0
ARC
  5
41
330
18
100
AcDbEntity
  8
0020010004
100
AcDbCircle
 10
150.0
 20
-4706.1672
 30
0.0
 40
5078.97311
100
AcDbArc
 50
90.0
 51
91.46612000000002
  0
ARC
  5
42
330
18
100
AcDbEntity
  8
0020010004
100
AcDbCircle
 10
161.649529999999
 20
-2217.50978
 30
0.0
 40
2436.34245
100
AcDbArc
 50
92.37916
 51
94.43182
  0
ARC
  5
43
330
18
100
AcDbEntity
  8
0020010004
100
AcDbCircle
 10
-28.1585999999988
 20
231.48819
 30
0.0
 40
20.0
100
AcDbArc
 50
180.0
 51
274.43182
  0
LINE
  5
44
330
18
100
AcDbEntity
  8
0020010004
100
AcDbLine
 10
-48.1585999999988
 20
231.48819
 30
0.0
 11
-48.1585999999988
 21
301.16612
 31
0.0
  0
ARC
  5
45
330
18
100
AcDbEntity
  8
0020010004
100
AcDbCircle
 10
150.095000000001
 20
-1959.90883
 30
0.0
 40
2178.48406
100
AcDbArc
 50
90.0025
 51
92.35678000000002
  0
ARC
  5
46
330
18
100
AcDbEntity
  8
0020010004
100
AcDbCircle
 10
278.158599999999
 20
301.16612
 30
0.0
 40
70.0
100
AcDbArc
 50
0.0
 51
88.53386999999999
  0
ARC
  5
47
330
18
100
AcDbEntity
  8
0020010004
100
AcDbCircle
 10
150.0
 20
-4706.1672
 30
0.0
 40
5078.97311
100
AcDbArc
 50
88.53388
 51
90.0
  0
ARC
  5
48
330
18
100
AcDbEntity
  8
0020010004
100
AcDbCircle
 10
138.350470000001
 20
-2217.50978
 30
0.0
 40
2436.34245
100
AcDbArc
 50
85.56818
 51
87.62084000000002
  0
ARC
  5
49
330
18
100
AcDbEntity
  8
0020010004
100
AcDbCircle
 10
328.158599999999
 20
231.48819
 30
0.0
 40
20.0
100
AcDbArc
 50
265.56818
 51
0.0
  0
LINE
  5
4A
330
18
100
AcDbEntity
  8
0020010004
100
AcDbLine
 10
348.158599999999
 20
231.48819
 30
0.0
 11
348.158599999999
 21
301.16612
 31
0.0
  0
ARC
  5
4B
330
18
100
AcDbEntity
  8
0020010004
100
AcDbCircle
 10
149.904999999999
 20
-1959.90883
 30
0.0
 40
2178.48406
100
AcDbArc
 50
87.64322
 51
89.9975
  0
ARC
  5
4C
330
18
100
AcDbEntity
  8
0010010007
100
AcDbCircle
 10
-491.557094719325
 20
220.87635
 30
0.0
 40
41.0
100
AcDbArc
 50
315.0
 51
358.0
  0
LINE
  5
4D
330
18
100
AcDbEntity
  8
0010010007
100
AcDbLine
 10
-618.042454719324
 20
36.40823
 30
0.0
 11
-462.565724719324
 21
191.88497
 31
0.0
  0
LINE
  5
4E
330
18
100
AcDbEntity
  8
0010010007
100
AcDbLine
 10
-450.582074719324
 20
219.445470000001
 30
0.0
 11
-449.865509658643
 21
239.965100171089
 31
0.0
  0
ARC
  5
4F
330
18
100
AcDbEntity
  8
0010010007
100
AcDbCircle
 10
0.0
 20
325.0
 30
0.0
 40
125.0
100
AcDbArc
 50
90.0
 51
180.0
  0
LINE
  5
50
330
18
100
AcDbEntity
  8
0010010007
100
AcDbLine
 10
-125.0
 20
325.0
 30
0.0
 11
-125.0
 21
125.0
 31
0.0
  0
ARC
  5
51
330
18
100
AcDbEntity
  8
0010010007
100
AcDbCircle
 10
0.0
 20
125.0
 30
0.0
 40
125.0
100
AcDbArc
 50
180.0
 51
270.0
  0
ARC
  5
52
330
18
100
AcDbEntity
  8
0010010007
100
AcDbCircle
 10
300.0
 20
125.0
 30
0.0
 40
125.0
100
AcDbArc
 50
270.0
 51
0.0
  0
LINE
  5
53
330
18
100
AcDbEntity
  8
0010010007
100
AcDbLine
 10
300.0
 20
0.0
 30
0.0
 11
0.0
 21
0.0
 31
0.0
  0
LINE
  5
54
330
18
100
AcDbEntity
  8
0010010007
100
AcDbLine
 10
425.0
 20
125.0
 30
0.0
 11
425.0
 21
325.0
 31
0.0
  0
ARC
  5
55
330
18
100
AcDbEntity
  8
0010010007
100
AcDbCircle
 10
300.0
 20
325.0
 30
0.0
 40
125.0
100
AcDbArc
 50
0.0
 51
90.0
  0
LINE
  5
56
330
18
100
AcDbEntity
  8
0010010007
100
AcDbLine
 10
300.0
 20
450.0
 30
0.0
 11
0.0
 21
450.0
 31
0.0
  0
ARC
  5
57
330
18
100
AcDbEntity
  8
0010010007
100
AcDbCircle
 10
-679.364904719323
 20
447.5
 30
0.0
 40
1.0
100
AcDbArc
 50
286.60155
 51
0.0
  0
LINE
  5
58
330
18
100
AcDbEntity
  8
0010010007
100
AcDbLine
 10
-677.364904719323
 20
450.0
 30
0.0
 11
-677.364904719323
 21
0.0
 31
0.0
  0
ARC
  5
59
330
18
100
AcDbEntity
  8
0010010007
100
AcDbCircle
 10
-491.440414719322
 20
375.78219
 30
0.0
 40
41.0
100
AcDbArc
 50
2.00002000000001
 51
85.24778000000001
  0
LINE
  5
5A
330
18
100
AcDbEntity
  8
0010010007
100
AcDbLine
 10
-450.465384719324
 20
377.21308
 30
0.0
 11
-449.864904719324
 21
360.017564493133
 31
0.0
  0
ARC
  5
5B
330
18
100
AcDbEntity
  8
0010010007
100
AcDbCircle
 10
-736.6672047193219
 20
-2574.04218
 30
0.0
 40
3001.0
100
AcDbArc
 50
85.24778000000001
 51
88.55213000000001
  0
LINE
  5
5C
330
18
100
AcDbEntity
  8
0010010007
100
AcDbLine
 10
-605.0614147193249
 20
49.3892800000012
 30
0.0
 11
-600.534834719325
 21
57.3978500000012
 31
0.0
  0
LINE
  5
5D
330
18
100
AcDbEntity
  8
0010010007
100
AcDbLine
 10
-600.534834719324
 20
57.3978499999994
 30
0.0
 11
-592.526264719324
 21
61.9244299999994
 31
0.0
  0
LINE
  5
5E
330
18
100
AcDbEntity
  8
0010010007
100
AcDbLine
 10
-592.333494719324
 20
62.1171999999988
 30
0.0
 11
-587.8069047193241
 21
70.1257699999988
 31
0.0
  0
LINE
  5
5F
330
18
100
AcDbEntity
  8
0010010007
100
AcDbLine
 10
-579.605564719323
 20
74.8451200000009
 30
0.0
 11
-575.078984719323
 21
82.8536900000009
 31
0.0
  0
LINE
  5
60
330
18
100
AcDbEntity
  8
0010010007
100
AcDbLine
 10
-566.877644719322
 20
87.5730400000011
 30
0.0
 11
-562.351064719322
 21
95.58161000000111
 31
0.0
  0
LINE
  5
61
330
18
100
AcDbEntity
  8
0010010007
100
AcDbLine
 10
-554.149724719324
 20
100.30097
 30
0.0
 11
-549.6231447193241
 21
108.30954
 31
0.0
  0
LINE
  5
62
330
18
100
AcDbEntity
  8
0010010007
100
AcDbLine
 10
-541.421804719323
 20
113.028890000001
 30
0.0
 11
-536.895224719323
 21
121.03746
 31
0.0
  0
LINE
  5
63
330
18
100
AcDbEntity
  8
0010010007
100
AcDbLine
 10
-528.693884719322
 20
125.756810000001
 30
0.0
 11
-524.1672947193219
 21
133.765380000001
 31
0.0
  0
LINE
  5
64
330
18
100
AcDbEntity
  8
0010010007
100
AcDbLine
 10
-515.965954719324
 20
138.48473
 30
0.0
 11
-511.439374719324
 21
146.4933
 31
0.0
  0
LINE
  5
65
330
18
100
AcDbEntity
  8
0010010007
100
AcDbLine
 10
-503.238034719323
 20
151.212649999999
 30
0.0
 11
-498.711454719323
 21
159.221219999999
 31
0.0
  0
LINE
  5
66
330
18
100
AcDbEntity
  8
0010010007
100
AcDbLine
 10
-587.806904719323
 20
70.1257700000006
 30
0.0
 11
-579.798334719323
 21
74.6523500000006
 31
0.0
  0
LINE
  5
67
330
18
100
AcDbEntity
  8
0010010007
100
AcDbLine
 10
-575.078984719325
 20
82.8536899999999
 30
0.0
 11
-567.070414719325
 21
87.3802699999999
 31
0.0
  0
LINE
  5
68
330
18
100
AcDbEntity
  8
0010010007
100
AcDbLine
 10
-562.351064719324
 20
95.5816100000002
 30
0.0
 11
-554.342494719324
 21
100.1082
 31
0.0
  0
LINE
  5
69
330
18
100
AcDbEntity
  8
0010010007
100
AcDbLine
 10
-549.623144719322
 20
108.30954
 30
0.0
 11
-541.614574719322
 21
112.83612
 31
0.0
  0
LINE
  5
6A
330
18
100
AcDbEntity
  8
0010010007
100
AcDbLine
 10
-536.895224719325
 20
121.03746
 30
0.0
 11
-528.886654719325
 21
125.56404
 31
0.0
  0
LINE
  5
6B
330
18
100
AcDbEntity
  8
0010010007
100
AcDbLine
 10
-524.167294719324
 20
133.765379999999
 30
0.0
 11
-516.158724719324
 21
138.291959999999
 31
0.0
  0
LINE
  5
6C
330
18
100
AcDbEntity
  8
0010010007
100
AcDbLine
 10
-511.439374719323
 20
146.4933
 30
0.0
 11
-503.430804719323
 21
151.01989
 31
0.0
  0
LINE
  5
6D
330
18
100
AcDbEntity
  8
0010010007
100
AcDbLine
 10
-498.711454719322
 20
159.221220000001
 30
0.0
 11
-490.702884719322
 21
163.747810000001
 31
0.0
  0
LINE
  5
6E
330
18
100
AcDbEntity
  8
0020010004
100
AcDbLine
 10
315.0
 20
50.0
 30
0.0
 11
-15.0
 21
50.0
 31
0.0
  0
LINE
  5
6F
330
18
100
AcDbEntity
  8
0020010004
100
AcDbLine
 10
-15.0
 20
62.7279199999994
 30
0.0
 11
315.0
 21
62.7279199999994
 31
0.0
  0
LINE
  5
70
330
18
100
AcDbEntity
  8
0020010004
100
AcDbLine
 10
315.0
 20
50.0
 30
0.0
 11
312.5
 21
58.13173
 31
0.0
  0
LINE
  5
71
330
18
100
AcDbEntity
  8
0020010004
100
AcDbLine
 10
312.5
 20
58.1317299999992
 30
0.0
 11
315.0
 21
62.7279199999992
 31
0.0
  0
LINE
  5
72
330
18
100
AcDbEntity
  8
0020010004
100
AcDbLine
 10
-15.0
 20
50.0
 30
0.0
 11
-12.5
 21
58.13173
 31
0.0
  0
LINE
  5
73
330
18
100
AcDbEntity
  8
0020010004
100
AcDbLine
 10
-12.5
 20
58.1317299999992
 30
0.0
 11
-15.0
 21
62.7279199999992
 31
0.0
  0
LINE
  5
74
330
18
100
AcDbEntity
  8
0020010004
100
AcDbLine
 10
315.0
 20
62.7279199999994
 30
0.0
 11
312.5
 21
70.85964999999931
 31
0.0
  0
LINE
  5
75
330
18
100
AcDbEntity
  8
0020010004
100
AcDbLine
 10
315.0
 20
75.45584000000051
 30
0.0
 11
312.5
 21
83.5875700000005
 31
0.0
  0
LINE
  5
76
330
18
100
AcDbEntity
  8
0020010004
100
AcDbLine
 10
315.0
 20
88.1837699999996
 30
0.0
 11
312.5
 21
96.3154899999996
 31
0.0
  0
LINE
  5
77
330
18
100
AcDbEntity
  8
0020010004
100
AcDbLine
 10
315.0
 20
100.911689999999
 30
0.0
 11
312.5
 21
109.043419999999
 31
0.0
  0
LINE
  5
78
330
18
100
AcDbEntity
  8
0020010004
100
AcDbLine
 10
315.0
 20
113.63961
 30
0.0
 11
312.5
 21
121.77134
 31
0.0
  0
LINE
  5
79
330
18
100
AcDbEntity
  8
0020010004
100
AcDbLine
 10
315.0
 20
126.36753
 30
0.0
 11
312.5
 21
134.49926
 31
0.0
  0
LINE
  5
7A
330
18
100
AcDbEntity
  8
0020010004
100
AcDbLine
 10
315.0
 20
139.095449999999
 30
0.0
 11
312.5
 21
147.227179999999
 31
0.0
  0
LINE
  5
7B
330
18
100
AcDbEntity
  8
0020010004
100
AcDbLine
 10
315.0
 20
151.82338
 30
0.0
 11
312.5
 21
159.9551
 31
0.0
  0
LINE
  5
7C
330
18
100
AcDbEntity
  8
0020010004
100
AcDbLine
 10
312.5
 20
70.8596500000003
 30
0.0
 11
315.0
 21
75.45584000000029
 31
0.0
  0
LINE
  5
7D
330
18
100
AcDbEntity
  8
0020010004
100
AcDbLine
 10
312.5
 20
83.5875699999997
 30
0.0
 11
315.0
 21
88.1837699999997
 31
0.0
  0
LINE
  5
7E
330
18
100
AcDbEntity
  8
0020010004
100
AcDbLine
 10
312.5
 20
96.315489999999
 30
0.0
 11
315.0
 21
100.911689999999
 31
0.0
  0
LINE
  5
7F
330
18
100
AcDbEntity
  8
0020010004
100
AcDbLine
 10
312.5
 20
109.04342
 30
0.0
 11
315.0
 21
113.63961
 31
0.0
  0
LINE
  5
80
330
18
100
AcDbEntity
  8
0020010004
100
AcDbLine
 10
312.5
 20
121.771340000001
 30
0.0
 11
315.0
 21
126.367530000001
 31
0.0
  0
LINE
  5
81
330
18
100
AcDbEntity
  8
0020010004
100
AcDbLine
 10
312.5
 20
134.499260000001
 30
0.0
 11
315.0
 21
139.09545
 31
0.0
  0
LINE
  5
82
330
18
100
AcDbEntity
  8
0020010004
100
AcDbLine
 10
312.5
 20
147.22718
 30
0.0
 11
315.0
 21
151.82338
 31
0.0
  0
LINE
  5
83
330
18
100
AcDbEntity
  8
0020010004
100
AcDbLine
 10
312.5
 20
159.955100000001
 30
0.0
 11
315.0
 21
164.551300000001
 31
0.0
  0
LINE
  5
84
330
18
100
AcDbEntity
  8
0020010004
100
AcDbLine
 10
-15.0
 20
62.7279199999994
 30
0.0
 11
-12.5
 21
70.85964999999931
 31
0.0
  0
LINE
  5
85
330
18
100
AcDbEntity
  8
0020010004
100
AcDbLine
 10
-15.0
 20
75.45584000000051
 30
0.0
 11
-12.5
 21
83.5875700000005
 31
0.0
  0
LINE
  5
86
330
18
100
AcDbEntity
  8
0020010004
100
AcDbLine
 10
-15.0
 20
88.1837699999996
 30
0.0
 11
-12.5
 21
96.3154899999996
 31
0.0
  0
LINE
  5
87
330
18
100
AcDbEntity
  8
0020010004
100
AcDbLine
 10
-15.0
 20
100.911689999999
 30
0.0
 11
-12.5
 21
109.043419999999
 31
0.0
  0
LINE
  5
88
330
18
100
AcDbEntity
  8
0020010004
100
AcDbLine
 10
-15.0
 20
113.63961
 30
0.0
 11
-12.5
 21
121.77134
 31
0.0
  0
LINE
  5
89
330
18
100
AcDbEntity
  8
0020010004
100
AcDbLine
 10
-15.0
 20
126.36753
 30
0.0
 11
-12.5
 21
134.49926
 31
0.0
  0
LINE
  5
8A
330
18
100
AcDbEntity
  8
0020010004
100
AcDbLine
 10
-15.0
 20
139.095449999999
 30
0.0
 11
-12.5
 21
147.227179999999
 31
0.0
  0
LINE
  5
8B
330
18
100
AcDbEntity
  8
0020010004
100
AcDbLine
 10
-15.0
 20
151.82338
 30
0.0
 11
-12.5
 21
159.9551
 31
0.0
  0
LINE
  5
8C
330
18
100
AcDbEntity
  8
0020010004
100
AcDbLine
 10
-12.5
 20
70.8596500000003
 30
0.0
 11
-15.0
 21
75.45584000000029
 31
0.0
  0
LINE
  5
8D
330
18
100
AcDbEntity
  8
0020010004
100
AcDbLine
 10
-12.5
 20
83.5875699999997
 30
0.0
 11
-15.0
 21
88.1837699999997
 31
0.0
  0
LINE
  5
8E
330
18
100
AcDbEntity
  8
0020010004
100
AcDbLine
 10
-12.5
 20
96.315489999999
 30
0.0
 11
-15.0
 21
100.911689999999
 31
0.0
  0
LINE
  5
8F
330
18
100
AcDbEntity
  8
0020010004
100
AcDbLine
 10
-12.5
 20
109.04342
 30
0.0
 11
-15.0
 21
113.63961
 31
0.0
  0
LINE
  5
90
330
18
100
AcDbEntity
  8
0020010004
100
AcDbLine
 10
-12.5
 20
121.771340000001
 30
0.0
 11
-15.0
 21
126.367530000001
 31
0.0
  0
LINE
  5
91
330
18
100
AcDbEntity
  8
0020010004
100
AcDbLine
 10
-12.5
 20
134.499260000001
 30
0.0
 11
-15.0
 21
139.09545
 31
0.0
  0
LINE
  5
92
330
18
100
AcDbEntity
  8
0020010004
100
AcDbLine
 10
-12.5
 20
147.22718
 30
0.0
 11
-15.0
 21
151.82338
 31
0.0
  0
LINE
  5
93
330
18
100
AcDbEntity
  8
0020010004
100
AcDbLine
 10
-12.5
 20
159.955100000001
 30
0.0
 11
-15.0
 21
164.551300000001
 31
0.0
  0
LINE
  5
94
330
18
100
AcDbEntity
  8
0020010004
100
AcDbLine
 10
315.0
 20
62.7279199999994
 30
0.0
 11
-15.0
 21
62.7279199999994
 31
0.0
  0
LINE
  5
95
330
18
100
AcDbEntity
  8
0020010004
100
AcDbLine
 10
315.0
 20
75.45584000000051
 30
0.0
 11
-15.0
 21
75.45584000000051
 31
0.0
  0
LINE
  5
96
330
18
100
AcDbEntity
  8
0020010004
100
AcDbLine
 10
315.0
 20
88.1837699999996
 30
0.0
 11
-15.0
 21
88.1837699999996
 31
0.0
  0
LINE
  5
97
330
18
100
AcDbEntity
  8
0020010004
100
AcDbLine
 10
315.0
 20
100.911689999999
 30
0.0
 11
-15.0
 21
100.911689999999
 31
0.0
  0
LINE
  5
98
330
18
100
AcDbEntity
  8
0020010004
100
AcDbLine
 10
315.0
 20
113.63961
 30
0.0
 11
-15.0
 21
113.63961
 31
0.0
  0
LINE
  5
99
330
18
100
AcDbEntity
  8
0020010004
100
AcDbLine
 10
315.0
 20
126.36753
 30
0.0
 11
-15.0
 21
126.36753
 31
0.0
  0
LINE
  5
9A
330
18
100
AcDbEntity
  8
0020010004
100
AcDbLine
 10
315.0
 20
139.095449999999
 30
0.0
 11
-15.0
 21
139.095449999999
 31
0.0
  0
LINE
  5
9B
330
18
100
AcDbEntity
  8
0020010004
100
AcDbLine
 10
315.0
 20
151.82338
 30
0.0
 11
-15.0
 21
151.82338
 31
0.0
  0
LINE
  5
9C
330
18
100
AcDbEntity
  8
0020010004
100
AcDbLine
 10
315.0
 20
164.551300000001
 30
0.0
 11
-15.0
 21
164.551300000001
 31
0.0
  0
CIRCLE
  5
9D
330
18
100
AcDbEntity
  8
0010010007
100
AcDbCircle
 10
150.0
 20
300.0
 30
0.0
 40
27.5
  0
CIRCLE
  5
9E
330
18
100
AcDbEntity
  8
0020010004
100
AcDbCircle
 10
150.0
 20
300.0
 30
0.0
 40
37.09889
  0
LINE
  5
9F
330
18
100
AcDbEntity
  8
0010010007
100
AcDbLine
 10
-446.488054719323
 20
327.758820000002
 30
0.0
 11
-446.488054719323
 21
300.000000000002
 31
0.0
  0
LINE
  5
A0
330
18
100
AcDbEntity
  8
0010010007
100
AcDbLine
 10
-448.433054719322
 20
264.98236
 30
0.0
 11
-446.488054719322
 21
272.24118
 31
0.0
  0
LINE
  5
A1
330
18
100
AcDbEntity
  8
0010010007
100
AcDbLine
 10
-446.488054719323
 20
272.241179999999
 30
0.0
 11
-446.488054719323
 21
299.999999999999
 31
0.0
  0
LINE
  5
A2
330
18
100
AcDbEntity
  8
0010010007
100
AcDbLine
 10
-449.864904719324
 20
262.901923788649
 30
0.0
 11
-449.864904719324
 21
239.96510017109
 31
0.0
  0
ARC
  5
A3
330
18
100
AcDbEntity
  8
0010010007
100
AcDbCircle
 10
-448.864904719323
 20
262.901923788648
 30
0.0
 40
1.0
100
AcDbArc
 50
120.000000000001
 51
180.0
  0
ARC
  5
A4
330
18
100
AcDbEntity
  8
0010010007
100
AcDbCircle
 10
-450.364904719323
 20
265.5
 30
0.0
 40
2.0
100
AcDbArc
 50
300.0
 51
345.000000000001
  0
LINE
  5
A5
330
18
100
AcDbEntity
  8
0010010007
100
AcDbLine
 10
-449.864904719323
 20
337.098076211354
 30
0.0
 11
-449.864904719323
 21
360.017564493134
 31
0.0
  0
LINE
  5
A6
330
18
100
AcDbEntity
  8
0010010007
100
AcDbLine
 10
-446.488054719323
 20
327.758820000002
 30
0.0
 11
-448.553464793802
 21
335.467015350555
 31
0.0
  0
ARC
  5
A7
330
18
100
AcDbEntity
  8
0010010007
100
AcDbCircle
 10
-449.519390452325
 20
335.208195679335
 30
0.0
 40
1.0
100
AcDbArc
 50
15.0000371392251
 51
70.8984861190846
  0
ARC
  5
A8
330
18
100
AcDbEntity
  8
0010010007
100
AcDbCircle
 10
-448.864904719323
 20
337.098076211354
 30
0.0
 40
1.0
100
AcDbArc
 50
180.0
 51
250.89848611908
  0
LINE
  5
A9
330
18
100
AcDbEntity
  8
0030010002
100
AcDbLine
 10
-100.000000000001
 20
226.0
 30
0.0
 11
-100.000000000001
 21
551.0
 31
0.0
  0
LINE
  5
AA
330
18
100
AcDbEntity
  8
0030010002
100
AcDbLine
 10
400.0
 20
226.0
 30
0.0
 11
400.0
 21
551.0
 31
0.0
  0
SOLID
  5
AB
330
18
100
AcDbEntity
  8
0030010002
100
AcDbTrace
 10
-80.47407985760201
 20
545.671207721237
 30
0.0
 11
-80.47407985760201
 21
554.328792278762
 31
0.0
 12
-100.000000000001
 22
550.0
 32
0.0
 13
-100.000000000001
 23
550.0
 33
0.0
  0
SOLID
  5
AC
330
18
100
AcDbEntity
  8
0030010002
100
AcDbTrace
 10
380.474079857601
 20
554.328792278762
 30
0.0
 11
380.474079857601
 21
545.671207721237
 31
0.0
 12
400.0
 22
550.0
 32
0.0
 13
400.0
 23
550.0
 33
0.0
  0
LINE
  5
AD
330
18
100
AcDbEntity
  8
0030010002
100
AcDbLine
 10
-100.000000000001
 20
550.0
 30
0.0
 11
400.0
 21
550.0
 31
0.0
  0
TEXT
  5
AE
330
18
100
AcDbEntity
  8
0030010002
100
AcDbText
 10
120.000000592651
 20
565.000000953674
 30
0.0
 40
30.0000019073486
  1
500
 41
0.75
100
AcDbText
  0
LINE
  5
AF
330
18
100
AcDbEntity
  8
0030010002
100
AcDbLine
 10
-125.0
 20
326.0
 30
0.0
 11
-125.0
 21
651.0
 31
0.0
  0
LINE
  5
B0
330
18
100
AcDbEntity
  8
0030010002
100
AcDbLine
 10
425.0
 20
326.0
 30
0.0
 11
425.0
 21
651.0
 31
0.0
  0
SOLID
  5
B1
330
18
100
AcDbEntity
  8
0030010002
100
AcDbTrace
 10
-105.474079857601
 20
645.671207721237
 30
0.0
 11
-105.474079857601
 21
654.328792278762
 31
0.0
 12
-125.0
 22
650.0
 32
0.0
 13
-125.0
 23
650.0
 33
0.0
  0
SOLID
  5
B2
330
18
100
AcDbEntity
  8
0030010002
100
AcDbTrace
 10
405.474079857601
 20
654.328792278762
 30
0.0
 11
405.474079857601
 21
645.671207721237
 31
0.0
 12
425.0
 22
650.0
 32
0.0
 13
425.0
 23
650.0
 33
0.0
  0
LINE
  5
B3
330
18
100
AcDbEntity
  8
0030010002
100
AcDbLine
 10
-125.0
 20
650.0
 30
0.0
 11
425.0
 21
650.0
 31
0.0
  0
TEXT
  5
B4
330
18
100
AcDbEntity
  8
0030010002
100
AcDbText
 10
120.000000592651
 20
665.000000953674
 30
0.0
 40
30.0000019073486
  1
550
 41
0.75
100
AcDbText
  0
LINE
  5
B5
330
18
100
AcDbEntity
  8
0030010002
100
AcDbLine
 10
151.0
 20
425.0
 30
0.0
 11
526.0
 21
425.0
 31
0.0
  0
LINE
  5
B6
330
18
100
AcDbEntity
  8
0030010002
100
AcDbLine
 10
151.0
 20
24.9999999999982
 30
0.0
 11
526.0
 21
24.9999999999981
 31
0.0
  0
SOLID
  5
B7
330
18
100
AcDbEntity
  8
0030010002
100
AcDbTrace
 10
520.671207721238
 20
405.474079857601
 30
0.0
 11
529.328792278762
 21
405.474079857601
 31
0.0
 12
525.0
 22
425.0
 32
0.0
 13
525.0
 23
425.0
 33
0.0
  0
SOLID
  5
B8
330
18
100
AcDbEntity
  8
0030010002
100
AcDbTrace
 10
529.328792278762
 20
44.5259201423968
 30
0.0
 11
520.671207721238
 21
44.5259201423968
 31
0.0
 12
525.0
 22
24.9999999999981
 32
0.0
 13
525.0
 23
24.9999999999981
 33
0.0
  0
LINE
  5
B9
330
18
100
AcDbEntity
  8
0030010002
100
AcDbLine
 10
525.0
 20
425.0
 30
0.0
 11
525.0
 21
24.99999999999812
 31
0.0
  0
TEXT
  5
BA
330
18
100
AcDbEntity
  8
0030010002
100
AcDbText
 10
511.142057442602
 20
194.999995592651
 30
0.0
 40
30.0000019073486
  1
400
 50
90.0
 41
0.75
100
AcDbText
  0
LINE
  5
BB
330
18
100
AcDbEntity
  8
0030010002
100
AcDbLine
 10
301.0
 20
0.0
 30
0.0
 11
626.0
 21
0.0
 31
0.0
  0
LINE
  5
BC
330
18
100
AcDbEntity
  8
0030010002
100
AcDbLine
 10
301.0
 20
450.0
 30
0.0
 11
626.0
 21
449.999999999999
 31
0.0
  0
SOLID
  5
BD
330
18
100
AcDbEntity
  8
0030010002
100
AcDbTrace
 10
629.328792278762
 20
19.5259201423986
 30
0.0
 11
620.671207721238
 21
19.5259201423986
 31
0.0
 12
625.0
 22
0.0
 32
0.0
 13
625.0
 23
0.0
 33
0.0
  0
SOLID
  5
BE
330
18
100
AcDbEntity
  8
0030010002
100
AcDbTrace
 10
620.671207721238
 20
430.474079857601
 30
0.0
 11
629.328792278762
 21
430.474079857601
 31
0.0
 12
625.0
 22
449.999999999999
 32
0.0
 13
625.0
 23
449.999999999999
 33
0.0
  0
LINE
  5
BF
330
18
100
AcDbEntity
  8
0030010002
100
AcDbLine
 10
625.0
 20
0.0
 30
0.0
 11
625.0
 21
449.999999999999
 31
0.0
  0
TEXT
  5
C0
330
18
100
AcDbEntity
  8
0030010002
100
AcDbText
 10
611.003520495973
 20
195.000000592651
 30
0.0
 40
30.0000019073486
  1
450
 50
90.0
 41
0.75
100
AcDbText
  0
ARC
  5
C1
330
18
100
AcDbEntity
  8
0010010007
100
AcDbCircle
 10
-671.864904719323
 20
434.0
 30
0.0
 40
8.0
100
AcDbArc
 50
226.567463442211
 51
270.0
  0
ARC
  5
C2
330
18
100
AcDbEntity
  8
0010010007
100
AcDbCircle
 10
-671.864904719323
 20
16.0
 30
0.0
 40
8.0
100
AcDbArc
 50
90.0
 51
133.432536557789
  0
LINE
  5
C3
330
18
100
AcDbEntity
  8
0010010007
100
AcDbLine
 10
-449.864904719323
 20
337.098076211354
 30
0.0
 11
-449.864904719323
 21
262.901923788648
 31
0.0
  0
LINE
  5
C4
330
18
100
AcDbEntity
  8
0010010007
100
AcDbLine
 10
-448.433054719322
 20
264.98236
 30
0.0
 11
-448.553464793801
 21
335.467015350554
 31
0.0
  0
LINE
  5
C5
330
18
100
AcDbEntity
  8
0030010002
100
AcDbLine
 10
-449.864904719323
 20
361.017564493134
 30
0.0
 11
-449.864904719323
 21
551.0
 31
0.0
  0
LINE
  5
C6
330
18
100
AcDbEntity
  8
0030010002
100
AcDbLine
 10
-680.864904719323
 20
445.1459
 30
0.0
 11
-680.864904719323
 21
551.0
 31
0.0
  0
SOLID
  5
C7
330
18
100
AcDbEntity
  8
0030010002
100
AcDbTrace
 10
-469.390824861722
 20
554.328792278762
 30
0.0
 11
-469.390824861722
 21
545.671207721237
 31
0.0
 12
-449.864904719323
 22
550.0
 32
0.0
 13
-449.864904719323
 23
550.0
 33
0.0
  0
SOLID
  5
C8
330
18
100
AcDbEntity
  8
0030010002
100
AcDbTrace
 10
-661.338984576925
 20
545.671207721237
 30
0.0
 11
-661.338984576925
 21
554.328792278762
 31
0.0
 12
-680.864904719323
 22
550.0
 32
0.0
 13
-680.864904719323
 23
550.0
 33
0.0
  0
LINE
  5
C9
330
18
100
AcDbEntity
  8
0030010002
100
AcDbLine
 10
-449.864904719323
 20
550.0
 30
0.0
 11
-680.864904719323
 21
550.0
 31
0.0
  0
TEXT
  5
CA
330
18
100
AcDbEntity
  8
0030010002
100
AcDbText
 10
-595.3649091266721
 20
565.000000953674
 30
0.0
 40
30.0000019073486
  1
230
 41
0.75
100
AcDbText
  0
ENDSEC
  0
SECTION
  2
OBJECTS
  0
DICTIONARY
  5
C
330
0
100
AcDbDictionary
281
     1
  3
ACAD_GROUP
350
D
  3
ACAD_LAYOUT
350
15
  3
ACAD_MLINESTYLE
350
12
  3
ACAD_PLOTSETTINGS
350
14
  3
ACAD_PLOTSTYLENAME
350
E
  3
ACAD_TABLESTYLE
350
CC
  3
AcDbVariableDictionary
350
CE
  0
DICTIONARY
  5
D
102
{ACAD_REACTORS
330
C
102
}
330
C
100
AcDbDictionary
281
     1
  0
DICTIONARY
  5
15
102
{ACAD_REACTORS
330
C
102
}
330
C
100
AcDbDictionary
281
     1
  3
Layout1
350
17
  3
Model
350
19
  0
DICTIONARY
  5
12
102
{ACAD_REACTORS
330
C
102
}
330
C
100
AcDbDictionary
281
     1
  3
Standard
350
13
  0
DICTIONARY
  5
14
102
{ACAD_REACTORS
330
C
102
}
330
C
100
AcDbDictionary
281
     1
  0
ACDBDICTIONARYWDFLT
  5
E
102
{ACAD_REACTORS
330
C
102
}
330
C
100
AcDbDictionary
281
     1
  3
Normal
350
F
100
AcDbDictionaryWithDefault
340
F
  0
DICTIONARY
  5
CC
102
{ACAD_REACTORS
330
C
102
}
330
C
100
AcDbDictionary
281
     1
  3
Standard
350
CD
  0
DICTIONARY
  5
CE
102
{ACAD_REACTORS
330
C
102
}
330
C
100
AcDbDictionary
281
     1
  3
CTABLESTYLE
350
CF
  0
LAYOUT
  5
17
102
{ACAD_REACTORS
330
15
102
}
330
15
100
AcDbPlotSettings
  1

  2

  4

  6

 40
0.0
 41
0.0
 42
0.0
 43
0.0
 44
0.0
 45
0.0
 46
0.0
 47
0.0
 48
0.0
 49
0.0
140
0.0
141
0.0
142
1.0
143
1.0
 70
   688
 72
     0
 73
     0
 74
     5
  7

 75
    16
147
1.0
148
0.0
149
0.0
100
AcDbLayout
  1
Layout1
 70
     1
 71
     1
 10
0.0
 20
0.0
 11
12.0
 21
9.0
 12
0.0
 22
0.0
 32
0.0
 14
1.000000000000000E+20
 24
1.000000000000000E+20
 34
1.000000000000000E+20
 15
-1.000000000000000E+20
 25
-1.000000000000000E+20
 35
-1.000000000000000E+20
146
0.0
 13
0.0
 23
0.0
 33
0.0
 16
1.0
 26
0.0
 36
0.0
 17
0.0
 27
1.0
 37
0.0
 76
     0
330
16
  0
LAYOUT
  5
19
102
{ACAD_REACTORS
330
15
102
}
330
15
100
AcDbPlotSettings
  1

  2

  4

  6

 40
0.0
 41
0.0
 42
0.0
 43
0.0
 44
0.0
 45
0.0
 46
0.0
 47
0.0
 48
0.0
 49
0.0
140
0.0
141
0.0
142
1.0
143
1.0
 70
  1712
 72
     0
 73
     0
 74
     0
  7

 75
     0
147
1.0
148
0.0
149
0.0
100
AcDbLayout
  1
Model
 70
     1
 71
     0
 10
0.0
 20
0.0
 11
0.0
 21
0.0
 12
0.0
 22
0.0
 32
0.0
 14
-32.05
 24
-32.05
 34
0.0
 15
1258.45
 25
893.05
 35
0.0
146
0.0
 13
0.0
 23
0.0
 33
0.0
 16
1.0
 26
0.0
 36
0.0
 17
0.0
 27
1.0
 37
0.0
 76
     0
330
18
  0
MLINESTYLE
  5
13
102
{ACAD_REACTORS
330
12
102
}
330
12
100
AcDbMlineStyle
  2
Standard
 70
     0
  3

 62
   256
 51
90.0
 52
90.0
 71
     2
 49
0.5
 62
   256
  6
BYLAYER
 49
-0.5
 62
   256
  6
BYLAYER
  0
ACDBPLACEHOLDER
  5
F
102
{ACAD_REACTORS
330
E
102
}
330
E
  0
TABLESTYLE
  5
CD
102
{ACAD_REACTORS
330
CC
102
}
330
CC
100
AcDbTableStyle
  3
Standard
 70
     0
 71
     0
 40
0.06
 41
0.06
280
     0
281
     0
  7
STANDARD
140
0.18
170
     2
 62
     0
 63
     7
283
     0
274
    -2
284
     1
 64
     0
275
    -2
285
     1
 65
     0
276
    -2
286
     1
 66
     0
277
    -2
287
     1
 67
     0
278
    -2
288
     1
 68
     0
279
    -2
289
     1
 69
     0
  7
STANDARD
140
0.25
170
     5
 62
     0
 63
     7
283
     0
274
    -2
284
     1
 64
     0
275
    -2
285
     1
 65
     0
276
    -2
286
     1
 66
     0
277
    -2
287
     1
 67
     0
278
    -2
288
     1
 68
     0
279
    -2
289
     1
 69
     0
  7
STANDARD
140
0.18
170
     5
 62
     0
 63
     7
283
     0
274
    -2
284
     1
 64
     0
275
    -2
285
     1
 65
     0
276
    -2
286
     1
 66
     0
277
    -2
287
     1
 67
     0
278
    -2
288
     1
 68
     0
279
    -2
289
     1
 69
     0
  0
DICTIONARYVAR
  5
CF
102
{ACAD_REACTORS
330
CE
102
}
330
CE
100
DictionaryVariables
280
     0
  1
Standard
  0
ENDSEC
  0
EOF
