  0
SECTION
  2
HEADER
  9
$ACADVER
  1
AC1015
  9
$ACADMAINTVER
 70
     6
  9
$DWGCODEPAGE
  3
UNDEFINED
  9
$INSBASE
 10
0.0
 20
0.0
 30
0.0
  9
$EXTMIN
 10
-32.05
 20
-32.05
 30
0.0
  9
$EXTMAX
 10
1258.45
 20
893.05
 30
0.0
  9
$LIMMIN
 10
-32.05
 20
-32.05
  9
$LIMMAX
 10
1258.45
 20
893.05
  9
$ORTHOMODE
 70
     0
  9
$REGENMODE
 70
     1
  9
$FILLMODE
 70
     1
  9
$QTEXTMODE
 70
     0
  9
$MIRRTEXT
 70
     1
  9
$LTSCALE
 40
1.0
  9
$ATTMODE
 70
     1
  9
$TEXTSIZE
 40
30.0000019073486
  9
$TRACEWID
 40
0.05
  9
$TEXTSTYLE
  7
STANDARD
  9
$CLAYER
  8
0
  9
$CELTYPE
  6
ByBlock
  9
$CECOLOR
 62
   256
  9
$CELTSCALE
 40
1.0
  9
$DISPSILH
 70
     0
  9
$DIMSCALE
 40
1.0
  9
$DIMASZ
 40
24.7567017185393
  9
$DIMEXO
 40
1.0
  9
$DIMDLI
 40
0.38
  9
$DIMRND
 40
0.0
  9
$DIMDLE
 40
0.0
  9
$DIMEXE
 40
1.0
  9
$DIMTP
 40
0.0
  9
$DIMTM
 40
0.0
  9
$DIMTXT
 40
30.0000019073486
  9
$DIMCEN
 40
1.0
  9
$DIMTSZ
 40
0.0
  9
$DIMTOL
 70
     0
  9
$DIMLIM
 70
     0
  9
$DIMTIH
 70
     1
  9
$DIMTOH
 70
     1
  9
$DIMSE1
 70
     0
  9
$DIMSE2
 70
     0
  9
$DIMTAD
 70
     0
  9
$DIMZIN
 70
     0
  9
$DIMBLK
  1

  9
$DIMASO
 70
     1
  9
$DIMSHO
 70
     1
  9
$DIMPOST
  1

  9
$DIMAPOST
  1

  9
$DIMALT
 70
     0
  9
$DIMALTD
 70
     2
  9
$DIMALTF
 40
25.4
  9
$DIMLFAC
 40
1.0
  9
$DIMTOFL
 70
     0
  9
$DIMTVP
 40
0.0
  9
$DIMTIX
 70
     0
  9
$DIMSOXD
 70
     0
  9
$DIMSAH
 70
     0
  9
$DIMBLK1
  1

  9
$DIMBLK2
  1

  9
$DIMSTYLE
  2
Standard
  9
$DIMCLRD
 70
     0
  9
$DIMCLRE
 70
     0
  9
$DIMCLRT
 70
     0
  9
$DIMTFAC
 40
1.0
  9
$DIMGAP
 40
0.09
  9
$DIMJUST
 70
     0
  9
$DIMSD1
 70
     0
  9
$DIMSD2
 70
     0
  9
$DIMTOLJ
 70
     1
  9
$DIMTZIN
 70
     0
  9
$DIMALTZ
 70
     0
  9
$DIMALTTZ
 70
     0
  9
$DIMUPT
 70
     0
  9
$DIMDEC
 70
     4
  9
$DIMTDEC
 70
     4
  9
$DIMALTU
 70
     2
  9
$DIMALTTD
 70
     2
  9
$DIMTXSTY
  7
STANDARD
  9
$DIMAUNIT
 70
     0
  9
$DIMADEC
 70
     0
  9
$DIMALTRND
 40
0.0
  9
$DIMAZIN
 70
     0
  9
$DIMDSEP
 70
    46
  9
$DIMATFIT
 70
     3
  9
$DIMFRAC
 70
     0
  9
$DIMLDRBLK
  1

  9
$DIMLUNIT
 70
     2
  9
$DIMLWD
 70
    -2
  9
$DIMLWE
 70
    -2
  9
$DIMTMOVE
 70
     0
  9
$LUNITS
 70
     2
  9
$LUPREC
 70
     4
  9
$SKETCHINC
 40
0.1
  9
$FILLETRAD
 40
0.0
  9
$AUNITS
 70
     0
  9
$AUPREC
 70
     4
  9
$MENU
  1
acad
  9
$ELEVATION
 40
0.0
  9
$PELEVATION
 40
0.0
  9
$THICKNESS
 40
0.0
  9
$LIMCHECK
 70
     0
  9
$CHAMFERA
 40
0.0
  9
$CHAMFERB
 40
0.0
  9
$CHAMFERC
 40
1.0
  9
$CHAMFERD
 40
0.0
  9
$SKPOLY
 70
     0
  9
$TDCREATE
 40
2454083.583616713
  9
$TDUCREATE
 40
2454083.708616713
  9
$TDUPDATE
 40
2454083.583616725
  9
$TDUUPDATE
 40
2454083.708616725
  9
$TDINDWG
 40
0.0000000116
  9
$TDUSRTIMER
 40
0.0000000116
  9
$USRTIMER
 70
     1
  9
$ANGBASE
 50
0.0
  9
$ANGDIR
 70
     0
  9
$PDMODE
 70
     0
  9
$PDSIZE
 40
0.0
  9
$PLINEWID
 40
0.0
  9
$SPLFRAME
 70
     0
  9
$SPLINETYPE
 70
     6
  9
$SPLINESEGS
 70
     8
  9
$HANDSEED
  5
87
  9
$SURFTAB1
 70
     6
  9
$SURFTAB2
 70
     6
  9
$SURFTYPE
 70
     6
  9
$SURFU
 70
     6
  9
$SURFV
 70
     6
  9
$UCSBASE
  2

  9
$UCSNAME
  2

  9
$UCSORG
 10
0.0
 20
0.0
 30
0.0
  9
$UCSXDIR
 10
1.0
 20
0.0
 30
0.0
  9
$UCSYDIR
 10
0.0
 20
1.0
 30
0.0
  9
$UCSORTHOREF
  2

  9
$UCSORTHOVIEW
 70
     0
  9
$UCSORGTOP
 10
0.0
 20
0.0
 30
0.0
  9
$UCSORGBOTTOM
 10
0.0
 20
0.0
 30
0.0
  9
$UCSORGLEFT
 10
0.0
 20
0.0
 30
0.0
  9
$UCSORGRIGHT
 10
0.0
 20
0.0
 30
0.0
  9
$UCSORGFRONT
 10
0.0
 20
0.0
 30
0.0
  9
$UCSORGBACK
 10
0.0
 20
0.0
 30
0.0
  9
$PUCSBASE
  2

  9
$PUCSNAME
  2

  9
$PUCSORG
 10
0.0
 20
0.0
 30
0.0
  9
$PUCSXDIR
 10
1.0
 20
0.0
 30
0.0
  9
$PUCSYDIR
 10
0.0
 20
1.0
 30
0.0
  9
$PUCSORTHOREF
  2

  9
$PUCSORTHOVIEW
 70
     0
  9
$PUCSORGTOP
 10
0.0
 20
0.0
 30
0.0
  9
$PUCSORGBOTTOM
 10
0.0
 20
0.0
 30
0.0
  9
$PUCSORGLEFT
 10
0.0
 20
0.0
 30
0.0
  9
$PUCSORGRIGHT
 10
0.0
 20
0.0
 30
0.0
  9
$PUCSORGFRONT
 10
0.0
 20
0.0
 30
0.0
  9
$PUCSORGBACK
 10
0.0
 20
0.0
 30
0.0
  9
$USERI1
 70
     0
  9
$USERI2
 70
     0
  9
$USERI3
 70
     0
  9
$USERI4
 70
     0
  9
$USERI5
 70
     0
  9
$USERR1
 40
0.0
  9
$USERR2
 40
0.0
  9
$USERR3
 40
0.0
  9
$USERR4
 40
0.0
  9
$USERR5
 40
0.0
  9
$WORLDVIEW
 70
     1
  9
$SHADEDGE
 70
     3
  9
$SHADEDIF
 70
    70
  9
$TILEMODE
 70
     1
  9
$MAXACTVP
 70
    64
  9
$PINSBASE
 10
0.0
 20
0.0
 30
0.0
  9
$PLIMCHECK
 70
     0
  9
$PEXTMIN
 10
1.000000000000000E+20
 20
1.000000000000000E+20
 30
1.000000000000000E+20
  9
$PEXTMAX
 10
-1.000000000000000E+20
 20
-1.000000000000000E+20
 30
-1.000000000000000E+20
  9
$PLIMMIN
 10
0.0
 20
0.0
  9
$PLIMMAX
 10
12.0
 20
9.0
  9
$UNITMODE
 70
     0
  9
$VISRETAIN
 70
     1
  9
$PLINEGEN
 70
     0
  9
$PSLTSCALE
 70
     1
  9
$TREEDEPTH
 70
  3020
  9
$CMLSTYLE
  2
Standard
  9
$CMLJUST
 70
     0
  9
$CMLSCALE
 40
1.0
  9
$PROXYGRAPHICS
 70
     1
  9
$MEASUREMENT
 70
     0
  9
$CELWEIGHT
370
    -1
  9
$ENDCAPS
280
     0
  9
$JOINSTYLE
280
     0
  9
$LWDISPLAY
290
     0
  9
$INSUNITS
 70
     0
  9
$HYPERLINKBASE
  1

  9
$STYLESHEET
  1

  9
$XEDIT
290
     1
  9
$CEPSNTYPE
380
     0
  9
$PSTYLEMODE
290
     0
  9
$FINGERPRINTGUID
  2
{FAEB1C30-E019-11D5-929B-00C0DF256EC4}
  9
$VERSIONGUID
  2
{FAEB1C32-E019-11D5-929B-00C0DF256EC4}
  9
$EXTNAMES
290
     1
  9
$PSVPSCALE
 40
0.0
  9
$OLESTARTUP
290
     0
  0
ENDSEC
  0
SECTION
  2
CLASSES
  0
CLASS
  1
ACDBDICTIONARYWDFLT
  2
AcDbDictionaryWithDefault
  3
ObjectDBX Classes
 90
        0
280
     0
281
     0
  0
CLASS
  1
TABLESTYLE
  2
AcDbTableStyle
  3
ObjectDBX Classes
 90
     2047
280
     0
281
     0
  0
CLASS
  1
DICTIONARYVAR
  2
AcDbDictionaryVar
  3
ObjectDBX Classes
 90
        0
280
     0
281
     0
  0
CLASS
  1
ACDBPLACEHOLDER
  2
AcDbPlaceHolder
  3
ObjectDBX Classes
 90
        0
280
     0
281
     0
  0
CLASS
  1
LAYOUT
  2
AcDbLayout
  3
ObjectDBX Classes
 90
        0
280
     0
281
     0
  0
ENDSEC
  0
SECTION
  2
TABLES
  0
TABLE
  2
VPORT
  5
8
330
0
100
AcDbSymbolTable
 70
     1
  0
VPORT
  5
7E
330
8
100
AcDbSymbolTableRecord
100
AcDbViewportTableRecord
  2
*Active
 70
     0
 10
0.0
 20
0.0
 11
1.0
 21
1.0
 12
10.42990654205607
 22
4.5
 13
0.0
 23
0.0
 14
0.5
 24
0.5
 15
0.5
 25
0.5
 16
0.0
 26
0.0
 36
1.0
 17
0.0
 27
0.0
 37
0.0
 40
9.0
 41
1.972972972850329
 42
50.0
 43
0.0
 44
0.0
 50
0.0
 51
0.0
 71
     0
 72
   100
 73
     1
 74
     3
 75
     0
 76
     0
 77
     0
 78
     0
281
     0
 65
     1
110
0.0
120
0.0
130
0.0
111
1.0
121
0.0
131
0.0
112
0.0
122
1.0
132
0.0
 79
     0
146
0.0
  0
ENDTAB
  0
TABLE
  2
LTYPE
  5
5
330
0
100
AcDbSymbolTable
 70
     9
  0
LTYPE
  5
10
330
5
100
AcDbSymbolTableRecord
100
AcDbLinetypeTableRecord
  2
ByBlock
 70
     0
  3

 72
    65
 73
     0
 40
0.0
  0
LTYPE
  5
11
330
5
100
AcDbSymbolTableRecord
100
AcDbLinetypeTableRecord
  2
ByLayer
 70
     0
  3

 72
    65
 73
     0
 40
0.0
  0
LTYPE
  5
1B
330
5
100
AcDbSymbolTableRecord
100
AcDbLinetypeTableRecord
  2
CONTINUOUS
 70
     0
  3
Solid line
 72
    65
 73
     0
 40
0.0
  0
LTYPE
  5
1C
330
5
100
AcDbSymbolTableRecord
100
AcDbLinetypeTableRecord
  2
HIDDEN
 70
     0
  3
_ _ _ _ _ _ _ _ _ _ _ _ _ _ _ _ _ _ _ _ 
 72
    65
 73
     2
 40
0.375
 49
0.25
 74
     0
 49
-0.125
 74
     0
  0
LTYPE
  5
1D
330
5
100
AcDbSymbolTableRecord
100
AcDbLinetypeTableRecord
  2
DASHED
 70
     0
  3
__ __ __ __ __ __ __ __ __ __ __ __ __  
 72
    65
 73
     2
 40
0.75
 49
0.5
 74
     0
 49
-0.25
 74
     0
  0
LTYPE
  5
1E
330
5
100
AcDbSymbolTableRecord
100
AcDbLinetypeTableRecord
  2
CENTER
 70
     0
  3
____ _ ____ _ ____ _ ____ _ ____ _ ____ 
 72
    65
 73
     4
 40
2.0
 49
1.25
 74
     0
 49
-0.25
 74
     0
 49
0.25
 74
     0
 49
-0.25
 74
     0
  0
LTYPE
  5
1F
330
5
100
AcDbSymbolTableRecord
100
AcDbLinetypeTableRecord
  2
PHANTOM
 70
     0
  3
_____ _ _ _____ _ _ _____ _ _ _____ _ _ 
 72
    65
 73
     6
 40
2.5
 49
1.25
 74
     0
 49
-0.25
 74
     0
 49
0.25
 74
     0
 49
-0.25
 74
     0
 49
0.25
 74
     0
 49
-0.25
 74
     0
  0
LTYPE
  5
20
330
5
100
AcDbSymbolTableRecord
100
AcDbLinetypeTableRecord
  2
DOT
 70
     0
  3
........................................
 72
    65
 73
     2
 40
0.25
 49
0.0
 74
     0
 49
-0.25
 74
     0
  0
LTYPE
  5
21
330
5
100
AcDbSymbolTableRecord
100
AcDbLinetypeTableRecord
  2
DASHDOT
 70
     0
  3
__ . __ . __ . __ . __ . __ . __ . __ . 
 72
    65
 73
     4
 40
1.0
 49
0.5
 74
     0
 49
-0.25
 74
     0
 49
0.0
 74
     0
 49
-0.25
 74
     0
  0
LTYPE
  5
22
330
5
100
AcDbSymbolTableRecord
100
AcDbLinetypeTableRecord
  2
BORDER
 70
     0
  3
__ __ . __ __ . __ __ . __ __ . __ __ . 
 72
    65
 73
     6
 40
1.75
 49
0.5
 74
     0
 49
-0.25
 74
     0
 49
0.5
 74
     0
 49
-0.25
 74
     0
 49
0.0
 74
     0
 49
-0.25
 74
     0
  0
LTYPE
  5
23
330
5
100
AcDbSymbolTableRecord
100
AcDbLinetypeTableRecord
  2
DIVIDE
 70
     0
  3
__ . . __ . . __ . . __ . . __ . . __ . 
 72
    65
 73
     6
 40
1.25
 49
0.5
 74
     0
 49
-0.25
 74
     0
 49
0.0
 74
     0
 49
-0.25
 74
     0
 49
0.0
 74
     0
 49
-0.25
 74
     0
  0
ENDTAB
  0
TABLE
  2
LAYER
  5
2
330
0
100
AcDbSymbolTable
 70
     5
  0
LAYER
  5
24
330
2
100
AcDbSymbolTableRecord
100
AcDbLayerTableRecord
  2
0
 70
     0
 62
     7
  6
CONTINUOUS
370
    -3
390
F
  0
LAYER
  5
25
330
2
100
AcDbSymbolTableRecord
100
AcDbLayerTableRecord
  2
0010010007
 70
     0
 62
     7
  6
CONTINUOUS
370
    -3
390
F
  0
LAYER
  5
26
330
2
100
AcDbSymbolTableRecord
100
AcDbLayerTableRecord
  2
0020010004
 70
     0
 62
     4
  6
CONTINUOUS
370
    -3
390
F
  0
LAYER
  5
27
330
2
100
AcDbSymbolTableRecord
100
AcDbLayerTableRecord
  2
0030010002
 70
     0
 62
     2
  6
CONTINUOUS
370
    -3
390
F
  0
LAYER
  5
28
330
2
100
AcDbSymbolTableRecord
100
AcDbLayerTableRecord
  2
1510010002
 70
     0
 62
     2
  6
CONTINUOUS
370
    -3
390
F
  0
ENDTAB
  0
TABLE
  2
STYLE
  5
3
330
0
100
AcDbSymbolTable
 70
     1
  0
STYLE
  5
29
330
3
100
AcDbSymbolTableRecord
100
AcDbTextStyleTableRecord
  2
STANDARD
 70
     0
 40
0.0
 41
1.0
 50
0.0
 71
     0
 42
0.2
  3
txt
  4

  0
ENDTAB
  0
TABLE
  2
VIEW
  5
6
330
0
100
AcDbSymbolTable
 70
     1
  0
VIEW
  5
2A
330
6
100
AcDbSymbolTableRecord
100
AcDbViewTableRecord
  2
1
 70
     0
 40
20600.0
 10
29641.0
 20
34500.0
 41
1.0
 11
0.0
 21
0.0
 31
1.0
 12
0.0
 22
0.0
 32
0.0
 42
50.0
 43
0.0
 44
0.0
 50
0.0
 71
     0
281
     0
 72
     0
  0
ENDTAB
  0
TABLE
  2
UCS
  5
7
330
0
100
AcDbSymbolTable
 70
     0
  0
ENDTAB
  0
TABLE
  2
APPID
  5
9
330
0
100
AcDbSymbolTable
 70
     1
  0
APPID
  5
2B
330
9
100
AcDbSymbolTableRecord
100
AcDbRegAppTableRecord
  2
ACAD
 70
     0
  0
ENDTAB
  0
TABLE
  2
DIMSTYLE
  5
A
330
0
100
AcDbSymbolTable
 70
     1
100
AcDbDimStyleTable
  0
DIMSTYLE
105
2C
330
A
100
AcDbSymbolTableRecord
100
AcDbDimStyleTableRecord
  2
Standard
 70
     0
340
29
  0
ENDTAB
  0
TABLE
  2
BLOCK_RECORD
  5
1
330
0
100
AcDbSymbolTable
 70
     1
  0
BLOCK_RECORD
  5
18
330
1
100
AcDbSymbolTableRecord
100
AcDbBlockTableRecord
  2
*Model_Space
340
19
  0
BLOCK_RECORD
  5
16
330
1
100
AcDbSymbolTableRecord
100
AcDbBlockTableRecord
  2
*Paper_Space
340
17
  0
BLOCK_RECORD
  5
2E
330
1
100
AcDbSymbolTableRecord
100
AcDbBlockTableRecord
  2
TRAMONT-69-64
340
0
102
{BLKREFS
331
79
331
7A
331
7B
102
}
  0
ENDTAB
  0
ENDSEC
  0
SECTION
  2
BLOCKS
  0
BLOCK
  5
83
330
18
100
AcDbEntity
  8
0
100
AcDbBlockBegin
  2
*Model_Space
 70
     0
 71
     0
 10
0.0
 20
0.0
 30
0.0
  3
*Model_Space
  1

  0
ENDBLK
  5
84
330
18
100
AcDbEntity
  8
0
100
AcDbBlockEnd
  0
BLOCK
  5
85
330
16
100
AcDbEntity
 67
     1
  8
0
100
AcDbBlockBegin
  2
*Paper_Space
 70
     0
 71
     0
 10
0.0
 20
0.0
 30
0.0
  3
*Paper_Space
  1

  0
ENDBLK
  5
86
330
16
100
AcDbEntity
 67
     1
  8
0
100
AcDbBlockEnd
  0
BLOCK
  5
2D
330
2E
100
AcDbEntity
  8
0
100
AcDbBlockBegin
  2
TRAMONT-69-64
 70
     0
 71
     0
 10
0.0
 20
0.0
 30
0.0
  3
TRAMONT-69-64
  1

  0
CIRCLE
  5
2F
330
2E
100
AcDbEntity
  8
1510010002
100
AcDbCircle
 10
1.46043974999998
 20
1.46043974999998
 30
0.0
 40
1.217033125
  0
LINE
  5
30
330
2E
100
AcDbEntity
  8
1510010002
100
AcDbLine
 10
0.0
 20
0.0
 30
0.0
 11
2.9208795
 21
2.9208795
 31
0.0
  0
ENDBLK
  5
31
330
2E
100
AcDbEntity
  8
0
100
AcDbBlockEnd
  0
ENDSEC
  0
SECTION
  2
ENTITIES
  0
LINE
  5
32
330
18
100
AcDbEntity
  8
0010010007
100
AcDbLine
 10
852.6898699972691
 20
156.354524524976
 30
0.0
 11
852.6898699972691
 21
155.654524524976
 31
0.0
  0
LINE
  5
33
330
18
100
AcDbEntity
  8
0010010007
100
AcDbLine
 10
843.714004089269
 20
159.496414799977
 30
0.0
 11
848.7275484476691
 21
156.619790987777
 31
0.0
  0
LINE
  5
34
330
18
100
AcDbEntity
  8
0010010007
100
AcDbLine
 10
637.22230908387
 20
16.2927243723777
 30
0.0
 11
646.59813942547
 21
13.7925029479778
 31
0.0
  0
LINE
  5
35
330
18
100
AcDbEntity
  8
0010010007
100
AcDbLine
 10
646.598139425469
 20
13.7925029479764
 30
0.0
 11
678.781600569069
 21
13.7925029479764
 31
0.0
  0
LINE
  5
36
330
18
100
AcDbEntity
  8
0010010007
100
AcDbLine
 10
688.157430910668
 20
16.2927243723778
 30
0.0
 11
678.781600569068
 21
13.7925029479778
 31
0.0
  0
LINE
  5
37
330
18
100
AcDbEntity
  8
0010010007
100
AcDbLine
 10
690.136208773269
 20
19.8545245249759
 30
0.0
 11
688.157430910669
 21
16.2927243723758
 31
0.0
  0
LINE
  5
38
330
18
100
AcDbEntity
  8
0010010007
100
AcDbLine
 10
635.243531221268
 20
19.8545245249759
 30
0.0
 11
637.222309083868
 21
16.2927243723758
 31
0.0
  0
LINE
  5
39
330
18
100
AcDbEntity
  8
0010010007
100
AcDbLine
 10
495.902392567669
 20
152.154524524975
 30
0.0
 11
558.6096538113241
 21
152.154524524975
 31
0.0
  0
LINE
  5
3A
330
18
100
AcDbEntity
  8
0010010007
100
AcDbLine
 10
483.00944344027
 20
159.854524524976
 30
0.0
 11
842.37029655427
 21
159.854524524976
 31
0.0
  0
LINE
  5
3B
330
18
100
AcDbEntity
  8
0010010007
100
AcDbLine
 10
481.665735905268
 20
159.496414799977
 30
0.0
 11
476.652191546869
 21
156.619790987777
 31
0.0
  0
LINE
  5
3C
330
18
100
AcDbEntity
  8
0010010007
100
AcDbLine
 10
472.689869997269
 20
156.354524524976
 30
0.0
 11
472.689869997269
 21
155.654524524976
 31
0.0
  0
CIRCLE
  5
3D
330
18
100
AcDbEntity
  8
0010010007
100
AcDbCircle
 10
-188.524260615507
 20
71.8714670984026
 30
0.0
 40
190.0
  0
CIRCLE
  5
3E
330
18
100
AcDbEntity
  8
0010010007
100
AcDbCircle
 10
-188.524260615507
 20
71.8714670984026
 30
0.0
 40
16.0
  0
CIRCLE
  5
3F
330
18
100
AcDbEntity
  8
0010010007
100
AcDbCircle
 10
-188.524260615507
 20
201.871467098403
 30
0.0
 40
12.5
  0
CIRCLE
  5
40
330
18
100
AcDbEntity
  8
0020010004
100
AcDbCircle
 10
-188.524260615507
 20
71.8714670984026
 30
0.0
 40
27.0
  0
ARC
  5
41
330
18
100
AcDbEntity
  8
0010010007
100
AcDbCircle
 10
558.609322387669
 20
148.554524524977
 30
0.0
 40
3.59999999960001
100
AcDbArc
 50
2.99999999990001
 51
89.99472522870001
  0
ARC
  5
42
330
18
100
AcDbEntity
  8
0010010007
100
AcDbCircle
 10
495.902392567669
 20
155.854524524976
 30
0.0
 40
3.70000000000001
100
AcDbArc
 50
191.9784657067
 51
270.0
  0
ARC
  5
43
330
18
100
AcDbEntity
  8
0010010007
100
AcDbCircle
 10
616.7547502438709
 20
77.23926342277881
 30
0.0
 40
50.7000000000001
100
AcDbArc
 50
183.0
 51
248.1644232776
  0
ARC
  5
44
330
18
100
AcDbEntity
  8
0010010007
100
AcDbCircle
 10
662.6898699972691
 20
191.878762607178
 30
0.0
 40
174.2
100
AcDbArc
 50
248.1644232776
 51
260.934906079
  0
ARC
  5
45
330
18
100
AcDbEntity
  8
0010010007
100
AcDbCircle
 10
662.6898699972691
 20
191.240784184177
 30
0.0
 40
174.2
100
AcDbArc
 50
191.7877109172
 51
191.9784657067
  0
ARC
  5
46
330
18
100
AcDbEntity
  8
0010010007
100
AcDbCircle
 10
475.656852632069
 20
158.354524524976
 30
0.0
 40
2.0
100
AcDbArc
 50
270.0
 51
299.8459319466
  0
ARC
  5
47
330
18
100
AcDbEntity
  8
0010010007
100
AcDbCircle
 10
849.722887362469
 20
158.354524524976
 30
0.0
 40
2.0
100
AcDbArc
 50
240.1540680518
 51
270.0
  0
ARC
  5
48
330
18
100
AcDbEntity
  8
0010010007
100
AcDbCircle
 10
483.00944344027
 20
157.154524524975
 30
0.0
 40
2.7
100
AcDbArc
 50
90.0
 51
119.8459319486
  0
ARC
  5
49
330
18
100
AcDbEntity
  8
0010010007
100
AcDbCircle
 10
842.370296554271
 20
157.154524524975
 30
0.0
 40
2.7
100
AcDbArc
 50
60.1540680516
 51
90.0
  0
ARC
  5
4A
330
18
100
AcDbEntity
  8
0010010007
100
AcDbCircle
 10
-188.524260615507
 20
71.8714670984026
 30
0.0
 40
170.0
100
AcDbArc
 50
22.4713640548792
 51
157.528635945121
  0
ARC
  5
4B
330
18
100
AcDbEntity
  8
0010010007
100
AcDbCircle
 10
-299.412742101696
 20
117.738063589602
 30
0.0
 40
50.0
100
AcDbArc
 50
90.0
 51
157.528635945122
  0
LINE
  5
4C
330
18
100
AcDbEntity
  8
0010010007
100
AcDbLine
 10
-299.412742101696
 20
167.738063589602
 30
0.0
 11
-77.6357791293124
 21
167.738063589602
 31
0.0
  0
ARC
  5
4D
330
18
100
AcDbEntity
  8
0010010007
100
AcDbCircle
 10
-77.6357791293152
 20
117.738063589602
 30
0.0
 40
50.0
100
AcDbArc
 50
22.4713640548779
 51
90.0
  0
ARC
  5
4E
330
18
100
AcDbEntity
  8
0010010007
100
AcDbCircle
 10
-188.524260615507
 20
71.8714670984026
 30
0.0
 40
170.0
100
AcDbArc
 50
157.528635945121
 51
22.4713640548792
  0
LINE
  5
4F
330
18
100
AcDbEntity
  8
0010010007
100
AcDbLine
 10
852.6898699972691
 20
156.354524524976
 30
0.0
 11
472.689869997267
 21
156.354524524976
 31
0.0
  0
LINE
  5
50
330
18
100
AcDbEntity
  8
0010010007
100
AcDbLine
 10
852.6898699972691
 20
155.654524524975
 30
0.0
 11
472.689869997267
 21
155.654524524975
 31
0.0
  0
LINE
  5
51
330
18
100
AcDbEntity
  8
0010010007
100
AcDbLine
 10
688.157430910668
 20
16.2927243723778
 30
0.0
 11
637.22230908387
 21
16.2927243723778
 31
0.0
  0
LINE
  5
52
330
18
100
AcDbEntity
  8
0010010007
100
AcDbLine
 10
635.243531221268
 20
19.8545245249759
 30
0.0
 11
690.136208773269
 21
19.8545245249759
 31
0.0
  0
LINE
  5
53
330
18
100
AcDbEntity
  8
0010010007
100
AcDbLine
 10
562.2043887123861
 20
148.742933967424
 30
0.0
 11
566.124232831814
 21
74.5858304412621
 31
0.0
  0
ARC
  5
54
330
18
100
AcDbEntity
  8
0010010007
100
AcDbCircle
 10
662.6898699972691
 20
191.878762607178
 30
0.0
 40
174.2
100
AcDbArc
 50
279.065093921
 51
347.997975212641
  0
LINE
  5
55
330
18
100
AcDbEntity
  8
0030010002
100
AcDbLine
 10
482.00944344027
 20
159.854524524976
 30
0.0
 11
366.289508240265
 21
159.854524524976
 31
0.0
  0
LINE
  5
56
330
18
100
AcDbEntity
  8
0030010002
100
AcDbLine
 10
634.243531221268
 20
19.8545245249759
 30
0.0
 11
366.289508240265
 21
19.8545245249759
 31
0.0
  0
SOLID
  5
57
330
18
100
AcDbEntity
  8
0030010002
100
AcDbTrace
 10
363.810180716264
 20
135.097822806437
 30
0.0
 11
370.768835764267
 21
135.097822806437
 31
0.0
 12
367.289508240265
 22
159.854524524976
 32
0.0
 13
367.289508240265
 23
159.854524524976
 33
0.0
  0
SOLID
  5
58
330
18
100
AcDbEntity
  8
0030010002
100
AcDbTrace
 10
370.768835764267
 20
44.6112262435152
 30
0.0
 11
363.810180716264
 21
44.6112262435152
 31
0.0
 12
367.289508240265
 22
19.8545245249759
 32
0.0
 13
367.289508240265
 23
19.8545245249759
 33
0.0
  0
LINE
  5
59
330
18
100
AcDbEntity
  8
0030010002
100
AcDbLine
 10
367.289508240265
 20
159.854524524976
 30
0.0
 11
367.289508240265
 21
19.85452452497589
 31
0.0
  0
TEXT
  5
5A
330
18
100
AcDbEntity
  8
0030010002
100
AcDbText
 10
352.289507286591
 20
59.8545201176264
 30
0.0
 40
30.0000019073486
  1
140
 50
90.0
 41
0.75
100
AcDbText
  0
LINE
  5
5B
330
18
100
AcDbEntity
  8
0030010002
100
AcDbLine
 10
-187.524260615507
 20
-98.1285329015974
 30
0.0
 11
92.47573938449301
 21
-98.1285329015974
 31
0.0
  0
LINE
  5
5C
330
18
100
AcDbEntity
  8
0030010002
100
AcDbLine
 10
-187.524260615507
 20
241.871467098403
 30
0.0
 11
92.47573938449301
 21
241.871467098403
 31
0.0
  0
SOLID
  5
5D
330
18
100
AcDbEntity
  8
0030010002
100
AcDbTrace
 10
94.9550669084946
 20
-73.37183118305821
 30
0.0
 11
87.99641186049131
 21
-73.37183118305821
 31
0.0
 12
91.475739384493
 22
-98.1285329015974
 32
0.0
 13
91.475739384493
 23
-98.1285329015974
 33
0.0
  0
SOLID
  5
5E
330
18
100
AcDbEntity
  8
0030010002
100
AcDbTrace
 10
87.99641186049131
 20
217.114765379863
 30
0.0
 11
94.9550669084946
 21
217.114765379863
 31
0.0
 12
91.475739384493
 22
241.871467098403
 32
0.0
 13
91.475739384493
 23
241.871467098403
 33
0.0
  0
LINE
  5
5F
330
18
100
AcDbEntity
  8
0030010002
100
AcDbLine
 10
91.475739384493
 20
-98.1285329015974
 30
0.0
 11
91.475739384493
 21
241.871467098403
 31
0.0
  0
TEXT
  5
60
330
18
100
AcDbEntity
  8
0030010002
100
AcDbText
 10
76.4757384308186
 20
58.833164502312
 30
0.0
 40
30.0000019073486
  1
340
 50
90.0
 41
0.75
100
AcDbText
  0
LINE
  5
61
330
18
100
AcDbEntity
  8
0030010002
100
AcDbLine
 10
-187.524260615507
 20
241.871467098403
 30
0.0
 11
92.47573938449301
 21
241.871467098403
 31
0.0
  0
LINE
  5
62
330
18
100
AcDbEntity
  8
0030010002
100
AcDbLine
 10
-187.524260615507
 20
261.871467098403
 30
0.0
 11
92.47573938449301
 21
261.871467098403
 31
0.0
  0
SOLID
  5
63
330
18
100
AcDbEntity
  8
0030010002
100
AcDbTrace
 10
87.99641186049131
 20
217.114765379863
 30
0.0
 11
94.9550669084946
 21
217.114765379863
 31
0.0
 12
91.475739384493
 22
241.871467098403
 32
0.0
 13
91.475739384493
 23
241.871467098403
 33
0.0
  0
LINE
  5
64
330
18
100
AcDbEntity
  8
0030010002
100
AcDbLine
 10
91.475739384493
 20
240.871467098403
 30
0.0
 11
91.475739384493
 21
241.871467098403
 31
0.0
  0
SOLID
  5
65
330
18
100
AcDbEntity
  8
0030010002
100
AcDbTrace
 10
94.9550669084946
 20
286.628168816942
 30
0.0
 11
87.99641186049131
 21
286.628168816942
 31
0.0
 12
91.475739384493
 22
261.871467098403
 32
0.0
 13
91.475739384493
 23
261.871467098403
 33
0.0
  0
LINE
  5
66
330
18
100
AcDbEntity
  8
0030010002
100
AcDbLine
 10
91.475739384493
 20
262.871467098403
 30
0.0
 11
91.475739384493
 21
261.871467098403
 31
0.0
  0
TEXT
  5
67
330
18
100
AcDbEntity
  8
0030010002
100
AcDbText
 10
76.5323654724675
 20
298.048718004888
 30
0.0
 40
30.0000019073486
  1
20
 50
90.0
 41
0.75
100
AcDbText
  0
LINE
  5
68
330
18
100
AcDbEntity
  8
0030010002
100
AcDbLine
 10
91.475739384493
 20
229.308616423688
 30
0.0
 11
91.475739384493
 21
337.459709578109
 31
0.0
  0
LINE
  5
69
330
18
100
AcDbEntity
  8
0030010002
100
AcDbLine
 10
-204.524260615507
 20
70.8714670984026
 30
0.0
 11
-204.524260615507
 21
-208.14149554556
 31
0.0
  0
LINE
  5
6A
330
18
100
AcDbEntity
  8
0030010002
100
AcDbLine
 10
-172.524260615507
 20
70.8714670984026
 30
0.0
 11
-172.524260615507
 21
-208.14149554556
 31
0.0
  0
SOLID
  5
6B
330
18
100
AcDbEntity
  8
0030010002
100
AcDbTrace
 10
-229.280962334047
 20
-203.662168021558
 30
0.0
 11
-229.280962334047
 21
-210.620823069562
 31
0.0
 12
-204.524260615507
 22
-207.14149554556
 32
0.0
 13
-204.524260615507
 23
-207.14149554556
 33
0.0
  0
LINE
  5
6C
330
18
100
AcDbEntity
  8
0030010002
100
AcDbLine
 10
-205.524260615507
 20
-207.14149554556
 30
0.0
 11
-204.524260615507
 21
-207.14149554556
 31
0.0
  0
SOLID
  5
6D
330
18
100
AcDbEntity
  8
0030010002
100
AcDbTrace
 10
-147.767558896968
 20
-210.620823069562
 30
0.0
 11
-147.767558896968
 21
-203.662168021558
 31
0.0
 12
-172.524260615507
 22
-207.14149554556
 32
0.0
 13
-172.524260615507
 23
-207.14149554556
 33
0.0
  0
LINE
  5
6E
330
18
100
AcDbEntity
  8
0030010002
100
AcDbLine
 10
-171.524260615507
 20
-207.14149554556
 30
0.0
 11
-172.524260615507
 21
-207.14149554556
 31
0.0
  0
TEXT
  5
6F
330
18
100
AcDbEntity
  8
0030010002
100
AcDbText
 10
-97.3712982185082
 20
-197.228987853791
 30
0.0
 40
30.0000019073486
  1
1 1/4
 41
0.75
100
AcDbText
  0
LINE
  5
70
330
18
100
AcDbEntity
  8
0030010002
100
AcDbLine
 10
-229.265959387805
 20
-207.14149554556
 30
0.0
 11
36.7974088330175
 21
-207.14149554556
 31
0.0
  0
LINE
  5
71
330
18
100
AcDbEntity
  8
0030010002
100
AcDbLine
 10
-189.524260615507
 20
44.8714670984025
 30
0.0
 11
-469.524260615508
 21
44.8714670984025
 31
0.0
  0
LINE
  5
72
330
18
100
AcDbEntity
  8
0030010002
100
AcDbLine
 10
-189.524260615507
 20
98.8714670984026
 30
0.0
 11
-469.524260615508
 21
98.8714670984026
 31
0.0
  0
SOLID
  5
73
330
18
100
AcDbEntity
  8
0030010002
100
AcDbTrace
 10
-472.003588139509
 20
20.1147653798633
 30
0.0
 11
-465.044933091506
 21
20.1147653798633
 31
0.0
 12
-468.524260615508
 22
44.8714670984025
 32
0.0
 13
-468.524260615508
 23
44.8714670984025
 33
0.0
  0
LINE
  5
74
330
18
100
AcDbEntity
  8
0030010002
100
AcDbLine
 10
-468.524260615508
 20
43.8714670984025
 30
0.0
 11
-468.524260615508
 21
44.8714670984025
 31
0.0
  0
SOLID
  5
75
330
18
100
AcDbEntity
  8
0030010002
100
AcDbTrace
 10
-465.044933091506
 20
123.628168816942
 30
0.0
 11
-472.003588139509
 21
123.628168816942
 31
0.0
 12
-468.524260615508
 22
98.8714670984026
 32
0.0
 13
-468.524260615508
 23
98.8714670984026
 33
0.0
  0
LINE
  5
76
330
18
100
AcDbEntity
  8
0030010002
100
AcDbLine
 10
-468.524260615508
 20
99.8714670984026
 30
0.0
 11
-468.524260615508
 21
98.8714670984026
 31
0.0
  0
TEXT
  5
77
330
18
100
AcDbEntity
  8
0030010002
100
AcDbText
 10
-483.524261569182
 20
177.988582714035
 30
0.0
 40
30.0000019073486
  1
2
 50
90.0
 41
0.75
100
AcDbText
  0
LINE
  5
78
330
18
100
AcDbEntity
  8
0030010002
100
AcDbLine
 10
-468.524260615508
 20
217.405378006008
 30
0.0
 11
-468.524260615508
 21
18.04735566391091
 31
0.0
  0
INSERT
  5
79
330
18
100
AcDbEntity
  8
0
100
AcDbBlockReference
  2
TRAMONT-69-64
 10
-112.359417922271
 20
-167.636541090149
 30
0.0
 41
10.610127513554
 42
10.610127513554
 50
180.0
  0
INSERT
  5
7A
330
18
100
AcDbEntity
  8
0
100
AcDbBlockReference
  2
TRAMONT-69-64
 10
47.2888931828651
 20
39.5002983412
 30
0.0
 41
11.2377019737461
 42
11.2377019737461
 50
270.0
  0
INSERT
  5
7B
330
18
100
AcDbEntity
  8
0
100
AcDbBlockReference
  2
TRAMONT-69-64
 10
-510.880731656479
 20
162.315946499611
 30
0.0
 41
11.2377019737461
 42
11.2377019737461
 50
270.0
  0
TEXT
  5
7C
330
18
100
AcDbEntity
  8
0030010002
100
AcDbText
 10
11.7829041284957
 20
-197.228987853791
 30
0.0
 40
30.0000019073486
  1
"
 41
0.75
100
AcDbText
  0
TEXT
  5
7D
330
18
100
AcDbEntity
  8
0030010002
100
AcDbText
 10
-481.87455613877
 20
200.729041536327
 30
0.0
 40
30.0000019073486
  1
"
 50
90.0
 41
0.75
100
AcDbText
  0
ENDSEC
  0
SECTION
  2
OBJECTS
  0
DICTIONARY
  5
C
330
0
100
AcDbDictionary
281
     1
  3
ACAD_GROUP
350
D
  3
ACAD_LAYOUT
350
15
  3
ACAD_MLINESTYLE
350
12
  3
ACAD_PLOTSETTINGS
350
14
  3
ACAD_PLOTSTYLENAME
350
E
  3
ACAD_TABLESTYLE
350
7F
  3
AcDbVariableDictionary
350
81
  0
DICTIONARY
  5
D
102
{ACAD_REACTORS
330
C
102
}
330
C
100
AcDbDictionary
281
     1
  0
DICTIONARY
  5
15
102
{ACAD_REACTORS
330
C
102
}
330
C
100
AcDbDictionary
281
     1
  3
Layout1
350
17
  3
Model
350
19
  0
DICTIONARY
  5
12
102
{ACAD_REACTORS
330
C
102
}
330
C
100
AcDbDictionary
281
     1
  3
Standard
350
13
  0
DICTIONARY
  5
14
102
{ACAD_REACTORS
330
C
102
}
330
C
100
AcDbDictionary
281
     1
  0
ACDBDICTIONARYWDFLT
  5
E
102
{ACAD_REACTORS
330
C
102
}
330
C
100
AcDbDictionary
281
     1
  3
Normal
350
F
100
AcDbDictionaryWithDefault
340
F
  0
DICTIONARY
  5
7F
102
{ACAD_REACTORS
330
C
102
}
330
C
100
AcDbDictionary
281
     1
  3
Standard
350
80
  0
DICTIONARY
  5
81
102
{ACAD_REACTORS
330
C
102
}
330
C
100
AcDbDictionary
281
     1
  3
CTABLESTYLE
350
82
  0
LAYOUT
  5
17
102
{ACAD_REACTORS
330
15
102
}
330
15
100
AcDbPlotSettings
  1

  2

  4

  6

 40
0.0
 41
0.0
 42
0.0
 43
0.0
 44
0.0
 45
0.0
 46
0.0
 47
0.0
 48
0.0
 49
0.0
140
0.0
141
0.0
142
1.0
143
1.0
 70
   688
 72
     0
 73
     0
 74
     5
  7

 75
    16
147
1.0
148
0.0
149
0.0
100
AcDbLayout
  1
Layout1
 70
     1
 71
     1
 10
0.0
 20
0.0
 11
12.0
 21
9.0
 12
0.0
 22
0.0
 32
0.0
 14
1.000000000000000E+20
 24
1.000000000000000E+20
 34
1.000000000000000E+20
 15
-1.000000000000000E+20
 25
-1.000000000000000E+20
 35
-1.000000000000000E+20
146
0.0
 13
0.0
 23
0.0
 33
0.0
 16
1.0
 26
0.0
 36
0.0
 17
0.0
 27
1.0
 37
0.0
 76
     0
330
16
  0
LAYOUT
  5
19
102
{ACAD_REACTORS
330
15
102
}
330
15
100
AcDbPlotSettings
  1

  2

  4

  6

 40
0.0
 41
0.0
 42
0.0
 43
0.0
 44
0.0
 45
0.0
 46
0.0
 47
0.0
 48
0.0
 49
0.0
140
0.0
141
0.0
142
1.0
143
1.0
 70
  1712
 72
     0
 73
     0
 74
     0
  7

 75
     0
147
1.0
148
0.0
149
0.0
100
AcDbLayout
  1
Model
 70
     1
 71
     0
 10
0.0
 20
0.0
 11
0.0
 21
0.0
 12
0.0
 22
0.0
 32
0.0
 14
-32.05
 24
-32.05
 34
0.0
 15
1258.45
 25
893.05
 35
0.0
146
0.0
 13
0.0
 23
0.0
 33
0.0
 16
1.0
 26
0.0
 36
0.0
 17
0.0
 27
1.0
 37
0.0
 76
     0
330
18
  0
MLINESTYLE
  5
13
102
{ACAD_REACTORS
330
12
102
}
330
12
100
AcDbMlineStyle
  2
Standard
 70
     0
  3

 62
   256
 51
90.0
 52
90.0
 71
     2
 49
0.5
 62
   256
  6
BYLAYER
 49
-0.5
 62
   256
  6
BYLAYER
  0
ACDBPLACEHOLDER
  5
F
102
{ACAD_REACTORS
330
E
102
}
330
E
  0
TABLESTYLE
  5
80
102
{ACAD_REACTORS
330
7F
102
}
330
7F
100
AcDbTableStyle
  3
Standard
 70
     0
 71
     0
 40
0.06
 41
0.06
280
     0
281
     0
  7
STANDARD
140
0.18
170
     2
 62
     0
 63
     7
283
     0
274
    -2
284
     1
 64
     0
275
    -2
285
     1
 65
     0
276
    -2
286
     1
 66
     0
277
    -2
287
     1
 67
     0
278
    -2
288
     1
 68
     0
279
    -2
289
     1
 69
     0
  7
STANDARD
140
0.25
170
     5
 62
     0
 63
     7
283
     0
274
    -2
284
     1
 64
     0
275
    -2
285
     1
 65
     0
276
    -2
286
     1
 66
     0
277
    -2
287
     1
 67
     0
278
    -2
288
     1
 68
     0
279
    -2
289
     1
 69
     0
  7
STANDARD
140
0.18
170
     5
 62
     0
 63
     7
283
     0
274
    -2
284
     1
 64
     0
275
    -2
285
     1
 65
     0
276
    -2
286
     1
 66
     0
277
    -2
287
     1
 67
     0
278
    -2
288
     1
 68
     0
279
    -2
289
     1
 69
     0
  0
DICTIONARYVAR
  5
82
102
{ACAD_REACTORS
330
81
102
}
330
81
100
DictionaryVariables
280
     0
  1
Standard
  0
ENDSEC
  0
EOF
