  0
SECTION
  2
HEADER
  9
$ACADVER
  1
AC1015
  9
$ACADMAINTVER
 70
     6
  9
$DWGCODEPAGE
  3
UNDEFINED
  9
$INSBASE
 10
0.0
 20
0.0
 30
0.0
  9
$EXTMIN
 10
-32.05
 20
-32.05
 30
0.0
  9
$EXTMAX
 10
1258.45
 20
893.05
 30
0.0
  9
$LIMMIN
 10
-32.05
 20
-32.05
  9
$LIMMAX
 10
1258.45
 20
893.05
  9
$ORTHOMODE
 70
     0
  9
$REGENMODE
 70
     1
  9
$FILLMODE
 70
     1
  9
$QTEXTMODE
 70
     0
  9
$MIRRTEXT
 70
     1
  9
$LTSCALE
 40
1.0
  9
$ATTMODE
 70
     1
  9
$TEXTSIZE
 40
3.0
  9
$TRACEWID
 40
0.05
  9
$TEXTSTYLE
  7
STANDARD
  9
$CLAYER
  8
0
  9
$CELTYPE
  6
ByBlock
  9
$CECOLOR
 62
   256
  9
$CELTSCALE
 40
1.0
  9
$DISPSILH
 70
     0
  9
$DIMSCALE
 40
1.0
  9
$DIMASZ
 40
19.5259201423987
  9
$DIMEXO
 40
1.0
  9
$DIMDLI
 40
0.38
  9
$DIMRND
 40
0.0
  9
$DIMDLE
 40
0.0
  9
$DIMEXE
 40
1.0
  9
$DIMTP
 40
0.0
  9
$DIMTM
 40
0.0
  9
$DIMTXT
 40
3.0
  9
$DIMCEN
 40
1.0
  9
$DIMTSZ
 40
0.0
  9
$DIMTOL
 70
     0
  9
$DIMLIM
 70
     0
  9
$DIMTIH
 70
     1
  9
$DIMTOH
 70
     1
  9
$DIMSE1
 70
     0
  9
$DIMSE2
 70
     0
  9
$DIMTAD
 70
     0
  9
$DIMZIN
 70
     0
  9
$DIMBLK
  1

  9
$DIMASO
 70
     1
  9
$DIMSHO
 70
     1
  9
$DIMPOST
  1

  9
$DIMAPOST
  1

  9
$DIMALT
 70
     0
  9
$DIMALTD
 70
     2
  9
$DIMALTF
 40
25.4
  9
$DIMLFAC
 40
1.0
  9
$DIMTOFL
 70
     0
  9
$DIMTVP
 40
0.0
  9
$DIMTIX
 70
     0
  9
$DIMSOXD
 70
     0
  9
$DIMSAH
 70
     0
  9
$DIMBLK1
  1

  9
$DIMBLK2
  1

  9
$DIMSTYLE
  2
Standard
  9
$DIMCLRD
 70
     0
  9
$DIMCLRE
 70
     0
  9
$DIMCLRT
 70
     0
  9
$DIMTFAC
 40
1.0
  9
$DIMGAP
 40
0.09
  9
$DIMJUST
 70
     0
  9
$DIMSD1
 70
     0
  9
$DIMSD2
 70
     0
  9
$DIMTOLJ
 70
     1
  9
$DIMTZIN
 70
     0
  9
$DIMALTZ
 70
     0
  9
$DIMALTTZ
 70
     0
  9
$DIMUPT
 70
     0
  9
$DIMDEC
 70
     4
  9
$DIMTDEC
 70
     4
  9
$DIMALTU
 70
     2
  9
$DIMALTTD
 70
     2
  9
$DIMTXSTY
  7
STANDARD
  9
$DIMAUNIT
 70
     0
  9
$DIMADEC
 70
     0
  9
$DIMALTRND
 40
0.0
  9
$DIMAZIN
 70
     0
  9
$DIMDSEP
 70
    46
  9
$DIMATFIT
 70
     3
  9
$DIMFRAC
 70
     0
  9
$DIMLDRBLK
  1

  9
$DIMLUNIT
 70
     2
  9
$DIMLWD
 70
    -2
  9
$DIMLWE
 70
    -2
  9
$DIMTMOVE
 70
     0
  9
$LUNITS
 70
     2
  9
$LUPREC
 70
     4
  9
$SKETCHINC
 40
0.1
  9
$FILLETRAD
 40
0.0
  9
$AUNITS
 70
     0
  9
$AUPREC
 70
     4
  9
$MENU
  1
acad
  9
$ELEVATION
 40
0.0
  9
$PELEVATION
 40
0.0
  9
$THICKNESS
 40
0.0
  9
$LIMCHECK
 70
     0
  9
$CHAMFERA
 40
0.0
  9
$CHAMFERB
 40
0.0
  9
$CHAMFERC
 40
1.0
  9
$CHAMFERD
 40
0.0
  9
$SKPOLY
 70
     0
  9
$TDCREATE
 40
2453872.556535012
  9
$TDUCREATE
 40
2453872.681535012
  9
$TDUPDATE
 40
2453872.556535023
  9
$TDUUPDATE
 40
2453872.681535023
  9
$TDINDWG
 40
0.0000000116
  9
$TDUSRTIMER
 40
0.0000000116
  9
$USRTIMER
 70
     1
  9
$ANGBASE
 50
0.0
  9
$ANGDIR
 70
     0
  9
$PDMODE
 70
     0
  9
$PDSIZE
 40
0.0
  9
$PLINEWID
 40
0.0
  9
$SPLFRAME
 70
     0
  9
$SPLINETYPE
 70
     6
  9
$SPLINESEGS
 70
     8
  9
$HANDSEED
  5
82
  9
$SURFTAB1
 70
     6
  9
$SURFTAB2
 70
     6
  9
$SURFTYPE
 70
     6
  9
$SURFU
 70
     6
  9
$SURFV
 70
     6
  9
$UCSBASE
  2

  9
$UCSNAME
  2

  9
$UCSORG
 10
0.0
 20
0.0
 30
0.0
  9
$UCSXDIR
 10
1.0
 20
0.0
 30
0.0
  9
$UCSYDIR
 10
0.0
 20
1.0
 30
0.0
  9
$UCSORTHOREF
  2

  9
$UCSORTHOVIEW
 70
     0
  9
$UCSORGTOP
 10
0.0
 20
0.0
 30
0.0
  9
$UCSORGBOTTOM
 10
0.0
 20
0.0
 30
0.0
  9
$UCSORGLEFT
 10
0.0
 20
0.0
 30
0.0
  9
$UCSORGRIGHT
 10
0.0
 20
0.0
 30
0.0
  9
$UCSORGFRONT
 10
0.0
 20
0.0
 30
0.0
  9
$UCSORGBACK
 10
0.0
 20
0.0
 30
0.0
  9
$PUCSBASE
  2

  9
$PUCSNAME
  2

  9
$PUCSORG
 10
0.0
 20
0.0
 30
0.0
  9
$PUCSXDIR
 10
1.0
 20
0.0
 30
0.0
  9
$PUCSYDIR
 10
0.0
 20
1.0
 30
0.0
  9
$PUCSORTHOREF
  2

  9
$PUCSORTHOVIEW
 70
     0
  9
$PUCSORGTOP
 10
0.0
 20
0.0
 30
0.0
  9
$PUCSORGBOTTOM
 10
0.0
 20
0.0
 30
0.0
  9
$PUCSORGLEFT
 10
0.0
 20
0.0
 30
0.0
  9
$PUCSORGRIGHT
 10
0.0
 20
0.0
 30
0.0
  9
$PUCSORGFRONT
 10
0.0
 20
0.0
 30
0.0
  9
$PUCSORGBACK
 10
0.0
 20
0.0
 30
0.0
  9
$USERI1
 70
     0
  9
$USERI2
 70
     0
  9
$USERI3
 70
     0
  9
$USERI4
 70
     0
  9
$USERI5
 70
     0
  9
$USERR1
 40
0.0
  9
$USERR2
 40
0.0
  9
$USERR3
 40
0.0
  9
$USERR4
 40
0.0
  9
$USERR5
 40
0.0
  9
$WORLDVIEW
 70
     1
  9
$SHADEDGE
 70
     3
  9
$SHADEDIF
 70
    70
  9
$TILEMODE
 70
     1
  9
$MAXACTVP
 70
    64
  9
$PINSBASE
 10
0.0
 20
0.0
 30
0.0
  9
$PLIMCHECK
 70
     0
  9
$PEXTMIN
 10
1.000000000000000E+20
 20
1.000000000000000E+20
 30
1.000000000000000E+20
  9
$PEXTMAX
 10
-1.000000000000000E+20
 20
-1.000000000000000E+20
 30
-1.000000000000000E+20
  9
$PLIMMIN
 10
0.0
 20
0.0
  9
$PLIMMAX
 10
12.0
 20
9.0
  9
$UNITMODE
 70
     0
  9
$VISRETAIN
 70
     1
  9
$PLINEGEN
 70
     0
  9
$PSLTSCALE
 70
     1
  9
$TREEDEPTH
 70
  3020
  9
$CMLSTYLE
  2
Standard
  9
$CMLJUST
 70
     0
  9
$CMLSCALE
 40
1.0
  9
$PROXYGRAPHICS
 70
     1
  9
$MEASUREMENT
 70
     0
  9
$CELWEIGHT
370
    -1
  9
$ENDCAPS
280
     0
  9
$JOINSTYLE
280
     0
  9
$LWDISPLAY
290
     0
  9
$INSUNITS
 70
     0
  9
$HYPERLINKBASE
  1

  9
$STYLESHEET
  1

  9
$XEDIT
290
     1
  9
$CEPSNTYPE
380
     0
  9
$PSTYLEMODE
290
     0
  9
$FINGERPRINTGUID
  2
{FAEB1C30-E019-11D5-929B-00C0DF256EC4}
  9
$VERSIONGUID
  2
{FAEB1C32-E019-11D5-929B-00C0DF256EC4}
  9
$EXTNAMES
290
     1
  9
$PSVPSCALE
 40
0.0
  9
$OLESTARTUP
290
     0
  0
ENDSEC
  0
SECTION
  2
CLASSES
  0
CLASS
  1
ACDBDICTIONARYWDFLT
  2
AcDbDictionaryWithDefault
  3
ObjectDBX Classes
 90
        0
280
     0
281
     0
  0
CLASS
  1
TABLESTYLE
  2
AcDbTableStyle
  3
ObjectDBX Classes
 90
     2047
280
     0
281
     0
  0
CLASS
  1
DICTIONARYVAR
  2
AcDbDictionaryVar
  3
ObjectDBX Classes
 90
        0
280
     0
281
     0
  0
CLASS
  1
ACDBPLACEHOLDER
  2
AcDbPlaceHolder
  3
ObjectDBX Classes
 90
        0
280
     0
281
     0
  0
CLASS
  1
LAYOUT
  2
AcDbLayout
  3
ObjectDBX Classes
 90
        0
280
     0
281
     0
  0
ENDSEC
  0
SECTION
  2
TABLES
  0
TABLE
  2
VPORT
  5
8
330
0
100
AcDbSymbolTable
 70
     1
  0
VPORT
  5
79
330
8
100
AcDbSymbolTableRecord
100
AcDbViewportTableRecord
  2
*Active
 70
     0
 10
0.0
 20
0.0
 11
1.0
 21
1.0
 12
10.42990654205607
 22
4.5
 13
0.0
 23
0.0
 14
0.5
 24
0.5
 15
0.5
 25
0.5
 16
0.0
 26
0.0
 36
1.0
 17
0.0
 27
0.0
 37
0.0
 40
9.0
 41
1.972972972850329
 42
50.0
 43
0.0
 44
0.0
 50
0.0
 51
0.0
 71
     0
 72
   100
 73
     1
 74
     3
 75
     0
 76
     0
 77
     0
 78
     0
281
     0
 65
     1
110
0.0
120
0.0
130
0.0
111
1.0
121
0.0
131
0.0
112
0.0
122
1.0
132
0.0
 79
     0
146
0.0
  0
ENDTAB
  0
TABLE
  2
LTYPE
  5
5
330
0
100
AcDbSymbolTable
 70
     9
  0
LTYPE
  5
10
330
5
100
AcDbSymbolTableRecord
100
AcDbLinetypeTableRecord
  2
ByBlock
 70
     0
  3

 72
    65
 73
     0
 40
0.0
  0
LTYPE
  5
11
330
5
100
AcDbSymbolTableRecord
100
AcDbLinetypeTableRecord
  2
ByLayer
 70
     0
  3

 72
    65
 73
     0
 40
0.0
  0
LTYPE
  5
1B
330
5
100
AcDbSymbolTableRecord
100
AcDbLinetypeTableRecord
  2
CONTINUOUS
 70
     0
  3
Solid line
 72
    65
 73
     0
 40
0.0
  0
LTYPE
  5
1C
330
5
100
AcDbSymbolTableRecord
100
AcDbLinetypeTableRecord
  2
HIDDEN
 70
     0
  3
_ _ _ _ _ _ _ _ _ _ _ _ _ _ _ _ _ _ _ _ 
 72
    65
 73
     2
 40
0.375
 49
0.25
 74
     0
 49
-0.125
 74
     0
  0
LTYPE
  5
1D
330
5
100
AcDbSymbolTableRecord
100
AcDbLinetypeTableRecord
  2
DASHED
 70
     0
  3
__ __ __ __ __ __ __ __ __ __ __ __ __  
 72
    65
 73
     2
 40
0.75
 49
0.5
 74
     0
 49
-0.25
 74
     0
  0
LTYPE
  5
1E
330
5
100
AcDbSymbolTableRecord
100
AcDbLinetypeTableRecord
  2
CENTER
 70
     0
  3
____ _ ____ _ ____ _ ____ _ ____ _ ____ 
 72
    65
 73
     4
 40
2.0
 49
1.25
 74
     0
 49
-0.25
 74
     0
 49
0.25
 74
     0
 49
-0.25
 74
     0
  0
LTYPE
  5
1F
330
5
100
AcDbSymbolTableRecord
100
AcDbLinetypeTableRecord
  2
PHANTOM
 70
     0
  3
_____ _ _ _____ _ _ _____ _ _ _____ _ _ 
 72
    65
 73
     6
 40
2.5
 49
1.25
 74
     0
 49
-0.25
 74
     0
 49
0.25
 74
     0
 49
-0.25
 74
     0
 49
0.25
 74
     0
 49
-0.25
 74
     0
  0
LTYPE
  5
20
330
5
100
AcDbSymbolTableRecord
100
AcDbLinetypeTableRecord
  2
DOT
 70
     0
  3
........................................
 72
    65
 73
     2
 40
0.25
 49
0.0
 74
     0
 49
-0.25
 74
     0
  0
LTYPE
  5
21
330
5
100
AcDbSymbolTableRecord
100
AcDbLinetypeTableRecord
  2
DASHDOT
 70
     0
  3
__ . __ . __ . __ . __ . __ . __ . __ . 
 72
    65
 73
     4
 40
1.0
 49
0.5
 74
     0
 49
-0.25
 74
     0
 49
0.0
 74
     0
 49
-0.25
 74
     0
  0
LTYPE
  5
22
330
5
100
AcDbSymbolTableRecord
100
AcDbLinetypeTableRecord
  2
BORDER
 70
     0
  3
__ __ . __ __ . __ __ . __ __ . __ __ . 
 72
    65
 73
     6
 40
1.75
 49
0.5
 74
     0
 49
-0.25
 74
     0
 49
0.5
 74
     0
 49
-0.25
 74
     0
 49
0.0
 74
     0
 49
-0.25
 74
     0
  0
LTYPE
  5
23
330
5
100
AcDbSymbolTableRecord
100
AcDbLinetypeTableRecord
  2
DIVIDE
 70
     0
  3
__ . . __ . . __ . . __ . . __ . . __ . 
 72
    65
 73
     6
 40
1.25
 49
0.5
 74
     0
 49
-0.25
 74
     0
 49
0.0
 74
     0
 49
-0.25
 74
     0
 49
0.0
 74
     0
 49
-0.25
 74
     0
  0
ENDTAB
  0
TABLE
  2
LAYER
  5
2
330
0
100
AcDbSymbolTable
 70
     4
  0
LAYER
  5
24
330
2
100
AcDbSymbolTableRecord
100
AcDbLayerTableRecord
  2
0
 70
     0
 62
     7
  6
CONTINUOUS
370
    -3
390
F
  0
LAYER
  5
25
330
2
100
AcDbSymbolTableRecord
100
AcDbLayerTableRecord
  2
0010010007
 70
     0
 62
     7
  6
CONTINUOUS
370
    -3
390
F
  0
LAYER
  5
26
330
2
100
AcDbSymbolTableRecord
100
AcDbLayerTableRecord
  2
0020010004
 70
     0
 62
     4
  6
CONTINUOUS
370
    -3
390
F
  0
LAYER
  5
27
330
2
100
AcDbSymbolTableRecord
100
AcDbLayerTableRecord
  2
0030010002
 70
     0
 62
     2
  6
CONTINUOUS
370
    -3
390
F
  0
ENDTAB
  0
TABLE
  2
STYLE
  5
3
330
0
100
AcDbSymbolTable
 70
     1
  0
STYLE
  5
28
330
3
100
AcDbSymbolTableRecord
100
AcDbTextStyleTableRecord
  2
STANDARD
 70
     0
 40
0.0
 41
1.0
 50
0.0
 71
     0
 42
0.2
  3
txt
  4

  0
ENDTAB
  0
TABLE
  2
VIEW
  5
6
330
0
100
AcDbSymbolTable
 70
     1
  0
VIEW
  5
29
330
6
100
AcDbSymbolTableRecord
100
AcDbViewTableRecord
  2
1
 70
     0
 40
20600.0
 10
29641.0
 20
34500.0
 41
1.0
 11
0.0
 21
0.0
 31
1.0
 12
0.0
 22
0.0
 32
0.0
 42
50.0
 43
0.0
 44
0.0
 50
0.0
 71
     0
281
     0
 72
     0
  0
ENDTAB
  0
TABLE
  2
UCS
  5
7
330
0
100
AcDbSymbolTable
 70
     0
  0
ENDTAB
  0
TABLE
  2
APPID
  5
9
330
0
100
AcDbSymbolTable
 70
     1
  0
APPID
  5
2A
330
9
100
AcDbSymbolTableRecord
100
AcDbRegAppTableRecord
  2
ACAD
 70
     0
  0
ENDTAB
  0
TABLE
  2
DIMSTYLE
  5
A
330
0
100
AcDbSymbolTable
 70
     1
100
AcDbDimStyleTable
  0
DIMSTYLE
105
2B
330
A
100
AcDbSymbolTableRecord
100
AcDbDimStyleTableRecord
  2
Standard
 70
     0
340
28
  0
ENDTAB
  0
TABLE
  2
BLOCK_RECORD
  5
1
330
0
100
AcDbSymbolTable
 70
     0
  0
BLOCK_RECORD
  5
18
330
1
100
AcDbSymbolTableRecord
100
AcDbBlockTableRecord
  2
*Model_Space
340
19
  0
BLOCK_RECORD
  5
16
330
1
100
AcDbSymbolTableRecord
100
AcDbBlockTableRecord
  2
*Paper_Space
340
17
  0
ENDTAB
  0
ENDSEC
  0
SECTION
  2
BLOCKS
  0
BLOCK
  5
7E
330
18
100
AcDbEntity
  8
0
100
AcDbBlockBegin
  2
*Model_Space
 70
     0
 71
     0
 10
0.0
 20
0.0
 30
0.0
  3
*Model_Space
  1

  0
ENDBLK
  5
7F
330
18
100
AcDbEntity
  8
0
100
AcDbBlockEnd
  0
BLOCK
  5
80
330
16
100
AcDbEntity
 67
     1
  8
0
100
AcDbBlockBegin
  2
*Paper_Space
 70
     0
 71
     0
 10
0.0
 20
0.0
 30
0.0
  3
*Paper_Space
  1

  0
ENDBLK
  5
81
330
16
100
AcDbEntity
 67
     1
  8
0
100
AcDbBlockEnd
  0
ENDSEC
  0
SECTION
  2
ENTITIES
  0
LINE
  5
2C
330
18
100
AcDbEntity
  8
0010010007
100
AcDbLine
 10
-219.999997455569
 20
655.416093695354
 30
0.0
 11
220.000002544476
 21
655.416093695354
 31
0.0
  0
ARC
  5
2D
330
18
100
AcDbEntity
  8
0010010007
100
AcDbCircle
 10
-216.999997455569
 20
657.416093695354
 30
0.0
 40
2.00000000000001
100
AcDbArc
 50
270.0
 51
299.999999999999
  0
LINE
  5
2E
330
18
100
AcDbEntity
  8
0010010007
100
AcDbLine
 10
-215.999997455547
 20
655.684042887782
 30
0.0
 11
-211.005253337828
 21
658.5677597486811
 31
0.0
  0
ARC
  5
2F
330
18
100
AcDbEntity
  8
0010010007
100
AcDbCircle
 10
-209.705253337816
 20
656.316093698841
 30
0.0
 40
2.60000000000001
100
AcDbArc
 50
90.000003505614
 51
120.000000000004
  0
LINE
  5
30
330
18
100
AcDbEntity
  8
0010010007
100
AcDbLine
 10
0.0000050888993428
 20
658.916106592946
 30
0.0
 11
-209.705253778391
 21
658.916093762221
 31
0.0
  0
ARC
  5
31
330
18
100
AcDbEntity
  8
0010010007
100
AcDbCircle
 10
-42.1066222447189
 20
-40.5611857573422
 30
0.0
 40
170.000000000001
100
AcDbArc
 50
111.675926307631
 51
146.761584480208
  0
ARC
  5
32
330
18
100
AcDbEntity
  8
0010010007
100
AcDbCircle
 10
0.0
 20
-146.499999999996
 30
0.0
 40
284.000000000001
100
AcDbArc
 50
68.3240736923688
 51
111.675926307631
  0
ARC
  5
33
330
18
100
AcDbEntity
  8
0010010007
100
AcDbCircle
 10
42.1066222447407
 20
-40.5611857573422
 30
0.0
 40
170.000000000001
100
AcDbArc
 50
33.2384155197918
 51
68.3240736923689
  0
ARC
  5
34
330
18
100
AcDbEntity
  8
0010010007
100
AcDbCircle
 10
-103.999999999978
 20
0.0
 30
0.0
 40
96.0000000000025
100
AcDbArc
 50
146.761584480208
 51
213.238415519792
  0
ARC
  5
35
330
18
100
AcDbEntity
  8
0010010007
100
AcDbCircle
 10
-42.1066222447189
 20
40.5611857573385
 30
0.0
 40
170.000000000001
100
AcDbArc
 50
213.238415519792
 51
248.324073692369
  0
ARC
  5
36
330
18
100
AcDbEntity
  8
0010010007
100
AcDbCircle
 10
0.0
 20
146.500000000004
 30
0.0
 40
284.000000000001
100
AcDbArc
 50
248.324073692369
 51
291.675926307631
  0
ARC
  5
37
330
18
100
AcDbEntity
  8
0010010007
100
AcDbCircle
 10
104.000000000015
 20
0.0
 30
0.0
 40
96.0000000000025
100
AcDbArc
 50
326.761584480208
 51
33.2384155197917
  0
ARC
  5
38
330
18
100
AcDbEntity
  8
0010010007
100
AcDbCircle
 10
42.1066222447407
 20
40.5611857573385
 30
0.0
 40
170.000000000001
100
AcDbArc
 50
291.675926307631
 51
326.761584480208
  0
ARC
  5
39
330
18
100
AcDbEntity
  8
0010010007
100
AcDbCircle
 10
-40.2538005254391
 20
708.967197065072
 30
0.0
 40
170.700000000001
100
AcDbArc
 50
211.742791402818
 51
250.738582811384
  0
ARC
  5
3A
330
18
100
AcDbEntity
  8
0010010007
100
AcDbCircle
 10
-13.8634993249943
 20
784.489061465718
 30
0.0
 40
250.700000000001
100
AcDbArc
 50
250.738582811384
 51
266.828953480407
  0
ARC
  5
3B
330
18
100
AcDbEntity
  8
0010010007
100
AcDbCircle
 10
-27.7591177323266
 20
533.6736875567821
 30
0.0
 40
0.500000000000029
100
AcDbArc
 50
29.000087225051
 51
86.8289322484914
  0
LINE
  5
3C
330
18
100
AcDbEntity
  8
0010010007
100
AcDbLine
 10
-27.3218075097247
 20
533.9160917011631
 30
0.0
 11
-25.5040920551328
 21
530.6368462155861
 31
0.0
  0
LINE
  5
3D
330
18
100
AcDbEntity
  8
0010010007
100
AcDbLine
 10
-16.3364634786994
 20
528.180387542023
 30
0.0
 11
-25.5040920551328
 21
530.6368462155861
 31
0.0
  0
ARC
  5
3E
330
18
100
AcDbEntity
  8
0010010007
100
AcDbCircle
 10
-15.9999974555467
 20
529.4360907773749
 30
0.0
 40
1.30000000000121
100
AcDbArc
 50
254.999942303216
 51
270.0
  0
ARC
  5
3F
330
18
100
AcDbEntity
  8
0010010007
100
AcDbCircle
 10
217.000002544446
 20
657.416093695354
 30
0.0
 40
2.00000000000001
100
AcDbArc
 50
240.000000000001
 51
270.0
  0
LINE
  5
40
330
18
100
AcDbEntity
  8
0010010007
100
AcDbLine
 10
216.000002544482
 20
655.684042887782
 30
0.0
 11
211.005258426763
 21
658.5677597486811
 31
0.0
  0
ARC
  5
41
330
18
100
AcDbEntity
  8
0010010007
100
AcDbCircle
 10
209.705258426729
 20
656.316093698841
 30
0.0
 40
2.60000000000001
100
AcDbArc
 50
59.99999999999621
 51
89.999996494386
  0
LINE
  5
42
330
18
100
AcDbEntity
  8
0010010007
100
AcDbLine
 10
0.0
 20
658.916106592946
 30
0.0
 11
209.705258604382
 21
658.916093762221
 31
0.0
  0
LINE
  5
43
330
18
100
AcDbEntity
  8
0010010007
100
AcDbLine
 10
220.000002544475
 20
654.716093695353
 30
0.0
 11
-219.999997455568
 21
654.71609369532
 31
0.0
  0
ARC
  5
44
330
18
100
AcDbEntity
  8
0010010007
100
AcDbCircle
 10
40.2538056143749
 20
708.967197065072
 30
0.0
 40
170.700000000001
100
AcDbArc
 50
289.261417188616
 51
328.257208597182
  0
ARC
  5
45
330
18
100
AcDbEntity
  8
0010010007
100
AcDbCircle
 10
13.8635044138937
 20
784.489061465718
 30
0.0
 40
250.700000000001
100
AcDbArc
 50
273.171046519593
 51
289.261417188616
  0
ARC
  5
46
330
18
100
AcDbEntity
  8
0010010007
100
AcDbCircle
 10
27.7591228212259
 20
533.6736875567821
 30
0.0
 40
0.500000000000029
100
AcDbArc
 50
93.1710677515086
 51
150.999912774949
  0
LINE
  5
47
330
18
100
AcDbEntity
  8
0010010007
100
AcDbLine
 10
27.321812598675
 20
533.9160917011631
 30
0.0
 11
25.5040971440958
 21
530.636846215608
 31
0.0
  0
LINE
  5
48
330
18
100
AcDbEntity
  8
0010010007
100
AcDbLine
 10
16.336468567577
 20
528.180387542023
 30
0.0
 11
25.5040971440958
 21
530.636846215608
 31
0.0
  0
ARC
  5
49
330
18
100
AcDbEntity
  8
0010010007
100
AcDbCircle
 10
16.0000025444824
 20
529.4360907773749
 30
0.0
 40
1.30000000000121
100
AcDbArc
 50
270.0
 51
285.000057696784
  0
LINE
  5
4A
330
18
100
AcDbEntity
  8
0010010007
100
AcDbLine
 10
-219.999997455525
 20
654.716093695353
 30
0.0
 11
-219.999997455525
 21
655.416093695353
 31
0.0
  0
LINE
  5
4B
330
18
100
AcDbEntity
  8
0010010007
100
AcDbLine
 10
220.000002544475
 20
654.716093695353
 30
0.0
 11
220.000002544475
 21
655.416093695353
 31
0.0
  0
CIRCLE
  5
4C
330
18
100
AcDbEntity
  8
0010010007
100
AcDbCircle
 10
0.0
 20
0.0
 30
0.0
 40
16.0000000000001
  0
CIRCLE
  5
4D
330
18
100
AcDbEntity
  8
0020010004
100
AcDbCircle
 10
0.0
 20
0.0
 30
0.0
 40
27.0000000000001
  0
ARC
  5
4E
330
18
100
AcDbEntity
  8
0010010007
100
AcDbCircle
 10
0.0
 20
-146.499999999996
 30
0.0
 40
304.000000000002
100
AcDbArc
 50
68.3240736923688
 51
111.675926307631
  0
ARC
  5
4F
330
18
100
AcDbEntity
  8
0010010007
100
AcDbCircle
 10
-42.1066222447189
 20
-40.5611857573422
 30
0.0
 40
190.000000000001
100
AcDbArc
 50
111.675926307631
 51
146.761590927352
  0
ARC
  5
50
330
18
100
AcDbEntity
  8
0010010007
100
AcDbCircle
 10
-103.999999999978
 20
0.0
 30
0.0
 40
116.000000000003
100
AcDbArc
 50
146.761595117766
 51
213.238403407717
  0
ARC
  5
51
330
18
100
AcDbEntity
  8
0010010007
100
AcDbCircle
 10
-42.1066222447189
 20
40.5611857573385
 30
0.0
 40
190.000000000001
100
AcDbArc
 50
213.238408160763
 51
248.324073692369
  0
ARC
  5
52
330
18
100
AcDbEntity
  8
0010010007
100
AcDbCircle
 10
0.0
 20
146.500000000004
 30
0.0
 40
304.000000000002
100
AcDbArc
 50
248.324073692369
 51
291.675926307631
  0
ARC
  5
53
330
18
100
AcDbEntity
  8
0010010007
100
AcDbCircle
 10
42.1066222447407
 20
40.5611857573385
 30
0.0
 40
190.000000000001
100
AcDbArc
 50
291.675926307631
 51
326.761584480208
  0
ARC
  5
54
330
18
100
AcDbEntity
  8
0010010007
100
AcDbCircle
 10
104.000000000015
 20
0.0
 30
0.0
 40
116.000000000001
100
AcDbArc
 50
326.761584480208
 51
33.2384228289661
  0
ARC
  5
55
330
18
100
AcDbEntity
  8
0010010007
100
AcDbCircle
 10
42.1066222447407
 20
-40.5611857573422
 30
0.0
 40
190.0
100
AcDbArc
 50
33.2384200046339
 51
68.3240736923687
  0
LINE
  5
56
330
18
100
AcDbEntity
  8
0010010007
100
AcDbLine
 10
-16.3364634786994
 20
528.180387542023
 30
0.0
 11
16.336468567577
 21
528.180387542023
 31
0.0
  0
LINE
  5
57
330
18
100
AcDbEntity
  8
0010010007
100
AcDbLine
 10
25.5040971440958
 20
530.636846215608
 30
0.0
 11
-25.5040920551328
 21
530.6368462155861
 31
0.0
  0
LINE
  5
58
330
18
100
AcDbEntity
  8
0010010007
100
AcDbLine
 10
-27.3218075097247
 20
533.9160917011631
 30
0.0
 11
27.321812598675
 21
533.9160917011631
 31
0.0
  0
LINE
  5
59
330
18
100
AcDbEntity
  8
0030010002
100
AcDbLine
 10
-199.99999999998
 20
1.0
 30
0.0
 11
-199.99999999998
 21
258.500000000005
 31
0.0
  0
LINE
  5
5A
330
18
100
AcDbEntity
  8
0030010002
100
AcDbLine
 10
200.000000000016
 20
1.0
 30
0.0
 11
200.000000000016
 21
258.500000000005
 31
0.0
  0
SOLID
  5
5B
330
18
100
AcDbEntity
  8
0030010002
100
AcDbTrace
 10
-180.474079857581
 20
253.171207721243
 30
0.0
 11
-180.474079857581
 21
261.828792278768
 31
0.0
 12
-199.99999999998
 22
257.500000000005
 32
0.0
 13
-199.99999999998
 23
257.500000000005
 33
0.0
  0
SOLID
  5
5C
330
18
100
AcDbEntity
  8
0030010002
100
AcDbTrace
 10
180.474079857618
 20
261.828792278768
 30
0.0
 11
180.474079857618
 21
253.171207721243
 31
0.0
 12
200.000000000016
 22
257.500000000005
 32
0.0
 13
200.000000000016
 23
257.500000000005
 33
0.0
  0
LINE
  5
5D
330
18
100
AcDbEntity
  8
0030010002
100
AcDbLine
 10
-199.99999999998
 20
257.500000000005
 30
0.0
 11
200.000000000016
 21
257.500000000005
 31
0.0
  0
TEXT
  5
5E
330
18
100
AcDbEntity
  8
0030010002
100
AcDbText
 10
-29.9999994073296
 20
272.50000095368
 30
0.0
 40
30.0000019073486
  1
400
 41
0.75
100
AcDbText
  0
LINE
  5
5F
330
18
100
AcDbEntity
  8
0030010002
100
AcDbLine
 10
220.000000000016
 20
1.0
 30
0.0
 11
220.000000000016
 21
358.500000000005
 31
0.0
  0
LINE
  5
60
330
18
100
AcDbEntity
  8
0030010002
100
AcDbLine
 10
-219.999999999982
 20
1.0
 30
0.0
 11
-219.999999999982
 21
358.500000000005
 31
0.0
  0
SOLID
  5
61
330
18
100
AcDbEntity
  8
0030010002
100
AcDbTrace
 10
200.474079857618
 20
361.828792278768
 30
0.0
 11
200.474079857618
 21
353.171207721243
 31
0.0
 12
220.000000000016
 22
357.500000000005
 32
0.0
 13
220.000000000016
 23
357.500000000005
 33
0.0
  0
SOLID
  5
62
330
18
100
AcDbEntity
  8
0030010002
100
AcDbTrace
 10
-200.474079857583
 20
353.171207721243
 30
0.0
 11
-200.474079857583
 21
361.828792278768
 31
0.0
 12
-219.999999999982
 22
357.500000000005
 32
0.0
 13
-219.999999999982
 23
357.500000000005
 33
0.0
  0
LINE
  5
63
330
18
100
AcDbEntity
  8
0030010002
100
AcDbLine
 10
220.000000000016
 20
357.500000000005
 30
0.0
 11
-219.999999999982
 21
357.500000000005
 31
0.0
  0
TEXT
  5
64
330
18
100
AcDbEntity
  8
0030010002
100
AcDbText
 10
-30.0000044073313
 20
372.50000095368
 30
0.0
 40
30.0000019073486
  1
440
 41
0.75
100
AcDbText
  0
LINE
  5
65
330
18
100
AcDbEntity
  8
0030010002
100
AcDbLine
 10
1.0
 20
137.500000000005
 30
0.0
 11
321.000000000016
 21
137.500000000005
 31
0.0
  0
LINE
  5
66
330
18
100
AcDbEntity
  8
0030010002
100
AcDbLine
 10
1.0
 20
-137.499999999998
 30
0.0
 11
321.000000000016
 21
-137.499999999998
 31
0.0
  0
SOLID
  5
67
330
18
100
AcDbEntity
  8
0030010002
100
AcDbTrace
 10
315.671207721254
 20
117.974079857607
 30
0.0
 11
324.328792278778
 21
117.974079857607
 31
0.0
 12
320.000000000016
 22
137.500000000005
 32
0.0
 13
320.000000000016
 23
137.500000000005
 33
0.0
  0
SOLID
  5
68
330
18
100
AcDbEntity
  8
0030010002
100
AcDbTrace
 10
324.328792278778
 20
-117.9740798576
 30
0.0
 11
315.671207721254
 21
-117.9740798576
 31
0.0
 12
320.000000000016
 22
-137.499999999998
 32
0.0
 13
320.000000000016
 23
-137.499999999998
 33
0.0
  0
LINE
  5
69
330
18
100
AcDbEntity
  8
0030010002
100
AcDbLine
 10
320.000000000016
 20
137.500000000005
 30
0.0
 11
320.000000000016
 21
-137.499999999998
 31
0.0
  0
TEXT
  5
6A
330
18
100
AcDbEntity
  8
0030010002
100
AcDbText
 10
304.999999046342
 20
-30.0000044073458
 30
0.0
 40
30.0000019073486
  1
275
 50
90.0
 41
0.75
100
AcDbText
  0
LINE
  5
6B
330
18
100
AcDbEntity
  8
0030010002
100
AcDbLine
 10
1.0
 20
157.500000000005
 30
0.0
 11
421.000000000016
 21
157.500000000005
 31
0.0
  0
LINE
  5
6C
330
18
100
AcDbEntity
  8
0030010002
100
AcDbLine
 10
1.0
 20
-157.499999999998
 30
0.0
 11
421.000000000016
 21
-157.499999999998
 31
0.0
  0
SOLID
  5
6D
330
18
100
AcDbEntity
  8
0030010002
100
AcDbTrace
 10
415.671207721254
 20
137.974079857607
 30
0.0
 11
424.328792278778
 21
137.974079857607
 31
0.0
 12
420.000000000016
 22
157.500000000005
 32
0.0
 13
420.000000000016
 23
157.500000000005
 33
0.0
  0
SOLID
  5
6E
330
18
100
AcDbEntity
  8
0030010002
100
AcDbTrace
 10
424.328792278778
 20
-137.9740798576
 30
0.0
 11
415.671207721254
 21
-137.9740798576
 31
0.0
 12
420.000000000016
 22
-157.499999999998
 32
0.0
 13
420.000000000016
 23
-157.499999999998
 33
0.0
  0
LINE
  5
6F
330
18
100
AcDbEntity
  8
0030010002
100
AcDbLine
 10
420.000000000016
 20
157.500000000005
 30
0.0
 11
420.000000000016
 21
-157.499999999998
 31
0.0
  0
TEXT
  5
70
330
18
100
AcDbEntity
  8
0030010002
100
AcDbText
 10
404.999999046342
 20
-30.0000044073458
 30
0.0
 40
30.0000019073486
  1
315
 50
90.0
 41
0.75
100
AcDbText
  0
ARC
  5
71
330
18
100
AcDbEntity
  8
0010010007
100
AcDbCircle
 10
82.77472677513291
 20
682.661850391041
 30
0.0
 40
120.7
100
AcDbArc
 50
328.257208597182
 51
346.612792196655
  0
ARC
  5
72
330
18
100
AcDbEntity
  8
0010010007
100
AcDbCircle
 10
-82.7747216861972
 20
682.661850391041
 30
0.0
 40
120.7
100
AcDbArc
 50
193.38720780336
 51
211.742791402818
  0
LINE
  5
73
330
18
100
AcDbEntity
  8
0030010002
100
AcDbLine
 10
210.705258604381
 20
658.91609376222
 30
0.0
 11
321.000000000016
 21
658.91609376222
 31
0.0
  0
LINE
  5
74
330
18
100
AcDbEntity
  8
0030010002
100
AcDbLine
 10
28.321812598675
 20
533.9160917011631
 30
0.0
 11
321.000000000016
 21
533.9160917011631
 31
0.0
  0
SOLID
  5
75
330
18
100
AcDbEntity
  8
0030010002
100
AcDbTrace
 10
315.671207721254
 20
639.390173619821
 30
0.0
 11
324.328792278778
 21
639.390173619821
 31
0.0
 12
320.000000000016
 22
658.91609376222
 32
0.0
 13
320.000000000016
 23
658.91609376222
 33
0.0
  0
SOLID
  5
76
330
18
100
AcDbEntity
  8
0030010002
100
AcDbTrace
 10
324.328792278778
 20
553.442011843562
 30
0.0
 11
315.671207721254
 21
553.442011843562
 31
0.0
 12
320.000000000016
 22
533.9160917011631
 32
0.0
 13
320.000000000016
 23
533.9160917011631
 33
0.0
  0
LINE
  5
77
330
18
100
AcDbEntity
  8
0030010002
100
AcDbLine
 10
320.000000000016
 20
658.91609376222
 30
0.0
 11
320.000000000016
 21
533.9160917011631
 31
0.0
  0
TEXT
  5
78
330
18
100
AcDbEntity
  8
0030010002
100
AcDbText
 10
304.999999046342
 20
566.416088324342
 30
0.0
 40
30.0000019073486
  1
125
 50
90.0
 41
0.75
100
AcDbText
  0
ENDSEC
  0
SECTION
  2
OBJECTS
  0
DICTIONARY
  5
C
330
0
100
AcDbDictionary
281
     1
  3
ACAD_GROUP
350
D
  3
ACAD_LAYOUT
350
15
  3
ACAD_MLINESTYLE
350
12
  3
ACAD_PLOTSETTINGS
350
14
  3
ACAD_PLOTSTYLENAME
350
E
  3
ACAD_TABLESTYLE
350
7A
  3
AcDbVariableDictionary
350
7C
  0
DICTIONARY
  5
D
102
{ACAD_REACTORS
330
C
102
}
330
C
100
AcDbDictionary
281
     1
  0
DICTIONARY
  5
15
102
{ACAD_REACTORS
330
C
102
}
330
C
100
AcDbDictionary
281
     1
  3
Layout1
350
17
  3
Model
350
19
  0
DICTIONARY
  5
12
102
{ACAD_REACTORS
330
C
102
}
330
C
100
AcDbDictionary
281
     1
  3
Standard
350
13
  0
DICTIONARY
  5
14
102
{ACAD_REACTORS
330
C
102
}
330
C
100
AcDbDictionary
281
     1
  0
ACDBDICTIONARYWDFLT
  5
E
102
{ACAD_REACTORS
330
C
102
}
330
C
100
AcDbDictionary
281
     1
  3
Normal
350
F
100
AcDbDictionaryWithDefault
340
F
  0
DICTIONARY
  5
7A
102
{ACAD_REACTORS
330
C
102
}
330
C
100
AcDbDictionary
281
     1
  3
Standard
350
7B
  0
DICTIONARY
  5
7C
102
{ACAD_REACTORS
330
C
102
}
330
C
100
AcDbDictionary
281
     1
  3
CTABLESTYLE
350
7D
  0
LAYOUT
  5
17
102
{ACAD_REACTORS
330
15
102
}
330
15
100
AcDbPlotSettings
  1

  2

  4

  6

 40
0.0
 41
0.0
 42
0.0
 43
0.0
 44
0.0
 45
0.0
 46
0.0
 47
0.0
 48
0.0
 49
0.0
140
0.0
141
0.0
142
1.0
143
1.0
 70
   688
 72
     0
 73
     0
 74
     5
  7

 75
    16
147
1.0
148
0.0
149
0.0
100
AcDbLayout
  1
Layout1
 70
     1
 71
     1
 10
0.0
 20
0.0
 11
12.0
 21
9.0
 12
0.0
 22
0.0
 32
0.0
 14
1.000000000000000E+20
 24
1.000000000000000E+20
 34
1.000000000000000E+20
 15
-1.000000000000000E+20
 25
-1.000000000000000E+20
 35
-1.000000000000000E+20
146
0.0
 13
0.0
 23
0.0
 33
0.0
 16
1.0
 26
0.0
 36
0.0
 17
0.0
 27
1.0
 37
0.0
 76
     0
330
16
  0
LAYOUT
  5
19
102
{ACAD_REACTORS
330
15
102
}
330
15
100
AcDbPlotSettings
  1

  2

  4

  6

 40
0.0
 41
0.0
 42
0.0
 43
0.0
 44
0.0
 45
0.0
 46
0.0
 47
0.0
 48
0.0
 49
0.0
140
0.0
141
0.0
142
1.0
143
1.0
 70
  1712
 72
     0
 73
     0
 74
     0
  7

 75
     0
147
1.0
148
0.0
149
0.0
100
AcDbLayout
  1
Model
 70
     1
 71
     0
 10
0.0
 20
0.0
 11
0.0
 21
0.0
 12
0.0
 22
0.0
 32
0.0
 14
-32.05
 24
-32.05
 34
0.0
 15
1258.45
 25
893.05
 35
0.0
146
0.0
 13
0.0
 23
0.0
 33
0.0
 16
1.0
 26
0.0
 36
0.0
 17
0.0
 27
1.0
 37
0.0
 76
     0
330
18
  0
MLINESTYLE
  5
13
102
{ACAD_REACTORS
330
12
102
}
330
12
100
AcDbMlineStyle
  2
Standard
 70
     0
  3

 62
   256
 51
90.0
 52
90.0
 71
     2
 49
0.5
 62
   256
  6
BYLAYER
 49
-0.5
 62
   256
  6
BYLAYER
  0
ACDBPLACEHOLDER
  5
F
102
{ACAD_REACTORS
330
E
102
}
330
E
  0
TABLESTYLE
  5
7B
102
{ACAD_REACTORS
330
7A
102
}
330
7A
100
AcDbTableStyle
  3
Standard
 70
     0
 71
     0
 40
0.06
 41
0.06
280
     0
281
     0
  7
STANDARD
140
0.18
170
     2
 62
     0
 63
     7
283
     0
274
    -2
284
     1
 64
     0
275
    -2
285
     1
 65
     0
276
    -2
286
     1
 66
     0
277
    -2
287
     1
 67
     0
278
    -2
288
     1
 68
     0
279
    -2
289
     1
 69
     0
  7
STANDARD
140
0.25
170
     5
 62
     0
 63
     7
283
     0
274
    -2
284
     1
 64
     0
275
    -2
285
     1
 65
     0
276
    -2
286
     1
 66
     0
277
    -2
287
     1
 67
     0
278
    -2
288
     1
 68
     0
279
    -2
289
     1
 69
     0
  7
STANDARD
140
0.18
170
     5
 62
     0
 63
     7
283
     0
274
    -2
284
     1
 64
     0
275
    -2
285
     1
 65
     0
276
    -2
286
     1
 66
     0
277
    -2
287
     1
 67
     0
278
    -2
288
     1
 68
     0
279
    -2
289
     1
 69
     0
  0
DICTIONARYVAR
  5
7D
102
{ACAD_REACTORS
330
7C
102
}
330
7C
100
DictionaryVariables
280
     0
  1
Standard
  0
ENDSEC
  0
EOF
