  0
SECTION
  2
HEADER
  9
$ACADVER
  1
AC1015
  9
$ACADMAINTVER
 70
     6
  9
$DWGCODEPAGE
  3
UNDEFINED
  9
$INSBASE
 10
0.0
 20
0.0
 30
0.0
  9
$EXTMIN
 10
-32.05
 20
-32.05
 30
0.0
  9
$EXTMAX
 10
1258.45
 20
893.05
 30
0.0
  9
$LIMMIN
 10
-32.05
 20
-32.05
  9
$LIMMAX
 10
1258.45
 20
893.05
  9
$ORTHOMODE
 70
     0
  9
$REGENMODE
 70
     1
  9
$FILLMODE
 70
     1
  9
$QTEXTMODE
 70
     0
  9
$MIRRTEXT
 70
     1
  9
$LTSCALE
 40
1.0
  9
$ATTMODE
 70
     1
  9
$TEXTSIZE
 40
30.0000019073486
  9
$TRACEWID
 40
0.05
  9
$TEXTSTYLE
  7
STANDARD
  9
$CLAYER
  8
0
  9
$CELTYPE
  6
ByBlock
  9
$CECOLOR
 62
   256
  9
$CELTSCALE
 40
1.0
  9
$DISPSILH
 70
     0
  9
$DIMSCALE
 40
1.0
  9
$DIMASZ
 40
1.23621627595969
  9
$DIMEXO
 40
1.0
  9
$DIMDLI
 40
0.38
  9
$DIMRND
 40
0.0
  9
$DIMDLE
 40
0.0
  9
$DIMEXE
 40
1.0
  9
$DIMTP
 40
0.0
  9
$DIMTM
 40
0.0
  9
$DIMTXT
 40
30.0000019073486
  9
$DIMCEN
 40
1.0
  9
$DIMTSZ
 40
0.0
  9
$DIMTOL
 70
     0
  9
$DIMLIM
 70
     0
  9
$DIMTIH
 70
     1
  9
$DIMTOH
 70
     1
  9
$DIMSE1
 70
     0
  9
$DIMSE2
 70
     0
  9
$DIMTAD
 70
     0
  9
$DIMZIN
 70
     0
  9
$DIMBLK
  1

  9
$DIMASO
 70
     1
  9
$DIMSHO
 70
     1
  9
$DIMPOST
  1

  9
$DIMAPOST
  1

  9
$DIMALT
 70
     0
  9
$DIMALTD
 70
     2
  9
$DIMALTF
 40
25.4
  9
$DIMLFAC
 40
1.0
  9
$DIMTOFL
 70
     0
  9
$DIMTVP
 40
0.0
  9
$DIMTIX
 70
     0
  9
$DIMSOXD
 70
     0
  9
$DIMSAH
 70
     0
  9
$DIMBLK1
  1

  9
$DIMBLK2
  1

  9
$DIMSTYLE
  2
Standard
  9
$DIMCLRD
 70
     0
  9
$DIMCLRE
 70
     0
  9
$DIMCLRT
 70
     0
  9
$DIMTFAC
 40
1.0
  9
$DIMGAP
 40
0.09
  9
$DIMJUST
 70
     0
  9
$DIMSD1
 70
     0
  9
$DIMSD2
 70
     0
  9
$DIMTOLJ
 70
     1
  9
$DIMTZIN
 70
     0
  9
$DIMALTZ
 70
     0
  9
$DIMALTTZ
 70
     0
  9
$DIMUPT
 70
     0
  9
$DIMDEC
 70
     4
  9
$DIMTDEC
 70
     4
  9
$DIMALTU
 70
     2
  9
$DIMALTTD
 70
     2
  9
$DIMTXSTY
  7
STANDARD
  9
$DIMAUNIT
 70
     0
  9
$DIMADEC
 70
     0
  9
$DIMALTRND
 40
0.0
  9
$DIMAZIN
 70
     0
  9
$DIMDSEP
 70
    46
  9
$DIMATFIT
 70
     3
  9
$DIMFRAC
 70
     0
  9
$DIMLDRBLK
  1

  9
$DIMLUNIT
 70
     2
  9
$DIMLWD
 70
    -2
  9
$DIMLWE
 70
    -2
  9
$DIMTMOVE
 70
     0
  9
$LUNITS
 70
     2
  9
$LUPREC
 70
     4
  9
$SKETCHINC
 40
0.1
  9
$FILLETRAD
 40
0.0
  9
$AUNITS
 70
     0
  9
$AUPREC
 70
     4
  9
$MENU
  1
acad
  9
$ELEVATION
 40
0.0
  9
$PELEVATION
 40
0.0
  9
$THICKNESS
 40
0.0
  9
$LIMCHECK
 70
     0
  9
$CHAMFERA
 40
0.0
  9
$CHAMFERB
 40
0.0
  9
$CHAMFERC
 40
1.0
  9
$CHAMFERD
 40
0.0
  9
$SKPOLY
 70
     0
  9
$TDCREATE
 40
2455148.441400996
  9
$TDUCREATE
 40
2455148.566400996
  9
$TDUPDATE
 40
2455148.483067674
  9
$TDUUPDATE
 40
2455148.566401007
  9
$TDINDWG
 40
0.0000000116
  9
$TDUSRTIMER
 40
0.0000000116
  9
$USRTIMER
 70
     1
  9
$ANGBASE
 50
0.0
  9
$ANGDIR
 70
     0
  9
$PDMODE
 70
     0
  9
$PDSIZE
 40
0.0
  9
$PLINEWID
 40
0.0
  9
$SPLFRAME
 70
     0
  9
$SPLINETYPE
 70
     6
  9
$SPLINESEGS
 70
     8
  9
$HANDSEED
  5
30D
  9
$SURFTAB1
 70
     6
  9
$SURFTAB2
 70
     6
  9
$SURFTYPE
 70
     6
  9
$SURFU
 70
     6
  9
$SURFV
 70
     6
  9
$UCSBASE
  2

  9
$UCSNAME
  2

  9
$UCSORG
 10
0.0
 20
0.0
 30
0.0
  9
$UCSXDIR
 10
1.0
 20
0.0
 30
0.0
  9
$UCSYDIR
 10
0.0
 20
1.0
 30
0.0
  9
$UCSORTHOREF
  2

  9
$UCSORTHOVIEW
 70
     0
  9
$UCSORGTOP
 10
0.0
 20
0.0
 30
0.0
  9
$UCSORGBOTTOM
 10
0.0
 20
0.0
 30
0.0
  9
$UCSORGLEFT
 10
0.0
 20
0.0
 30
0.0
  9
$UCSORGRIGHT
 10
0.0
 20
0.0
 30
0.0
  9
$UCSORGFRONT
 10
0.0
 20
0.0
 30
0.0
  9
$UCSORGBACK
 10
0.0
 20
0.0
 30
0.0
  9
$PUCSBASE
  2

  9
$PUCSNAME
  2

  9
$PUCSORG
 10
0.0
 20
0.0
 30
0.0
  9
$PUCSXDIR
 10
1.0
 20
0.0
 30
0.0
  9
$PUCSYDIR
 10
0.0
 20
1.0
 30
0.0
  9
$PUCSORTHOREF
  2

  9
$PUCSORTHOVIEW
 70
     0
  9
$PUCSORGTOP
 10
0.0
 20
0.0
 30
0.0
  9
$PUCSORGBOTTOM
 10
0.0
 20
0.0
 30
0.0
  9
$PUCSORGLEFT
 10
0.0
 20
0.0
 30
0.0
  9
$PUCSORGRIGHT
 10
0.0
 20
0.0
 30
0.0
  9
$PUCSORGFRONT
 10
0.0
 20
0.0
 30
0.0
  9
$PUCSORGBACK
 10
0.0
 20
0.0
 30
0.0
  9
$USERI1
 70
     0
  9
$USERI2
 70
     0
  9
$USERI3
 70
     0
  9
$USERI4
 70
     0
  9
$USERI5
 70
     0
  9
$USERR1
 40
0.0
  9
$USERR2
 40
0.0
  9
$USERR3
 40
0.0
  9
$USERR4
 40
0.0
  9
$USERR5
 40
0.0
  9
$WORLDVIEW
 70
     1
  9
$SHADEDGE
 70
     3
  9
$SHADEDIF
 70
    70
  9
$TILEMODE
 70
     1
  9
$MAXACTVP
 70
    64
  9
$PINSBASE
 10
0.0
 20
0.0
 30
0.0
  9
$PLIMCHECK
 70
     0
  9
$PEXTMIN
 10
1.000000000000000E+20
 20
1.000000000000000E+20
 30
1.000000000000000E+20
  9
$PEXTMAX
 10
-1.000000000000000E+20
 20
-1.000000000000000E+20
 30
-1.000000000000000E+20
  9
$PLIMMIN
 10
0.0
 20
0.0
  9
$PLIMMAX
 10
12.0
 20
9.0
  9
$UNITMODE
 70
     0
  9
$VISRETAIN
 70
     1
  9
$PLINEGEN
 70
     0
  9
$PSLTSCALE
 70
     1
  9
$TREEDEPTH
 70
  3020
  9
$CMLSTYLE
  2
Standard
  9
$CMLJUST
 70
     0
  9
$CMLSCALE
 40
1.0
  9
$PROXYGRAPHICS
 70
     1
  9
$MEASUREMENT
 70
     0
  9
$CELWEIGHT
370
    -1
  9
$ENDCAPS
280
     0
  9
$JOINSTYLE
280
     0
  9
$LWDISPLAY
290
     0
  9
$INSUNITS
 70
     0
  9
$HYPERLINKBASE
  1

  9
$STYLESHEET
  1

  9
$XEDIT
290
     1
  9
$CEPSNTYPE
380
     0
  9
$PSTYLEMODE
290
     0
  9
$FINGERPRINTGUID
  2
{FAEB1C30-E019-11D5-929B-00C0DF256EC4}
  9
$VERSIONGUID
  2
{FAEB1C32-E019-11D5-929B-00C0DF256EC4}
  9
$EXTNAMES
290
     1
  9
$PSVPSCALE
 40
0.0
  9
$OLESTARTUP
290
     0
  0
ENDSEC
  0
SECTION
  2
CLASSES
  0
CLASS
  1
ACDBDICTIONARYWDFLT
  2
AcDbDictionaryWithDefault
  3
ObjectDBX Classes
 90
        0
280
     0
281
     0
  0
CLASS
  1
TABLESTYLE
  2
AcDbTableStyle
  3
ObjectDBX Classes
 90
     2047
280
     0
281
     0
  0
CLASS
  1
DICTIONARYVAR
  2
AcDbDictionaryVar
  3
ObjectDBX Classes
 90
        0
280
     0
281
     0
  0
CLASS
  1
ACDBPLACEHOLDER
  2
AcDbPlaceHolder
  3
ObjectDBX Classes
 90
        0
280
     0
281
     0
  0
CLASS
  1
LAYOUT
  2
AcDbLayout
  3
ObjectDBX Classes
 90
        0
280
     0
281
     0
  0
ENDSEC
  0
SECTION
  2
TABLES
  0
TABLE
  2
VPORT
  5
8
330
0
100
AcDbSymbolTable
 70
     1
  0
VPORT
  5
304
330
8
100
AcDbSymbolTableRecord
100
AcDbViewportTableRecord
  2
*Active
 70
     0
 10
0.0
 20
0.0
 11
1.0
 21
1.0
 12
10.42990654205607
 22
4.5
 13
0.0
 23
0.0
 14
0.5
 24
0.5
 15
0.5
 25
0.5
 16
0.0
 26
0.0
 36
1.0
 17
0.0
 27
0.0
 37
0.0
 40
9.0
 41
1.972972972850329
 42
50.0
 43
0.0
 44
0.0
 50
0.0
 51
0.0
 71
     0
 72
   100
 73
     1
 74
     3
 75
     0
 76
     0
 77
     0
 78
     0
281
     0
 65
     1
110
0.0
120
0.0
130
0.0
111
1.0
121
0.0
131
0.0
112
0.0
122
1.0
132
0.0
 79
     0
146
0.0
  0
ENDTAB
  0
TABLE
  2
LTYPE
  5
5
330
0
100
AcDbSymbolTable
 70
     9
  0
LTYPE
  5
10
330
5
100
AcDbSymbolTableRecord
100
AcDbLinetypeTableRecord
  2
ByBlock
 70
     0
  3

 72
    65
 73
     0
 40
0.0
  0
LTYPE
  5
11
330
5
100
AcDbSymbolTableRecord
100
AcDbLinetypeTableRecord
  2
ByLayer
 70
     0
  3

 72
    65
 73
     0
 40
0.0
  0
LTYPE
  5
1B
330
5
100
AcDbSymbolTableRecord
100
AcDbLinetypeTableRecord
  2
CONTINUOUS
 70
     0
  3
Solid line
 72
    65
 73
     0
 40
0.0
  0
LTYPE
  5
1C
330
5
100
AcDbSymbolTableRecord
100
AcDbLinetypeTableRecord
  2
HIDDEN
 70
     0
  3
_ _ _ _ _ _ _ _ _ _ _ _ _ _ _ _ _ _ _ _ 
 72
    65
 73
     2
 40
0.375
 49
0.25
 74
     0
 49
-0.125
 74
     0
  0
LTYPE
  5
1D
330
5
100
AcDbSymbolTableRecord
100
AcDbLinetypeTableRecord
  2
DASHED
 70
     0
  3
__ __ __ __ __ __ __ __ __ __ __ __ __  
 72
    65
 73
     2
 40
0.75
 49
0.5
 74
     0
 49
-0.25
 74
     0
  0
LTYPE
  5
1E
330
5
100
AcDbSymbolTableRecord
100
AcDbLinetypeTableRecord
  2
CENTER
 70
     0
  3
____ _ ____ _ ____ _ ____ _ ____ _ ____ 
 72
    65
 73
     4
 40
2.0
 49
1.25
 74
     0
 49
-0.25
 74
     0
 49
0.25
 74
     0
 49
-0.25
 74
     0
  0
LTYPE
  5
1F
330
5
100
AcDbSymbolTableRecord
100
AcDbLinetypeTableRecord
  2
PHANTOM
 70
     0
  3
_____ _ _ _____ _ _ _____ _ _ _____ _ _ 
 72
    65
 73
     6
 40
2.5
 49
1.25
 74
     0
 49
-0.25
 74
     0
 49
0.25
 74
     0
 49
-0.25
 74
     0
 49
0.25
 74
     0
 49
-0.25
 74
     0
  0
LTYPE
  5
20
330
5
100
AcDbSymbolTableRecord
100
AcDbLinetypeTableRecord
  2
DOT
 70
     0
  3
........................................
 72
    65
 73
     2
 40
0.25
 49
0.0
 74
     0
 49
-0.25
 74
     0
  0
LTYPE
  5
21
330
5
100
AcDbSymbolTableRecord
100
AcDbLinetypeTableRecord
  2
DASHDOT
 70
     0
  3
__ . __ . __ . __ . __ . __ . __ . __ . 
 72
    65
 73
     4
 40
1.0
 49
0.5
 74
     0
 49
-0.25
 74
     0
 49
0.0
 74
     0
 49
-0.25
 74
     0
  0
LTYPE
  5
22
330
5
100
AcDbSymbolTableRecord
100
AcDbLinetypeTableRecord
  2
BORDER
 70
     0
  3
__ __ . __ __ . __ __ . __ __ . __ __ . 
 72
    65
 73
     6
 40
1.75
 49
0.5
 74
     0
 49
-0.25
 74
     0
 49
0.5
 74
     0
 49
-0.25
 74
     0
 49
0.0
 74
     0
 49
-0.25
 74
     0
  0
LTYPE
  5
23
330
5
100
AcDbSymbolTableRecord
100
AcDbLinetypeTableRecord
  2
DIVIDE
 70
     0
  3
__ . . __ . . __ . . __ . . __ . . __ . 
 72
    65
 73
     6
 40
1.25
 49
0.5
 74
     0
 49
-0.25
 74
     0
 49
0.0
 74
     0
 49
-0.25
 74
     0
 49
0.0
 74
     0
 49
-0.25
 74
     0
  0
ENDTAB
  0
TABLE
  2
LAYER
  5
2
330
0
100
AcDbSymbolTable
 70
     4
  0
LAYER
  5
24
330
2
100
AcDbSymbolTableRecord
100
AcDbLayerTableRecord
  2
0
 70
     0
 62
     7
  6
CONTINUOUS
370
    -3
390
F
  0
LAYER
  5
25
330
2
100
AcDbSymbolTableRecord
100
AcDbLayerTableRecord
  2
0020010007
 70
     0
 62
     7
  6
CONTINUOUS
370
    -3
390
F
  0
LAYER
  5
26
330
2
100
AcDbSymbolTableRecord
100
AcDbLayerTableRecord
  2
0030010004
 70
     0
 62
     4
  6
CONTINUOUS
370
    -3
390
F
  0
LAYER
  5
27
330
2
100
AcDbSymbolTableRecord
100
AcDbLayerTableRecord
  2
0040010002
 70
     0
 62
     2
  6
CONTINUOUS
370
    -3
390
F
  0
ENDTAB
  0
TABLE
  2
STYLE
  5
3
330
0
100
AcDbSymbolTable
 70
     1
  0
STYLE
  5
28
330
3
100
AcDbSymbolTableRecord
100
AcDbTextStyleTableRecord
  2
STANDARD
 70
     0
 40
0.0
 41
1.0
 50
0.0
 71
     0
 42
0.2
  3
txt
  4

  0
ENDTAB
  0
TABLE
  2
VIEW
  5
6
330
0
100
AcDbSymbolTable
 70
     1
  0
VIEW
  5
29
330
6
100
AcDbSymbolTableRecord
100
AcDbViewTableRecord
  2
1
 70
     0
 40
20600.0
 10
29641.0
 20
34500.0
 41
1.0
 11
0.0
 21
0.0
 31
1.0
 12
0.0
 22
0.0
 32
0.0
 42
50.0
 43
0.0
 44
0.0
 50
0.0
 71
     0
281
     0
 72
     0
  0
ENDTAB
  0
TABLE
  2
UCS
  5
7
330
0
100
AcDbSymbolTable
 70
     0
  0
ENDTAB
  0
TABLE
  2
APPID
  5
9
330
0
100
AcDbSymbolTable
 70
     1
  0
APPID
  5
2A
330
9
100
AcDbSymbolTableRecord
100
AcDbRegAppTableRecord
  2
ACAD
 70
     0
  0
ENDTAB
  0
TABLE
  2
DIMSTYLE
  5
A
330
0
100
AcDbSymbolTable
 70
     1
100
AcDbDimStyleTable
  0
DIMSTYLE
105
2B
330
A
100
AcDbSymbolTableRecord
100
AcDbDimStyleTableRecord
  2
Standard
 70
     0
340
28
  0
ENDTAB
  0
TABLE
  2
BLOCK_RECORD
  5
1
330
0
100
AcDbSymbolTable
 70
     0
  0
BLOCK_RECORD
  5
18
330
1
100
AcDbSymbolTableRecord
100
AcDbBlockTableRecord
  2
*Model_Space
340
19
  0
BLOCK_RECORD
  5
16
330
1
100
AcDbSymbolTableRecord
100
AcDbBlockTableRecord
  2
*Paper_Space
340
17
  0
ENDTAB
  0
ENDSEC
  0
SECTION
  2
BLOCKS
  0
BLOCK
  5
309
330
18
100
AcDbEntity
  8
0
100
AcDbBlockBegin
  2
*Model_Space
 70
     0
 71
     0
 10
0.0
 20
0.0
 30
0.0
  3
*Model_Space
  1

  0
ENDBLK
  5
30A
330
18
100
AcDbEntity
  8
0
100
AcDbBlockEnd
  0
BLOCK
  5
30B
330
16
100
AcDbEntity
 67
     1
  8
0
100
AcDbBlockBegin
  2
*Paper_Space
 70
     0
 71
     0
 10
0.0
 20
0.0
 30
0.0
  3
*Paper_Space
  1

  0
ENDBLK
  5
30C
330
16
100
AcDbEntity
 67
     1
  8
0
100
AcDbBlockEnd
  0
ENDSEC
  0
SECTION
  2
ENTITIES
  0
LINE
  5
2C
330
18
100
AcDbEntity
  8
0020010007
100
AcDbLine
 10
-81.84500000000121
 20
81.8450000000003
 30
0.0
 11
-81.84500000000121
 21
316.845
 31
0.0
  0
LINE
  5
2D
330
18
100
AcDbEntity
  8
0020010007
100
AcDbLine
 10
520.0
 20
0.0
 30
0.0
 11
0.0
 21
0.0
 31
0.0
  0
LINE
  5
2E
330
18
100
AcDbEntity
  8
0020010007
100
AcDbLine
 10
0.0
 20
398.690000000001
 30
0.0
 11
520.0
 21
398.690000000001
 31
0.0
  0
LINE
  5
2F
330
18
100
AcDbEntity
  8
0020010007
100
AcDbLine
 10
601.8450000000011
 20
316.845
 30
0.0
 11
601.8450000000011
 21
81.84500000000031
 31
0.0
  0
LINE
  5
30
330
18
100
AcDbEntity
  8
0020010007
100
AcDbLine
 10
-86.0
 20
81.8450000000003
 30
0.0
 11
-86.0
 21
316.845
 31
0.0
  0
LINE
  5
31
330
18
100
AcDbEntity
  8
0020010007
100
AcDbLine
 10
-70.0
 20
316.845
 30
0.0
 11
-70.0
 21
81.84500000000031
 31
0.0
  0
LINE
  5
32
330
18
100
AcDbEntity
  8
0020010007
100
AcDbLine
 10
520.0
 20
-4.15499999999975
 30
0.0
 11
0.0
 21
-4.15499999999975
 31
0.0
  0
LINE
  5
33
330
18
100
AcDbEntity
  8
0020010007
100
AcDbLine
 10
520.0
 20
11.8450000000003
 30
0.0
 11
385.0
 21
11.8450000000003
 31
0.0
  0
LINE
  5
34
330
18
100
AcDbEntity
  8
0020010007
100
AcDbLine
 10
0.0
 20
11.8450000000003
 30
0.0
 11
204.9999980356
 21
11.8450000000003
 31
0.0
  0
LINE
  5
35
330
18
100
AcDbEntity
  8
0020010007
100
AcDbLine
 10
385.000001998898
 20
11.8450000000003
 30
0.0
 11
519.999999999998
 21
11.8450000000003
 31
0.0
  0
LINE
  5
36
330
18
100
AcDbEntity
  8
0020010007
100
AcDbLine
 10
275.0
 20
316.8449993032
 30
0.0
 11
275.0
 21
81.84500068559999
 31
0.0
  0
LINE
  5
37
330
18
100
AcDbEntity
  8
0020010007
100
AcDbLine
 10
315.0
 20
81.8450006969001
 30
0.0
 11
315.0
 21
316.8449993145
 31
0.0
  0
LINE
  5
38
330
18
100
AcDbEntity
  8
0020010007
100
AcDbLine
 10
0.0
 20
386.845
 30
0.0
 11
205.0
 21
386.845
 31
0.0
  0
LINE
  5
39
330
18
100
AcDbEntity
  8
0020010007
100
AcDbLine
 10
385.0
 20
386.845
 30
0.0
 11
520.0
 21
386.845
 31
0.0
  0
LINE
  5
3A
330
18
100
AcDbEntity
  8
0020010007
100
AcDbLine
 10
0.0
 20
402.845
 30
0.0
 11
520.0
 21
402.845
 31
0.0
  0
LINE
  5
3B
330
18
100
AcDbEntity
  8
0020010007
100
AcDbLine
 10
590.0
 20
81.8450000000003
 30
0.0
 11
590.0
 21
316.845
 31
0.0
  0
LINE
  5
3C
330
18
100
AcDbEntity
  8
0020010007
100
AcDbLine
 10
606.0
 20
316.845
 30
0.0
 11
606.0
 21
81.84500000000031
 31
0.0
  0
LINE
  5
3D
330
18
100
AcDbEntity
  8
0020010007
100
AcDbLine
 10
-86.0
 20
830.106948556577
 30
0.0
 11
-86.0
 21
829.506948556577
 31
0.0
  0
LINE
  5
3E
330
18
100
AcDbEntity
  8
0020010007
100
AcDbLine
 10
-70.5999999999985
 20
826.106948556577
 30
0.0
 11
-70.5999999999985
 21
820.106948556577
 31
0.0
  0
LINE
  5
3F
330
18
100
AcDbEntity
  8
0020010007
100
AcDbLine
 10
-82.19170962310091
 20
831.506948556577
 30
0.0
 11
-82.65358983850091
 21
830.706948556577
 31
0.0
  0
LINE
  5
40
330
18
100
AcDbEntity
  8
0020010007
100
AcDbLine
 10
-66.3760963642017
 20
738.905627094377
 30
0.0
 11
-66.3502993892017
 21
738.666318686077
 31
0.0
  0
LINE
  5
41
330
18
100
AcDbEntity
  8
0020010007
100
AcDbLine
 10
-66.399372817501
 20
739.131335819877
 30
0.0
 11
-66.376096364201
 21
738.905627094377
 31
0.0
  0
LINE
  5
42
330
18
100
AcDbEntity
  8
0020010007
100
AcDbLine
 10
-66.4217361131014
 20
739.358176738677
 30
0.0
 11
-66.3993728175014
 21
739.131335819877
 31
0.0
  0
LINE
  5
43
330
18
100
AcDbEntity
  8
0020010007
100
AcDbLine
 10
-66.44279674900101
 20
739.5820596842771
 30
0.0
 11
-66.42173611310101
 21
739.358176738677
 31
0.0
  0
LINE
  5
44
330
18
100
AcDbEntity
  8
0020010007
100
AcDbLine
 10
-66.4442989706986
 20
739.5984479242781
 30
0.0
 11
-66.4427967489986
 21
739.582059684278
 31
0.0
  0
LINE
  5
45
330
18
100
AcDbEntity
  8
0020010007
100
AcDbLine
 10
-61.2302165182991
 20
721.415662910577
 30
0.0
 11
-61.1193998156991
 21
721.197345020177
 31
0.0
  0
LINE
  5
46
330
18
100
AcDbEntity
  8
0020010007
100
AcDbLine
 10
-61.3393653706007
 20
721.633290396177
 30
0.0
 11
-61.2302165183007
 21
721.415662910577
 31
0.0
  0
LINE
  5
47
330
18
100
AcDbEntity
  8
0020010007
100
AcDbLine
 10
-61.4468725789993
 20
721.850236094077
 30
0.0
 11
-61.3393653705993
 21
721.633290396177
 31
0.0
  0
LINE
  5
48
330
18
100
AcDbEntity
  8
0020010007
100
AcDbLine
 10
-61.5527639298998
 20
722.066509038277
 30
0.0
 11
-61.4468725789998
 21
721.850236094077
 31
0.0
  0
LINE
  5
49
330
18
100
AcDbEntity
  8
0020010007
100
AcDbLine
 10
-61.6570647908011
 20
722.282118669377
 30
0.0
 11
-61.5527639299011
 21
722.066509038277
 31
0.0
  0
LINE
  5
4A
330
18
100
AcDbEntity
  8
0020010007
100
AcDbLine
 10
-61.7598001117003
 20
722.497074826077
 30
0.0
 11
-61.6570647908003
 21
722.282118669377
 31
0.0
  0
LINE
  5
4B
330
18
100
AcDbEntity
  8
0020010007
100
AcDbLine
 10
-61.8609944255986
 20
722.711387735077
 30
0.0
 11
-61.7598001116986
 21
722.497074826077
 31
0.0
  0
LINE
  5
4C
330
18
100
AcDbEntity
  8
0020010007
100
AcDbLine
 10
-61.9606718500982
 20
722.925068002877
 30
0.0
 11
-61.8609944255982
 21
722.711387735077
 31
0.0
  0
LINE
  5
4D
330
18
100
AcDbEntity
  8
0020010007
100
AcDbLine
 10
-62.0588560885008
 20
723.138126606277
 30
0.0
 11
-61.9606718501008
 21
722.925068002877
 31
0.0
  0
LINE
  5
4E
330
18
100
AcDbEntity
  8
0020010007
100
AcDbLine
 10
-62.1555704306011
 20
723.350574884077
 30
0.0
 11
-62.0588560885011
 21
723.138126606277
 31
0.0
  0
LINE
  5
4F
330
18
100
AcDbEntity
  8
0020010007
100
AcDbLine
 10
-62.2508377544982
 20
723.562424528577
 30
0.0
 11
-62.1555704305982
 21
723.350574884077
 31
0.0
  0
LINE
  5
50
330
18
100
AcDbEntity
  8
0020010007
100
AcDbLine
 10
-62.3446805275998
 20
723.773687577178
 30
0.0
 11
-62.2508377544998
 21
723.5624245285781
 31
0.0
  0
LINE
  5
51
330
18
100
AcDbEntity
  8
0020010007
100
AcDbLine
 10
-62.437120807801
 20
723.984376404078
 30
0.0
 11
-62.344680527601
 21
723.773687577178
 31
0.0
  0
LINE
  5
52
330
18
100
AcDbEntity
  8
0020010007
100
AcDbLine
 10
-62.5281802448008
 20
724.1945037126781
 30
0.0
 11
-62.4371208078008
 21
723.984376404078
 31
0.0
  0
LINE
  5
53
330
18
100
AcDbEntity
  8
0020010007
100
AcDbLine
 10
-62.6178800816015
 20
724.404082527177
 30
0.0
 11
-62.5281802448015
 21
724.194503712677
 31
0.0
  0
LINE
  5
54
330
18
100
AcDbEntity
  8
0020010007
100
AcDbLine
 10
-62.7062411555016
 20
724.613126185378
 30
0.0
 11
-62.6178800816016
 21
724.4040825271781
 31
0.0
  0
LINE
  5
55
330
18
100
AcDbEntity
  8
0020010007
100
AcDbLine
 10
-62.7932838995985
 20
724.821648331077
 30
0.0
 11
-62.7062411554985
 21
724.613126185377
 31
0.0
  0
LINE
  5
56
330
18
100
AcDbEntity
  8
0020010007
100
AcDbLine
 10
-62.8790283441995
 20
725.0296629062771
 30
0.0
 11
-62.7932838995995
 21
724.821648331077
 31
0.0
  0
LINE
  5
57
330
18
100
AcDbEntity
  8
0020010007
100
AcDbLine
 10
-62.9634941176009
 20
725.237184144478
 30
0.0
 11
-62.8790283442009
 21
725.029662906278
 31
0.0
  0
LINE
  5
58
330
18
100
AcDbEntity
  8
0020010007
100
AcDbLine
 10
-63.0467004482016
 20
725.444226563278
 30
0.0
 11
-62.9634941176016
 21
725.237184144478
 31
0.0
  0
LINE
  5
59
330
18
100
AcDbEntity
  8
0020010007
100
AcDbLine
 10
-63.128666164801
 20
725.650804957477
 30
0.0
 11
-63.046700448201
 21
725.444226563277
 31
0.0
  0
LINE
  5
5A
330
18
100
AcDbEntity
  8
0020010007
100
AcDbLine
 10
-63.2094096986984
 20
725.856934392277
 30
0.0
 11
-63.1286661647984
 21
725.650804957477
 31
0.0
  0
LINE
  5
5B
330
18
100
AcDbEntity
  8
0020010007
100
AcDbLine
 10
-63.3020898231007
 20
726.096871762677
 30
0.0
 11
-63.2094096987007
 21
725.856934392277
 31
0.0
  0
LINE
  5
5C
330
18
100
AcDbEntity
  8
0020010007
100
AcDbLine
 10
-63.3931589099993
 20
726.336243707377
 30
0.0
 11
-63.3020898230993
 21
726.096871762677
 31
0.0
  0
LINE
  5
5D
330
18
100
AcDbEntity
  8
0020010007
100
AcDbLine
 10
-63.4826441875994
 20
726.575075472077
 30
0.0
 11
-63.3931589099994
 21
726.336243707377
 31
0.0
  0
LINE
  5
5E
330
18
100
AcDbEntity
  8
0020010007
100
AcDbLine
 10
-63.5705721564009
 20
726.813392751477
 30
0.0
 11
-63.4826441876009
 21
726.575075472078
 31
0.0
  0
LINE
  5
5F
330
18
100
AcDbEntity
  8
0020010007
100
AcDbLine
 10
-63.6569685918985
 20
727.051221675578
 30
0.0
 11
-63.5705721563985
 21
726.813392751477
 31
0.0
  0
LINE
  5
60
330
18
100
AcDbEntity
  8
0020010007
100
AcDbLine
 10
-63.7418585466003
 20
727.288588797677
 30
0.0
 11
-63.6569685919003
 21
727.051221675577
 31
0.0
  0
LINE
  5
61
330
18
100
AcDbEntity
  8
0020010007
100
AcDbLine
 10
-63.8252663526982
 20
727.525521081078
 30
0.0
 11
-63.7418585465982
 21
727.288588797677
 31
0.0
  0
LINE
  5
62
330
18
100
AcDbEntity
  8
0020010007
100
AcDbLine
 10
-63.9072148031009
 20
727.762043499578
 30
0.0
 11
-63.8252663527009
 21
727.525521081078
 31
0.0
  0
LINE
  5
63
330
18
100
AcDbEntity
  8
0020010007
100
AcDbLine
 10
-63.9877170352993
 20
727.998154827377
 30
0.0
 11
-63.9072148030993
 21
727.762043499577
 31
0.0
  0
LINE
  5
64
330
18
100
AcDbEntity
  8
0020010007
100
AcDbLine
 10
-64.0667805121993
 20
728.233837401477
 30
0.0
 11
-63.9877170352993
 21
727.998154827377
 31
0.0
  0
LINE
  5
65
330
18
100
AcDbEntity
  8
0020010007
100
AcDbLine
 10
-64.144412793401
 20
728.469073378578
 30
0.0
 11
-64.06678051220101
 21
728.233837401477
 31
0.0
  0
LINE
  5
66
330
18
100
AcDbEntity
  8
0020010007
100
AcDbLine
 10
-64.22062162180011
 20
728.703844987377
 30
0.0
 11
-64.14441279340009
 21
728.469073378577
 31
0.0
  0
LINE
  5
67
330
18
100
AcDbEntity
  8
0020010007
100
AcDbLine
 10
-64.29541492130009
 20
728.9381345305781
 30
0.0
 11
-64.22062162180011
 21
728.703844987377
 31
0.0
  0
LINE
  5
68
330
18
100
AcDbEntity
  8
0020010007
100
AcDbLine
 10
-64.3688007944002
 20
729.171924386977
 30
0.0
 11
-64.29541492130021
 21
728.938134530577
 31
0.0
  0
LINE
  5
69
330
18
100
AcDbEntity
  8
0020010007
100
AcDbLine
 10
-64.4407875204015
 20
729.405197012777
 30
0.0
 11
-64.36880079440149
 21
729.171924386977
 31
0.0
  0
LINE
  5
6A
330
18
100
AcDbEntity
  8
0020010007
100
AcDbLine
 10
-64.5113835533011
 20
729.637934943277
 30
0.0
 11
-64.4407875204011
 21
729.405197012777
 31
0.0
  0
LINE
  5
6B
330
18
100
AcDbEntity
  8
0020010007
100
AcDbLine
 10
-64.5805975192998
 20
729.870120794778
 30
0.0
 11
-64.51138355329979
 21
729.637934943278
 31
0.0
  0
LINE
  5
6C
330
18
100
AcDbEntity
  8
0020010007
100
AcDbLine
 10
-64.64843821500109
 20
730.101737265977
 30
0.0
 11
-64.58059751930109
 21
729.870120794777
 31
0.0
  0
LINE
  5
6D
330
18
100
AcDbEntity
  8
0020010007
100
AcDbLine
 10
-64.7149146049014
 20
730.332767139477
 30
0.0
 11
-64.64843821500141
 21
730.101737265977
 31
0.0
  0
LINE
  5
6E
330
18
100
AcDbEntity
  8
0020010007
100
AcDbLine
 10
-64.78003581899981
 20
730.563193283577
 30
0.0
 11
-64.7149146048997
 21
730.332767139477
 31
0.0
  0
LINE
  5
6F
330
18
100
AcDbEntity
  8
0020010007
100
AcDbLine
 10
-64.84381115080031
 20
730.792998653477
 30
0.0
 11
-64.7800358190003
 21
730.563193283577
 31
0.0
  0
LINE
  5
70
330
18
100
AcDbEntity
  8
0020010007
100
AcDbLine
 10
-64.90625005499901
 20
731.022166292678
 30
0.0
 11
-64.843811150799
 21
730.792998653478
 31
0.0
  0
LINE
  5
71
330
18
100
AcDbEntity
  8
0020010007
100
AcDbLine
 10
-64.96736214490009
 20
731.250679334578
 30
0.0
 11
-64.9062500550001
 21
731.022166292677
 31
0.0
  0
LINE
  5
72
330
18
100
AcDbEntity
  8
0020010007
100
AcDbLine
 10
-65.02715719020129
 20
731.478521003677
 30
0.0
 11
-64.9673621449012
 21
731.2506793345769
 31
0.0
  0
LINE
  5
73
330
18
100
AcDbEntity
  8
0020010007
100
AcDbLine
 10
-65.0856451143991
 20
731.705674616777
 30
0.0
 11
-65.02715719019911
 21
731.478521003677
 31
0.0
  0
LINE
  5
74
330
18
100
AcDbEntity
  8
0020010007
100
AcDbLine
 10
-65.14283599270129
 20
731.932123584778
 30
0.0
 11
-65.0856451144013
 21
731.705674616778
 31
0.0
  0
LINE
  5
75
330
18
100
AcDbEntity
  8
0020010007
100
AcDbLine
 10
-65.1987400491998
 20
732.157851412978
 30
0.0
 11
-65.1428359926998
 21
731.932123584778
 31
0.0
  0
LINE
  5
76
330
18
100
AcDbEntity
  8
0020010007
100
AcDbLine
 10
-65.253367654801
 20
732.382841703177
 30
0.0
 11
-65.19874004920101
 21
732.157851412977
 31
0.0
  0
LINE
  5
77
330
18
100
AcDbEntity
  8
0020010007
100
AcDbLine
 10
-65.3067293243985
 20
732.607078154077
 30
0.0
 11
-65.2533676547985
 21
732.382841703177
 31
0.0
  0
LINE
  5
78
330
18
100
AcDbEntity
  8
0020010007
100
AcDbLine
 10
-65.35883571430171
 20
732.830544562877
 30
0.0
 11
-65.3067293244017
 21
732.607078154077
 31
0.0
  0
LINE
  5
79
330
18
100
AcDbEntity
  8
0020010007
100
AcDbLine
 10
-65.4096976202018
 20
733.053224825978
 30
0.0
 11
-65.3588357143018
 21
732.830544562877
 31
0.0
  0
LINE
  5
7A
330
18
100
AcDbEntity
  8
0020010007
100
AcDbLine
 10
-65.4593259739013
 20
733.275102940278
 30
0.0
 11
-65.4096976202013
 21
733.053224825978
 31
0.0
  0
LINE
  5
7B
330
18
100
AcDbEntity
  8
0020010007
100
AcDbLine
 10
-65.5077318414005
 20
733.496163003778
 30
0.0
 11
-65.45932597390051
 21
733.275102940278
 31
0.0
  0
LINE
  5
7C
330
18
100
AcDbEntity
  8
0020010007
100
AcDbLine
 10
-65.5549264198016
 20
733.716389216777
 30
0.0
 11
-65.50773184140159
 21
733.496163003778
 31
0.0
  0
LINE
  5
7D
330
18
100
AcDbEntity
  8
0020010007
100
AcDbLine
 10
-65.60092103470021
 20
733.935765882677
 30
0.0
 11
-65.5549264198001
 21
733.716389216777
 31
0.0
  0
LINE
  5
7E
330
18
100
AcDbEntity
  8
0020010007
100
AcDbLine
 10
-65.64572713819869
 20
734.154277408578
 30
0.0
 11
-65.6009210346987
 21
733.935765882678
 31
0.0
  0
LINE
  5
7F
330
18
100
AcDbEntity
  8
0020010007
100
AcDbLine
 10
-65.68935630529811
 20
734.371908306478
 30
0.0
 11
-65.6457271381981
 21
734.154277408578
 31
0.0
  0
LINE
  5
80
330
18
100
AcDbEntity
  8
0020010007
100
AcDbLine
 10
-65.7377920725994
 20
734.619531284577
 30
0.0
 11
-65.6893563052994
 21
734.3719083064771
 31
0.0
  0
LINE
  5
81
330
18
100
AcDbEntity
  8
0020010007
100
AcDbLine
 10
-65.7847235439003
 20
734.865961174077
 30
0.0
 11
-65.7377920726003
 21
734.619531284577
 31
0.0
  0
LINE
  5
82
330
18
100
AcDbEntity
  8
0020010007
100
AcDbLine
 10
-65.8301685617007
 20
735.111175365177
 30
0.0
 11
-65.7847235439007
 21
734.865961174077
 31
0.0
  0
LINE
  5
83
330
18
100
AcDbEntity
  8
0020010007
100
AcDbLine
 10
-65.8741451638998
 20
735.355151455477
 30
0.0
 11
-65.83016856169979
 21
735.111175365177
 31
0.0
  0
LINE
  5
84
330
18
100
AcDbEntity
  8
0020010007
100
AcDbLine
 10
-65.91666653140059
 20
735.597838035377
 30
0.0
 11
-65.87414516390059
 21
735.355151455477
 31
0.0
  0
LINE
  5
85
330
18
100
AcDbEntity
  8
0020010007
100
AcDbLine
 10
-65.9577127144003
 20
735.838981816377
 30
0.0
 11
-65.9166665314003
 21
735.597838035377
 31
0.0
  0
LINE
  5
86
330
18
100
AcDbEntity
  8
0020010007
100
AcDbLine
 10
-65.9972543934018
 20
736.078243092177
 30
0.0
 11
-65.95771271440179
 21
735.838981816377
 31
0.0
  0
LINE
  5
87
330
18
100
AcDbEntity
  8
0020010007
100
AcDbLine
 10
-66.03526836129819
 20
736.315281133577
 30
0.0
 11
-65.99725439339819
 21
736.078243092177
 31
0.0
  0
LINE
  5
88
330
18
100
AcDbEntity
  8
0020010007
100
AcDbLine
 10
-66.0717374351007
 20
736.549754567577
 30
0.0
 11
-66.0352683613007
 21
736.315281133577
 31
0.0
  0
LINE
  5
89
330
18
100
AcDbEntity
  8
0020010007
100
AcDbLine
 10
-66.1066502930007
 20
736.781321469478
 30
0.0
 11
-66.0717374351007
 21
736.549754567578
 31
0.0
  0
LINE
  5
8A
330
18
100
AcDbEntity
  8
0020010007
100
AcDbLine
 10
-66.140001289401
 20
737.009639454278
 30
0.0
 11
-66.106650293001
 21
736.781321469478
 31
0.0
  0
LINE
  5
8B
330
18
100
AcDbEntity
  8
0020010007
100
AcDbLine
 10
-66.1717902454984
 20
737.234365765677
 30
0.0
 11
-66.1400012893984
 21
737.009639454277
 31
0.0
  0
LINE
  5
8C
330
18
100
AcDbEntity
  8
0020010007
100
AcDbLine
 10
-66.20202221779979
 20
737.455157362177
 30
0.0
 11
-66.17179024549981
 21
737.234365765677
 31
0.0
  0
LINE
  5
8D
330
18
100
AcDbEntity
  8
0020010007
100
AcDbLine
 10
-66.23418478609889
 20
737.698417311177
 30
0.0
 11
-66.2020222177989
 21
737.4551573621781
 31
0.0
  0
LINE
  5
8E
330
18
100
AcDbEntity
  8
0020010007
100
AcDbLine
 10
-66.26440924330019
 20
737.935759958777
 30
0.0
 11
-66.2341847861002
 21
737.698417311177
 31
0.0
  0
LINE
  5
8F
330
18
100
AcDbEntity
  8
0020010007
100
AcDbLine
 10
-66.2926526533993
 20
738.166101970177
 30
0.0
 11
-66.2644092432993
 21
737.935759958777
 31
0.0
  0
LINE
  5
90
330
18
100
AcDbEntity
  8
0020010007
100
AcDbLine
 10
-66.3187995182016
 20
738.387585996377
 30
0.0
 11
-66.2926526534016
 21
738.166101970177
 31
0.0
  0
LINE
  5
91
330
18
100
AcDbEntity
  8
0020010007
100
AcDbLine
 10
-66.34530703030031
 20
738.621203757578
 30
0.0
 11
-66.31879951820029
 21
738.387585996377
 31
0.0
  0
LINE
  5
92
330
18
100
AcDbEntity
  8
0020010007
100
AcDbLine
 10
-66.35029938919981
 20
738.6663186860779
 30
0.0
 11
-66.34530703029979
 21
738.621203757578
 31
0.0
  0
LINE
  5
93
330
18
100
AcDbEntity
  8
0020010007
100
AcDbLine
 10
-56.4358151185988
 20
713.717587010977
 30
0.0
 11
-56.2976087929988
 21
713.535412903177
 31
0.0
  0
LINE
  5
94
330
18
100
AcDbEntity
  8
0020010007
100
AcDbLine
 10
-56.5724354947015
 20
713.899366134777
 30
0.0
 11
-56.4358151186015
 21
713.717587010977
 31
0.0
  0
LINE
  5
95
330
18
100
AcDbEntity
  8
0020010007
100
AcDbLine
 10
-56.7074760975011
 20
714.0807298837771
 30
0.0
 11
-56.5724354947011
 21
713.899366134777
 31
0.0
  0
LINE
  5
96
330
18
100
AcDbEntity
  8
0020010007
100
AcDbLine
 10
-56.8409432488006
 20
714.261657950477
 30
0.0
 11
-56.7074760975006
 21
714.0807298837771
 31
0.0
  0
LINE
  5
97
330
18
100
AcDbEntity
  8
0020010007
100
AcDbLine
 10
-56.9728434134995
 20
714.442130112477
 30
0.0
 11
-56.8409432487995
 21
714.261657950477
 31
0.0
  0
LINE
  5
98
330
18
100
AcDbEntity
  8
0020010007
100
AcDbLine
 10
-57.1031831965993
 20
714.6221262334771
 30
0.0
 11
-56.9728434134993
 21
714.442130112477
 31
0.0
  0
LINE
  5
99
330
18
100
AcDbEntity
  8
0020010007
100
AcDbLine
 10
-57.2957819410003
 20
714.8911840067771
 30
0.0
 11
-57.1031831966003
 21
714.6221262334771
 31
0.0
  0
LINE
  5
9A
330
18
100
AcDbEntity
  8
0020010007
100
AcDbLine
 10
-57.4849083459994
 20
715.159058313777
 30
0.0
 11
-57.2957819409994
 21
714.8911840067771
 31
0.0
  0
LINE
  5
9B
330
18
100
AcDbEntity
  8
0020010007
100
AcDbLine
 10
-57.6706015249983
 20
715.4257042167779
 30
0.0
 11
-57.4849083459983
 21
715.159058313777
 31
0.0
  0
LINE
  5
9C
330
18
100
AcDbEntity
  8
0020010007
100
AcDbLine
 10
-57.8524551931005
 20
715.690424723378
 30
0.0
 11
-57.6706015250005
 21
715.4257042167779
 31
0.0
  0
LINE
  5
9D
330
18
100
AcDbEntity
  8
0020010007
100
AcDbLine
 10
-58.0287368520003
 20
715.950518047977
 30
0.0
 11
-57.8524551931003
 21
715.690424723377
 31
0.0
  0
LINE
  5
9E
330
18
100
AcDbEntity
  8
0020010007
100
AcDbLine
 10
-58.1973872827984
 20
716.202651184877
 30
0.0
 11
-58.0287368519984
 21
715.950518047977
 31
0.0
  0
LINE
  5
9F
330
18
100
AcDbEntity
  8
0020010007
100
AcDbLine
 10
-58.3568392558991
 20
716.444080247677
 30
0.0
 11
-58.1973872827991
 21
716.202651184877
 31
0.0
  0
LINE
  5
A0
330
18
100
AcDbEntity
  8
0020010007
100
AcDbLine
 10
-58.4936924694994
 20
716.653714668277
 30
0.0
 11
-58.3568392558994
 21
716.444080247677
 31
0.0
  0
LINE
  5
A1
330
18
100
AcDbEntity
  8
0020010007
100
AcDbLine
 10
-58.6321498908001
 20
716.868139171277
 30
0.0
 11
-58.4936924695001
 21
716.653714668277
 31
0.0
  0
LINE
  5
A2
330
18
100
AcDbEntity
  8
0020010007
100
AcDbLine
 10
-58.7544151143011
 20
717.0594823424771
 30
0.0
 11
-58.6321498908011
 21
716.868139171277
 31
0.0
  0
LINE
  5
A3
330
18
100
AcDbEntity
  8
0020010007
100
AcDbLine
 10
-58.8988600802004
 20
717.288004291077
 30
0.0
 11
-58.7544151143004
 21
717.0594823424771
 31
0.0
  0
LINE
  5
A4
330
18
100
AcDbEntity
  8
0020010007
100
AcDbLine
 10
-59.0364806414982
 20
717.508275748077
 30
0.0
 11
-58.8988600801982
 21
717.288004291077
 31
0.0
  0
LINE
  5
A5
330
18
100
AcDbEntity
  8
0020010007
100
AcDbLine
 10
-59.1683540980994
 20
717.721737967277
 30
0.0
 11
-59.0364806414994
 21
717.508275748077
 31
0.0
  0
LINE
  5
A6
330
18
100
AcDbEntity
  8
0020010007
100
AcDbLine
 10
-59.2955236661001
 20
717.929854977077
 30
0.0
 11
-59.1683540981001
 21
717.721737967277
 31
0.0
  0
LINE
  5
A7
330
18
100
AcDbEntity
  8
0020010007
100
AcDbLine
 10
-59.418997921799
 20
718.134107222878
 30
0.0
 11
-59.295523666099
 21
717.929854977078
 31
0.0
  0
LINE
  5
A8
330
18
100
AcDbEntity
  8
0020010007
100
AcDbLine
 10
-59.5394895511017
 20
718.335548023878
 30
0.0
 11
-59.4189979218017
 21
718.134107222878
 31
0.0
  0
LINE
  5
A9
330
18
100
AcDbEntity
  8
0020010007
100
AcDbLine
 10
-59.6572230198981
 20
718.534450413377
 30
0.0
 11
-59.5394895510981
 21
718.335548023877
 31
0.0
  0
LINE
  5
AA
330
18
100
AcDbEntity
  8
0020010007
100
AcDbLine
 10
-59.7723675371017
 20
718.731007046377
 30
0.0
 11
-59.6572230199017
 21
718.534450413377
 31
0.0
  0
LINE
  5
AB
330
18
100
AcDbEntity
  8
0020010007
100
AcDbLine
 10
-59.8850882166007
 20
718.925414074277
 30
0.0
 11
-59.7723675371007
 21
718.731007046378
 31
0.0
  0
LINE
  5
AC
330
18
100
AcDbEntity
  8
0020010007
100
AcDbLine
 10
-59.9955459135017
 20
719.117870558877
 30
0.0
 11
-59.8850882166017
 21
718.925414074277
 31
0.0
  0
LINE
  5
AD
330
18
100
AcDbEntity
  8
0020010007
100
AcDbLine
 10
-60.1253283471015
 20
719.346528008777
 30
0.0
 11
-59.9955459135015
 21
719.117870558877
 31
0.0
  0
LINE
  5
AE
330
18
100
AcDbEntity
  8
0020010007
100
AcDbLine
 10
-60.2523405389984
 20
719.573021303377
 30
0.0
 11
-60.1253283470984
 21
719.346528008777
 31
0.0
  0
LINE
  5
AF
330
18
100
AcDbEntity
  8
0020010007
100
AcDbLine
 10
-60.3768372609993
 20
719.797709530778
 30
0.0
 11
-60.2523405389993
 21
719.573021303378
 31
0.0
  0
LINE
  5
B0
330
18
100
AcDbEntity
  8
0020010007
100
AcDbLine
 10
-60.4990651890985
 20
720.020956794677
 30
0.0
 11
-60.3768372609985
 21
719.797709530777
 31
0.0
  0
LINE
  5
B1
330
18
100
AcDbEntity
  8
0020010007
100
AcDbLine
 10
-60.6192630201986
 20
720.243131963577
 30
0.0
 11
-60.4990651890986
 21
720.020956794677
 31
0.0
  0
LINE
  5
B2
330
18
100
AcDbEntity
  8
0020010007
100
AcDbLine
 10
-60.7376201838997
 20
720.464530581477
 30
0.0
 11
-60.6192630201997
 21
720.243131963577
 31
0.0
  0
LINE
  5
B3
330
18
100
AcDbEntity
  8
0020010007
100
AcDbLine
 10
-60.8541910638996
 20
720.685206508577
 30
0.0
 11
-60.7376201838996
 21
720.464530581477
 31
0.0
  0
LINE
  5
B4
330
18
100
AcDbEntity
  8
0020010007
100
AcDbLine
 10
-60.9690036955981
 20
720.905166441877
 30
0.0
 11
-60.8541910638981
 21
720.685206508577
 31
0.0
  0
LINE
  5
B5
330
18
100
AcDbEntity
  8
0020010007
100
AcDbLine
 10
-61.0820856913015
 20
721.124417538477
 30
0.0
 11
-60.9690036956015
 21
720.905166441877
 31
0.0
  0
LINE
  5
B6
330
18
100
AcDbEntity
  8
0020010007
100
AcDbLine
 10
-61.1193998156996
 20
721.197345020177
 30
0.0
 11
-61.0820856912996
 21
721.124417538477
 31
0.0
  0
LINE
  5
B7
330
18
100
AcDbEntity
  8
0020010007
100
AcDbLine
 10
-51.7628320566
 20
708.358088899177
 30
0.0
 11
-51.5761520257
 21
708.173116679777
 31
0.0
  0
LINE
  5
B8
330
18
100
AcDbEntity
  8
0020010007
100
AcDbLine
 10
-51.9476899301008
 20
708.543163737377
 30
0.0
 11
-51.7628320566007
 21
708.358088899177
 31
0.0
  0
LINE
  5
B9
330
18
100
AcDbEntity
  8
0020010007
100
AcDbLine
 10
-52.1307455491988
 20
708.728334556077
 30
0.0
 11
-51.9476899300988
 21
708.543163737377
 31
0.0
  0
LINE
  5
BA
330
18
100
AcDbEntity
  8
0020010007
100
AcDbLine
 10
-52.3120186771012
 20
708.913595126177
 30
0.0
 11
-52.1307455492012
 21
708.728334556077
 31
0.0
  0
LINE
  5
BB
330
18
100
AcDbEntity
  8
0020010007
100
AcDbLine
 10
-52.4915289347009
 20
709.098939621977
 30
0.0
 11
-52.3120186771009
 21
708.913595126177
 31
0.0
  0
LINE
  5
BC
330
18
100
AcDbEntity
  8
0020010007
100
AcDbLine
 10
-52.6692957980013
 20
709.284362614477
 30
0.0
 11
-52.4915289347013
 21
709.098939621977
 31
0.0
  0
LINE
  5
BD
330
18
100
AcDbEntity
  8
0020010007
100
AcDbLine
 10
-52.8453385946996
 20
709.469859066277
 30
0.0
 11
-52.6692957979996
 21
709.284362614477
 31
0.0
  0
LINE
  5
BE
330
18
100
AcDbEntity
  8
0020010007
100
AcDbLine
 10
-53.0196765026012
 20
709.6554243249771
 30
0.0
 11
-52.8453385947012
 21
709.469859066277
 31
0.0
  0
LINE
  5
BF
330
18
100
AcDbEntity
  8
0020010007
100
AcDbLine
 10
-53.1923278725008
 20
709.841053389877
 30
0.0
 11
-53.0196765026008
 21
709.6554243249771
 31
0.0
  0
LINE
  5
C0
330
18
100
AcDbEntity
  8
0020010007
100
AcDbLine
 10
-53.3633018235996
 20
710.026731698077
 30
0.0
 11
-53.1923278724996
 21
709.841053389877
 31
0.0
  0
LINE
  5
C1
330
18
100
AcDbEntity
  8
0020010007
100
AcDbLine
 10
-53.532601016399
 20
710.212437681477
 30
0.0
 11
-53.363301823599
 21
710.026731698077
 31
0.0
  0
LINE
  5
C2
330
18
100
AcDbEntity
  8
0020010007
100
AcDbLine
 10
-53.7002281636996
 20
710.398149658677
 30
0.0
 11
-53.5326010163997
 21
710.212437681477
 31
0.0
  0
LINE
  5
C3
330
18
100
AcDbEntity
  8
0020010007
100
AcDbLine
 10
-53.8661861736
 20
710.583845993177
 30
0.0
 11
-53.7002281637
 21
710.398149658677
 31
0.0
  0
LINE
  5
C4
330
18
100
AcDbEntity
  8
0020010007
100
AcDbLine
 10
-54.0304781482009
 20
710.7695050957771
 30
0.0
 11
-53.8661861736009
 21
710.583845993177
 31
0.0
  0
LINE
  5
C5
330
18
100
AcDbEntity
  8
0020010007
100
AcDbLine
 10
-54.1931073808992
 20
710.955105426577
 30
0.0
 11
-54.0304781481992
 21
710.7695050957771
 31
0.0
  0
LINE
  5
C6
330
18
100
AcDbEntity
  8
0020010007
100
AcDbLine
 10
-54.3540773542991
 20
711.140625497877
 30
0.0
 11
-54.1931073808991
 21
710.955105426577
 31
0.0
  0
LINE
  5
C7
330
18
100
AcDbEntity
  8
0020010007
100
AcDbLine
 10
-54.5133917376988
 20
711.326043875377
 30
0.0
 11
-54.3540773542988
 21
711.140625497877
 31
0.0
  0
LINE
  5
C8
330
18
100
AcDbEntity
  8
0020010007
100
AcDbLine
 10
-54.6710543855006
 20
711.511339181077
 30
0.0
 11
-54.5133917377006
 21
711.326043875377
 31
0.0
  0
LINE
  5
C9
330
18
100
AcDbEntity
  8
0020010007
100
AcDbLine
 10
-54.8270693338018
 20
711.696490095177
 30
0.0
 11
-54.6710543855018
 21
711.511339181077
 31
0.0
  0
LINE
  5
CA
330
18
100
AcDbEntity
  8
0020010007
100
AcDbLine
 10
-54.9814407990998
 20
711.881475357877
 30
0.0
 11
-54.8270693337998
 21
711.696490095177
 31
0.0
  0
LINE
  5
CB
330
18
100
AcDbEntity
  8
0020010007
100
AcDbLine
 10
-55.1341731749017
 20
712.066273771877
 30
0.0
 11
-54.9814407991016
 21
711.881475357877
 31
0.0
  0
LINE
  5
CC
330
18
100
AcDbEntity
  8
0020010007
100
AcDbLine
 10
-55.2852710301013
 20
712.250864203778
 30
0.0
 11
-55.1341731749013
 21
712.066273771878
 31
0.0
  0
LINE
  5
CD
330
18
100
AcDbEntity
  8
0020010007
100
AcDbLine
 10
-55.4347391059018
 20
712.435225586678
 30
0.0
 11
-55.2852710301018
 21
712.250864203778
 31
0.0
  0
LINE
  5
CE
330
18
100
AcDbEntity
  8
0020010007
100
AcDbLine
 10
-55.5825823134001
 20
712.619336921378
 30
0.0
 11
-55.4347391059001
 21
712.435225586678
 31
0.0
  0
LINE
  5
CF
330
18
100
AcDbEntity
  8
0020010007
100
AcDbLine
 10
-55.7288057313017
 20
712.803177278877
 30
0.0
 11
-55.5825823134017
 21
712.619336921377
 31
0.0
  0
LINE
  5
D0
330
18
100
AcDbEntity
  8
0020010007
100
AcDbLine
 10
-55.873414603102
 20
712.986725801777
 30
0.0
 11
-55.728805731302
 21
712.803177278877
 31
0.0
  0
LINE
  5
D1
330
18
100
AcDbEntity
  8
0020010007
100
AcDbLine
 10
-56.016414334299
 20
713.169961706377
 30
0.0
 11
-55.8734146030991
 21
712.986725801777
 31
0.0
  0
LINE
  5
D2
330
18
100
AcDbEntity
  8
0020010007
100
AcDbLine
 10
-56.1578104902983
 20
713.352864283978
 30
0.0
 11
-56.0164143342983
 21
713.169961706377
 31
0.0
  0
LINE
  5
D3
330
18
100
AcDbEntity
  8
0020010007
100
AcDbLine
 10
-56.2976087930001
 20
713.535412903177
 30
0.0
 11
-56.1578104903001
 21
713.3528642839771
 31
0.0
  0
LINE
  5
D4
330
18
100
AcDbEntity
  8
0020010007
100
AcDbLine
 10
-47.1983695515009
 20
704.328823162177
 30
0.0
 11
-46.9662645827009
 21
704.148648729677
 31
0.0
  0
LINE
  5
D5
330
18
100
AcDbEntity
  8
0020010007
100
AcDbLine
 10
-47.4281485290012
 20
704.509334086377
 30
0.0
 11
-47.1983695515012
 21
704.328823162178
 31
0.0
  0
LINE
  5
D6
330
18
100
AcDbEntity
  8
0020010007
100
AcDbLine
 10
-47.6556409613986
 20
704.690177082877
 30
0.0
 11
-47.4281485289986
 21
704.509334086377
 31
0.0
  0
LINE
  5
D7
330
18
100
AcDbEntity
  8
0020010007
100
AcDbLine
 10
-47.880884481001
 20
704.871347508377
 30
0.0
 11
-47.655640961401
 21
704.690177082877
 31
0.0
  0
LINE
  5
D8
330
18
100
AcDbEntity
  8
0020010007
100
AcDbLine
 10
-48.1039057851995
 20
705.052832949177
 30
0.0
 11
-47.8808844809995
 21
704.871347508377
 31
0.0
  0
LINE
  5
D9
330
18
100
AcDbEntity
  8
0020010007
100
AcDbLine
 10
-48.3247267516017
 20
705.234617771777
 30
0.0
 11
-48.1039057852017
 21
705.052832949177
 31
0.0
  0
LINE
  5
DA
330
18
100
AcDbEntity
  8
0020010007
100
AcDbLine
 10
-48.5433691742001
 20
705.416686862077
 30
0.0
 11
-48.3247267516001
 21
705.234617771778
 31
0.0
  0
LINE
  5
DB
330
18
100
AcDbEntity
  8
0020010007
100
AcDbLine
 10
-48.7598547798989
 20
705.5990256352781
 30
0.0
 11
-48.5433691741989
 21
705.416686862078
 31
0.0
  0
LINE
  5
DC
330
18
100
AcDbEntity
  8
0020010007
100
AcDbLine
 10
-48.974205222501
 20
705.781620028478
 30
0.0
 11
-48.759854779901
 21
705.5990256352781
 31
0.0
  0
LINE
  5
DD
330
18
100
AcDbEntity
  8
0020010007
100
AcDbLine
 10
-49.1864420784987
 20
705.964456493578
 30
0.0
 11
-48.9742052224987
 21
705.781620028478
 31
0.0
  0
LINE
  5
DE
330
18
100
AcDbEntity
  8
0020010007
100
AcDbLine
 10
-49.3965868412015
 20
706.147521990477
 30
0.0
 11
-49.1864420785015
 21
705.964456493577
 31
0.0
  0
LINE
  5
DF
330
18
100
AcDbEntity
  8
0020010007
100
AcDbLine
 10
-49.6046609168989
 20
706.330803979777
 30
0.0
 11
-49.3965868411989
 21
706.147521990477
 31
0.0
  0
LINE
  5
E0
330
18
100
AcDbEntity
  8
0020010007
100
AcDbLine
 10
-49.8106856199011
 20
706.514290415977
 30
0.0
 11
-49.6046609169011
 21
706.330803979777
 31
0.0
  0
LINE
  5
E1
330
18
100
AcDbEntity
  8
0020010007
100
AcDbLine
 10
-50.0146821679991
 20
706.697969740677
 30
0.0
 11
-49.8106856198991
 21
706.5142904159781
 31
0.0
  0
LINE
  5
E2
330
18
100
AcDbEntity
  8
0020010007
100
AcDbLine
 10
-50.2166716782012
 20
706.881830875777
 30
0.0
 11
-50.0146821680012
 21
706.697969740677
 31
0.0
  0
LINE
  5
E3
330
18
100
AcDbEntity
  8
0020010007
100
AcDbLine
 10
-50.4166751628982
 20
707.065863216277
 30
0.0
 11
-50.2166716781982
 21
706.881830875777
 31
0.0
  0
LINE
  5
E4
330
18
100
AcDbEntity
  8
0020010007
100
AcDbLine
 10
-50.6147135253996
 20
707.250056624078
 30
0.0
 11
-50.4166751628996
 21
707.065863216277
 31
0.0
  0
LINE
  5
E5
330
18
100
AcDbEntity
  8
0020010007
100
AcDbLine
 10
-50.8108075564996
 20
707.434401421377
 30
0.0
 11
-50.6147135253996
 21
707.2500566240771
 31
0.0
  0
LINE
  5
E6
330
18
100
AcDbEntity
  8
0020010007
100
AcDbLine
 10
-51.0049779301989
 20
707.618888383477
 30
0.0
 11
-50.810807556499
 21
707.434401421377
 31
0.0
  0
LINE
  5
E7
330
18
100
AcDbEntity
  8
0020010007
100
AcDbLine
 10
-51.1972452006012
 20
707.8035087328771
 30
0.0
 11
-51.0049779302012
 21
707.618888383477
 31
0.0
  0
LINE
  5
E8
330
18
100
AcDbEntity
  8
0020010007
100
AcDbLine
 10
-51.3876297979987
 20
707.988254132678
 30
0.0
 11
-51.1972452005987
 21
707.803508732878
 31
0.0
  0
LINE
  5
E9
330
18
100
AcDbEntity
  8
0020010007
100
AcDbLine
 10
-51.5761520257001
 20
708.173116679777
 30
0.0
 11
-51.3876297980001
 21
707.988254132677
 31
0.0
  0
LINE
  5
EA
330
18
100
AcDbEntity
  8
0020010007
100
AcDbLine
 10
-42.764215548701
 20
701.232764460177
 30
0.0
 11
-42.484695792501
 21
701.060300506377
 31
0.0
  0
LINE
  5
EB
330
18
100
AcDbEntity
  8
0020010007
100
AcDbLine
 10
-43.0406713531993
 20
701.405816845977
 30
0.0
 11
-42.7642155486993
 21
701.232764460177
 31
0.0
  0
LINE
  5
EC
330
18
100
AcDbEntity
  8
0020010007
100
AcDbLine
 10
-43.3141072766011
 20
701.579433400878
 30
0.0
 11
-43.0406713532011
 21
701.405816845977
 31
0.0
  0
LINE
  5
ED
330
18
100
AcDbEntity
  8
0020010007
100
AcDbLine
 10
-43.5845672258001
 20
701.753591168078
 30
0.0
 11
-43.3141072766001
 21
701.579433400878
 31
0.0
  0
LINE
  5
EE
330
18
100
AcDbEntity
  8
0020010007
100
AcDbLine
 10
-43.8520949287013
 20
701.928268474577
 30
0.0
 11
-43.5845672258013
 21
701.753591168077
 31
0.0
  0
LINE
  5
EF
330
18
100
AcDbEntity
  8
0020010007
100
AcDbLine
 10
-44.1167339206986
 20
702.1034449089771
 30
0.0
 11
-43.8520949286986
 21
701.928268474577
 31
0.0
  0
LINE
  5
F0
330
18
100
AcDbEntity
  8
0020010007
100
AcDbLine
 10
-44.3785275303999
 20
702.279101299777
 30
0.0
 11
-44.1167339206999
 21
702.1034449089771
 31
0.0
  0
LINE
  5
F1
330
18
100
AcDbEntity
  8
0020010007
100
AcDbLine
 10
-44.6375188667989
 20
702.4552196937771
 30
0.0
 11
-44.3785275303989
 21
702.279101299777
 31
0.0
  0
LINE
  5
F2
330
18
100
AcDbEntity
  8
0020010007
100
AcDbLine
 10
-44.8937508064009
 20
702.631783334877
 30
0.0
 11
-44.6375188668009
 21
702.4552196937771
 31
0.0
  0
LINE
  5
F3
330
18
100
AcDbEntity
  8
0020010007
100
AcDbLine
 10
-45.1472659817009
 20
702.808776642977
 30
0.0
 11
-44.8937508064009
 21
702.631783334877
 31
0.0
  0
LINE
  5
F4
330
18
100
AcDbEntity
  8
0020010007
100
AcDbLine
 10
-45.3981067687018
 20
702.986185193677
 30
0.0
 11
-45.1472659817019
 21
702.808776642977
 31
0.0
  0
LINE
  5
F5
330
18
100
AcDbEntity
  8
0020010007
100
AcDbLine
 10
-45.6463152766009
 20
703.163995697577
 30
0.0
 11
-45.3981067687009
 21
702.986185193677
 31
0.0
  0
LINE
  5
F6
330
18
100
AcDbEntity
  8
0020010007
100
AcDbLine
 10
-45.8919333365011
 20
703.342195980277
 30
0.0
 11
-45.6463152766011
 21
703.163995697577
 31
0.0
  0
LINE
  5
F7
330
18
100
AcDbEntity
  8
0020010007
100
AcDbLine
 10
-46.1350024915009
 20
703.520774962977
 30
0.0
 11
-45.8919333365009
 21
703.342195980277
 31
0.0
  0
LINE
  5
F8
330
18
100
AcDbEntity
  8
0020010007
100
AcDbLine
 10
-46.3755639865012
 20
703.699722642477
 30
0.0
 11
-46.1350024915012
 21
703.520774962978
 31
0.0
  0
LINE
  5
F9
330
18
100
AcDbEntity
  8
0020010007
100
AcDbLine
 10
-46.6136587590008
 20
703.879030072477
 30
0.0
 11
-46.3755639865008
 21
703.699722642477
 31
0.0
  0
LINE
  5
FA
330
18
100
AcDbEntity
  8
0020010007
100
AcDbLine
 10
-46.9662645827011
 20
704.148648729678
 30
0.0
 11
-46.8493274300011
 21
704.058689344778
 31
0.0
  0
LINE
  5
FB
330
18
100
AcDbEntity
  8
0020010007
100
AcDbLine
 10
-46.8493274300017
 20
704.058689344777
 30
0.0
 11
-46.6136587590017
 21
703.879030072477
 31
0.0
  0
LINE
  5
FC
330
18
100
AcDbEntity
  8
0020010007
100
AcDbLine
 10
40.6483928302987
 20
692.106948556577
 30
0.0
 11
44.6046488264987
 21
685.254512163477
 31
0.0
  0
LINE
  5
FD
330
18
100
AcDbEntity
  8
0020010007
100
AcDbLine
 10
-40.3257643877987
 20
699.810017425077
 30
0.0
 11
-40.1130163911987
 21
699.694378099477
 31
0.0
  0
LINE
  5
FE
330
18
100
AcDbEntity
  8
0020010007
100
AcDbLine
 10
-40.1130163911985
 20
699.6943780994779
 30
0.0
 11
-39.8953065047985
 21
699.577401764778
 31
0.0
  0
LINE
  5
FF
330
18
100
AcDbEntity
  8
0020010007
100
AcDbLine
 10
-39.8953065048008
 20
699.5774017647771
 30
0.0
 11
-39.6731258506008
 21
699.4594305295771
 31
0.0
  0
LINE
  5
100
330
18
100
AcDbEntity
  8
0020010007
100
AcDbLine
 10
-39.6731258506006
 20
699.4594305295771
 30
0.0
 11
-39.4499087858006
 21
699.342329283077
 31
0.0
  0
LINE
  5
101
330
18
100
AcDbEntity
  8
0020010007
100
AcDbLine
 10
-39.4499087857985
 20
699.342329283077
 30
0.0
 11
-39.2245154104985
 21
699.225519512877
 31
0.0
  0
LINE
  5
102
330
18
100
AcDbEntity
  8
0020010007
100
AcDbLine
 10
-39.2245154105003
 20
699.225519512877
 30
0.0
 11
-38.9969497336003
 21
699.109033622578
 31
0.0
  0
LINE
  5
103
330
18
100
AcDbEntity
  8
0020010007
100
AcDbLine
 10
-38.9969497335987
 20
699.109033622578
 30
0.0
 11
-38.7672160450988
 21
698.992904062578
 31
0.0
  0
LINE
  5
104
330
18
100
AcDbEntity
  8
0020010007
100
AcDbLine
 10
-38.7672160451002
 20
698.9929040625771
 30
0.0
 11
-38.5353189206002
 21
698.877163324477
 31
0.0
  0
LINE
  5
105
330
18
100
AcDbEntity
  8
0020010007
100
AcDbLine
 10
-38.5353189205998
 20
698.877163324477
 30
0.0
 11
-38.3012632247998
 21
698.761843936077
 31
0.0
  0
LINE
  5
106
330
18
100
AcDbEntity
  8
0020010007
100
AcDbLine
 10
-38.3012632247992
 20
698.761843936077
 30
0.0
 11
-38.0650541161992
 21
698.646978456277
 31
0.0
  0
LINE
  5
107
330
18
100
AcDbEntity
  8
0020010007
100
AcDbLine
 10
-38.0650541161995
 20
698.646978456277
 30
0.0
 11
-37.8266970510995
 21
698.532599469277
 31
0.0
  0
LINE
  5
108
330
18
100
AcDbEntity
  8
0020010007
100
AcDbLine
 10
-37.8266970510995
 20
698.532599469277
 30
0.0
 11
-37.5861977868994
 21
698.418739579877
 31
0.0
  0
LINE
  5
109
330
18
100
AcDbEntity
  8
0020010007
100
AcDbLine
 10
-37.586197786899
 20
698.418739579877
 30
0.0
 11
-37.343562386599
 21
698.305431407477
 31
0.0
  0
LINE
  5
10A
330
18
100
AcDbEntity
  8
0020010007
100
AcDbLine
 10
-37.3435623865989
 20
698.305431407478
 30
0.0
 11
-37.0987972222989
 21
698.192707580578
 31
0.0
  0
LINE
  5
10B
330
18
100
AcDbEntity
  8
0020010007
100
AcDbLine
 10
-37.0987972223011
 20
698.192707580578
 30
0.0
 11
-36.8519089783011
 21
698.080600731778
 31
0.0
  0
LINE
  5
10C
330
18
100
AcDbEntity
  8
0020010007
100
AcDbLine
 10
-36.8519089783003
 20
698.080600731778
 30
0.0
 11
-36.6029046554004
 21
697.969143491577
 31
0.0
  0
LINE
  5
10D
330
18
100
AcDbEntity
  8
0020010007
100
AcDbLine
 10
-36.6029046553995
 20
697.969143491577
 30
0.0
 11
-36.3517915734995
 21
697.858368482977
 31
0.0
  0
LINE
  5
10E
330
18
100
AcDbEntity
  8
0020010007
100
AcDbLine
 10
-36.3517915734992
 20
697.858368482977
 30
0.0
 11
-36.0985773752992
 21
697.748308315777
 31
0.0
  0
LINE
  5
10F
330
18
100
AcDbEntity
  8
0020010007
100
AcDbLine
 10
-36.0985773753018
 20
697.748308315777
 30
0.0
 11
-35.8432700294018
 21
697.638995580777
 31
0.0
  0
LINE
  5
110
330
18
100
AcDbEntity
  8
0020010007
100
AcDbLine
 10
-35.8432700293997
 20
697.638995580777
 30
0.0
 11
-35.5858778333997
 21
697.530462843877
 31
0.0
  0
LINE
  5
111
330
18
100
AcDbEntity
  8
0020010007
100
AcDbLine
 10
-35.5858778334004
 20
697.530462843877
 30
0.0
 11
-35.3264094164005
 21
697.422742640277
 31
0.0
  0
LINE
  5
112
330
18
100
AcDbEntity
  8
0020010007
100
AcDbLine
 10
-35.3264094164006
 20
697.422742640277
 30
0.0
 11
-35.0648737423006
 21
697.315867468577
 31
0.0
  0
LINE
  5
113
330
18
100
AcDbEntity
  8
0020010007
100
AcDbLine
 10
-35.0648737422998
 20
697.315867468578
 30
0.0
 11
-34.8012801122998
 21
697.209869784978
 31
0.0
  0
LINE
  5
114
330
18
100
AcDbEntity
  8
0020010007
100
AcDbLine
 10
-34.8012801123004
 20
697.209869784978
 30
0.0
 11
-34.5356381674005
 21
697.104781996777
 31
0.0
  0
LINE
  5
115
330
18
100
AcDbEntity
  8
0020010007
100
AcDbLine
 10
-34.5356381673992
 20
697.104781996777
 30
0.0
 11
-34.2679578911992
 21
697.000636456877
 31
0.0
  0
LINE
  5
116
330
18
100
AcDbEntity
  8
0020010007
100
AcDbLine
 10
-34.2679578911993
 20
697.000636456877
 30
0.0
 11
-33.9982496115993
 21
696.897465457277
 31
0.0
  0
LINE
  5
117
330
18
100
AcDbEntity
  8
0020010007
100
AcDbLine
 10
-33.998249611599
 20
696.897465457277
 30
0.0
 11
-33.726524003699
 21
696.795301223177
 31
0.0
  0
LINE
  5
118
330
18
100
AcDbEntity
  8
0020010007
100
AcDbLine
 10
-33.7265240037013
 20
696.7953012231779
 30
0.0
 11
-33.4527920572014
 21
696.694175894277
 31
0.0
  0
LINE
  5
119
330
18
100
AcDbEntity
  8
0020010007
100
AcDbLine
 10
-33.4527920572
 20
696.694175894277
 30
0.0
 11
-33.1770652495
 21
696.594121580977
 31
0.0
  0
LINE
  5
11A
330
18
100
AcDbEntity
  8
0020010007
100
AcDbLine
 10
-33.1770652494997
 20
696.594121580977
 30
0.0
 11
-32.8993543545997
 21
696.495169932477
 31
0.0
  0
LINE
  5
11B
330
18
100
AcDbEntity
  8
0020010007
100
AcDbLine
 10
-32.8993543545985
 20
696.495169932477
 30
0.0
 11
-32.6196745921985
 21
696.397353948777
 31
0.0
  0
LINE
  5
11C
330
18
100
AcDbEntity
  8
0020010007
100
AcDbLine
 10
-32.6196745921989
 20
696.397353948778
 30
0.0
 11
-32.3380393589989
 21
696.300705708678
 31
0.0
  0
LINE
  5
11D
330
18
100
AcDbEntity
  8
0020010007
100
AcDbLine
 10
-32.3380393590014
 20
696.300705708678
 30
0.0
 11
-32.0544671359014
 21
696.205258736478
 31
0.0
  0
LINE
  5
11E
330
18
100
AcDbEntity
  8
0020010007
100
AcDbLine
 10
-32.0544671358984
 20
696.205258736478
 30
0.0
 11
-31.7689755596984
 21
696.1110459024781
 31
0.0
  0
LINE
  5
11F
330
18
100
AcDbEntity
  8
0020010007
100
AcDbLine
 10
-31.7689755596984
 20
696.111045902477
 30
0.0
 11
-31.4815829202985
 21
696.018099935277
 31
0.0
  0
LINE
  5
120
330
18
100
AcDbEntity
  8
0020010007
100
AcDbLine
 10
-31.4815829202998
 20
696.018099935278
 30
0.0
 11
-31.1923078372998
 21
695.926453302978
 31
0.0
  0
LINE
  5
121
330
18
100
AcDbEntity
  8
0020010007
100
AcDbLine
 10
-31.1923078373002
 20
695.9264533029771
 30
0.0
 11
-30.9011693241002
 21
695.836138227777
 31
0.0
  0
LINE
  5
122
330
18
100
AcDbEntity
  8
0020010007
100
AcDbLine
 10
-30.9011693241009
 20
695.836138227777
 30
0.0
 11
-30.6081867875009
 21
695.747186676977
 31
0.0
  0
LINE
  5
123
330
18
100
AcDbEntity
  8
0020010007
100
AcDbLine
 10
-30.6081867875
 20
695.747186676977
 30
0.0
 11
-30.3133800263
 21
695.659630355177
 31
0.0
  0
LINE
  5
124
330
18
100
AcDbEntity
  8
0020010007
100
AcDbLine
 10
-30.3133800262985
 20
695.659630355177
 30
0.0
 11
-30.0167692311985
 21
695.573500696077
 31
0.0
  0
LINE
  5
125
330
18
100
AcDbEntity
  8
0020010007
100
AcDbLine
 10
-30.0167692311989
 20
695.573500696077
 30
0.0
 11
-29.7183749828989
 21
695.488828854177
 31
0.0
  0
LINE
  5
126
330
18
100
AcDbEntity
  8
0020010007
100
AcDbLine
 10
-29.7183749829019
 20
695.488828854178
 30
0.0
 11
-29.4182182510019
 21
695.405645696978
 31
0.0
  0
LINE
  5
127
330
18
100
AcDbEntity
  8
0020010007
100
AcDbLine
 10
-29.4182182510012
 20
695.405645696977
 30
0.0
 11
-29.1163203923012
 21
695.3239817962771
 31
0.0
  0
LINE
  5
128
330
18
100
AcDbEntity
  8
0020010007
100
AcDbLine
 10
-29.1163203922988
 20
695.3239817962771
 30
0.0
 11
-28.8127031494988
 21
695.243867420877
 31
0.0
  0
LINE
  5
129
330
18
100
AcDbEntity
  8
0020010007
100
AcDbLine
 10
-28.8127031494987
 20
695.243867420878
 30
0.0
 11
-28.5073886486987
 21
695.165332527878
 31
0.0
  0
LINE
  5
12A
330
18
100
AcDbEntity
  8
0020010007
100
AcDbLine
 10
-28.5073886487007
 20
695.165332527877
 30
0.0
 11
-28.2003993973007
 21
695.088406754877
 31
0.0
  0
LINE
  5
12B
330
18
100
AcDbEntity
  8
0020010007
100
AcDbLine
 10
-28.2003993973012
 20
695.088406754877
 30
0.0
 11
-27.8917582821012
 21
695.013119412477
 31
0.0
  0
LINE
  5
12C
330
18
100
AcDbEntity
  8
0020010007
100
AcDbLine
 10
-27.8917582821014
 20
695.013119412478
 30
0.0
 11
-27.5814885665014
 21
694.939499475478
 31
0.0
  0
LINE
  5
12D
330
18
100
AcDbEntity
  8
0020010007
100
AcDbLine
 10
-27.5814885664986
 20
694.939499475477
 30
0.0
 11
-27.2696138876986
 21
694.867575575777
 31
0.0
  0
LINE
  5
12E
330
18
100
AcDbEntity
  8
0020010007
100
AcDbLine
 10
-27.2696138877
 20
694.867575575777
 30
0.0
 11
-26.9561582543
 21
694.797375994377
 31
0.0
  0
LINE
  5
12F
330
18
100
AcDbEntity
  8
0020010007
100
AcDbLine
 10
-26.9561582542992
 20
694.7973759943779
 30
0.0
 11
-26.6411460424992
 21
694.728928653478
 31
0.0
  0
LINE
  5
130
330
18
100
AcDbEntity
  8
0020010007
100
AcDbLine
 10
-26.6411460425006
 20
694.728928653478
 30
0.0
 11
-26.3246019934006
 21
694.662261108678
 31
0.0
  0
LINE
  5
131
330
18
100
AcDbEntity
  8
0020010007
100
AcDbLine
 10
-26.3246019934013
 20
694.6622611086769
 30
0.0
 11
-26.0065512094013
 21
694.597400541677
 31
0.0
  0
LINE
  5
132
330
18
100
AcDbEntity
  8
0020010007
100
AcDbLine
 10
-26.0065512094006
 20
694.597400541677
 30
0.0
 11
-25.6870223326007
 21
694.534374369677
 31
0.0
  0
LINE
  5
133
330
18
100
AcDbEntity
  8
0020010007
100
AcDbLine
 10
-25.6870223326005
 20
694.534374369677
 30
0.0
 11
-25.3660316311005
 21
694.473207152477
 31
0.0
  0
LINE
  5
134
330
18
100
AcDbEntity
  8
0020010007
100
AcDbLine
 10
-25.3660316310998
 20
694.473207152477
 30
0.0
 11
-25.0436621154998
 21
694.413935294077
 31
0.0
  0
LINE
  5
135
330
18
100
AcDbEntity
  8
0020010007
100
AcDbLine
 10
-25.0436621154986
 20
694.413935294077
 30
0.0
 11
-24.7197441176986
 21
694.356549291677
 31
0.0
  0
LINE
  5
136
330
18
100
AcDbEntity
  8
0020010007
100
AcDbLine
 10
-24.7197441177013
 20
694.356549291677
 30
0.0
 11
-24.3942290438013
 21
694.301064670477
 31
0.0
  0
LINE
  5
137
330
18
100
AcDbEntity
  8
0020010007
100
AcDbLine
 10
-24.394229043799
 20
694.301064670478
 30
0.0
 11
-24.066835195399
 21
694.247461136978
 31
0.0
  0
LINE
  5
138
330
18
100
AcDbEntity
  8
0020010007
100
AcDbLine
 10
-24.0668351954009
 20
694.247461136977
 30
0.0
 11
-23.7373404987009
 21
694.1957354258771
 31
0.0
  0
LINE
  5
139
330
18
100
AcDbEntity
  8
0020010007
100
AcDbLine
 10
-23.7373404987011
 20
694.1957354258771
 30
0.0
 11
-23.4055136748011
 21
694.145889238177
 31
0.0
  0
LINE
  5
13A
330
18
100
AcDbEntity
  8
0020010007
100
AcDbLine
 10
-23.4055136747993
 20
694.145889238178
 30
0.0
 11
-23.0711251420993
 21
694.097931148478
 31
0.0
  0
LINE
  5
13B
330
18
100
AcDbEntity
  8
0020010007
100
AcDbLine
 10
-23.0711251421017
 20
694.097931148477
 30
0.0
 11
-22.7339449537017
 21
694.051876354977
 31
0.0
  0
LINE
  5
13C
330
18
100
AcDbEntity
  8
0020010007
100
AcDbLine
 10
-22.7339449536994
 20
694.051876354977
 30
0.0
 11
-22.3937428993994
 21
694.007746800977
 31
0.0
  0
LINE
  5
13D
330
18
100
AcDbEntity
  8
0020010007
100
AcDbLine
 10
-22.3937428993995
 20
694.007746800977
 30
0.0
 11
-22.0502886104995
 21
693.965571307177
 31
0.0
  0
LINE
  5
13E
330
18
100
AcDbEntity
  8
0020010007
100
AcDbLine
 10
-22.0502886104987
 20
693.965571307178
 30
0.0
 11
-21.7033516687987
 21
693.925385713878
 31
0.0
  0
LINE
  5
13F
330
18
100
AcDbEntity
  8
0020010007
100
AcDbLine
 10
-21.7033516687989
 20
693.925385713878
 30
0.0
 11
-21.3527017202989
 21
693.8872330336779
 31
0.0
  0
LINE
  5
140
330
18
100
AcDbEntity
  8
0020010007
100
AcDbLine
 10
-21.3527017203014
 20
693.887233033677
 30
0.0
 11
-20.9981085939014
 21
693.851163613477
 31
0.0
  0
LINE
  5
141
330
18
100
AcDbEntity
  8
0020010007
100
AcDbLine
 10
-20.9981085938998
 20
693.851163613477
 30
0.0
 11
-20.6393424263998
 21
693.8172353079769
 31
0.0
  0
LINE
  5
142
330
18
100
AcDbEntity
  8
0020010007
100
AcDbLine
 10
-20.6393424263988
 20
693.8172353079769
 30
0.0
 11
-20.2761737937988
 21
693.7855136615771
 31
0.0
  0
LINE
  5
143
330
18
100
AcDbEntity
  8
0020010007
100
AcDbLine
 10
-20.2761737938017
 20
693.7855136615771
 30
0.0
 11
-19.9083738494017
 21
693.756072101277
 31
0.0
  0
LINE
  5
144
330
18
100
AcDbEntity
  8
0020010007
100
AcDbLine
 10
-19.908373849401
 20
693.756072101277
 30
0.0
 11
-19.535714471201
 21
693.728992138177
 31
0.0
  0
LINE
  5
145
330
18
100
AcDbEntity
  8
0020010007
100
AcDbLine
 10
-19.5357144711998
 20
693.728992138177
 30
0.0
 11
-19.1579684164998
 21
693.704363579477
 31
0.0
  0
LINE
  5
146
330
18
100
AcDbEntity
  8
0020010007
100
AcDbLine
 10
-19.1579684165008
 20
693.704363579477
 30
0.0
 11
-18.7749094870008
 21
693.682284748577
 31
0.0
  0
LINE
  5
147
330
18
100
AcDbEntity
  8
0020010007
100
AcDbLine
 10
-18.7749094870014
 20
693.682284748577
 30
0.0
 11
-18.3863127037014
 21
693.662862715277
 31
0.0
  0
LINE
  5
148
330
18
100
AcDbEntity
  8
0020010007
100
AcDbLine
 10
-18.3863127037002
 20
693.662862715277
 30
0.0
 11
-17.9919544930002
 21
693.646213533977
 31
0.0
  0
LINE
  5
149
330
18
100
AcDbEntity
  8
0020010007
100
AcDbLine
 10
-17.9919544930017
 20
693.646213533978
 30
0.0
 11
-17.5916128852017
 21
693.632462490578
 31
0.0
  0
LINE
  5
14A
330
18
100
AcDbEntity
  8
0020010007
100
AcDbLine
 10
-17.5916128852004
 20
693.632462490578
 30
0.0
 11
40.6483928302995
 21
692.106948556577
 31
0.0
  0
LINE
  5
14B
330
18
100
AcDbEntity
  8
0020010007
100
AcDbLine
 10
-40.7021504449986
 20
700.017852347877
 30
0.0
 11
-40.3257643877986
 21
699.810017425077
 31
0.0
  0
LINE
  5
14C
330
18
100
AcDbEntity
  8
0020010007
100
AcDbLine
 10
-41.0264893653002
 20
700.200316904077
 30
0.0
 11
-40.7021504450002
 21
700.017852347877
 31
0.0
  0
LINE
  5
14D
330
18
100
AcDbEntity
  8
0020010007
100
AcDbLine
 10
-41.3330051146004
 20
700.375658295977
 30
0.0
 11
-41.0264893653004
 21
700.200316904077
 31
0.0
  0
LINE
  5
14E
330
18
100
AcDbEntity
  8
0020010007
100
AcDbLine
 10
-41.6274575257994
 20
700.546788351777
 30
0.0
 11
-41.3330051145994
 21
700.375658295977
 31
0.0
  0
LINE
  5
14F
330
18
100
AcDbEntity
  8
0020010007
100
AcDbLine
 10
-41.9163124475999
 20
700.717256497278
 30
0.0
 11
-41.6274575257999
 21
700.546788351778
 31
0.0
  0
LINE
  5
150
330
18
100
AcDbEntity
  8
0020010007
100
AcDbLine
 10
-42.2020678658009
 20
700.888450576377
 30
0.0
 11
-41.9163124476009
 21
700.7172564972771
 31
0.0
  0
LINE
  5
151
330
18
100
AcDbEntity
  8
0020010007
100
AcDbLine
 10
-42.4846957925001
 20
701.060300506377
 30
0.0
 11
-42.2020678658001
 21
700.888450576377
 31
0.0
  0
LINE
  5
152
330
18
100
AcDbEntity
  8
0020010007
100
AcDbLine
 10
510.3953511736
 20
685.254512163477
 30
0.0
 11
497.4289914986
 21
681.780186559777
 31
0.0
  0
LINE
  5
153
330
18
100
AcDbEntity
  8
0020010007
100
AcDbLine
 10
44.6046488264983
 20
685.254512163477
 30
0.0
 11
57.5710085014983
 21
681.780186559777
 31
0.0
  0
LINE
  5
154
330
18
100
AcDbEntity
  8
0020010007
100
AcDbLine
 10
537.2949129802
 20
692.707740165177
 30
0.0
 11
538.0571015301
 21
692.733447703877
 31
0.0
  0
LINE
  5
155
330
18
100
AcDbEntity
  8
0020010007
100
AcDbLine
 10
538.057101530099
 20
692.733447703877
 30
0.0
 11
539.6025039198991
 21
692.820929579677
 31
0.0
  0
LINE
  5
156
330
18
100
AcDbEntity
  8
0020010007
100
AcDbLine
 10
539.602503919901
 20
692.820929579677
 30
0.0
 11
541.1445069300009
 21
692.955639487377
 31
0.0
  0
LINE
  5
157
330
18
100
AcDbEntity
  8
0020010007
100
AcDbLine
 10
541.144506929999
 20
692.955639487377
 30
0.0
 11
542.681667713799
 21
693.137451337677
 31
0.0
  0
LINE
  5
158
330
18
100
AcDbEntity
  8
0020010007
100
AcDbLine
 10
542.681667713801
 20
693.137451337677
 30
0.0
 11
544.212547917501
 21
693.366194972677
 31
0.0
  0
LINE
  5
159
330
18
100
AcDbEntity
  8
0020010007
100
AcDbLine
 10
544.212547917501
 20
693.366194972677
 30
0.0
 11
545.735715064901
 21
693.641656326677
 31
0.0
  0
LINE
  5
15A
330
18
100
AcDbEntity
  8
0020010007
100
AcDbLine
 10
545.7357150649
 20
693.641656326677
 30
0.0
 11
547.2497438968001
 21
693.963577626377
 31
0.0
  0
LINE
  5
15B
330
18
100
AcDbEntity
  8
0020010007
100
AcDbLine
 10
547.249743896798
 20
693.963577626377
 30
0.0
 11
548.753217704298
 21
694.331657631977
 31
0.0
  0
LINE
  5
15C
330
18
100
AcDbEntity
  8
0020010007
100
AcDbLine
 10
548.753217704299
 20
694.331657631977
 30
0.0
 11
550.2447296539
 21
694.745551919077
 31
0.0
  0
LINE
  5
15D
330
18
100
AcDbEntity
  8
0020010007
100
AcDbLine
 10
550.244729653899
 20
694.745551919077
 30
0.0
 11
551.722884103399
 21
695.2048732008771
 31
0.0
  0
LINE
  5
15E
330
18
100
AcDbEntity
  8
0020010007
100
AcDbLine
 10
551.722884103401
 20
695.204873200878
 30
0.0
 11
553.186297906701
 21
695.709191690278
 31
0.0
  0
LINE
  5
15F
330
18
100
AcDbEntity
  8
0020010007
100
AcDbLine
 10
553.186297906701
 20
695.709191690277
 30
0.0
 11
554.633601708501
 21
696.258035501778
 31
0.0
  0
LINE
  5
160
330
18
100
AcDbEntity
  8
0020010007
100
AcDbLine
 10
554.633601708501
 20
696.258035501777
 30
0.0
 11
556.0634412240011
 21
696.850891092977
 31
0.0
  0
LINE
  5
161
330
18
100
AcDbEntity
  8
0020010007
100
AcDbLine
 10
556.063441224
 20
696.850891092977
 30
0.0
 11
557.4744785065
 21
697.487203744877
 31
0.0
  0
LINE
  5
162
330
18
100
AcDbEntity
  8
0020010007
100
AcDbLine
 10
557.474478506501
 20
697.487203744877
 30
0.0
 11
558.865393231701
 21
698.166378097477
 31
0.0
  0
LINE
  5
163
330
18
100
AcDbEntity
  8
0020010007
100
AcDbLine
 10
558.865393231699
 20
698.166378097477
 30
0.0
 11
560.234883765599
 21
698.887778621477
 31
0.0
  0
LINE
  5
164
330
18
100
AcDbEntity
  8
0020010007
100
AcDbLine
 10
560.234883765599
 20
698.887778621477
 30
0.0
 11
561.581668690099
 21
699.650730367377
 31
0.0
  0
LINE
  5
165
330
18
100
AcDbEntity
  8
0020010007
100
AcDbLine
 10
561.581668690098
 20
699.650730367378
 30
0.0
 11
562.904487291098
 21
700.454519184578
 31
0.0
  0
LINE
  5
166
330
18
100
AcDbEntity
  8
0020010007
100
AcDbLine
 10
562.9044872911001
 20
700.454519184577
 30
0.0
 11
564.2021014739
 21
701.298392768677
 31
0.0
  0
LINE
  5
167
330
18
100
AcDbEntity
  8
0020010007
100
AcDbLine
 10
564.2021014739
 20
701.298392768677
 30
0.0
 11
565.4732966145
 21
702.181561181778
 31
0.0
  0
LINE
  5
168
330
18
100
AcDbEntity
  8
0020010007
100
AcDbLine
 10
565.4732966144981
 20
702.181561181778
 30
0.0
 11
566.716882875398
 21
703.103197697277
 31
0.0
  0
LINE
  5
169
330
18
100
AcDbEntity
  8
0020010007
100
AcDbLine
 10
566.7168828754
 20
703.103197697277
 30
0.0
 11
567.9316962862
 21
704.062439554277
 31
0.0
  0
LINE
  5
16A
330
18
100
AcDbEntity
  8
0020010007
100
AcDbLine
 10
567.931696286199
 20
704.062439554277
 30
0.0
 11
569.1165997247
 21
705.058388671577
 31
0.0
  0
LINE
  5
16B
330
18
100
AcDbEntity
  8
0020010007
100
AcDbLine
 10
569.116599724701
 20
705.058388671577
 30
0.0
 11
570.270484537901
 21
706.090112970577
 31
0.0
  0
LINE
  5
16C
330
18
100
AcDbEntity
  8
0020010007
100
AcDbLine
 10
570.270484537901
 20
706.090112970577
 30
0.0
 11
571.392270548601
 21
707.156646363777
 31
0.0
  0
LINE
  5
16D
330
18
100
AcDbEntity
  8
0020010007
100
AcDbLine
 10
571.3922705486
 20
707.156646363777
 30
0.0
 11
572.4809094234
 21
708.256991943877
 31
0.0
  0
LINE
  5
16E
330
18
100
AcDbEntity
  8
0020010007
100
AcDbLine
 10
572.480909423401
 20
708.256991943877
 30
0.0
 11
573.535383164001
 21
709.390120731677
 31
0.0
  0
LINE
  5
16F
330
18
100
AcDbEntity
  8
0020010007
100
AcDbLine
 10
573.535383163999
 20
709.390120731677
 30
0.0
 11
574.554706087999
 21
710.554973663977
 31
0.0
  0
LINE
  5
170
330
18
100
AcDbEntity
  8
0020010007
100
AcDbLine
 10
574.554706088002
 20
710.554973663977
 30
0.0
 11
575.537925145002
 21
711.750461989977
 31
0.0
  0
LINE
  5
171
330
18
100
AcDbEntity
  8
0020010007
100
AcDbLine
 10
575.537925144999
 20
711.750461989977
 30
0.0
 11
576.484120920499
 21
712.975468396877
 31
0.0
  0
LINE
  5
172
330
18
100
AcDbEntity
  8
0020010007
100
AcDbLine
 10
576.484120920501
 20
712.975468396877
 30
0.0
 11
577.392408799401
 21
714.228848489277
 31
0.0
  0
LINE
  5
173
330
18
100
AcDbEntity
  8
0020010007
100
AcDbLine
 10
577.392408799398
 20
714.228848489278
 30
0.0
 11
578.261938231698
 21
715.509429631078
 31
0.0
  0
LINE
  5
174
330
18
100
AcDbEntity
  8
0020010007
100
AcDbLine
 10
578.261938231699
 20
715.509429631077
 30
0.0
 11
579.091896453899
 21
716.816016174577
 31
0.0
  0
LINE
  5
175
330
18
100
AcDbEntity
  8
0020010007
100
AcDbLine
 10
579.091896453901
 20
716.816016174577
 30
0.0
 11
579.881502722701
 21
718.147380072577
 31
0.0
  0
LINE
  5
176
330
18
100
AcDbEntity
  8
0020010007
100
AcDbLine
 10
579.881502722699
 20
718.147380072577
 30
0.0
 11
580.630016162399
 21
719.502272309377
 31
0.0
  0
LINE
  5
177
330
18
100
AcDbEntity
  8
0020010007
100
AcDbLine
 10
580.630016162399
 20
719.502272309377
 30
0.0
 11
581.336733601499
 21
720.879419316477
 31
0.0
  0
LINE
  5
178
330
18
100
AcDbEntity
  8
0020010007
100
AcDbLine
 10
581.3367336015
 20
720.879419316477
 30
0.0
 11
582.0009919404
 21
722.277526955677
 31
0.0
  0
LINE
  5
179
330
18
100
AcDbEntity
  8
0020010007
100
AcDbLine
 10
582.0009919404
 20
722.277526955677
 30
0.0
 11
582.6221684545
 21
723.695281223277
 31
0.0
  0
LINE
  5
17A
330
18
100
AcDbEntity
  8
0020010007
100
AcDbLine
 10
582.622168454498
 20
723.695281223277
 30
0.0
 11
583.199681412298
 21
725.131349570377
 31
0.0
  0
LINE
  5
17B
330
18
100
AcDbEntity
  8
0020010007
100
AcDbLine
 10
583.199681412301
 20
725.131349570377
 30
0.0
 11
583.732990544401
 21
726.584381959777
 31
0.0
  0
LINE
  5
17C
330
18
100
AcDbEntity
  8
0020010007
100
AcDbLine
 10
583.732990544398
 20
726.584381959777
 30
0.0
 11
584.221597605898
 21
728.053012213077
 31
0.0
  0
LINE
  5
17D
330
18
100
AcDbEntity
  8
0020010007
100
AcDbLine
 10
584.221597605901
 20
728.053012213077
 30
0.0
 11
584.665047135702
 21
729.535860251677
 31
0.0
  0
LINE
  5
17E
330
18
100
AcDbEntity
  8
0020010007
100
AcDbLine
 10
584.665047135699
 20
729.535860251677
 30
0.0
 11
585.062926397799
 21
731.031531971377
 31
0.0
  0
LINE
  5
17F
330
18
100
AcDbEntity
  8
0020010007
100
AcDbLine
 10
585.062926397801
 20
731.031531971377
 30
0.0
 11
585.414707006201
 21
732.537940417277
 31
0.0
  0
LINE
  5
180
330
18
100
AcDbEntity
  8
0020010007
100
AcDbLine
 10
537.2949129802
 20
692.707740163077
 30
0.0
 11
514.3516071697
 21
692.106948556577
 31
0.0
  0
LINE
  5
181
330
18
100
AcDbEntity
  8
0020010007
100
AcDbLine
 10
497.4289914986
 20
681.780186559777
 30
0.0
 11
407.5710085015
 21
681.780186559777
 31
0.0
  0
LINE
  5
182
330
18
100
AcDbEntity
  8
0020010007
100
AcDbLine
 10
147.4289914986
 20
681.780186559777
 30
0.0
 11
57.5710085015002
 21
681.780186559777
 31
0.0
  0
LINE
  5
183
330
18
100
AcDbEntity
  8
0020010007
100
AcDbLine
 10
510.3953511736
 20
685.254512163477
 30
0.0
 11
394.6046488265
 21
685.254512163477
 31
0.0
  0
LINE
  5
184
330
18
100
AcDbEntity
  8
0020010007
100
AcDbLine
 10
160.3953511736
 20
685.254512163477
 30
0.0
 11
44.6046488265
 21
685.254512163477
 31
0.0
  0
LINE
  5
185
330
18
100
AcDbEntity
  8
0020010007
100
AcDbLine
 10
514.351607169701
 20
692.106948556577
 30
0.0
 11
390.648392830301
 21
692.106948556577
 31
0.0
  0
LINE
  5
186
330
18
100
AcDbEntity
  8
0020010007
100
AcDbLine
 10
164.351607169701
 20
692.106948556577
 30
0.0
 11
40.6483928303013
 21
692.106948556577
 31
0.0
  0
LINE
  5
187
330
18
100
AcDbEntity
  8
0020010007
100
AcDbLine
 10
164.351607169701
 20
692.106948556577
 30
0.0
 11
160.395351173601
 21
685.254512163477
 31
0.0
  0
LINE
  5
188
330
18
100
AcDbEntity
  8
0020010007
100
AcDbLine
 10
279.055743573601
 20
829.144498824477
 30
0.0
 11
279.107233518001
 21
829.164326877877
 31
0.0
  0
LINE
  5
189
330
18
100
AcDbEntity
  8
0020010007
100
AcDbLine
 10
279.107233518
 20
829.164326877877
 30
0.0
 11
279.1969030814
 21
829.196947126877
 31
0.0
  0
LINE
  5
18A
330
18
100
AcDbEntity
  8
0020010007
100
AcDbLine
 10
279.1969030814
 20
829.196947126877
 30
0.0
 11
279.2798528325
 21
829.225532758577
 31
0.0
  0
LINE
  5
18B
330
18
100
AcDbEntity
  8
0020010007
100
AcDbLine
 10
279.2798528325
 20
829.225532758577
 30
0.0
 11
279.3572965653
 21
829.250867857077
 31
0.0
  0
LINE
  5
18C
330
18
100
AcDbEntity
  8
0020010007
100
AcDbLine
 10
279.3572965653
 20
829.250867857077
 30
0.0
 11
279.4297339298
 21
829.273402162377
 31
0.0
  0
LINE
  5
18D
330
18
100
AcDbEntity
  8
0020010007
100
AcDbLine
 10
279.429733929799
 20
829.273402162377
 30
0.0
 11
279.498136671099
 21
829.2936644677779
 31
0.0
  0
LINE
  5
18E
330
18
100
AcDbEntity
  8
0020010007
100
AcDbLine
 10
279.4981366711
 20
829.2936644677779
 30
0.0
 11
279.5624676768
 21
829.311830980178
 31
0.0
  0
LINE
  5
18F
330
18
100
AcDbEntity
  8
0020010007
100
AcDbLine
 10
234.618443384101
 20
695.460913581278
 30
0.0
 11
234.993710358701
 21
695.566887033578
 31
0.0
  0
LINE
  5
190
330
18
100
AcDbEntity
  8
0020010007
100
AcDbLine
 10
234.2406932825
 20
695.357382362677
 30
0.0
 11
234.6184433841
 21
695.4609135812771
 31
0.0
  0
LINE
  5
191
330
18
100
AcDbEntity
  8
0020010007
100
AcDbLine
 10
160.3953511736
 20
685.254512163477
 30
0.0
 11
147.4289914986
 21
681.780186559777
 31
0.0
  0
LINE
  5
192
330
18
100
AcDbEntity
  8
0020010007
100
AcDbLine
 10
233.8604595207
 20
695.2563352269769
 30
0.0
 11
234.2406932825
 21
695.357382362677
 31
0.0
  0
LINE
  5
193
330
18
100
AcDbEntity
  8
0020010007
100
AcDbLine
 10
233.477742071602
 20
695.157814573677
 30
0.0
 11
233.860459520702
 21
695.2563352269769
 31
0.0
  0
LINE
  5
194
330
18
100
AcDbEntity
  8
0020010007
100
AcDbLine
 10
233.092541428399
 20
695.061863352277
 30
0.0
 11
233.477742071599
 21
695.157814573677
 31
0.0
  0
LINE
  5
195
330
18
100
AcDbEntity
  8
0020010007
100
AcDbLine
 10
232.704858618799
 20
694.968525062278
 30
0.0
 11
233.092541428399
 21
695.061863352278
 31
0.0
  0
LINE
  5
196
330
18
100
AcDbEntity
  8
0020010007
100
AcDbLine
 10
232.314695219498
 20
694.877843752177
 30
0.0
 11
232.704858618798
 21
694.968525062277
 31
0.0
  0
LINE
  5
197
330
18
100
AcDbEntity
  8
0020010007
100
AcDbLine
 10
231.922053370501
 20
694.789864018877
 30
0.0
 11
232.314695219501
 21
694.877843752177
 31
0.0
  0
LINE
  5
198
330
18
100
AcDbEntity
  8
0020010007
100
AcDbLine
 10
231.5269357904
 20
694.704631006677
 30
0.0
 11
231.9220533705
 21
694.789864018877
 31
0.0
  0
LINE
  5
199
330
18
100
AcDbEntity
  8
0020010007
100
AcDbLine
 10
231.129345790901
 20
694.622190405977
 30
0.0
 11
231.526935790401
 21
694.704631006677
 31
0.0
  0
LINE
  5
19A
330
18
100
AcDbEntity
  8
0020010007
100
AcDbLine
 10
230.729287292401
 20
694.542588451777
 30
0.0
 11
231.129345790901
 21
694.622190405977
 31
0.0
  0
LINE
  5
19B
330
18
100
AcDbEntity
  8
0020010007
100
AcDbLine
 10
230.326764839301
 20
694.465871921677
 30
0.0
 11
230.729287292401
 21
694.542588451777
 31
0.0
  0
LINE
  5
19C
330
18
100
AcDbEntity
  8
0020010007
100
AcDbLine
 10
229.921783615799
 20
694.392088134677
 30
0.0
 11
230.326764839299
 21
694.465871921677
 31
0.0
  0
LINE
  5
19D
330
18
100
AcDbEntity
  8
0020010007
100
AcDbLine
 10
229.5143494613
 20
694.321284947977
 30
0.0
 11
229.9217836158
 21
694.392088134677
 31
0.0
  0
LINE
  5
19E
330
18
100
AcDbEntity
  8
0020010007
100
AcDbLine
 10
229.104468886901
 20
694.253510755077
 30
0.0
 11
229.514349461301
 21
694.321284947977
 31
0.0
  0
LINE
  5
19F
330
18
100
AcDbEntity
  8
0020010007
100
AcDbLine
 10
228.692149091599
 20
694.1888144827771
 30
0.0
 11
229.104468886899
 21
694.253510755077
 31
0.0
  0
LINE
  5
1A0
330
18
100
AcDbEntity
  8
0020010007
100
AcDbLine
 10
228.277397978301
 20
694.127245588377
 30
0.0
 11
228.692149091601
 21
694.1888144827771
 31
0.0
  0
LINE
  5
1A1
330
18
100
AcDbEntity
  8
0020010007
100
AcDbLine
 10
227.860224171
 20
694.068854055877
 30
0.0
 11
228.2773979783
 21
694.127245588377
 31
0.0
  0
LINE
  5
1A2
330
18
100
AcDbEntity
  8
0020010007
100
AcDbLine
 10
227.440637031199
 20
694.013690392777
 30
0.0
 11
227.860224170999
 21
694.068854055877
 31
0.0
  0
LINE
  5
1A3
330
18
100
AcDbEntity
  8
0020010007
100
AcDbLine
 10
227.0186466753
 20
693.961805625677
 30
0.0
 11
227.4406370312
 21
694.013690392777
 31
0.0
  0
LINE
  5
1A4
330
18
100
AcDbEntity
  8
0020010007
100
AcDbLine
 10
226.594263991599
 20
693.9132512964781
 30
0.0
 11
227.018646675299
 21
693.961805625678
 31
0.0
  0
LINE
  5
1A5
330
18
100
AcDbEntity
  8
0020010007
100
AcDbLine
 10
226.167500657699
 20
693.868079457577
 30
0.0
 11
226.594263991599
 21
693.913251296477
 31
0.0
  0
LINE
  5
1A6
330
18
100
AcDbEntity
  8
0020010007
100
AcDbLine
 10
225.738369158298
 20
693.8263426668771
 30
0.0
 11
226.167500657698
 21
693.868079457577
 31
0.0
  0
LINE
  5
1A7
330
18
100
AcDbEntity
  8
0020010007
100
AcDbLine
 10
225.306882802899
 20
693.788093982577
 30
0.0
 11
225.738369158299
 21
693.8263426668771
 31
0.0
  0
LINE
  5
1A8
330
18
100
AcDbEntity
  8
0020010007
100
AcDbLine
 10
224.873055743701
 20
693.753386957677
 30
0.0
 11
225.306882802901
 21
693.788093982578
 31
0.0
  0
LINE
  5
1A9
330
18
100
AcDbEntity
  8
0020010007
100
AcDbLine
 10
224.436902994199
 20
693.722275633878
 30
0.0
 11
224.873055743699
 21
693.753386957678
 31
0.0
  0
LINE
  5
1AA
330
18
100
AcDbEntity
  8
0020010007
100
AcDbLine
 10
223.998440447001
 20
693.694814535277
 30
0.0
 11
224.436902994201
 21
693.722275633877
 31
0.0
  0
LINE
  5
1AB
330
18
100
AcDbEntity
  8
0020010007
100
AcDbLine
 10
222.669366526901
 20
693.634884924878
 30
0.0
 11
222.892291162501
 21
693.6424936120781
 31
0.0
  0
LINE
  5
1AC
330
18
100
AcDbEntity
  8
0020010007
100
AcDbLine
 10
222.892291162501
 20
693.642493612077
 30
0.0
 11
223.114654038401
 21
693.651063481777
 31
0.0
  0
LINE
  5
1AD
330
18
100
AcDbEntity
  8
0020010007
100
AcDbLine
 10
223.1146540384
 20
693.651063481777
 30
0.0
 11
223.336452735
 21
693.660587500277
 31
0.0
  0
LINE
  5
1AE
330
18
100
AcDbEntity
  8
0020010007
100
AcDbLine
 10
223.336452734999
 20
693.660587500278
 30
0.0
 11
223.557684892699
 21
693.671058661778
 31
0.0
  0
LINE
  5
1AF
330
18
100
AcDbEntity
  8
0020010007
100
AcDbLine
 10
223.557684892701
 20
693.671058661777
 30
0.0
 11
223.998440447001
 21
693.6948145352781
 31
0.0
  0
LINE
  5
1B0
330
18
100
AcDbEntity
  8
0020010007
100
AcDbLine
 10
222.669366526901
 20
693.634884924878
 30
0.0
 11
164.351607169701
 21
692.106948556578
 31
0.0
  0
LINE
  5
1B1
330
18
100
AcDbEntity
  8
0020010007
100
AcDbLine
 10
367.7050870198
 20
692.707740163077
 30
0.0
 11
390.6483928303
 21
692.106948556577
 31
0.0
  0
LINE
  5
1B2
330
18
100
AcDbEntity
  8
0020010007
100
AcDbLine
 10
365.397496080099
 20
692.820929579677
 30
0.0
 11
366.942898469999
 21
692.733447703877
 31
0.0
  0
LINE
  5
1B3
330
18
100
AcDbEntity
  8
0020010007
100
AcDbLine
 10
366.942898469999
 20
692.733447703877
 30
0.0
 11
367.705087019799
 21
692.707740165177
 31
0.0
  0
LINE
  5
1B4
330
18
100
AcDbEntity
  8
0020010007
100
AcDbLine
 10
394.604648826498
 20
685.254512163477
 30
0.0
 11
407.571008501498
 21
681.780186559777
 31
0.0
  0
LINE
  5
1B5
330
18
100
AcDbEntity
  8
0020010007
100
AcDbLine
 10
275.599999999999
 20
824.106948730377
 30
0.0
 11
275.599999999999
 21
820.106948556577
 31
0.0
  0
LINE
  5
1B6
330
18
100
AcDbEntity
  8
0020010007
100
AcDbLine
 10
271.4184079968
 20
739.323744523078
 30
0.0
 11
271.444003145
 21
739.5952160205781
 31
0.0
  0
LINE
  5
1B7
330
18
100
AcDbEntity
  8
0020010007
100
AcDbLine
 10
271.394227877201
 20
739.080581665277
 30
0.0
 11
271.418407996801
 21
739.323744523078
 31
0.0
  0
LINE
  5
1B8
330
18
100
AcDbEntity
  8
0020010007
100
AcDbLine
 10
271.3714478402
 20
738.861704270977
 30
0.0
 11
271.3942278772
 21
739.080581665277
 31
0.0
  0
LINE
  5
1B9
330
18
100
AcDbEntity
  8
0020010007
100
AcDbLine
 10
271.345041888999
 20
738.618818036278
 30
0.0
 11
271.371447840199
 21
738.861704270978
 31
0.0
  0
LINE
  5
1BA
330
18
100
AcDbEntity
  8
0020010007
100
AcDbLine
 10
271.3192689465
 20
738.391640541977
 30
0.0
 11
271.345041889
 21
738.6188180362771
 31
0.0
  0
LINE
  5
1BB
330
18
100
AcDbEntity
  8
0020010007
100
AcDbLine
 10
271.2904818143
 20
738.148082231578
 30
0.0
 11
271.3192689465
 21
738.391640541978
 31
0.0
  0
LINE
  5
1BC
330
18
100
AcDbEntity
  8
0020010007
100
AcDbLine
 10
271.258570255399
 20
737.8892023740769
 30
0.0
 11
271.290481814299
 21
738.148082231577
 31
0.0
  0
LINE
  5
1BD
330
18
100
AcDbEntity
  8
0020010007
100
AcDbLine
 10
271.229423225199
 20
737.661823512677
 30
0.0
 11
271.258570255399
 21
737.8892023740769
 31
0.0
  0
LINE
  5
1BE
330
18
100
AcDbEntity
  8
0020010007
100
AcDbLine
 10
271.1977930336
 20
737.423830236977
 30
0.0
 11
271.2294232252
 21
737.661823512677
 31
0.0
  0
LINE
  5
1BF
330
18
100
AcDbEntity
  8
0020010007
100
AcDbLine
 10
271.163535690201
 20
737.1753076949771
 30
0.0
 11
271.197793033601
 21
737.423830236977
 31
0.0
  0
LINE
  5
1C0
330
18
100
AcDbEntity
  8
0020010007
100
AcDbLine
 10
271.1265552517
 20
736.916710623377
 30
0.0
 11
271.1635356902
 21
737.1753076949771
 31
0.0
  0
LINE
  5
1C1
330
18
100
AcDbEntity
  8
0020010007
100
AcDbLine
 10
271.0867702168
 20
736.648573376577
 30
0.0
 11
271.1265552517
 21
736.916710623377
 31
0.0
  0
LINE
  5
1C2
330
18
100
AcDbEntity
  8
0020010007
100
AcDbLine
 10
271.0528616007
 20
736.427491274477
 30
0.0
 11
271.0867702168
 21
736.648573376577
 31
0.0
  0
LINE
  5
1C3
330
18
100
AcDbEntity
  8
0020010007
100
AcDbLine
 10
271.017024048699
 20
736.200619641177
 30
0.0
 11
271.052861600699
 21
736.427491274477
 31
0.0
  0
LINE
  5
1C4
330
18
100
AcDbEntity
  8
0020010007
100
AcDbLine
 10
270.9791748592
 20
735.967960781678
 30
0.0
 11
271.0170240487
 21
736.200619641178
 31
0.0
  0
LINE
  5
1C5
330
18
100
AcDbEntity
  8
0020010007
100
AcDbLine
 10
270.939229181098
 20
735.7295188249771
 30
0.0
 11
270.979174859198
 21
735.967960781677
 31
0.0
  0
LINE
  5
1C6
330
18
100
AcDbEntity
  8
0020010007
100
AcDbLine
 10
270.897099907299
 20
735.485299091177
 30
0.0
 11
270.939229181099
 21
735.7295188249771
 31
0.0
  0
LINE
  5
1C7
330
18
100
AcDbEntity
  8
0020010007
100
AcDbLine
 10
270.8526976545
 20
735.2353080462771
 30
0.0
 11
270.8970999073
 21
735.485299091177
 31
0.0
  0
LINE
  5
1C8
330
18
100
AcDbEntity
  8
0020010007
100
AcDbLine
 10
270.805932183699
 20
734.979561032377
 30
0.0
 11
270.852697654499
 21
735.2353080462771
 31
0.0
  0
LINE
  5
1C9
330
18
100
AcDbEntity
  8
0020010007
100
AcDbLine
 10
270.756728456199
 20
734.7181653291771
 30
0.0
 11
270.805932183699
 21
734.979561032377
 31
0.0
  0
LINE
  5
1CA
330
18
100
AcDbEntity
  8
0020010007
100
AcDbLine
 10
270.7050237109
 20
734.451292433077
 30
0.0
 11
270.7567284562
 21
734.7181653291771
 31
0.0
  0
LINE
  5
1CB
330
18
100
AcDbEntity
  8
0020010007
100
AcDbLine
 10
270.6507567753
 20
734.179115739678
 30
0.0
 11
270.7050237109
 21
734.451292433077
 31
0.0
  0
LINE
  5
1CC
330
18
100
AcDbEntity
  8
0020010007
100
AcDbLine
 10
270.5938680361
 20
733.901809361778
 30
0.0
 11
270.6507567753
 21
734.179115739678
 31
0.0
  0
LINE
  5
1CD
330
18
100
AcDbEntity
  8
0020010007
100
AcDbLine
 10
270.5342997111
 20
733.619548554177
 30
0.0
 11
270.5938680361
 21
733.9018093617771
 31
0.0
  0
LINE
  5
1CE
330
18
100
AcDbEntity
  8
0020010007
100
AcDbLine
 10
270.471989445399
 20
733.332479756977
 30
0.0
 11
270.534299711099
 21
733.619548554177
 31
0.0
  0
LINE
  5
1CF
330
18
100
AcDbEntity
  8
0020010007
100
AcDbLine
 10
270.423407346101
 20
733.114052410477
 30
0.0
 11
270.471989445401
 21
733.332479756977
 31
0.0
  0
LINE
  5
1D0
330
18
100
AcDbEntity
  8
0020010007
100
AcDbLine
 10
270.373197681602
 20
732.892956043377
 30
0.0
 11
270.423407346102
 21
733.114052410477
 31
0.0
  0
LINE
  5
1D1
330
18
100
AcDbEntity
  8
0020010007
100
AcDbLine
 10
270.3213218698
 20
732.669200594077
 30
0.0
 11
270.3731976816
 21
732.892956043377
 31
0.0
  0
LINE
  5
1D2
330
18
100
AcDbEntity
  8
0020010007
100
AcDbLine
 10
270.2677408624
 20
732.4427964795771
 30
0.0
 11
270.3213218698
 21
732.669200594077
 31
0.0
  0
LINE
  5
1D3
330
18
100
AcDbEntity
  8
0020010007
100
AcDbLine
 10
270.212415148399
 20
732.213754606678
 30
0.0
 11
270.267740862399
 21
732.442796479578
 31
0.0
  0
LINE
  5
1D4
330
18
100
AcDbEntity
  8
0020010007
100
AcDbLine
 10
270.1553047577
 20
731.982086384777
 30
0.0
 11
270.2124151484
 21
732.213754606677
 31
0.0
  0
LINE
  5
1D5
330
18
100
AcDbEntity
  8
0020010007
100
AcDbLine
 10
270.096369265299
 20
731.7478037374771
 30
0.0
 11
270.155304757699
 21
731.982086384777
 31
0.0
  0
LINE
  5
1D6
330
18
100
AcDbEntity
  8
0020010007
100
AcDbLine
 10
270.035567795101
 20
731.510919115478
 30
0.0
 11
270.096369265301
 21
731.747803737478
 31
0.0
  0
LINE
  5
1D7
330
18
100
AcDbEntity
  8
0020010007
100
AcDbLine
 10
269.972859025002
 20
731.271445508578
 30
0.0
 11
270.035567795102
 21
731.510919115478
 31
0.0
  0
LINE
  5
1D8
330
18
100
AcDbEntity
  8
0020010007
100
AcDbLine
 10
269.908201191
 20
731.0293964588771
 30
0.0
 11
269.972859025
 21
731.271445508577
 31
0.0
  0
LINE
  5
1D9
330
18
100
AcDbEntity
  8
0020010007
100
AcDbLine
 10
269.841552092101
 20
730.784786073277
 30
0.0
 11
269.908201191001
 21
731.0293964588771
 31
0.0
  0
LINE
  5
1DA
330
18
100
AcDbEntity
  8
0020010007
100
AcDbLine
 10
269.772869129902
 20
730.537629156777
 30
0.0
 11
269.841552092102
 21
730.784786073277
 31
0.0
  0
LINE
  5
1DB
330
18
100
AcDbEntity
  8
0020010007
100
AcDbLine
 10
269.702113443102
 20
730.287955647177
 30
0.0
 11
269.772869129902
 21
730.537629156777
 31
0.0
  0
LINE
  5
1DC
330
18
100
AcDbEntity
  8
0020010007
100
AcDbLine
 10
269.629252185699
 20
730.035817011977
 30
0.0
 11
269.702113443099
 21
730.287955647177
 31
0.0
  0
LINE
  5
1DD
330
18
100
AcDbEntity
  8
0020010007
100
AcDbLine
 10
269.554253538801
 20
729.781267431777
 30
0.0
 11
269.629252185701
 21
730.035817011977
 31
0.0
  0
LINE
  5
1DE
330
18
100
AcDbEntity
  8
0020010007
100
AcDbLine
 10
269.4770860588
 20
729.524361346677
 30
0.0
 11
269.5542535388
 21
729.781267431777
 31
0.0
  0
LINE
  5
1DF
330
18
100
AcDbEntity
  8
0020010007
100
AcDbLine
 10
269.397718734399
 20
729.265153568878
 30
0.0
 11
269.477086058799
 21
729.524361346677
 31
0.0
  0
LINE
  5
1E0
330
18
100
AcDbEntity
  8
0020010007
100
AcDbLine
 10
269.316121010899
 20
729.003699278078
 30
0.0
 11
269.397718734399
 21
729.265153568878
 31
0.0
  0
LINE
  5
1E1
330
18
100
AcDbEntity
  8
0020010007
100
AcDbLine
 10
269.232262814399
 20
728.740054016078
 30
0.0
 11
269.316121010899
 21
729.003699278078
 31
0.0
  0
LINE
  5
1E2
330
18
100
AcDbEntity
  8
0020010007
100
AcDbLine
 10
269.1461145752
 20
728.474273681177
 30
0.0
 11
269.2322628144
 21
728.740054016077
 31
0.0
  0
LINE
  5
1E3
330
18
100
AcDbEntity
  8
0020010007
100
AcDbLine
 10
269.0576472516
 20
728.206414522277
 30
0.0
 11
269.1461145752
 21
728.474273681177
 31
0.0
  0
LINE
  5
1E4
330
18
100
AcDbEntity
  8
0020010007
100
AcDbLine
 10
268.966832352202
 20
727.9365331321781
 30
0.0
 11
269.057647251602
 21
728.206414522277
 31
0.0
  0
LINE
  5
1E5
330
18
100
AcDbEntity
  8
0020010007
100
AcDbLine
 10
268.873641959101
 20
727.664686440177
 30
0.0
 11
268.966832352201
 21
727.9365331321781
 31
0.0
  0
LINE
  5
1E6
330
18
100
AcDbEntity
  8
0020010007
100
AcDbLine
 10
268.77804669
 20
727.390925860078
 30
0.0
 11
268.8736419591
 21
727.664686440178
 31
0.0
  0
LINE
  5
1E7
330
18
100
AcDbEntity
  8
0020010007
100
AcDbLine
 10
268.680009392301
 20
727.115280181177
 30
0.0
 11
268.778046690001
 21
727.390925860077
 31
0.0
  0
LINE
  5
1E8
330
18
100
AcDbEntity
  8
0020010007
100
AcDbLine
 10
268.579490812699
 20
726.837773097078
 30
0.0
 11
268.680009392299
 21
727.115280181177
 31
0.0
  0
LINE
  5
1E9
330
18
100
AcDbEntity
  8
0020010007
100
AcDbLine
 10
268.476451541701
 20
726.5584289146771
 30
0.0
 11
268.579490812701
 21
726.8377730970771
 31
0.0
  0
LINE
  5
1EA
330
18
100
AcDbEntity
  8
0020010007
100
AcDbLine
 10
268.3708520215
 20
726.277272563077
 30
0.0
 11
268.4764515417
 21
726.5584289146771
 31
0.0
  0
LINE
  5
1EB
330
18
100
AcDbEntity
  8
0020010007
100
AcDbLine
 10
268.262652555099
 20
725.994329602677
 30
0.0
 11
268.370852021499
 21
726.277272563077
 31
0.0
  0
LINE
  5
1EC
330
18
100
AcDbEntity
  8
0020010007
100
AcDbLine
 10
268.151813314998
 20
725.709626234377
 30
0.0
 11
268.262652555098
 21
725.994329602677
 31
0.0
  0
LINE
  5
1ED
330
18
100
AcDbEntity
  8
0020010007
100
AcDbLine
 10
268.0382943521
 20
725.423189308577
 30
0.0
 11
268.151813315
 21
725.709626234377
 31
0.0
  0
LINE
  5
1EE
330
18
100
AcDbEntity
  8
0020010007
100
AcDbLine
 10
267.922055605399
 20
725.135046334478
 30
0.0
 11
268.038294352099
 21
725.423189308578
 31
0.0
  0
LINE
  5
1EF
330
18
100
AcDbEntity
  8
0020010007
100
AcDbLine
 10
267.8030569115
 20
724.845225488977
 30
0.0
 11
267.9220556054
 21
725.135046334477
 31
0.0
  0
LINE
  5
1F0
330
18
100
AcDbEntity
  8
0020010007
100
AcDbLine
 10
267.681258013901
 20
724.553755625577
 30
0.0
 11
267.803056911501
 21
724.845225488977
 31
0.0
  0
LINE
  5
1F1
330
18
100
AcDbEntity
  8
0020010007
100
AcDbLine
 10
267.556618573901
 20
724.260666283678
 30
0.0
 11
267.681258013901
 21
724.553755625578
 31
0.0
  0
LINE
  5
1F2
330
18
100
AcDbEntity
  8
0020010007
100
AcDbLine
 10
267.4290981798
 20
723.965987697477
 30
0.0
 11
267.5566185739
 21
724.260666283677
 31
0.0
  0
LINE
  5
1F3
330
18
100
AcDbEntity
  8
0020010007
100
AcDbLine
 10
267.2986563583
 20
723.669750804577
 30
0.0
 11
267.4290981798
 21
723.965987697477
 31
0.0
  0
LINE
  5
1F4
330
18
100
AcDbEntity
  8
0020010007
100
AcDbLine
 10
267.1652525848
 20
723.371987255377
 30
0.0
 11
267.2986563583
 21
723.669750804577
 31
0.0
  0
LINE
  5
1F5
330
18
100
AcDbEntity
  8
0020010007
100
AcDbLine
 10
267.028846294299
 20
723.072729421377
 30
0.0
 11
267.165252584799
 21
723.371987255377
 31
0.0
  0
LINE
  5
1F6
330
18
100
AcDbEntity
  8
0020010007
100
AcDbLine
 10
266.936220656698
 20
722.872410356877
 30
0.0
 11
267.028846294298
 21
723.072729421377
 31
0.0
  0
LINE
  5
1F7
330
18
100
AcDbEntity
  8
0020010007
100
AcDbLine
 10
266.842230493101
 20
722.671451852377
 30
0.0
 11
266.936220656701
 21
722.872410356877
 31
0.0
  0
LINE
  5
1F8
330
18
100
AcDbEntity
  8
0020010007
100
AcDbLine
 10
266.7468637688
 20
722.469864045178
 30
0.0
 11
266.8422304931
 21
722.671451852378
 31
0.0
  0
LINE
  5
1F9
330
18
100
AcDbEntity
  8
0020010007
100
AcDbLine
 10
266.650108448801
 20
722.267657220477
 30
0.0
 11
266.746863768801
 21
722.469864045177
 31
0.0
  0
LINE
  5
1FA
330
18
100
AcDbEntity
  8
0020010007
100
AcDbLine
 10
266.5519524993
 20
722.064841812977
 30
0.0
 11
266.6501084488
 21
722.267657220477
 31
0.0
  0
LINE
  5
1FB
330
18
100
AcDbEntity
  8
0020010007
100
AcDbLine
 10
266.452383921001
 20
721.861428471577
 30
0.0
 11
266.551952499301
 21
722.064841812977
 31
0.0
  0
LINE
  5
1FC
330
18
100
AcDbEntity
  8
0020010007
100
AcDbLine
 10
266.351391648201
 20
721.657429861578
 30
0.0
 11
266.452383921001
 21
721.861428471577
 31
0.0
  0
LINE
  5
1FD
330
18
100
AcDbEntity
  8
0020010007
100
AcDbLine
 10
266.248965720701
 20
721.452860896177
 30
0.0
 11
266.351391648201
 21
721.657429861578
 31
0.0
  0
LINE
  5
1FE
330
18
100
AcDbEntity
  8
0020010007
100
AcDbLine
 10
266.145096316901
 20
721.247736718777
 30
0.0
 11
266.248965720701
 21
721.452860896177
 31
0.0
  0
LINE
  5
1FF
330
18
100
AcDbEntity
  8
0020010007
100
AcDbLine
 10
266.039773701301
 20
721.042072588177
 30
0.0
 11
266.145096316901
 21
721.247736718777
 31
0.0
  0
LINE
  5
200
330
18
100
AcDbEntity
  8
0020010007
100
AcDbLine
 10
265.932988225399
 20
720.835883877377
 30
0.0
 11
266.039773701299
 21
721.042072588177
 31
0.0
  0
LINE
  5
201
330
18
100
AcDbEntity
  8
0020010007
100
AcDbLine
 10
265.8247303311
 20
720.629186074177
 30
0.0
 11
265.9329882254
 21
720.835883877377
 31
0.0
  0
LINE
  5
202
330
18
100
AcDbEntity
  8
0020010007
100
AcDbLine
 10
265.714990552002
 20
720.421994780277
 30
0.0
 11
265.824730331102
 21
720.629186074177
 31
0.0
  0
LINE
  5
203
330
18
100
AcDbEntity
  8
0020010007
100
AcDbLine
 10
265.603759516001
 20
720.214325711077
 30
0.0
 11
265.714990552001
 21
720.421994780277
 31
0.0
  0
LINE
  5
204
330
18
100
AcDbEntity
  8
0020010007
100
AcDbLine
 10
265.491027947399
 20
720.006194695377
 30
0.0
 11
265.603759515999
 21
720.214325711077
 31
0.0
  0
LINE
  5
205
330
18
100
AcDbEntity
  8
0020010007
100
AcDbLine
 10
265.376786669101
 20
719.797617674877
 30
0.0
 11
265.491027947401
 21
720.006194695377
 31
0.0
  0
LINE
  5
206
330
18
100
AcDbEntity
  8
0020010007
100
AcDbLine
 10
265.261026604701
 20
719.588610703477
 30
0.0
 11
265.376786669101
 21
719.797617674877
 31
0.0
  0
LINE
  5
207
330
18
100
AcDbEntity
  8
0020010007
100
AcDbLine
 10
265.143738780698
 20
719.379189947377
 30
0.0
 11
265.261026604698
 21
719.588610703477
 31
0.0
  0
LINE
  5
208
330
18
100
AcDbEntity
  8
0020010007
100
AcDbLine
 10
265.024914328602
 20
719.169371683877
 30
0.0
 11
265.143738780702
 21
719.379189947377
 31
0.0
  0
LINE
  5
209
330
18
100
AcDbEntity
  8
0020010007
100
AcDbLine
 10
264.904544487501
 20
718.959172301377
 30
0.0
 11
265.024914328601
 21
719.169371683877
 31
0.0
  0
LINE
  5
20A
330
18
100
AcDbEntity
  8
0020010007
100
AcDbLine
 10
264.7826206053
 20
718.748608298578
 30
0.0
 11
264.9045444875
 21
718.959172301378
 31
0.0
  0
LINE
  5
20B
330
18
100
AcDbEntity
  8
0020010007
100
AcDbLine
 10
264.659134142101
 20
718.537696283877
 30
0.0
 11
264.782620605301
 21
718.748608298577
 31
0.0
  0
LINE
  5
20C
330
18
100
AcDbEntity
  8
0020010007
100
AcDbLine
 10
264.534076671102
 20
718.326452974677
 30
0.0
 11
264.659134142101
 21
718.537696283877
 31
0.0
  0
LINE
  5
20D
330
18
100
AcDbEntity
  8
0020010007
100
AcDbLine
 10
264.407439881699
 20
718.114895196877
 30
0.0
 11
264.534076671099
 21
718.326452974677
 31
0.0
  0
LINE
  5
20E
330
18
100
AcDbEntity
  8
0020010007
100
AcDbLine
 10
264.279215581199
 20
717.903039884177
 30
0.0
 11
264.407439881699
 21
718.114895196877
 31
0.0
  0
LINE
  5
20F
330
18
100
AcDbEntity
  8
0020010007
100
AcDbLine
 10
264.149395696899
 20
717.690904077178
 30
0.0
 11
264.279215581199
 21
717.903039884178
 31
0.0
  0
LINE
  5
210
330
18
100
AcDbEntity
  8
0020010007
100
AcDbLine
 10
264.017972278401
 20
717.4785049228771
 30
0.0
 11
264.149395696901
 21
717.690904077177
 31
0.0
  0
LINE
  5
211
330
18
100
AcDbEntity
  8
0020010007
100
AcDbLine
 10
263.884937499501
 20
717.265859673577
 30
0.0
 11
264.017972278401
 21
717.478504922878
 31
0.0
  0
LINE
  5
212
330
18
100
AcDbEntity
  8
0020010007
100
AcDbLine
 10
263.750283660502
 20
717.052985686277
 30
0.0
 11
263.884937499502
 21
717.265859673577
 31
0.0
  0
LINE
  5
213
330
18
100
AcDbEntity
  8
0020010007
100
AcDbLine
 10
263.6140031902
 20
716.839900422077
 30
0.0
 11
263.7502836605
 21
717.052985686277
 31
0.0
  0
LINE
  5
214
330
18
100
AcDbEntity
  8
0020010007
100
AcDbLine
 10
263.476088648
 20
716.626621444477
 30
0.0
 11
263.6140031902
 21
716.839900422077
 31
0.0
  0
LINE
  5
215
330
18
100
AcDbEntity
  8
0020010007
100
AcDbLine
 10
263.336532670201
 20
716.413166334777
 30
0.0
 11
263.476088648001
 21
716.626621444477
 31
0.0
  0
LINE
  5
216
330
18
100
AcDbEntity
  8
0020010007
100
AcDbLine
 10
263.195327537502
 20
716.199552040977
 30
0.0
 11
263.336532670202
 21
716.413166334777
 31
0.0
  0
LINE
  5
217
330
18
100
AcDbEntity
  8
0020010007
100
AcDbLine
 10
263.052465397701
 20
715.985795245978
 30
0.0
 11
263.195327537501
 21
716.199552040978
 31
0.0
  0
LINE
  5
218
330
18
100
AcDbEntity
  8
0020010007
100
AcDbLine
 10
262.9079385111
 20
715.771912745278
 30
0.0
 11
263.0524653977
 21
715.985795245977
 31
0.0
  0
LINE
  5
219
330
18
100
AcDbEntity
  8
0020010007
100
AcDbLine
 10
262.7617392543
 20
715.557921449877
 30
0.0
 11
262.9079385111
 21
715.771912745277
 31
0.0
  0
LINE
  5
21A
330
18
100
AcDbEntity
  8
0020010007
100
AcDbLine
 10
262.613860122499
 20
715.343838385177
 30
0.0
 11
262.761739254299
 21
715.557921449877
 31
0.0
  0
LINE
  5
21B
330
18
100
AcDbEntity
  8
0020010007
100
AcDbLine
 10
262.464293731398
 20
715.129680690877
 30
0.0
 11
262.613860122498
 21
715.343838385177
 31
0.0
  0
LINE
  5
21C
330
18
100
AcDbEntity
  8
0020010007
100
AcDbLine
 10
262.3130328191
 20
714.915465619977
 30
0.0
 11
262.4642937314
 21
715.129680690877
 31
0.0
  0
LINE
  5
21D
330
18
100
AcDbEntity
  8
0020010007
100
AcDbLine
 10
262.160070248101
 20
714.701210538577
 30
0.0
 11
262.313032819101
 21
714.915465619977
 31
0.0
  0
LINE
  5
21E
330
18
100
AcDbEntity
  8
0020010007
100
AcDbLine
 10
262.005399007499
 20
714.486932924677
 30
0.0
 11
262.160070248099
 21
714.701210538577
 31
0.0
  0
LINE
  5
21F
330
18
100
AcDbEntity
  8
0020010007
100
AcDbLine
 10
261.849012215
 20
714.272650367777
 30
0.0
 11
262.0053990075
 21
714.486932924677
 31
0.0
  0
LINE
  5
220
330
18
100
AcDbEntity
  8
0020010007
100
AcDbLine
 10
261.690903118499
 20
714.058380567977
 30
0.0
 11
261.849012214999
 21
714.272650367777
 31
0.0
  0
LINE
  5
221
330
18
100
AcDbEntity
  8
0020010007
100
AcDbLine
 10
261.531065098501
 20
713.844141335277
 30
0.0
 11
261.690903118501
 21
714.058380567977
 31
0.0
  0
LINE
  5
222
330
18
100
AcDbEntity
  8
0020010007
100
AcDbLine
 10
261.369491669899
 20
713.629950588877
 30
0.0
 11
261.531065098499
 21
713.844141335277
 31
0.0
  0
LINE
  5
223
330
18
100
AcDbEntity
  8
0020010007
100
AcDbLine
 10
261.2061764842
 20
713.415826356377
 30
0.0
 11
261.3694916699
 21
713.629950588877
 31
0.0
  0
LINE
  5
224
330
18
100
AcDbEntity
  8
0020010007
100
AcDbLine
 10
261.041113331001
 20
713.201786772577
 30
0.0
 11
261.206176484201
 21
713.415826356377
 31
0.0
  0
LINE
  5
225
330
18
100
AcDbEntity
  8
0020010007
100
AcDbLine
 10
260.874296140701
 20
712.987850079077
 30
0.0
 11
261.041113331001
 21
713.201786772577
 31
0.0
  0
LINE
  5
226
330
18
100
AcDbEntity
  8
0020010007
100
AcDbLine
 10
260.7057189855
 20
712.774034622777
 30
0.0
 11
260.8742961407
 21
712.987850079077
 31
0.0
  0
LINE
  5
227
330
18
100
AcDbEntity
  8
0020010007
100
AcDbLine
 10
260.535376082498
 20
712.560358855878
 30
0.0
 11
260.705718985498
 21
712.774034622778
 31
0.0
  0
LINE
  5
228
330
18
100
AcDbEntity
  8
0020010007
100
AcDbLine
 10
260.363261794599
 20
712.3468413336771
 30
0.0
 11
260.535376082499
 21
712.560358855877
 31
0.0
  0
LINE
  5
229
330
18
100
AcDbEntity
  8
0020010007
100
AcDbLine
 10
260.189370633201
 20
712.133500714877
 30
0.0
 11
260.363261794601
 21
712.346841333678
 31
0.0
  0
LINE
  5
22A
330
18
100
AcDbEntity
  8
0020010007
100
AcDbLine
 10
260.013697259801
 20
711.920355759478
 30
0.0
 11
260.189370633201
 21
712.133500714877
 31
0.0
  0
LINE
  5
22B
330
18
100
AcDbEntity
  8
0020010007
100
AcDbLine
 10
259.836236487801
 20
711.707425328377
 30
0.0
 11
260.013697259801
 21
711.9203557594771
 31
0.0
  0
LINE
  5
22C
330
18
100
AcDbEntity
  8
0020010007
100
AcDbLine
 10
259.656983285098
 20
711.494728382177
 30
0.0
 11
259.836236487798
 21
711.707425328377
 31
0.0
  0
LINE
  5
22D
330
18
100
AcDbEntity
  8
0020010007
100
AcDbLine
 10
259.475932775
 20
711.2822839797771
 30
0.0
 11
259.6569832851
 21
711.494728382177
 31
0.0
  0
LINE
  5
22E
330
18
100
AcDbEntity
  8
0020010007
100
AcDbLine
 10
259.293080239
 20
711.070111277677
 30
0.0
 11
259.475932775
 21
711.282283979778
 31
0.0
  0
LINE
  5
22F
330
18
100
AcDbEntity
  8
0020010007
100
AcDbLine
 10
259.108421118399
 20
710.858229528577
 30
0.0
 11
259.293080238999
 21
711.070111277677
 31
0.0
  0
LINE
  5
230
330
18
100
AcDbEntity
  8
0020010007
100
AcDbLine
 10
258.921951015898
 20
710.6466580800781
 30
0.0
 11
259.108421118398
 21
710.858229528578
 31
0.0
  0
LINE
  5
231
330
18
100
AcDbEntity
  8
0020010007
100
AcDbLine
 10
258.733665698099
 20
710.4354163738771
 30
0.0
 11
258.921951015899
 21
710.646658080077
 31
0.0
  0
LINE
  5
232
330
18
100
AcDbEntity
  8
0020010007
100
AcDbLine
 10
258.543561096802
 20
710.224523944077
 30
0.0
 11
258.733665698102
 21
710.4354163738771
 31
0.0
  0
LINE
  5
233
330
18
100
AcDbEntity
  8
0020010007
100
AcDbLine
 10
258.3516333111
 20
710.014000416077
 30
0.0
 11
258.5435610968
 21
710.224523944077
 31
0.0
  0
LINE
  5
234
330
18
100
AcDbEntity
  8
0020010007
100
AcDbLine
 10
258.157878609301
 20
709.803865505378
 30
0.0
 11
258.351633311101
 21
710.014000416078
 31
0.0
  0
LINE
  5
235
330
18
100
AcDbEntity
  8
0020010007
100
AcDbLine
 10
257.962293430901
 20
709.594139015977
 30
0.0
 11
258.157878609301
 21
709.803865505377
 31
0.0
  0
LINE
  5
236
330
18
100
AcDbEntity
  8
0020010007
100
AcDbLine
 10
257.7648743879
 20
709.384840839478
 30
0.0
 11
257.9622934309
 21
709.594139015978
 31
0.0
  0
LINE
  5
237
330
18
100
AcDbEntity
  8
0020010007
100
AcDbLine
 10
257.565618267301
 20
709.175990953077
 30
0.0
 11
257.764874387901
 21
709.384840839477
 31
0.0
  0
LINE
  5
238
330
18
100
AcDbEntity
  8
0020010007
100
AcDbLine
 10
257.3645220324
 20
708.967609418777
 30
0.0
 11
257.5656182673
 21
709.175990953077
 31
0.0
  0
LINE
  5
239
330
18
100
AcDbEntity
  8
0020010007
100
AcDbLine
 10
257.161582824701
 20
708.7597163812781
 30
0.0
 11
257.364522032401
 21
708.967609418778
 31
0.0
  0
LINE
  5
23A
330
18
100
AcDbEntity
  8
0020010007
100
AcDbLine
 10
256.956797966101
 20
708.552332067277
 30
0.0
 11
257.161582824701
 21
708.7597163812781
 31
0.0
  0
LINE
  5
23B
330
18
100
AcDbEntity
  8
0020010007
100
AcDbLine
 10
256.7501649599
 20
708.345476783377
 30
0.0
 11
256.9567979661
 21
708.552332067277
 31
0.0
  0
LINE
  5
23C
330
18
100
AcDbEntity
  8
0020010007
100
AcDbLine
 10
256.5416814934
 20
708.139170914477
 30
0.0
 11
256.7501649599
 21
708.345476783377
 31
0.0
  0
LINE
  5
23D
330
18
100
AcDbEntity
  8
0020010007
100
AcDbLine
 10
256.331345439001
 20
707.933434922877
 30
0.0
 11
256.541681493401
 21
708.139170914477
 31
0.0
  0
LINE
  5
23E
330
18
100
AcDbEntity
  8
0020010007
100
AcDbLine
 10
256.119154856398
 20
707.728289346078
 30
0.0
 11
256.331345438998
 21
707.933434922878
 31
0.0
  0
LINE
  5
23F
330
18
100
AcDbEntity
  8
0020010007
100
AcDbLine
 10
255.9051079938
 20
707.523754795377
 30
0.0
 11
256.1191548564
 21
707.728289346077
 31
0.0
  0
LINE
  5
240
330
18
100
AcDbEntity
  8
0020010007
100
AcDbLine
 10
255.689203290302
 20
707.319851954077
 30
0.0
 11
255.905107993802
 21
707.523754795377
 31
0.0
  0
LINE
  5
241
330
18
100
AcDbEntity
  8
0020010007
100
AcDbLine
 10
255.471439376601
 20
707.116601575877
 30
0.0
 11
255.689203290301
 21
707.319851954077
 31
0.0
  0
LINE
  5
242
330
18
100
AcDbEntity
  8
0020010007
100
AcDbLine
 10
255.2518131078
 20
706.9140226773779
 30
0.0
 11
255.4714393766
 21
707.116601575878
 31
0.0
  0
LINE
  5
243
330
18
100
AcDbEntity
  8
0020010007
100
AcDbLine
 10
255.0303147415
 20
706.712128272177
 30
0.0
 11
255.2518131078
 21
706.9140226773779
 31
0.0
  0
LINE
  5
244
330
18
100
AcDbEntity
  8
0020010007
100
AcDbLine
 10
254.806933100401
 20
706.510930354577
 30
0.0
 11
255.030314741501
 21
706.712128272177
 31
0.0
  0
LINE
  5
245
330
18
100
AcDbEntity
  8
0020010007
100
AcDbLine
 10
254.5816569901
 20
706.310441229877
 30
0.0
 11
254.8069331004
 21
706.510930354577
 31
0.0
  0
LINE
  5
246
330
18
100
AcDbEntity
  8
0020010007
100
AcDbLine
 10
254.354475202101
 20
706.110673517377
 30
0.0
 11
254.581656990101
 21
706.310441229877
 31
0.0
  0
LINE
  5
247
330
18
100
AcDbEntity
  8
0020010007
100
AcDbLine
 10
254.125376518001
 20
705.911640154577
 30
0.0
 11
254.354475202101
 21
706.110673517377
 31
0.0
  0
LINE
  5
248
330
18
100
AcDbEntity
  8
0020010007
100
AcDbLine
 10
253.894349713199
 20
705.713354399377
 30
0.0
 11
254.125376517999
 21
705.911640154577
 31
0.0
  0
LINE
  5
249
330
18
100
AcDbEntity
  8
0020010007
100
AcDbLine
 10
253.661383560899
 20
705.515829834577
 30
0.0
 11
253.894349713199
 21
705.713354399377
 31
0.0
  0
LINE
  5
24A
330
18
100
AcDbEntity
  8
0020010007
100
AcDbLine
 10
253.426466835801
 20
705.319080370077
 30
0.0
 11
253.661383560901
 21
705.515829834577
 31
0.0
  0
LINE
  5
24B
330
18
100
AcDbEntity
  8
0020010007
100
AcDbLine
 10
253.189588318201
 20
705.123120246977
 30
0.0
 11
253.426466835801
 21
705.319080370077
 31
0.0
  0
LINE
  5
24C
330
18
100
AcDbEntity
  8
0020010007
100
AcDbLine
 10
252.950736798499
 20
704.927964040577
 30
0.0
 11
253.189588318199
 21
705.123120246977
 31
0.0
  0
LINE
  5
24D
330
18
100
AcDbEntity
  8
0020010007
100
AcDbLine
 10
252.709901080802
 20
704.733626663877
 30
0.0
 11
252.950736798501
 21
704.927964040577
 31
0.0
  0
LINE
  5
24E
330
18
100
AcDbEntity
  8
0020010007
100
AcDbLine
 10
252.467069987899
 20
704.540123370478
 30
0.0
 11
252.709901080799
 21
704.733626663878
 31
0.0
  0
LINE
  5
24F
330
18
100
AcDbEntity
  8
0020010007
100
AcDbLine
 10
252.2222323649
 20
704.347469758378
 30
0.0
 11
252.4670699879
 21
704.540123370478
 31
0.0
  0
LINE
  5
250
330
18
100
AcDbEntity
  8
0020010007
100
AcDbLine
 10
251.9753770844
 20
704.155681773177
 30
0.0
 11
252.2222323649
 21
704.347469758377
 31
0.0
  0
LINE
  5
251
330
18
100
AcDbEntity
  8
0020010007
100
AcDbLine
 10
251.726493050701
 20
703.964775711078
 30
0.0
 11
251.975377084401
 21
704.155681773178
 31
0.0
  0
LINE
  5
252
330
18
100
AcDbEntity
  8
0020010007
100
AcDbLine
 10
251.475569204402
 20
703.774768222277
 30
0.0
 11
251.726493050702
 21
703.964775711077
 31
0.0
  0
LINE
  5
253
330
18
100
AcDbEntity
  8
0020010007
100
AcDbLine
 10
251.2225945272
 20
703.585676314577
 30
0.0
 11
251.4755692044
 21
703.774768222277
 31
0.0
  0
LINE
  5
254
330
18
100
AcDbEntity
  8
0020010007
100
AcDbLine
 10
250.967558047101
 20
703.397517356377
 30
0.0
 11
251.222594527201
 21
703.585676314577
 31
0.0
  0
LINE
  5
255
330
18
100
AcDbEntity
  8
0020010007
100
AcDbLine
 10
250.710448842699
 20
703.210309079677
 30
0.0
 11
250.967558047099
 21
703.397517356377
 31
0.0
  0
LINE
  5
256
330
18
100
AcDbEntity
  8
0020010007
100
AcDbLine
 10
250.451256048698
 20
703.024069583877
 30
0.0
 11
250.710448842698
 21
703.210309079677
 31
0.0
  0
LINE
  5
257
330
18
100
AcDbEntity
  8
0020010007
100
AcDbLine
 10
250.189968860799
 20
702.838817338677
 30
0.0
 11
250.451256048699
 21
703.024069583877
 31
0.0
  0
LINE
  5
258
330
18
100
AcDbEntity
  8
0020010007
100
AcDbLine
 10
249.926576541198
 20
702.654571187177
 30
0.0
 11
250.189968860798
 21
702.838817338677
 31
0.0
  0
LINE
  5
259
330
18
100
AcDbEntity
  8
0020010007
100
AcDbLine
 10
249.6610684234
 20
702.471350349377
 30
0.0
 11
249.9265765412
 21
702.654571187177
 31
0.0
  0
LINE
  5
25A
330
18
100
AcDbEntity
  8
0020010007
100
AcDbLine
 10
249.3934339185
 20
702.289174425077
 30
0.0
 11
249.6610684234
 21
702.471350349377
 31
0.0
  0
LINE
  5
25B
330
18
100
AcDbEntity
  8
0020010007
100
AcDbLine
 10
249.123662519702
 20
702.108063397278
 30
0.0
 11
249.393433918502
 21
702.289174425078
 31
0.0
  0
LINE
  5
25C
330
18
100
AcDbEntity
  8
0020010007
100
AcDbLine
 10
248.851743808798
 20
701.928037634978
 30
0.0
 11
249.123662519698
 21
702.108063397278
 31
0.0
  0
LINE
  5
25D
330
18
100
AcDbEntity
  8
0020010007
100
AcDbLine
 10
248.577667461501
 20
701.749117896577
 30
0.0
 11
248.851743808801
 21
701.928037634977
 31
0.0
  0
LINE
  5
25E
330
18
100
AcDbEntity
  8
0020010007
100
AcDbLine
 10
248.301423253401
 20
701.571325332977
 30
0.0
 11
248.577667461501
 21
701.749117896577
 31
0.0
  0
LINE
  5
25F
330
18
100
AcDbEntity
  8
0020010007
100
AcDbLine
 10
248.023001066002
 20
701.394681490178
 30
0.0
 11
248.301423253402
 21
701.571325332978
 31
0.0
  0
LINE
  5
260
330
18
100
AcDbEntity
  8
0020010007
100
AcDbLine
 10
247.742390892599
 20
701.219208312977
 30
0.0
 11
248.023001065999
 21
701.3946814901771
 31
0.0
  0
LINE
  5
261
330
18
100
AcDbEntity
  8
0020010007
100
AcDbLine
 10
247.4595828448
 20
701.0449281473771
 30
0.0
 11
247.7423908926
 21
701.219208312977
 31
0.0
  0
LINE
  5
262
330
18
100
AcDbEntity
  8
0020010007
100
AcDbLine
 10
247.174567158501
 20
700.871863743677
 30
0.0
 11
247.459582844801
 21
701.044928147378
 31
0.0
  0
LINE
  5
263
330
18
100
AcDbEntity
  8
0020010007
100
AcDbLine
 10
246.887334200601
 20
700.700038259678
 30
0.0
 11
247.174567158501
 21
700.871863743678
 31
0.0
  0
LINE
  5
264
330
18
100
AcDbEntity
  8
0020010007
100
AcDbLine
 10
246.597874475399
 20
700.5294752632771
 30
0.0
 11
246.887334200599
 21
700.7000382596769
 31
0.0
  0
LINE
  5
265
330
18
100
AcDbEntity
  8
0020010007
100
AcDbLine
 10
246.306178631301
 20
700.360198735277
 30
0.0
 11
246.597874475401
 21
700.5294752632771
 31
0.0
  0
LINE
  5
266
330
18
100
AcDbEntity
  8
0020010007
100
AcDbLine
 10
246.012237467301
 20
700.192233072377
 30
0.0
 11
246.306178631301
 21
700.360198735277
 31
0.0
  0
LINE
  5
267
330
18
100
AcDbEntity
  8
0020010007
100
AcDbLine
 10
245.716041940599
 20
700.025603089677
 30
0.0
 11
246.012237467299
 21
700.192233072377
 31
0.0
  0
LINE
  5
268
330
18
100
AcDbEntity
  8
0020010007
100
AcDbLine
 10
245.4175831709
 20
699.860334022677
 30
0.0
 11
245.7160419406
 21
700.025603089677
 31
0.0
  0
LINE
  5
269
330
18
100
AcDbEntity
  8
0020010007
100
AcDbLine
 10
245.116851912899
 20
699.696451240077
 30
0.0
 11
245.417583170899
 21
699.860334022677
 31
0.0
  0
LINE
  5
26A
330
18
100
AcDbEntity
  8
0020010007
100
AcDbLine
 10
244.813837843201
 20
699.533979887877
 30
0.0
 11
245.116851912901
 21
699.696451240077
 31
0.0
  0
LINE
  5
26B
330
18
100
AcDbEntity
  8
0020010007
100
AcDbLine
 10
244.508530622799
 20
699.372945497277
 30
0.0
 11
244.813837843199
 21
699.533979887877
 31
0.0
  0
LINE
  5
26C
330
18
100
AcDbEntity
  8
0020010007
100
AcDbLine
 10
244.2009200787
 20
699.213374085977
 30
0.0
 11
244.5085306228
 21
699.372945497277
 31
0.0
  0
LINE
  5
26D
330
18
100
AcDbEntity
  8
0020010007
100
AcDbLine
 10
243.890996213198
 20
699.055292161577
 30
0.0
 11
244.200920078698
 21
699.213374085977
 31
0.0
  0
LINE
  5
26E
330
18
100
AcDbEntity
  8
0020010007
100
AcDbLine
 10
243.5787492118
 20
698.898726724777
 30
0.0
 11
243.8909962132
 21
699.055292161577
 31
0.0
  0
LINE
  5
26F
330
18
100
AcDbEntity
  8
0020010007
100
AcDbLine
 10
243.264169452101
 20
698.743705273077
 30
0.0
 11
243.578749211801
 21
698.898726724777
 31
0.0
  0
LINE
  5
270
330
18
100
AcDbEntity
  8
0020010007
100
AcDbLine
 10
242.947247512599
 20
698.590255803677
 30
0.0
 11
243.264169452099
 21
698.743705273077
 31
0.0
  0
LINE
  5
271
330
18
100
AcDbEntity
  8
0020010007
100
AcDbLine
 10
242.627974181702
 20
698.438406816977
 30
0.0
 11
242.947247512602
 21
698.590255803677
 31
0.0
  0
LINE
  5
272
330
18
100
AcDbEntity
  8
0020010007
100
AcDbLine
 10
242.306340466799
 20
698.288187319478
 30
0.0
 11
242.627974181699
 21
698.438406816977
 31
0.0
  0
LINE
  5
273
330
18
100
AcDbEntity
  8
0020010007
100
AcDbLine
 10
314.400000000001
 20
820.106948556577
 30
0.0
 11
314.400000000001
 21
824.106948728577
 31
0.0
  0
LINE
  5
274
330
18
100
AcDbEntity
  8
0020010007
100
AcDbLine
 10
241.9823376036
 20
698.139626826977
 30
0.0
 11
242.3063404668
 21
698.288187319477
 31
0.0
  0
LINE
  5
275
330
18
100
AcDbEntity
  8
0020010007
100
AcDbLine
 10
241.655957065501
 20
697.992755367478
 30
0.0
 11
241.982337603601
 21
698.139626826978
 31
0.0
  0
LINE
  5
276
330
18
100
AcDbEntity
  8
0020010007
100
AcDbLine
 10
241.327190573498
 20
697.8476034843781
 30
0.0
 11
241.655957065498
 21
697.992755367478
 31
0.0
  0
LINE
  5
277
330
18
100
AcDbEntity
  8
0020010007
100
AcDbLine
 10
240.996030105798
 20
697.704202238777
 30
0.0
 11
241.327190573498
 21
697.847603484377
 31
0.0
  0
LINE
  5
278
330
18
100
AcDbEntity
  8
0020010007
100
AcDbLine
 10
240.662467907801
 20
697.562583212777
 30
0.0
 11
240.996030105801
 21
697.704202238777
 31
0.0
  0
LINE
  5
279
330
18
100
AcDbEntity
  8
0020010007
100
AcDbLine
 10
240.326496502399
 20
697.4227785116771
 30
0.0
 11
240.662467907799
 21
697.562583212777
 31
0.0
  0
LINE
  5
27A
330
18
100
AcDbEntity
  8
0020010007
100
AcDbLine
 10
239.988108700301
 20
697.284820766777
 30
0.0
 11
240.326496502401
 21
697.4227785116771
 31
0.0
  0
LINE
  5
27B
330
18
100
AcDbEntity
  8
0020010007
100
AcDbLine
 10
239.647297610602
 20
697.148743137977
 30
0.0
 11
239.988108700302
 21
697.284820766777
 31
0.0
  0
LINE
  5
27C
330
18
100
AcDbEntity
  8
0020010007
100
AcDbLine
 10
239.304056651101
 20
697.014579315777
 30
0.0
 11
239.647297610601
 21
697.148743137977
 31
0.0
  0
LINE
  5
27D
330
18
100
AcDbEntity
  8
0020010007
100
AcDbLine
 10
238.958379559899
 20
696.882363523477
 30
0.0
 11
239.304056651099
 21
697.014579315777
 31
0.0
  0
LINE
  5
27E
330
18
100
AcDbEntity
  8
0020010007
100
AcDbLine
 10
238.610260405902
 20
696.752130519977
 30
0.0
 11
238.958379559901
 21
696.882363523477
 31
0.0
  0
LINE
  5
27F
330
18
100
AcDbEntity
  8
0020010007
100
AcDbLine
 10
238.259693600299
 20
696.623915600877
 30
0.0
 11
238.610260405899
 21
696.752130519977
 31
0.0
  0
LINE
  5
280
330
18
100
AcDbEntity
  8
0020010007
100
AcDbLine
 10
237.906673908001
 20
696.497754601177
 30
0.0
 11
238.259693600301
 21
696.623915600877
 31
0.0
  0
LINE
  5
281
330
18
100
AcDbEntity
  8
0020010007
100
AcDbLine
 10
237.551196459201
 20
696.373683896277
 30
0.0
 11
237.906673908001
 21
696.497754601177
 31
0.0
  0
LINE
  5
282
330
18
100
AcDbEntity
  8
0020010007
100
AcDbLine
 10
237.193256761399
 20
696.251740404477
 30
0.0
 11
237.551196459199
 21
696.373683896277
 31
0.0
  0
LINE
  5
283
330
18
100
AcDbEntity
  8
0020010007
100
AcDbLine
 10
236.8328507113
 20
696.131961587777
 30
0.0
 11
237.1932567614
 21
696.251740404477
 31
0.0
  0
LINE
  5
284
330
18
100
AcDbEntity
  8
0020010007
100
AcDbLine
 10
236.469974606898
 20
696.014385453377
 30
0.0
 11
236.832850711298
 21
696.131961587777
 31
0.0
  0
LINE
  5
285
330
18
100
AcDbEntity
  8
0020010007
100
AcDbLine
 10
236.1046251601
 20
695.899050555077
 30
0.0
 11
236.4699746069
 21
696.0143854533781
 31
0.0
  0
LINE
  5
286
330
18
100
AcDbEntity
  8
0020010007
100
AcDbLine
 10
235.736799509399
 20
695.785995994277
 30
0.0
 11
236.104625160099
 21
695.899050555077
 31
0.0
  0
LINE
  5
287
330
18
100
AcDbEntity
  8
0020010007
100
AcDbLine
 10
235.366495232302
 20
695.675261420777
 30
0.0
 11
235.736799509402
 21
695.785995994277
 31
0.0
  0
LINE
  5
288
330
18
100
AcDbEntity
  8
0020010007
100
AcDbLine
 10
234.9937103587
 20
695.566887033577
 30
0.0
 11
235.3664952323
 21
695.675261420777
 31
0.0
  0
LINE
  5
289
330
18
100
AcDbEntity
  8
0020010007
100
AcDbLine
 10
279.562467676798
 20
829.311830980177
 30
0.0
 11
279.623276293898
 21
829.328219058577
 31
0.0
  0
LINE
  5
28A
330
18
100
AcDbEntity
  8
0020010007
100
AcDbLine
 10
279.6232762939
 20
829.328219058578
 30
0.0
 11
279.6798454558
 21
829.342787650677
 31
0.0
  0
LINE
  5
28B
330
18
100
AcDbEntity
  8
0020010007
100
AcDbLine
 10
279.679845455801
 20
829.342787650677
 30
0.0
 11
279.731591936801
 21
829.355547895477
 31
0.0
  0
LINE
  5
28C
330
18
100
AcDbEntity
  8
0020010007
100
AcDbLine
 10
279.731591936801
 20
829.355547895477
 30
0.0
 11
279.778676456101
 21
829.366691989777
 31
0.0
  0
LINE
  5
28D
330
18
100
AcDbEntity
  8
0020010007
100
AcDbLine
 10
279.778676456099
 20
829.366691989777
 30
0.0
 11
279.820941455799
 21
829.376319291177
 31
0.0
  0
LINE
  5
28E
330
18
100
AcDbEntity
  8
0020010007
100
AcDbLine
 10
279.8209414558
 20
829.376319291178
 30
0.0
 11
279.858793827401
 21
829.384641162678
 31
0.0
  0
LINE
  5
28F
330
18
100
AcDbEntity
  8
0020010007
100
AcDbLine
 10
279.8587938274
 20
829.384641162677
 30
0.0
 11
279.879309017299
 21
829.389006906078
 31
0.0
  0
LINE
  5
290
330
18
100
AcDbEntity
  8
0020010007
100
AcDbLine
 10
319.498145965099
 20
732.946753539277
 30
0.0
 11
319.585133505799
 21
732.538623382777
 31
0.0
  0
LINE
  5
291
330
18
100
AcDbEntity
  8
0020010007
100
AcDbLine
 10
319.5851335058
 20
732.538623382777
 30
0.0
 11
319.9370736022
 21
731.031531971177
 31
0.0
  0
LINE
  5
292
330
18
100
AcDbEntity
  8
0020010007
100
AcDbLine
 10
319.937073602199
 20
731.031531971177
 30
0.0
 11
320.334952864399
 21
729.535860251477
 31
0.0
  0
LINE
  5
293
330
18
100
AcDbEntity
  8
0020010007
100
AcDbLine
 10
320.334952864399
 20
729.535860251478
 30
0.0
 11
320.778402394199
 21
728.053012212878
 31
0.0
  0
LINE
  5
294
330
18
100
AcDbEntity
  8
0020010007
100
AcDbLine
 10
320.7784023942
 20
728.053012212877
 30
0.0
 11
321.2670094557
 21
726.584381959677
 31
0.0
  0
LINE
  5
295
330
18
100
AcDbEntity
  8
0020010007
100
AcDbLine
 10
321.2670094557
 20
726.584381959677
 30
0.0
 11
321.8003185878
 21
725.131349570177
 31
0.0
  0
LINE
  5
296
330
18
100
AcDbEntity
  8
0020010007
100
AcDbLine
 10
321.800318587801
 20
725.131349570178
 30
0.0
 11
322.377831545601
 21
723.695281223078
 31
0.0
  0
LINE
  5
297
330
18
100
AcDbEntity
  8
0020010007
100
AcDbLine
 10
322.3778315456
 20
723.695281223077
 30
0.0
 11
322.9990080597
 21
722.277526955577
 31
0.0
  0
LINE
  5
298
330
18
100
AcDbEntity
  8
0020010007
100
AcDbLine
 10
322.999008059702
 20
722.277526955577
 30
0.0
 11
323.663266398602
 21
720.879419316277
 31
0.0
  0
LINE
  5
299
330
18
100
AcDbEntity
  8
0020010007
100
AcDbLine
 10
323.663266398598
 20
720.879419316277
 30
0.0
 11
324.369983837698
 21
719.502272309277
 31
0.0
  0
LINE
  5
29A
330
18
100
AcDbEntity
  8
0020010007
100
AcDbLine
 10
324.3699838377
 20
719.5022723092781
 30
0.0
 11
325.1184972774
 21
718.147380072478
 31
0.0
  0
LINE
  5
29B
330
18
100
AcDbEntity
  8
0020010007
100
AcDbLine
 10
325.118497277399
 20
718.147380072478
 30
0.0
 11
325.908103546199
 21
716.816016174378
 31
0.0
  0
LINE
  5
29C
330
18
100
AcDbEntity
  8
0020010007
100
AcDbLine
 10
325.9081035462
 20
716.816016174377
 30
0.0
 11
326.7380617684
 21
715.509429630877
 31
0.0
  0
LINE
  5
29D
330
18
100
AcDbEntity
  8
0020010007
100
AcDbLine
 10
326.738061768399
 20
715.509429630877
 30
0.0
 11
327.607591200699
 21
714.228848489177
 31
0.0
  0
LINE
  5
29E
330
18
100
AcDbEntity
  8
0020010007
100
AcDbLine
 10
327.6075912007
 20
714.228848489178
 30
0.0
 11
328.5158790796
 21
712.975468396778
 31
0.0
  0
LINE
  5
29F
330
18
100
AcDbEntity
  8
0020010007
100
AcDbLine
 10
328.515879079601
 20
712.9754683967771
 30
0.0
 11
329.462074855101
 21
711.750461989877
 31
0.0
  0
LINE
  5
2A0
330
18
100
AcDbEntity
  8
0020010007
100
AcDbLine
 10
329.462074855099
 20
711.750461989877
 30
0.0
 11
330.445293912099
 21
710.554973663878
 31
0.0
  0
LINE
  5
2A1
330
18
100
AcDbEntity
  8
0020010007
100
AcDbLine
 10
330.4452939121
 20
710.554973663877
 30
0.0
 11
331.4646168361
 21
709.390120731577
 31
0.0
  0
LINE
  5
2A2
330
18
100
AcDbEntity
  8
0020010007
100
AcDbLine
 10
331.4646168361
 20
709.390120731577
 30
0.0
 11
332.5190905767
 21
708.256991943877
 31
0.0
  0
LINE
  5
2A3
330
18
100
AcDbEntity
  8
0020010007
100
AcDbLine
 10
332.519090576701
 20
708.256991943877
 30
0.0
 11
333.607729451501
 21
707.1566463636771
 31
0.0
  0
LINE
  5
2A4
330
18
100
AcDbEntity
  8
0020010007
100
AcDbLine
 10
333.607729451502
 20
707.1566463636771
 30
0.0
 11
334.729515462202
 21
706.090112970577
 31
0.0
  0
LINE
  5
2A5
330
18
100
AcDbEntity
  8
0020010007
100
AcDbLine
 10
334.729515462201
 20
706.090112970577
 30
0.0
 11
335.883400275401
 21
705.058388671477
 31
0.0
  0
LINE
  5
2A6
330
18
100
AcDbEntity
  8
0020010007
100
AcDbLine
 10
335.883400275401
 20
705.058388671477
 30
0.0
 11
337.068303713901
 21
704.062439554277
 31
0.0
  0
LINE
  5
2A7
330
18
100
AcDbEntity
  8
0020010007
100
AcDbLine
 10
337.068303713899
 20
704.062439554277
 30
0.0
 11
338.283117124699
 21
703.1031976971771
 31
0.0
  0
LINE
  5
2A8
330
18
100
AcDbEntity
  8
0020010007
100
AcDbLine
 10
338.283117124698
 20
703.1031976971771
 30
0.0
 11
339.526703385598
 21
702.1815611817771
 31
0.0
  0
LINE
  5
2A9
330
18
100
AcDbEntity
  8
0020010007
100
AcDbLine
 10
339.5267033856
 20
702.181561181778
 30
0.0
 11
340.7978985262
 21
701.298392768578
 31
0.0
  0
LINE
  5
2AA
330
18
100
AcDbEntity
  8
0020010007
100
AcDbLine
 10
340.797898526198
 20
701.298392768577
 30
0.0
 11
342.095512708998
 21
700.454519184577
 31
0.0
  0
LINE
  5
2AB
330
18
100
AcDbEntity
  8
0020010007
100
AcDbLine
 10
342.095512709002
 20
700.454519184577
 30
0.0
 11
343.418331309902
 21
699.650730367378
 31
0.0
  0
LINE
  5
2AC
330
18
100
AcDbEntity
  8
0020010007
100
AcDbLine
 10
343.418331309898
 20
699.650730367378
 30
0.0
 11
344.765116234398
 21
698.887778621478
 31
0.0
  0
LINE
  5
2AD
330
18
100
AcDbEntity
  8
0020010007
100
AcDbLine
 10
344.765116234401
 20
698.887778621477
 30
0.0
 11
346.134606768401
 21
698.166378097477
 31
0.0
  0
LINE
  5
2AE
330
18
100
AcDbEntity
  8
0020010007
100
AcDbLine
 10
346.134606768399
 20
698.166378097477
 30
0.0
 11
347.525521493599
 21
697.487203744877
 31
0.0
  0
LINE
  5
2AF
330
18
100
AcDbEntity
  8
0020010007
100
AcDbLine
 10
347.525521493601
 20
697.487203744877
 30
0.0
 11
348.936558776001
 21
696.850891092977
 31
0.0
  0
LINE
  5
2B0
330
18
100
AcDbEntity
  8
0020010007
100
AcDbLine
 10
348.936558776
 20
696.850891092977
 30
0.0
 11
350.3663982916
 21
696.258035501777
 31
0.0
  0
LINE
  5
2B1
330
18
100
AcDbEntity
  8
0020010007
100
AcDbLine
 10
350.3663982916
 20
696.258035501777
 30
0.0
 11
351.813702093301
 21
695.709191690277
 31
0.0
  0
LINE
  5
2B2
330
18
100
AcDbEntity
  8
0020010007
100
AcDbLine
 10
351.813702093299
 20
695.709191690277
 30
0.0
 11
353.277115896699
 21
695.204873200878
 31
0.0
  0
LINE
  5
2B3
330
18
100
AcDbEntity
  8
0020010007
100
AcDbLine
 10
353.277115896701
 20
695.204873200878
 30
0.0
 11
354.755270346101
 21
694.745551919078
 31
0.0
  0
LINE
  5
2B4
330
18
100
AcDbEntity
  8
0020010007
100
AcDbLine
 10
354.755270346101
 20
694.745551919077
 30
0.0
 11
356.246782295801
 21
694.331657631877
 31
0.0
  0
LINE
  5
2B5
330
18
100
AcDbEntity
  8
0020010007
100
AcDbLine
 10
356.246782295799
 20
694.331657631877
 30
0.0
 11
357.750256103299
 21
693.963577626377
 31
0.0
  0
LINE
  5
2B6
330
18
100
AcDbEntity
  8
0020010007
100
AcDbLine
 10
357.7502561033
 20
693.963577626377
 30
0.0
 11
359.2642849352
 21
693.641656326677
 31
0.0
  0
LINE
  5
2B7
330
18
100
AcDbEntity
  8
0020010007
100
AcDbLine
 10
359.264284935201
 20
693.641656326677
 30
0.0
 11
360.787452082501
 21
693.366194972677
 31
0.0
  0
LINE
  5
2B8
330
18
100
AcDbEntity
  8
0020010007
100
AcDbLine
 10
360.787452082499
 20
693.366194972677
 30
0.0
 11
362.318332286199
 21
693.137451337677
 31
0.0
  0
LINE
  5
2B9
330
18
100
AcDbEntity
  8
0020010007
100
AcDbLine
 10
362.318332286199
 20
693.137451337677
 30
0.0
 11
363.855493069999
 21
692.955639487377
 31
0.0
  0
LINE
  5
2BA
330
18
100
AcDbEntity
  8
0020010007
100
AcDbLine
 10
363.855493070001
 20
692.955639487377
 30
0.0
 11
365.397496080101
 21
692.820929579677
 31
0.0
  0
LINE
  5
2BB
330
18
100
AcDbEntity
  8
0020010007
100
AcDbLine
 10
606.0
 20
829.506948556577
 30
0.0
 11
-86.0
 21
829.506948556577
 31
0.0
  0
LINE
  5
2BC
330
18
100
AcDbEntity
  8
0020010007
100
AcDbLine
 10
606.0
 20
830.106948556577
 30
0.0
 11
-86.0
 21
830.106948556577
 31
0.0
  0
LINE
  5
2BD
330
18
100
AcDbEntity
  8
0020010007
100
AcDbLine
 10
-81.1524791386
 20
832.106948556577
 30
0.0
 11
601.1524791386
 21
832.106948556577
 31
0.0
  0
LINE
  5
2BE
330
18
100
AcDbEntity
  8
0020010007
100
AcDbLine
 10
390.648392830299
 20
692.106948556577
 30
0.0
 11
394.604648826499
 21
685.254512163477
 31
0.0
  0
LINE
  5
2BF
330
18
100
AcDbEntity
  8
0020010007
100
AcDbLine
 10
514.351607169701
 20
692.106948556577
 30
0.0
 11
510.395351173601
 21
685.254512163477
 31
0.0
  0
LINE
  5
2C0
330
18
100
AcDbEntity
  8
0020010007
100
AcDbLine
 10
590.599999999999
 20
826.106948556577
 30
0.0
 11
590.599999999999
 21
820.106948556577
 31
0.0
  0
LINE
  5
2C1
330
18
100
AcDbEntity
  8
0020010007
100
AcDbLine
 10
606.0
 20
830.106948556577
 30
0.0
 11
606.0
 21
829.506948556577
 31
0.0
  0
LINE
  5
2C2
330
18
100
AcDbEntity
  8
0020010007
100
AcDbLine
 10
585.414707006199
 20
732.537940417277
 30
0.0
 11
585.501854039099
 21
732.946753559277
 31
0.0
  0
LINE
  5
2C3
330
18
100
AcDbEntity
  8
0020010007
100
AcDbLine
 10
602.191709623101
 20
831.506948556577
 30
0.0
 11
602.653589838501
 21
830.706948556577
 31
0.0
  0
LINE
  5
2C4
330
18
100
AcDbEntity
  8
0020010007
100
AcDbLine
 10
602.191709623101
 20
831.506948556577
 30
0.0
 11
602.653589838501
 21
830.706948556577
 31
0.0
  0
ARC
  5
2C5
330
18
100
AcDbEntity
  8
0020010007
100
AcDbCircle
 10
520.0
 20
316.845
 30
0.0
 40
81.845
100
AcDbArc
 50
0.0
 51
90.0
  0
ARC
  5
2C6
330
18
100
AcDbEntity
  8
0020010007
100
AcDbCircle
 10
0.0
 20
316.845
 30
0.0
 40
81.845
100
AcDbArc
 50
90.0
 51
180.0
  0
ARC
  5
2C7
330
18
100
AcDbEntity
  8
0020010007
100
AcDbCircle
 10
0.0
 20
81.8450000000003
 30
0.0
 40
81.845
100
AcDbArc
 50
180.0
 51
270.0
  0
ARC
  5
2C8
330
18
100
AcDbEntity
  8
0020010007
100
AcDbCircle
 10
520.0
 20
81.8450000000003
 30
0.0
 40
81.845
100
AcDbArc
 50
270.0
 51
0.0
  0
ARC
  5
2C9
330
18
100
AcDbEntity
  8
0020010007
100
AcDbCircle
 10
295.0000703396
 20
360.4340852433
 30
0.0
 40
30.0
100
AcDbArc
 50
205.6775371731
 51
334.2526589231
  0
ARC
  5
2CA
330
18
100
AcDbEntity
  8
0020010007
100
AcDbCircle
 10
295.0000703396
 20
38.2559147568004
 30
0.0
 40
30.0
100
AcDbArc
 50
25.7473410769
 51
154.3224628269
  0
ARC
  5
2CB
330
18
100
AcDbEntity
  8
0020010007
100
AcDbCircle
 10
0.0
 20
81.8450000000003
 30
0.0
 40
86.0
100
AcDbArc
 50
180.0
 51
270.0
  0
ARC
  5
2CC
330
18
100
AcDbEntity
  8
0020010007
100
AcDbCircle
 10
205.0
 20
81.8450000000003
 30
0.0
 40
70.0
100
AcDbArc
 50
269.9999983921
 51
0.0000005611
  0
ARC
  5
2CD
330
18
100
AcDbEntity
  8
0020010007
100
AcDbCircle
 10
0.0
 20
81.8450000000003
 30
0.0
 40
70.0
100
AcDbArc
 50
180.0
 51
270.0
  0
ARC
  5
2CE
330
18
100
AcDbEntity
  8
0020010007
100
AcDbCircle
 10
0.0
 20
316.845
 30
0.0
 40
86.0
100
AcDbArc
 50
90.0
 51
180.0
  0
ARC
  5
2CF
330
18
100
AcDbEntity
  8
0020010007
100
AcDbCircle
 10
0.0
 20
316.845
 30
0.0
 40
70.0
100
AcDbArc
 50
90.0
 51
180.0
  0
CIRCLE
  5
2D0
330
18
100
AcDbEntity
  8
0030010004
100
AcDbCircle
 10
102.5
 20
199.345
 30
0.0
 40
61.5
  0
CIRCLE
  5
2D1
330
18
100
AcDbEntity
  8
0020010007
100
AcDbCircle
 10
102.5
 20
199.345
 30
0.0
 40
44.85
  0
ARC
  5
2D2
330
18
100
AcDbEntity
  8
0020010007
100
AcDbCircle
 10
205.0
 20
316.845
 30
0.0
 40
70.0
100
AcDbArc
 50
359.9999994296
 51
90.00000163519999
  0
ARC
  5
2D3
330
18
100
AcDbEntity
  8
0020010007
100
AcDbCircle
 10
520.0
 20
81.8450000000003
 30
0.0
 40
86.0
100
AcDbArc
 50
270.0
 51
0.0
  0
ARC
  5
2D4
330
18
100
AcDbEntity
  8
0020010007
100
AcDbCircle
 10
520.0
 20
81.8450000000003
 30
0.0
 40
70.0
100
AcDbArc
 50
270.0
 51
0.0
  0
ARC
  5
2D5
330
18
100
AcDbEntity
  8
0020010007
100
AcDbCircle
 10
385.0
 20
81.8450000000003
 30
0.0
 40
70.0
100
AcDbArc
 50
179.9999994296
 51
270.0000016361
  0
ARC
  5
2D6
330
18
100
AcDbEntity
  8
0020010007
100
AcDbCircle
 10
520.0
 20
81.8450000000003
 30
0.0
 40
70.0
100
AcDbArc
 50
270.0
 51
0.0
  0
ARC
  5
2D7
330
18
100
AcDbEntity
  8
0020010007
100
AcDbCircle
 10
385.0
 20
316.845
 30
0.0
 40
70.0
100
AcDbArc
 50
89.9999983922
 51
180.0000005611
  0
CIRCLE
  5
2D8
330
18
100
AcDbEntity
  8
0030010004
100
AcDbCircle
 10
452.5
 20
199.345
 30
0.0
 40
61.5
  0
CIRCLE
  5
2D9
330
18
100
AcDbEntity
  8
0020010007
100
AcDbCircle
 10
452.5
 20
199.345
 30
0.0
 40
44.85
  0
ARC
  5
2DA
330
18
100
AcDbEntity
  8
0020010007
100
AcDbCircle
 10
520.0
 20
316.845
 30
0.0
 40
86.0
100
AcDbArc
 50
0.0
 51
90.0
  0
ARC
  5
2DB
330
18
100
AcDbEntity
  8
0020010007
100
AcDbCircle
 10
520.0
 20
316.845
 30
0.0
 40
70.0
100
AcDbArc
 50
0.0
 51
90.0
  0
ARC
  5
2DC
330
18
100
AcDbEntity
  8
0020010007
100
AcDbCircle
 10
-410.0
 20
830.697947074377
 30
0.0
 40
1000.6
100
AcDbArc
 50
354.7208668326
 51
0.0
  0
ARC
  5
2DD
330
18
100
AcDbEntity
  8
0020010007
100
AcDbCircle
 10
-725.0
 20
830.697947074377
 30
0.0
 40
1000.6
100
AcDbArc
 50
354.7765095195001
 51
0.0
  0
ARC
  5
2DE
330
18
100
AcDbEntity
  8
0020010007
100
AcDbCircle
 10
-76.0
 20
826.106948556577
 30
0.0
 40
5.4
100
AcDbArc
 50
0.0
 51
39.0233034595
  0
ARC
  5
2DF
330
18
100
AcDbEntity
  8
0020010007
100
AcDbCircle
 10
280.999877960701
 20
824.106943436477
 30
0.0
 40
5.3996972011
100
AcDbArc
 50
95.7481374084
 51
179.9999438496
  0
ARC
  5
2E0
330
18
100
AcDbEntity
  8
0020010007
100
AcDbCircle
 10
-81.1524791386
 20
830.9069485565771
 30
0.0
 40
1.2
100
AcDbArc
 50
90.0
 51
150.0
  0
ARC
  5
2E1
330
18
100
AcDbEntity
  8
0020010007
100
AcDbCircle
 10
-83.6928203230018
 20
831.3069485565781
 30
0.0
 40
1.2
100
AcDbArc
 50
270.0
 51
330.0
  0
ARC
  5
2E2
330
18
100
AcDbEntity
  8
0020010007
100
AcDbCircle
 10
369.029640604
 20
743.290400808777
 30
0.0
 40
50.6
100
AcDbArc
 50
185.2791331697
 51
268.5000000003
  0
ARC
  5
2E3
330
18
100
AcDbEntity
  8
0020010007
100
AcDbCircle
 10
535.970359395898
 20
743.290400807877
 30
0.0
 40
50.6
100
AcDbArc
 50
271.4999999999
 51
354.7208668186
  0
ARC
  5
2E4
330
18
100
AcDbEntity
  8
0020010007
100
AcDbCircle
 10
1315.0
 20
830.697947074377
 30
0.0
 40
1000.6
100
AcDbArc
 50
180.0
 51
185.2791331674
  0
ARC
  5
2E5
330
18
100
AcDbEntity
  8
0020010007
100
AcDbCircle
 10
930.0
 20
830.697947074377
 30
0.0
 40
1000.6
100
AcDbArc
 50
180.0
 51
185.2234904805
  0
ARC
  5
2E6
330
18
100
AcDbEntity
  8
0020010007
100
AcDbCircle
 10
308.999641345301
 20
824.106568822077
 30
0.0
 40
5.4002399566
100
AcDbArc
 50
0.0038411617
 51
86.74374295680001
  0
ARC
  5
2E7
330
18
100
AcDbEntity
  8
0020010007
100
AcDbCircle
 10
596.0
 20
826.106948556577
 30
0.0
 40
5.4
100
AcDbArc
 50
140.9766965405
 51
180.0
  0
ARC
  5
2E8
330
18
100
AcDbEntity
  8
0020010007
100
AcDbCircle
 10
601.1524791386
 20
830.9069485565771
 30
0.0
 40
1.2
100
AcDbArc
 50
30.0
 51
90.0
  0
ARC
  5
2E9
330
18
100
AcDbEntity
  8
0020010007
100
AcDbCircle
 10
603.692820323002
 20
831.3069485565781
 30
0.0
 40
1.2
100
AcDbArc
 50
210.0
 51
270.0
  0
LINE
  5
2EA
330
18
100
AcDbEntity
  8
0040010002
100
AcDbLine
 10
-86.0
 20
317.845
 30
0.0
 11
-86.0
 21
503.845
 31
0.0
  0
LINE
  5
2EB
330
18
100
AcDbEntity
  8
0040010002
100
AcDbLine
 10
606.0
 20
317.845
 30
0.0
 11
606.0
 21
503.845
 31
0.0
  0
LINE
  5
2EC
330
18
100
AcDbEntity
  8
0040010002
100
AcDbLine
 10
-84.762164914073
 20
502.6710336238
 30
0.0
 11
-84.762164914073
 21
503.0189663762
 31
0.0
  0
LINE
  5
2ED
330
18
100
AcDbEntity
  8
0040010002
100
AcDbLine
 10
-84.762164914073
 20
503.0189663762
 30
0.0
 11
-86.0
 21
502.845
 31
0.0
  0
LINE
  5
2EE
330
18
100
AcDbEntity
  8
0040010002
100
AcDbLine
 10
-86.0
 20
502.845
 30
0.0
 11
-84.762164914073
 21
502.6710336238
 31
0.0
  0
LINE
  5
2EF
330
18
100
AcDbEntity
  8
0040010002
100
AcDbLine
 10
604.762164914073
 20
503.0189663762
 30
0.0
 11
604.762164914073
 21
502.6710336238
 31
0.0
  0
LINE
  5
2F0
330
18
100
AcDbEntity
  8
0040010002
100
AcDbLine
 10
604.762164914073
 20
502.6710336238
 30
0.0
 11
606.0
 21
502.845
 31
0.0
  0
LINE
  5
2F1
330
18
100
AcDbEntity
  8
0040010002
100
AcDbLine
 10
606.0
 20
502.845
 30
0.0
 11
604.762164914073
 21
503.0189663762
 31
0.0
  0
LINE
  5
2F2
330
18
100
AcDbEntity
  8
0040010002
100
AcDbLine
 10
-86.0
 20
502.845
 30
0.0
 11
606.0
 21
502.845
 31
0.0
  0
TEXT
  5
2F3
330
18
100
AcDbEntity
  8
0040010002
100
AcDbText
 10
230.000000592652
 20
517.845000953675
 30
0.0
 40
30.0000019073486
  1
692
 41
0.75
100
AcDbText
  0
LINE
  5
2F4
330
18
100
AcDbEntity
  8
0040010002
100
AcDbLine
 10
521.0
 20
402.845
 30
0.0
 11
707.0
 21
402.845
 31
0.0
  0
LINE
  5
2F5
330
18
100
AcDbEntity
  8
0040010002
100
AcDbLine
 10
521.0
 20
-4.15499999999975
 30
0.0
 11
707.0
 21
-4.15499999999975
 31
0.0
  0
LINE
  5
2F6
330
18
100
AcDbEntity
  8
0040010002
100
AcDbLine
 10
705.8260336238
 20
401.607164914073
 30
0.0
 11
706.1739663762
 21
401.607164914073
 31
0.0
  0
LINE
  5
2F7
330
18
100
AcDbEntity
  8
0040010002
100
AcDbLine
 10
706.1739663762
 20
401.607164914073
 30
0.0
 11
706.0
 21
402.845
 31
0.0
  0
LINE
  5
2F8
330
18
100
AcDbEntity
  8
0040010002
100
AcDbLine
 10
706.0
 20
402.845
 30
0.0
 11
705.8260336238
 21
401.607164914073
 31
0.0
  0
LINE
  5
2F9
330
18
100
AcDbEntity
  8
0040010002
100
AcDbLine
 10
706.1739663762
 20
-2.91716491407278
 30
0.0
 11
705.8260336238
 21
-2.91716491407278
 31
0.0
  0
LINE
  5
2FA
330
18
100
AcDbEntity
  8
0040010002
100
AcDbLine
 10
705.8260336238
 20
-2.91716491407278
 30
0.0
 11
706.0
 21
-4.15499999999975
 31
0.0
  0
LINE
  5
2FB
330
18
100
AcDbEntity
  8
0040010002
100
AcDbLine
 10
706.0
 20
-4.15499999999975
 30
0.0
 11
706.1739663762
 21
-2.91716491407278
 31
0.0
  0
LINE
  5
2FC
330
18
100
AcDbEntity
  8
0040010002
100
AcDbLine
 10
706.0
 20
402.845
 30
0.0
 11
706.0
 21
-4.154999999999745
 31
0.0
  0
TEXT
  5
2FD
330
18
100
AcDbEntity
  8
0040010002
100
AcDbText
 10
690.999999046326
 20
169.344995592652
 30
0.0
 40
30.0000019073486
  1
407
 50
90.0
 41
0.75
100
AcDbText
  0
LINE
  5
2FE
330
18
100
AcDbEntity
  8
0040010002
100
AcDbLine
 10
515.351607169701
 20
692.106948556577
 30
0.0
 11
706.556719530646
 21
692.106948556577
 31
0.0
  0
LINE
  5
2FF
330
18
100
AcDbEntity
  8
0040010002
100
AcDbLine
 10
602.1524791386
 20
832.106948556577
 30
0.0
 11
706.556719530646
 21
832.106948556577
 31
0.0
  0
SOLID
  5
300
330
18
100
AcDbEntity
  8
0040010002
100
AcDbTrace
 10
705.783972851678
 20
693.343164832537
 30
0.0
 11
705.329466209614
 21
693.343164832537
 31
0.0
 12
705.556719530646
 22
692.106948556577
 32
0.0
 13
705.556719530646
 23
692.106948556577
 33
0.0
  0
SOLID
  5
301
330
18
100
AcDbEntity
  8
0040010002
100
AcDbTrace
 10
705.329466209614
 20
830.870732280617
 30
0.0
 11
705.783972851678
 21
830.870732280617
 31
0.0
 12
705.556719530646
 22
832.106948556577
 32
0.0
 13
705.556719530646
 23
832.106948556577
 33
0.0
  0
LINE
  5
302
330
18
100
AcDbEntity
  8
0040010002
100
AcDbLine
 10
705.556719530646
 20
692.106948556577
 30
0.0
 11
705.556719530646
 21
832.106948556577
 31
0.0
  0
TEXT
  5
303
330
18
100
AcDbEntity
  8
0040010002
100
AcDbText
 10
694.87229168668
 20
727.831042194792
 30
0.0
 40
30.0000019073486
  1
140
 50
90.0
 41
0.75
100
AcDbText
  0
ENDSEC
  0
SECTION
  2
OBJECTS
  0
DICTIONARY
  5
C
330
0
100
AcDbDictionary
281
     1
  3
ACAD_GROUP
350
D
  3
ACAD_LAYOUT
350
15
  3
ACAD_MLINESTYLE
350
12
  3
ACAD_PLOTSETTINGS
350
14
  3
ACAD_PLOTSTYLENAME
350
E
  3
ACAD_TABLESTYLE
350
305
  3
AcDbVariableDictionary
350
307
  0
DICTIONARY
  5
D
102
{ACAD_REACTORS
330
C
102
}
330
C
100
AcDbDictionary
281
     1
  0
DICTIONARY
  5
15
102
{ACAD_REACTORS
330
C
102
}
330
C
100
AcDbDictionary
281
     1
  3
Layout1
350
17
  3
Model
350
19
  0
DICTIONARY
  5
12
102
{ACAD_REACTORS
330
C
102
}
330
C
100
AcDbDictionary
281
     1
  3
Standard
350
13
  0
DICTIONARY
  5
14
102
{ACAD_REACTORS
330
C
102
}
330
C
100
AcDbDictionary
281
     1
  0
ACDBDICTIONARYWDFLT
  5
E
102
{ACAD_REACTORS
330
C
102
}
330
C
100
AcDbDictionary
281
     1
  3
Normal
350
F
100
AcDbDictionaryWithDefault
340
F
  0
DICTIONARY
  5
305
102
{ACAD_REACTORS
330
C
102
}
330
C
100
AcDbDictionary
281
     1
  3
Standard
350
306
  0
DICTIONARY
  5
307
102
{ACAD_REACTORS
330
C
102
}
330
C
100
AcDbDictionary
281
     1
  3
CTABLESTYLE
350
308
  0
LAYOUT
  5
17
102
{ACAD_REACTORS
330
15
102
}
330
15
100
AcDbPlotSettings
  1

  2

  4

  6

 40
0.0
 41
0.0
 42
0.0
 43
0.0
 44
0.0
 45
0.0
 46
0.0
 47
0.0
 48
0.0
 49
0.0
140
0.0
141
0.0
142
1.0
143
1.0
 70
   688
 72
     0
 73
     0
 74
     5
  7

 75
    16
147
1.0
148
0.0
149
0.0
100
AcDbLayout
  1
Layout1
 70
     1
 71
     1
 10
0.0
 20
0.0
 11
12.0
 21
9.0
 12
0.0
 22
0.0
 32
0.0
 14
1.000000000000000E+20
 24
1.000000000000000E+20
 34
1.000000000000000E+20
 15
-1.000000000000000E+20
 25
-1.000000000000000E+20
 35
-1.000000000000000E+20
146
0.0
 13
0.0
 23
0.0
 33
0.0
 16
1.0
 26
0.0
 36
0.0
 17
0.0
 27
1.0
 37
0.0
 76
     0
330
16
  0
LAYOUT
  5
19
102
{ACAD_REACTORS
330
15
102
}
330
15
100
AcDbPlotSettings
  1

  2

  4

  6

 40
0.0
 41
0.0
 42
0.0
 43
0.0
 44
0.0
 45
0.0
 46
0.0
 47
0.0
 48
0.0
 49
0.0
140
0.0
141
0.0
142
1.0
143
1.0
 70
  1712
 72
     0
 73
     0
 74
     0
  7

 75
     0
147
1.0
148
0.0
149
0.0
100
AcDbLayout
  1
Model
 70
     1
 71
     0
 10
0.0
 20
0.0
 11
0.0
 21
0.0
 12
0.0
 22
0.0
 32
0.0
 14
-32.05
 24
-32.05
 34
0.0
 15
1258.45
 25
893.05
 35
0.0
146
0.0
 13
0.0
 23
0.0
 33
0.0
 16
1.0
 26
0.0
 36
0.0
 17
0.0
 27
1.0
 37
0.0
 76
     0
330
18
  0
MLINESTYLE
  5
13
102
{ACAD_REACTORS
330
12
102
}
330
12
100
AcDbMlineStyle
  2
Standard
 70
     0
  3

 62
   256
 51
90.0
 52
90.0
 71
     2
 49
0.5
 62
   256
  6
BYLAYER
 49
-0.5
 62
   256
  6
BYLAYER
  0
ACDBPLACEHOLDER
  5
F
102
{ACAD_REACTORS
330
E
102
}
330
E
  0
TABLESTYLE
  5
306
102
{ACAD_REACTORS
330
305
102
}
330
305
100
AcDbTableStyle
  3
Standard
 70
     0
 71
     0
 40
0.06
 41
0.06
280
     0
281
     0
  7
STANDARD
140
0.18
170
     2
 62
     0
 63
     7
283
     0
274
    -2
284
     1
 64
     0
275
    -2
285
     1
 65
     0
276
    -2
286
     1
 66
     0
277
    -2
287
     1
 67
     0
278
    -2
288
     1
 68
     0
279
    -2
289
     1
 69
     0
  7
STANDARD
140
0.25
170
     5
 62
     0
 63
     7
283
     0
274
    -2
284
     1
 64
     0
275
    -2
285
     1
 65
     0
276
    -2
286
     1
 66
     0
277
    -2
287
     1
 67
     0
278
    -2
288
     1
 68
     0
279
    -2
289
     1
 69
     0
  7
STANDARD
140
0.18
170
     5
 62
     0
 63
     7
283
     0
274
    -2
284
     1
 64
     0
275
    -2
285
     1
 65
     0
276
    -2
286
     1
 66
     0
277
    -2
287
     1
 67
     0
278
    -2
288
     1
 68
     0
279
    -2
289
     1
 69
     0
  0
DICTIONARYVAR
  5
308
102
{ACAD_REACTORS
330
307
102
}
330
307
100
DictionaryVariables
280
     0
  1
Standard
  0
ENDSEC
  0
EOF
