  0
SECTION
  2
HEADER
  9
$ACADVER
  1
AC1015
  9
$ACADMAINTVER
 70
     6
  9
$DWGCODEPAGE
  3
UNDEFINED
  9
$INSBASE
 10
0.0
 20
0.0
 30
0.0
  9
$EXTMIN
 10
-32.05
 20
-32.05
 30
0.0
  9
$EXTMAX
 10
1258.45
 20
893.05
 30
0.0
  9
$LIMMIN
 10
-32.05
 20
-32.05
  9
$LIMMAX
 10
1258.45
 20
893.05
  9
$ORTHOMODE
 70
     0
  9
$REGENMODE
 70
     1
  9
$FILLMODE
 70
     1
  9
$QTEXTMODE
 70
     0
  9
$MIRRTEXT
 70
     1
  9
$LTSCALE
 40
1.0
  9
$ATTMODE
 70
     1
  9
$TEXTSIZE
 40
3.0
  9
$TRACEWID
 40
0.05
  9
$TEXTSTYLE
  7
STANDARD
  9
$CLAYER
  8
0
  9
$CELTYPE
  6
ByBlock
  9
$CECOLOR
 62
   256
  9
$CELTSCALE
 40
1.0
  9
$DISPSILH
 70
     0
  9
$DIMSCALE
 40
1.0
  9
$DIMASZ
 40
19.5259201423987
  9
$DIMEXO
 40
1.0
  9
$DIMDLI
 40
0.38
  9
$DIMRND
 40
0.0
  9
$DIMDLE
 40
0.0
  9
$DIMEXE
 40
1.0
  9
$DIMTP
 40
0.0
  9
$DIMTM
 40
0.0
  9
$DIMTXT
 40
3.0
  9
$DIMCEN
 40
1.0
  9
$DIMTSZ
 40
0.0
  9
$DIMTOL
 70
     0
  9
$DIMLIM
 70
     0
  9
$DIMTIH
 70
     1
  9
$DIMTOH
 70
     1
  9
$DIMSE1
 70
     0
  9
$DIMSE2
 70
     0
  9
$DIMTAD
 70
     0
  9
$DIMZIN
 70
     0
  9
$DIMBLK
  1

  9
$DIMASO
 70
     1
  9
$DIMSHO
 70
     1
  9
$DIMPOST
  1

  9
$DIMAPOST
  1

  9
$DIMALT
 70
     0
  9
$DIMALTD
 70
     2
  9
$DIMALTF
 40
25.4
  9
$DIMLFAC
 40
1.0
  9
$DIMTOFL
 70
     0
  9
$DIMTVP
 40
0.0
  9
$DIMTIX
 70
     0
  9
$DIMSOXD
 70
     0
  9
$DIMSAH
 70
     0
  9
$DIMBLK1
  1

  9
$DIMBLK2
  1

  9
$DIMSTYLE
  2
Standard
  9
$DIMCLRD
 70
     0
  9
$DIMCLRE
 70
     0
  9
$DIMCLRT
 70
     0
  9
$DIMTFAC
 40
1.0
  9
$DIMGAP
 40
0.09
  9
$DIMJUST
 70
     0
  9
$DIMSD1
 70
     0
  9
$DIMSD2
 70
     0
  9
$DIMTOLJ
 70
     1
  9
$DIMTZIN
 70
     0
  9
$DIMALTZ
 70
     0
  9
$DIMALTTZ
 70
     0
  9
$DIMUPT
 70
     0
  9
$DIMDEC
 70
     4
  9
$DIMTDEC
 70
     4
  9
$DIMALTU
 70
     2
  9
$DIMALTTD
 70
     2
  9
$DIMTXSTY
  7
STANDARD
  9
$DIMAUNIT
 70
     0
  9
$DIMADEC
 70
     0
  9
$DIMALTRND
 40
0.0
  9
$DIMAZIN
 70
     0
  9
$DIMDSEP
 70
    46
  9
$DIMATFIT
 70
     3
  9
$DIMFRAC
 70
     0
  9
$DIMLDRBLK
  1

  9
$DIMLUNIT
 70
     2
  9
$DIMLWD
 70
    -2
  9
$DIMLWE
 70
    -2
  9
$DIMTMOVE
 70
     0
  9
$LUNITS
 70
     2
  9
$LUPREC
 70
     4
  9
$SKETCHINC
 40
0.1
  9
$FILLETRAD
 40
0.0
  9
$AUNITS
 70
     0
  9
$AUPREC
 70
     4
  9
$MENU
  1
acad
  9
$ELEVATION
 40
0.0
  9
$PELEVATION
 40
0.0
  9
$THICKNESS
 40
0.0
  9
$LIMCHECK
 70
     0
  9
$CHAMFERA
 40
0.0
  9
$CHAMFERB
 40
0.0
  9
$CHAMFERC
 40
1.0
  9
$CHAMFERD
 40
0.0
  9
$SKPOLY
 70
     0
  9
$TDCREATE
 40
2453872.55651294
  9
$TDUCREATE
 40
2453872.68151294
  9
$TDUPDATE
 40
2453872.556512951
  9
$TDUUPDATE
 40
2453872.681512951
  9
$TDINDWG
 40
0.0000000116
  9
$TDUSRTIMER
 40
0.0000000116
  9
$USRTIMER
 70
     1
  9
$ANGBASE
 50
0.0
  9
$ANGDIR
 70
     0
  9
$PDMODE
 70
     0
  9
$PDSIZE
 40
0.0
  9
$PLINEWID
 40
0.0
  9
$SPLFRAME
 70
     0
  9
$SPLINETYPE
 70
     6
  9
$SPLINESEGS
 70
     8
  9
$HANDSEED
  5
76
  9
$SURFTAB1
 70
     6
  9
$SURFTAB2
 70
     6
  9
$SURFTYPE
 70
     6
  9
$SURFU
 70
     6
  9
$SURFV
 70
     6
  9
$UCSBASE
  2

  9
$UCSNAME
  2

  9
$UCSORG
 10
0.0
 20
0.0
 30
0.0
  9
$UCSXDIR
 10
1.0
 20
0.0
 30
0.0
  9
$UCSYDIR
 10
0.0
 20
1.0
 30
0.0
  9
$UCSORTHOREF
  2

  9
$UCSORTHOVIEW
 70
     0
  9
$UCSORGTOP
 10
0.0
 20
0.0
 30
0.0
  9
$UCSORGBOTTOM
 10
0.0
 20
0.0
 30
0.0
  9
$UCSORGLEFT
 10
0.0
 20
0.0
 30
0.0
  9
$UCSORGRIGHT
 10
0.0
 20
0.0
 30
0.0
  9
$UCSORGFRONT
 10
0.0
 20
0.0
 30
0.0
  9
$UCSORGBACK
 10
0.0
 20
0.0
 30
0.0
  9
$PUCSBASE
  2

  9
$PUCSNAME
  2

  9
$PUCSORG
 10
0.0
 20
0.0
 30
0.0
  9
$PUCSXDIR
 10
1.0
 20
0.0
 30
0.0
  9
$PUCSYDIR
 10
0.0
 20
1.0
 30
0.0
  9
$PUCSORTHOREF
  2

  9
$PUCSORTHOVIEW
 70
     0
  9
$PUCSORGTOP
 10
0.0
 20
0.0
 30
0.0
  9
$PUCSORGBOTTOM
 10
0.0
 20
0.0
 30
0.0
  9
$PUCSORGLEFT
 10
0.0
 20
0.0
 30
0.0
  9
$PUCSORGRIGHT
 10
0.0
 20
0.0
 30
0.0
  9
$PUCSORGFRONT
 10
0.0
 20
0.0
 30
0.0
  9
$PUCSORGBACK
 10
0.0
 20
0.0
 30
0.0
  9
$USERI1
 70
     0
  9
$USERI2
 70
     0
  9
$USERI3
 70
     0
  9
$USERI4
 70
     0
  9
$USERI5
 70
     0
  9
$USERR1
 40
0.0
  9
$USERR2
 40
0.0
  9
$USERR3
 40
0.0
  9
$USERR4
 40
0.0
  9
$USERR5
 40
0.0
  9
$WORLDVIEW
 70
     1
  9
$SHADEDGE
 70
     3
  9
$SHADEDIF
 70
    70
  9
$TILEMODE
 70
     1
  9
$MAXACTVP
 70
    64
  9
$PINSBASE
 10
0.0
 20
0.0
 30
0.0
  9
$PLIMCHECK
 70
     0
  9
$PEXTMIN
 10
1.000000000000000E+20
 20
1.000000000000000E+20
 30
1.000000000000000E+20
  9
$PEXTMAX
 10
-1.000000000000000E+20
 20
-1.000000000000000E+20
 30
-1.000000000000000E+20
  9
$PLIMMIN
 10
0.0
 20
0.0
  9
$PLIMMAX
 10
12.0
 20
9.0
  9
$UNITMODE
 70
     0
  9
$VISRETAIN
 70
     1
  9
$PLINEGEN
 70
     0
  9
$PSLTSCALE
 70
     1
  9
$TREEDEPTH
 70
  3020
  9
$CMLSTYLE
  2
Standard
  9
$CMLJUST
 70
     0
  9
$CMLSCALE
 40
1.0
  9
$PROXYGRAPHICS
 70
     1
  9
$MEASUREMENT
 70
     0
  9
$CELWEIGHT
370
    -1
  9
$ENDCAPS
280
     0
  9
$JOINSTYLE
280
     0
  9
$LWDISPLAY
290
     0
  9
$INSUNITS
 70
     0
  9
$HYPERLINKBASE
  1

  9
$STYLESHEET
  1

  9
$XEDIT
290
     1
  9
$CEPSNTYPE
380
     0
  9
$PSTYLEMODE
290
     0
  9
$FINGERPRINTGUID
  2
{FAEB1C30-E019-11D5-929B-00C0DF256EC4}
  9
$VERSIONGUID
  2
{FAEB1C32-E019-11D5-929B-00C0DF256EC4}
  9
$EXTNAMES
290
     1
  9
$PSVPSCALE
 40
0.0
  9
$OLESTARTUP
290
     0
  0
ENDSEC
  0
SECTION
  2
CLASSES
  0
CLASS
  1
ACDBDICTIONARYWDFLT
  2
AcDbDictionaryWithDefault
  3
ObjectDBX Classes
 90
        0
280
     0
281
     0
  0
CLASS
  1
TABLESTYLE
  2
AcDbTableStyle
  3
ObjectDBX Classes
 90
     2047
280
     0
281
     0
  0
CLASS
  1
DICTIONARYVAR
  2
AcDbDictionaryVar
  3
ObjectDBX Classes
 90
        0
280
     0
281
     0
  0
CLASS
  1
ACDBPLACEHOLDER
  2
AcDbPlaceHolder
  3
ObjectDBX Classes
 90
        0
280
     0
281
     0
  0
CLASS
  1
LAYOUT
  2
AcDbLayout
  3
ObjectDBX Classes
 90
        0
280
     0
281
     0
  0
ENDSEC
  0
SECTION
  2
TABLES
  0
TABLE
  2
VPORT
  5
8
330
0
100
AcDbSymbolTable
 70
     1
  0
VPORT
  5
6D
330
8
100
AcDbSymbolTableRecord
100
AcDbViewportTableRecord
  2
*Active
 70
     0
 10
0.0
 20
0.0
 11
1.0
 21
1.0
 12
10.42990654205607
 22
4.5
 13
0.0
 23
0.0
 14
0.5
 24
0.5
 15
0.5
 25
0.5
 16
0.0
 26
0.0
 36
1.0
 17
0.0
 27
0.0
 37
0.0
 40
9.0
 41
1.972972972850329
 42
50.0
 43
0.0
 44
0.0
 50
0.0
 51
0.0
 71
     0
 72
   100
 73
     1
 74
     3
 75
     0
 76
     0
 77
     0
 78
     0
281
     0
 65
     1
110
0.0
120
0.0
130
0.0
111
1.0
121
0.0
131
0.0
112
0.0
122
1.0
132
0.0
 79
     0
146
0.0
  0
ENDTAB
  0
TABLE
  2
LTYPE
  5
5
330
0
100
AcDbSymbolTable
 70
     9
  0
LTYPE
  5
10
330
5
100
AcDbSymbolTableRecord
100
AcDbLinetypeTableRecord
  2
ByBlock
 70
     0
  3

 72
    65
 73
     0
 40
0.0
  0
LTYPE
  5
11
330
5
100
AcDbSymbolTableRecord
100
AcDbLinetypeTableRecord
  2
ByLayer
 70
     0
  3

 72
    65
 73
     0
 40
0.0
  0
LTYPE
  5
1B
330
5
100
AcDbSymbolTableRecord
100
AcDbLinetypeTableRecord
  2
CONTINUOUS
 70
     0
  3
Solid line
 72
    65
 73
     0
 40
0.0
  0
LTYPE
  5
1C
330
5
100
AcDbSymbolTableRecord
100
AcDbLinetypeTableRecord
  2
HIDDEN
 70
     0
  3
_ _ _ _ _ _ _ _ _ _ _ _ _ _ _ _ _ _ _ _ 
 72
    65
 73
     2
 40
0.375
 49
0.25
 74
     0
 49
-0.125
 74
     0
  0
LTYPE
  5
1D
330
5
100
AcDbSymbolTableRecord
100
AcDbLinetypeTableRecord
  2
DASHED
 70
     0
  3
__ __ __ __ __ __ __ __ __ __ __ __ __  
 72
    65
 73
     2
 40
0.75
 49
0.5
 74
     0
 49
-0.25
 74
     0
  0
LTYPE
  5
1E
330
5
100
AcDbSymbolTableRecord
100
AcDbLinetypeTableRecord
  2
CENTER
 70
     0
  3
____ _ ____ _ ____ _ ____ _ ____ _ ____ 
 72
    65
 73
     4
 40
2.0
 49
1.25
 74
     0
 49
-0.25
 74
     0
 49
0.25
 74
     0
 49
-0.25
 74
     0
  0
LTYPE
  5
1F
330
5
100
AcDbSymbolTableRecord
100
AcDbLinetypeTableRecord
  2
PHANTOM
 70
     0
  3
_____ _ _ _____ _ _ _____ _ _ _____ _ _ 
 72
    65
 73
     6
 40
2.5
 49
1.25
 74
     0
 49
-0.25
 74
     0
 49
0.25
 74
     0
 49
-0.25
 74
     0
 49
0.25
 74
     0
 49
-0.25
 74
     0
  0
LTYPE
  5
20
330
5
100
AcDbSymbolTableRecord
100
AcDbLinetypeTableRecord
  2
DOT
 70
     0
  3
........................................
 72
    65
 73
     2
 40
0.25
 49
0.0
 74
     0
 49
-0.25
 74
     0
  0
LTYPE
  5
21
330
5
100
AcDbSymbolTableRecord
100
AcDbLinetypeTableRecord
  2
DASHDOT
 70
     0
  3
__ . __ . __ . __ . __ . __ . __ . __ . 
 72
    65
 73
     4
 40
1.0
 49
0.5
 74
     0
 49
-0.25
 74
     0
 49
0.0
 74
     0
 49
-0.25
 74
     0
  0
LTYPE
  5
22
330
5
100
AcDbSymbolTableRecord
100
AcDbLinetypeTableRecord
  2
BORDER
 70
     0
  3
__ __ . __ __ . __ __ . __ __ . __ __ . 
 72
    65
 73
     6
 40
1.75
 49
0.5
 74
     0
 49
-0.25
 74
     0
 49
0.5
 74
     0
 49
-0.25
 74
     0
 49
0.0
 74
     0
 49
-0.25
 74
     0
  0
LTYPE
  5
23
330
5
100
AcDbSymbolTableRecord
100
AcDbLinetypeTableRecord
  2
DIVIDE
 70
     0
  3
__ . . __ . . __ . . __ . . __ . . __ . 
 72
    65
 73
     6
 40
1.25
 49
0.5
 74
     0
 49
-0.25
 74
     0
 49
0.0
 74
     0
 49
-0.25
 74
     0
 49
0.0
 74
     0
 49
-0.25
 74
     0
  0
ENDTAB
  0
TABLE
  2
LAYER
  5
2
330
0
100
AcDbSymbolTable
 70
     4
  0
LAYER
  5
24
330
2
100
AcDbSymbolTableRecord
100
AcDbLayerTableRecord
  2
0
 70
     0
 62
     7
  6
CONTINUOUS
370
    -3
390
F
  0
LAYER
  5
25
330
2
100
AcDbSymbolTableRecord
100
AcDbLayerTableRecord
  2
0010010007
 70
     0
 62
     7
  6
CONTINUOUS
370
    -3
390
F
  0
LAYER
  5
26
330
2
100
AcDbSymbolTableRecord
100
AcDbLayerTableRecord
  2
0020010004
 70
     0
 62
     4
  6
CONTINUOUS
370
    -3
390
F
  0
LAYER
  5
27
330
2
100
AcDbSymbolTableRecord
100
AcDbLayerTableRecord
  2
0030010002
 70
     0
 62
     2
  6
CONTINUOUS
370
    -3
390
F
  0
ENDTAB
  0
TABLE
  2
STYLE
  5
3
330
0
100
AcDbSymbolTable
 70
     1
  0
STYLE
  5
28
330
3
100
AcDbSymbolTableRecord
100
AcDbTextStyleTableRecord
  2
STANDARD
 70
     0
 40
0.0
 41
1.0
 50
0.0
 71
     0
 42
0.2
  3
txt
  4

  0
ENDTAB
  0
TABLE
  2
VIEW
  5
6
330
0
100
AcDbSymbolTable
 70
     1
  0
VIEW
  5
29
330
6
100
AcDbSymbolTableRecord
100
AcDbViewTableRecord
  2
1
 70
     0
 40
20600.0
 10
29641.0
 20
34500.0
 41
1.0
 11
0.0
 21
0.0
 31
1.0
 12
0.0
 22
0.0
 32
0.0
 42
50.0
 43
0.0
 44
0.0
 50
0.0
 71
     0
281
     0
 72
     0
  0
ENDTAB
  0
TABLE
  2
UCS
  5
7
330
0
100
AcDbSymbolTable
 70
     0
  0
ENDTAB
  0
TABLE
  2
APPID
  5
9
330
0
100
AcDbSymbolTable
 70
     1
  0
APPID
  5
2A
330
9
100
AcDbSymbolTableRecord
100
AcDbRegAppTableRecord
  2
ACAD
 70
     0
  0
ENDTAB
  0
TABLE
  2
DIMSTYLE
  5
A
330
0
100
AcDbSymbolTable
 70
     1
100
AcDbDimStyleTable
  0
DIMSTYLE
105
2B
330
A
100
AcDbSymbolTableRecord
100
AcDbDimStyleTableRecord
  2
Standard
 70
     0
340
28
  0
ENDTAB
  0
TABLE
  2
BLOCK_RECORD
  5
1
330
0
100
AcDbSymbolTable
 70
     0
  0
BLOCK_RECORD
  5
18
330
1
100
AcDbSymbolTableRecord
100
AcDbBlockTableRecord
  2
*Model_Space
340
19
  0
BLOCK_RECORD
  5
16
330
1
100
AcDbSymbolTableRecord
100
AcDbBlockTableRecord
  2
*Paper_Space
340
17
  0
ENDTAB
  0
ENDSEC
  0
SECTION
  2
BLOCKS
  0
BLOCK
  5
72
330
18
100
AcDbEntity
  8
0
100
AcDbBlockBegin
  2
*Model_Space
 70
     0
 71
     0
 10
0.0
 20
0.0
 30
0.0
  3
*Model_Space
  1

  0
ENDBLK
  5
73
330
18
100
AcDbEntity
  8
0
100
AcDbBlockEnd
  0
BLOCK
  5
74
330
16
100
AcDbEntity
 67
     1
  8
0
100
AcDbBlockBegin
  2
*Paper_Space
 70
     0
 71
     0
 10
0.0
 20
0.0
 30
0.0
  3
*Paper_Space
  1

  0
ENDBLK
  5
75
330
16
100
AcDbEntity
 67
     1
  8
0
100
AcDbBlockEnd
  0
ENDSEC
  0
SECTION
  2
ENTITIES
  0
ARC
  5
2C
330
18
100
AcDbEntity
  8
0010010007
100
AcDbCircle
 10
-6.66884401372226
 20
264.668844013726
 30
0.0
 40
100.0
100
AcDbArc
 50
97.5468990230667
 51
172.453100976933
  0
ARC
  5
2D
330
18
100
AcDbEntity
  8
0010010007
100
AcDbCircle
 10
489.0
 20
199.0
 30
0.0
 40
600.0
100
AcDbArc
 50
172.453100976933
 51
187.546899023067
  0
ARC
  5
2E
330
18
100
AcDbEntity
  8
0010010007
100
AcDbCircle
 10
-6.66884401372226
 20
133.331155986278
 30
0.0
 40
100.0
100
AcDbArc
 50
187.546899023067
 51
262.453100976933
  0
ARC
  5
2F
330
18
100
AcDbEntity
  8
0010010007
100
AcDbCircle
 10
59.0000000000036
 20
629.000000000004
 30
0.0
 40
600.0
100
AcDbArc
 50
262.453100976933
 51
277.546899023067
  0
ARC
  5
30
330
18
100
AcDbEntity
  8
0010010007
100
AcDbCircle
 10
124.668844013722
 20
133.331155986278
 30
0.0
 40
100.0
100
AcDbArc
 50
277.546899023067
 51
352.453100976933
  0
ARC
  5
31
330
18
100
AcDbEntity
  8
0010010007
100
AcDbCircle
 10
-371.0
 20
199.0
 30
0.0
 40
600.0
100
AcDbArc
 50
352.453100976933
 51
7.54689902306667
  0
ARC
  5
32
330
18
100
AcDbEntity
  8
0010010007
100
AcDbCircle
 10
124.668844013726
 20
264.668844013726
 30
0.0
 40
100.0
100
AcDbArc
 50
7.54689902306667
 51
82.4531009769333
  0
ARC
  5
33
330
18
100
AcDbEntity
  8
0010010007
100
AcDbCircle
 10
59.0
 20
-231.0
 30
0.0
 40
600.0
100
AcDbArc
 50
82.4531009769333
 51
97.5468990230667
  0
ARC
  5
34
330
18
100
AcDbEntity
  8
0010010007
100
AcDbCircle
 10
375.331155986278
 20
264.668844013726
 30
0.0
 40
100.0
100
AcDbArc
 50
97.5468990230667
 51
172.453100976933
  0
ARC
  5
35
330
18
100
AcDbEntity
  8
0010010007
100
AcDbCircle
 10
871.0
 20
199.0
 30
0.0
 40
600.0
100
AcDbArc
 50
172.453100976933
 51
187.546899023067
  0
ARC
  5
36
330
18
100
AcDbEntity
  8
0010010007
100
AcDbCircle
 10
375.331155986278
 20
133.331155986278
 30
0.0
 40
100.0
100
AcDbArc
 50
187.546899023067
 51
262.453100976933
  0
ARC
  5
37
330
18
100
AcDbEntity
  8
0010010007
100
AcDbCircle
 10
441.000000000004
 20
629.0
 30
0.0
 40
600.0
100
AcDbArc
 50
262.453100976933
 51
277.546899023067
  0
ARC
  5
38
330
18
100
AcDbEntity
  8
0010010007
100
AcDbCircle
 10
506.668844013726
 20
133.331155986278
 30
0.0
 40
100.0
100
AcDbArc
 50
277.546899023067
 51
352.453100976933
  0
ARC
  5
39
330
18
100
AcDbEntity
  8
0010010007
100
AcDbCircle
 10
11.0
 20
199.000000000004
 30
0.0
 40
600.0
100
AcDbArc
 50
352.453100976933
 51
7.54689902306667
  0
ARC
  5
3A
330
18
100
AcDbEntity
  8
0010010007
100
AcDbCircle
 10
506.668844013726
 20
264.668844013726
 30
0.0
 40
100.0
100
AcDbArc
 50
7.54689902306667
 51
82.4531009769333
  0
ARC
  5
3B
330
18
100
AcDbEntity
  8
0010010007
100
AcDbCircle
 10
441.0
 20
-231.0
 30
0.0
 40
600.0
100
AcDbArc
 50
82.4531009769333
 51
97.5468990230667
  0
LINE
  5
3C
330
18
100
AcDbEntity
  8
0010010007
100
AcDbLine
 10
-331.51817804957
 20
260.5
 30
0.0
 11
-331.51817804957
 21
137.5
 31
0.0
  0
LINE
  5
3D
330
18
100
AcDbEntity
  8
0010010007
100
AcDbLine
 10
-331.51817804957
 20
260.5
 30
0.0
 11
-334.284634055162
 21
313.287125183289
 31
0.0
  0
ARC
  5
3E
330
18
100
AcDbEntity
  8
0010010007
100
AcDbCircle
 10
-389.209258466664
 20
310.408647589928
 30
0.0
 40
55.0
100
AcDbArc
 50
3.0
 51
85.0032413414252
  0
ARC
  5
3F
330
18
100
AcDbEntity
  8
0010010007
100
AcDbCircle
 10
-471.51817804957
 20
-631.0
 30
0.0
 40
1000.0
100
AcDbArc
 50
85.0032413414251
 51
89.5452668172799
  0
LINE
  5
40
330
18
100
AcDbEntity
  8
0010010007
100
AcDbLine
 10
-331.51817804957
 20
137.5
 30
0.0
 11
-334.284634055162
 21
84.71287481671151
 31
0.0
  0
ARC
  5
41
330
18
100
AcDbEntity
  8
0010010007
100
AcDbCircle
 10
-389.209258466664
 20
87.5913524100761
 30
0.0
 40
55.0
100
AcDbArc
 50
274.996758658575
 51
357.0
  0
ARC
  5
42
330
18
100
AcDbEntity
  8
0010010007
100
AcDbCircle
 10
-471.51817804957
 20
1029.0
 30
0.0
 40
1000.0
100
AcDbArc
 50
270.45473318272
 51
274.996758658575
  0
LINE
  5
43
330
18
100
AcDbEntity
  8
0010010007
100
AcDbLine
 10
-330.17622720794
 20
141.500000000004
 30
0.0
 11
-326.786669923683
 21
154.150000000003
 31
0.0
  0
LINE
  5
44
330
18
100
AcDbEntity
  8
0010010007
100
AcDbLine
 10
-331.51817804957
 20
137.602691768436
 30
0.0
 11
-330.176227207939
 21
141.500000000002
 31
0.0
  0
LINE
  5
45
330
18
100
AcDbEntity
  8
0010010007
100
AcDbLine
 10
-330.17622720794
 20
256.5
 30
0.0
 11
-326.786669923683
 21
243.850000000001
 31
0.0
  0
LINE
  5
46
330
18
100
AcDbEntity
  8
0010010007
100
AcDbLine
 10
-331.51817804957
 20
260.397308231564
 30
0.0
 11
-330.176227207939
 21
256.499999999998
 31
0.0
  0
LINE
  5
47
330
18
100
AcDbEntity
  8
0010010007
100
AcDbLine
 10
-326.786669923684
 20
154.150000000001
 30
0.0
 11
-326.786669923684
 21
243.850000000001
 31
0.0
  0
LINE
  5
48
330
18
100
AcDbEntity
  8
0010010007
100
AcDbLine
 10
-330.17622720794
 20
141.500000000004
 30
0.0
 11
-330.17622720794
 21
256.500000000001
 31
0.0
  0
ARC
  5
49
330
18
100
AcDbEntity
  8
0010010007
100
AcDbCircle
 10
0.0
 20
258.0
 30
0.0
 40
140.0
100
AcDbArc
 50
90.0
 51
180.0
  0
LINE
  5
4A
330
18
100
AcDbEntity
  8
0010010007
100
AcDbLine
 10
0.0
 20
398.0
 30
0.0
 11
500.0
 21
398.0
 31
0.0
  0
ARC
  5
4B
330
18
100
AcDbEntity
  8
0010010007
100
AcDbCircle
 10
500.0
 20
258.0
 30
0.0
 40
140.0
100
AcDbArc
 50
0.0
 51
90.0
  0
LINE
  5
4C
330
18
100
AcDbEntity
  8
0010010007
100
AcDbLine
 10
640.0
 20
258.0
 30
0.0
 11
640.0
 21
140.0
 31
0.0
  0
ARC
  5
4D
330
18
100
AcDbEntity
  8
0010010007
100
AcDbCircle
 10
500.0
 20
140.0
 30
0.0
 40
140.0
100
AcDbArc
 50
270.0
 51
0.0
  0
LINE
  5
4E
330
18
100
AcDbEntity
  8
0010010007
100
AcDbLine
 10
500.0
 20
0.0
 30
0.0
 11
0.0
 21
0.0
 31
0.0
  0
ARC
  5
4F
330
18
100
AcDbEntity
  8
0010010007
100
AcDbCircle
 10
0.0
 20
140.0
 30
0.0
 40
140.0
100
AcDbArc
 50
180.0
 51
270.0
  0
LINE
  5
50
330
18
100
AcDbEntity
  8
0010010007
100
AcDbLine
 10
-140.0
 20
140.0
 30
0.0
 11
-140.0
 21
258.0
 31
0.0
  0
LINE
  5
51
330
18
100
AcDbEntity
  8
0010010007
100
AcDbLine
 10
-471.51817804957
 20
0.600000000000364
 30
0.0
 11
-471.51817804957
 21
397.4
 31
0.0
  0
CIRCLE
  5
52
330
18
100
AcDbEntity
  8
0010010007
100
AcDbCircle
 10
108.0
 20
199.0
 30
0.0
 40
49.8333333216228
  0
CIRCLE
  5
53
330
18
100
AcDbEntity
  8
0020010004
100
AcDbCircle
 10
108.0
 20
199.0
 30
0.0
 40
68.3333333172755
  0
CIRCLE
  5
54
330
18
100
AcDbEntity
  8
0010010007
100
AcDbCircle
 10
392.0
 20
199.0
 30
0.0
 40
49.8333333216228
  0
CIRCLE
  5
55
330
18
100
AcDbEntity
  8
0020010004
100
AcDbCircle
 10
392.0
 20
199.0
 30
0.0
 40
68.3333333172755
  0
LINE
  5
56
330
18
100
AcDbEntity
  8
0030010002
100
AcDbLine
 10
-140.0
 20
259.0
 30
0.0
 11
-140.0
 21
499.0
 31
0.0
  0
LINE
  5
57
330
18
100
AcDbEntity
  8
0030010002
100
AcDbLine
 10
640.0
 20
259.0
 30
0.0
 11
640.0
 21
499.0
 31
0.0
  0
SOLID
  5
58
330
18
100
AcDbEntity
  8
0030010002
100
AcDbTrace
 10
-120.474079857601
 20
493.671207721238
 30
0.0
 11
-120.474079857601
 21
502.328792278762
 31
0.0
 12
-140.0
 22
498.0
 32
0.0
 13
-140.0
 23
498.0
 33
0.0
  0
SOLID
  5
59
330
18
100
AcDbEntity
  8
0030010002
100
AcDbTrace
 10
620.4740798576011
 20
502.328792278762
 30
0.0
 11
620.4740798576011
 21
493.671207721238
 31
0.0
 12
640.0
 22
498.0
 32
0.0
 13
640.0
 23
498.0
 33
0.0
  0
LINE
  5
5A
330
18
100
AcDbEntity
  8
0030010002
100
AcDbLine
 10
-140.0
 20
498.0
 30
0.0
 11
640.0
 21
498.0
 31
0.0
  0
TEXT
  5
5B
330
18
100
AcDbEntity
  8
0030010002
100
AcDbText
 10
220.000000592651
 20
513.000000953674
 30
0.0
 40
30.0000019073486
  1
780
 41
0.75
100
AcDbText
  0
LINE
  5
5C
330
18
100
AcDbEntity
  8
0030010002
100
AcDbLine
 10
501.0
 20
398.0
 30
0.0
 11
751.0
 21
398.0
 31
0.0
  0
LINE
  5
5D
330
18
100
AcDbEntity
  8
0030010002
100
AcDbLine
 10
501.0
 20
0.0
 30
0.0
 11
751.0
 21
0.0
 31
0.0
  0
SOLID
  5
5E
330
18
100
AcDbEntity
  8
0030010002
100
AcDbTrace
 10
745.671207721238
 20
378.474079857601
 30
0.0
 11
754.328792278762
 21
378.474079857601
 31
0.0
 12
750.0
 22
398.0
 32
0.0
 13
750.0
 23
398.0
 33
0.0
  0
SOLID
  5
5F
330
18
100
AcDbEntity
  8
0030010002
100
AcDbTrace
 10
754.328792278762
 20
19.5259201423987
 30
0.0
 11
745.671207721238
 21
19.5259201423987
 31
0.0
 12
750.0
 22
0.0
 32
0.0
 13
750.0
 23
0.0
 33
0.0
  0
LINE
  5
60
330
18
100
AcDbEntity
  8
0030010002
100
AcDbLine
 10
750.0
 20
398.0
 30
0.0
 11
750.0
 21
0.0
 31
0.0
  0
TEXT
  5
61
330
18
100
AcDbEntity
  8
0030010002
100
AcDbText
 10
734.999999046326
 20
168.999995592651
 30
0.0
 40
30.0000019073486
  1
398
 50
90.0
 41
0.75
100
AcDbText
  0
LINE
  5
62
330
18
100
AcDbEntity
  8
0010010007
100
AcDbLine
 10
-470.918178049569
 20
0.600000000000364
 30
0.0
 11
-470.918178049569
 21
397.4
 31
0.0
  0
LINE
  5
63
330
18
100
AcDbEntity
  8
0010010007
100
AcDbLine
 10
-471.51817804957
 20
397.4
 30
0.0
 11
-470.918178049569
 21
397.4
 31
0.0
  0
LINE
  5
64
330
18
100
AcDbEntity
  8
0010010007
100
AcDbLine
 10
-471.51817804957
 20
0.600000000000364
 30
0.0
 11
-470.918178049569
 21
0.600000000000364
 31
0.0
  0
ARC
  5
65
330
18
100
AcDbEntity
  8
0010010007
100
AcDbCircle
 10
-463.51817804957
 20
21.0317465316693
 30
0.0
 40
8.0
100
AcDbArc
 50
90.45473318272011
 51
157.668354990772
  0
ARC
  5
66
330
18
100
AcDbEntity
  8
0010010007
100
AcDbCircle
 10
-463.51817804957
 20
376.968253468334
 30
0.0
 40
8.0
100
AcDbArc
 50
202.331645009228
 51
269.54526681728
  0
LINE
  5
67
330
18
100
AcDbEntity
  8
0030010002
100
AcDbLine
 10
-471.51817804957
 20
398.4
 30
0.0
 11
-471.51817804957
 21
499.0
 31
0.0
  0
LINE
  5
68
330
18
100
AcDbEntity
  8
0030010002
100
AcDbLine
 10
-331.51817804957
 20
261.5
 30
0.0
 11
-331.51817804957
 21
499.0
 31
0.0
  0
SOLID
  5
69
330
18
100
AcDbEntity
  8
0030010002
100
AcDbTrace
 10
-451.992257907171
 20
493.671207721238
 30
0.0
 11
-451.992257907171
 21
502.328792278762
 31
0.0
 12
-471.51817804957
 22
498.0
 32
0.0
 13
-471.51817804957
 23
498.0
 33
0.0
  0
SOLID
  5
6A
330
18
100
AcDbEntity
  8
0030010002
100
AcDbTrace
 10
-351.044098191968
 20
502.328792278762
 30
0.0
 11
-351.044098191968
 21
493.671207721238
 31
0.0
 12
-331.51817804957
 22
498.0
 32
0.0
 13
-331.51817804957
 23
498.0
 33
0.0
  0
LINE
  5
6B
330
18
100
AcDbEntity
  8
0030010002
100
AcDbLine
 10
-471.51817804957
 20
498.0
 30
0.0
 11
-331.51817804957
 21
498.0
 31
0.0
  0
TEXT
  5
6C
330
18
100
AcDbEntity
  8
0030010002
100
AcDbText
 10
-431.518177456918
 20
513.000000953674
 30
0.0
 40
30.0000019073486
  1
140
 41
0.75
100
AcDbText
  0
ENDSEC
  0
SECTION
  2
OBJECTS
  0
DICTIONARY
  5
C
330
0
100
AcDbDictionary
281
     1
  3
ACAD_GROUP
350
D
  3
ACAD_LAYOUT
350
15
  3
ACAD_MLINESTYLE
350
12
  3
ACAD_PLOTSETTINGS
350
14
  3
ACAD_PLOTSTYLENAME
350
E
  3
ACAD_TABLESTYLE
350
6E
  3
AcDbVariableDictionary
350
70
  0
DICTIONARY
  5
D
102
{ACAD_REACTORS
330
C
102
}
330
C
100
AcDbDictionary
281
     1
  0
DICTIONARY
  5
15
102
{ACAD_REACTORS
330
C
102
}
330
C
100
AcDbDictionary
281
     1
  3
Layout1
350
17
  3
Model
350
19
  0
DICTIONARY
  5
12
102
{ACAD_REACTORS
330
C
102
}
330
C
100
AcDbDictionary
281
     1
  3
Standard
350
13
  0
DICTIONARY
  5
14
102
{ACAD_REACTORS
330
C
102
}
330
C
100
AcDbDictionary
281
     1
  0
ACDBDICTIONARYWDFLT
  5
E
102
{ACAD_REACTORS
330
C
102
}
330
C
100
AcDbDictionary
281
     1
  3
Normal
350
F
100
AcDbDictionaryWithDefault
340
F
  0
DICTIONARY
  5
6E
102
{ACAD_REACTORS
330
C
102
}
330
C
100
AcDbDictionary
281
     1
  3
Standard
350
6F
  0
DICTIONARY
  5
70
102
{ACAD_REACTORS
330
C
102
}
330
C
100
AcDbDictionary
281
     1
  3
CTABLESTYLE
350
71
  0
LAYOUT
  5
17
102
{ACAD_REACTORS
330
15
102
}
330
15
100
AcDbPlotSettings
  1

  2

  4

  6

 40
0.0
 41
0.0
 42
0.0
 43
0.0
 44
0.0
 45
0.0
 46
0.0
 47
0.0
 48
0.0
 49
0.0
140
0.0
141
0.0
142
1.0
143
1.0
 70
   688
 72
     0
 73
     0
 74
     5
  7

 75
    16
147
1.0
148
0.0
149
0.0
100
AcDbLayout
  1
Layout1
 70
     1
 71
     1
 10
0.0
 20
0.0
 11
12.0
 21
9.0
 12
0.0
 22
0.0
 32
0.0
 14
1.000000000000000E+20
 24
1.000000000000000E+20
 34
1.000000000000000E+20
 15
-1.000000000000000E+20
 25
-1.000000000000000E+20
 35
-1.000000000000000E+20
146
0.0
 13
0.0
 23
0.0
 33
0.0
 16
1.0
 26
0.0
 36
0.0
 17
0.0
 27
1.0
 37
0.0
 76
     0
330
16
  0
LAYOUT
  5
19
102
{ACAD_REACTORS
330
15
102
}
330
15
100
AcDbPlotSettings
  1

  2

  4

  6

 40
0.0
 41
0.0
 42
0.0
 43
0.0
 44
0.0
 45
0.0
 46
0.0
 47
0.0
 48
0.0
 49
0.0
140
0.0
141
0.0
142
1.0
143
1.0
 70
  1712
 72
     0
 73
     0
 74
     0
  7

 75
     0
147
1.0
148
0.0
149
0.0
100
AcDbLayout
  1
Model
 70
     1
 71
     0
 10
0.0
 20
0.0
 11
0.0
 21
0.0
 12
0.0
 22
0.0
 32
0.0
 14
-32.05
 24
-32.05
 34
0.0
 15
1258.45
 25
893.05
 35
0.0
146
0.0
 13
0.0
 23
0.0
 33
0.0
 16
1.0
 26
0.0
 36
0.0
 17
0.0
 27
1.0
 37
0.0
 76
     0
330
18
  0
MLINESTYLE
  5
13
102
{ACAD_REACTORS
330
12
102
}
330
12
100
AcDbMlineStyle
  2
Standard
 70
     0
  3

 62
   256
 51
90.0
 52
90.0
 71
     2
 49
0.5
 62
   256
  6
BYLAYER
 49
-0.5
 62
   256
  6
BYLAYER
  0
ACDBPLACEHOLDER
  5
F
102
{ACAD_REACTORS
330
E
102
}
330
E
  0
TABLESTYLE
  5
6F
102
{ACAD_REACTORS
330
6E
102
}
330
6E
100
AcDbTableStyle
  3
Standard
 70
     0
 71
     0
 40
0.06
 41
0.06
280
     0
281
     0
  7
STANDARD
140
0.18
170
     2
 62
     0
 63
     7
283
     0
274
    -2
284
     1
 64
     0
275
    -2
285
     1
 65
     0
276
    -2
286
     1
 66
     0
277
    -2
287
     1
 67
     0
278
    -2
288
     1
 68
     0
279
    -2
289
     1
 69
     0
  7
STANDARD
140
0.25
170
     5
 62
     0
 63
     7
283
     0
274
    -2
284
     1
 64
     0
275
    -2
285
     1
 65
     0
276
    -2
286
     1
 66
     0
277
    -2
287
     1
 67
     0
278
    -2
288
     1
 68
     0
279
    -2
289
     1
 69
     0
  7
STANDARD
140
0.18
170
     5
 62
     0
 63
     7
283
     0
274
    -2
284
     1
 64
     0
275
    -2
285
     1
 65
     0
276
    -2
286
     1
 66
     0
277
    -2
287
     1
 67
     0
278
    -2
288
     1
 68
     0
279
    -2
289
     1
 69
     0
  0
DICTIONARYVAR
  5
71
102
{ACAD_REACTORS
330
70
102
}
330
70
100
DictionaryVariables
280
     0
  1
Standard
  0
ENDSEC
  0
EOF
