  0
SECTION
  2
HEADER
  9
$ACADVER
  1
AC1015
  9
$ACADMAINTVER
 70
     6
  9
$DWGCODEPAGE
  3
UNDEFINED
  9
$INSBASE
 10
0.0
 20
0.0
 30
0.0
  9
$EXTMIN
 10
-32.05
 20
-32.05
 30
0.0
  9
$EXTMAX
 10
1258.45
 20
893.05
 30
0.0
  9
$LIMMIN
 10
-32.05
 20
-32.05
  9
$LIMMAX
 10
1258.45
 20
893.05
  9
$ORTHOMODE
 70
     0
  9
$REGENMODE
 70
     1
  9
$FILLMODE
 70
     1
  9
$QTEXTMODE
 70
     0
  9
$MIRRTEXT
 70
     1
  9
$LTSCALE
 40
1.0
  9
$ATTMODE
 70
     1
  9
$TEXTSIZE
 40
3.0
  9
$TRACEWID
 40
0.05
  9
$TEXTSTYLE
  7
STANDARD
  9
$CLAYER
  8
0
  9
$CELTYPE
  6
ByBlock
  9
$CECOLOR
 62
   256
  9
$CELTSCALE
 40
1.0
  9
$DISPSILH
 70
     0
  9
$DIMSCALE
 40
1.0
  9
$DIMASZ
 40
19.5259201423987
  9
$DIMEXO
 40
1.0
  9
$DIMDLI
 40
0.38
  9
$DIMRND
 40
0.0
  9
$DIMDLE
 40
0.0
  9
$DIMEXE
 40
1.0
  9
$DIMTP
 40
0.0
  9
$DIMTM
 40
0.0
  9
$DIMTXT
 40
3.0
  9
$DIMCEN
 40
1.0
  9
$DIMTSZ
 40
0.0
  9
$DIMTOL
 70
     0
  9
$DIMLIM
 70
     0
  9
$DIMTIH
 70
     1
  9
$DIMTOH
 70
     1
  9
$DIMSE1
 70
     0
  9
$DIMSE2
 70
     0
  9
$DIMTAD
 70
     0
  9
$DIMZIN
 70
     0
  9
$DIMBLK
  1

  9
$DIMASO
 70
     1
  9
$DIMSHO
 70
     1
  9
$DIMPOST
  1

  9
$DIMAPOST
  1

  9
$DIMALT
 70
     0
  9
$DIMALTD
 70
     2
  9
$DIMALTF
 40
25.4
  9
$DIMLFAC
 40
1.0
  9
$DIMTOFL
 70
     0
  9
$DIMTVP
 40
0.0
  9
$DIMTIX
 70
     0
  9
$DIMSOXD
 70
     0
  9
$DIMSAH
 70
     0
  9
$DIMBLK1
  1

  9
$DIMBLK2
  1

  9
$DIMSTYLE
  2
Standard
  9
$DIMCLRD
 70
     0
  9
$DIMCLRE
 70
     0
  9
$DIMCLRT
 70
     0
  9
$DIMTFAC
 40
1.0
  9
$DIMGAP
 40
0.09
  9
$DIMJUST
 70
     0
  9
$DIMSD1
 70
     0
  9
$DIMSD2
 70
     0
  9
$DIMTOLJ
 70
     1
  9
$DIMTZIN
 70
     0
  9
$DIMALTZ
 70
     0
  9
$DIMALTTZ
 70
     0
  9
$DIMUPT
 70
     0
  9
$DIMDEC
 70
     4
  9
$DIMTDEC
 70
     4
  9
$DIMALTU
 70
     2
  9
$DIMALTTD
 70
     2
  9
$DIMTXSTY
  7
STANDARD
  9
$DIMAUNIT
 70
     0
  9
$DIMADEC
 70
     0
  9
$DIMALTRND
 40
0.0
  9
$DIMAZIN
 70
     0
  9
$DIMDSEP
 70
    46
  9
$DIMATFIT
 70
     3
  9
$DIMFRAC
 70
     0
  9
$DIMLDRBLK
  1

  9
$DIMLUNIT
 70
     2
  9
$DIMLWD
 70
    -2
  9
$DIMLWE
 70
    -2
  9
$DIMTMOVE
 70
     0
  9
$LUNITS
 70
     2
  9
$LUPREC
 70
     4
  9
$SKETCHINC
 40
0.1
  9
$FILLETRAD
 40
0.0
  9
$AUNITS
 70
     0
  9
$AUPREC
 70
     4
  9
$MENU
  1
acad
  9
$ELEVATION
 40
0.0
  9
$PELEVATION
 40
0.0
  9
$THICKNESS
 40
0.0
  9
$LIMCHECK
 70
     0
  9
$CHAMFERA
 40
0.0
  9
$CHAMFERB
 40
0.0
  9
$CHAMFERC
 40
1.0
  9
$CHAMFERD
 40
0.0
  9
$SKPOLY
 70
     0
  9
$TDCREATE
 40
2453872.556496481
  9
$TDUCREATE
 40
2453872.681496481
  9
$TDUPDATE
 40
2453872.556496493
  9
$TDUUPDATE
 40
2453872.681496493
  9
$TDINDWG
 40
0.0000000116
  9
$TDUSRTIMER
 40
0.0000000116
  9
$USRTIMER
 70
     1
  9
$ANGBASE
 50
0.0
  9
$ANGDIR
 70
     0
  9
$PDMODE
 70
     0
  9
$PDSIZE
 40
0.0
  9
$PLINEWID
 40
0.0
  9
$SPLFRAME
 70
     0
  9
$SPLINETYPE
 70
     6
  9
$SPLINESEGS
 70
     8
  9
$HANDSEED
  5
9C
  9
$SURFTAB1
 70
     6
  9
$SURFTAB2
 70
     6
  9
$SURFTYPE
 70
     6
  9
$SURFU
 70
     6
  9
$SURFV
 70
     6
  9
$UCSBASE
  2

  9
$UCSNAME
  2

  9
$UCSORG
 10
0.0
 20
0.0
 30
0.0
  9
$UCSXDIR
 10
1.0
 20
0.0
 30
0.0
  9
$UCSYDIR
 10
0.0
 20
1.0
 30
0.0
  9
$UCSORTHOREF
  2

  9
$UCSORTHOVIEW
 70
     0
  9
$UCSORGTOP
 10
0.0
 20
0.0
 30
0.0
  9
$UCSORGBOTTOM
 10
0.0
 20
0.0
 30
0.0
  9
$UCSORGLEFT
 10
0.0
 20
0.0
 30
0.0
  9
$UCSORGRIGHT
 10
0.0
 20
0.0
 30
0.0
  9
$UCSORGFRONT
 10
0.0
 20
0.0
 30
0.0
  9
$UCSORGBACK
 10
0.0
 20
0.0
 30
0.0
  9
$PUCSBASE
  2

  9
$PUCSNAME
  2

  9
$PUCSORG
 10
0.0
 20
0.0
 30
0.0
  9
$PUCSXDIR
 10
1.0
 20
0.0
 30
0.0
  9
$PUCSYDIR
 10
0.0
 20
1.0
 30
0.0
  9
$PUCSORTHOREF
  2

  9
$PUCSORTHOVIEW
 70
     0
  9
$PUCSORGTOP
 10
0.0
 20
0.0
 30
0.0
  9
$PUCSORGBOTTOM
 10
0.0
 20
0.0
 30
0.0
  9
$PUCSORGLEFT
 10
0.0
 20
0.0
 30
0.0
  9
$PUCSORGRIGHT
 10
0.0
 20
0.0
 30
0.0
  9
$PUCSORGFRONT
 10
0.0
 20
0.0
 30
0.0
  9
$PUCSORGBACK
 10
0.0
 20
0.0
 30
0.0
  9
$USERI1
 70
     0
  9
$USERI2
 70
     0
  9
$USERI3
 70
     0
  9
$USERI4
 70
     0
  9
$USERI5
 70
     0
  9
$USERR1
 40
0.0
  9
$USERR2
 40
0.0
  9
$USERR3
 40
0.0
  9
$USERR4
 40
0.0
  9
$USERR5
 40
0.0
  9
$WORLDVIEW
 70
     1
  9
$SHADEDGE
 70
     3
  9
$SHADEDIF
 70
    70
  9
$TILEMODE
 70
     1
  9
$MAXACTVP
 70
    64
  9
$PINSBASE
 10
0.0
 20
0.0
 30
0.0
  9
$PLIMCHECK
 70
     0
  9
$PEXTMIN
 10
1.000000000000000E+20
 20
1.000000000000000E+20
 30
1.000000000000000E+20
  9
$PEXTMAX
 10
-1.000000000000000E+20
 20
-1.000000000000000E+20
 30
-1.000000000000000E+20
  9
$PLIMMIN
 10
0.0
 20
0.0
  9
$PLIMMAX
 10
12.0
 20
9.0
  9
$UNITMODE
 70
     0
  9
$VISRETAIN
 70
     1
  9
$PLINEGEN
 70
     0
  9
$PSLTSCALE
 70
     1
  9
$TREEDEPTH
 70
  3020
  9
$CMLSTYLE
  2
Standard
  9
$CMLJUST
 70
     0
  9
$CMLSCALE
 40
1.0
  9
$PROXYGRAPHICS
 70
     1
  9
$MEASUREMENT
 70
     0
  9
$CELWEIGHT
370
    -1
  9
$ENDCAPS
280
     0
  9
$JOINSTYLE
280
     0
  9
$LWDISPLAY
290
     0
  9
$INSUNITS
 70
     0
  9
$HYPERLINKBASE
  1

  9
$STYLESHEET
  1

  9
$XEDIT
290
     1
  9
$CEPSNTYPE
380
     0
  9
$PSTYLEMODE
290
     0
  9
$FINGERPRINTGUID
  2
{FAEB1C30-E019-11D5-929B-00C0DF256EC4}
  9
$VERSIONGUID
  2
{FAEB1C32-E019-11D5-929B-00C0DF256EC4}
  9
$EXTNAMES
290
     1
  9
$PSVPSCALE
 40
0.0
  9
$OLESTARTUP
290
     0
  0
ENDSEC
  0
SECTION
  2
CLASSES
  0
CLASS
  1
ACDBDICTIONARYWDFLT
  2
AcDbDictionaryWithDefault
  3
ObjectDBX Classes
 90
        0
280
     0
281
     0
  0
CLASS
  1
TABLESTYLE
  2
AcDbTableStyle
  3
ObjectDBX Classes
 90
     2047
280
     0
281
     0
  0
CLASS
  1
DICTIONARYVAR
  2
AcDbDictionaryVar
  3
ObjectDBX Classes
 90
        0
280
     0
281
     0
  0
CLASS
  1
ACDBPLACEHOLDER
  2
AcDbPlaceHolder
  3
ObjectDBX Classes
 90
        0
280
     0
281
     0
  0
CLASS
  1
LAYOUT
  2
AcDbLayout
  3
ObjectDBX Classes
 90
        0
280
     0
281
     0
  0
ENDSEC
  0
SECTION
  2
TABLES
  0
TABLE
  2
VPORT
  5
8
330
0
100
AcDbSymbolTable
 70
     1
  0
VPORT
  5
93
330
8
100
AcDbSymbolTableRecord
100
AcDbViewportTableRecord
  2
*Active
 70
     0
 10
0.0
 20
0.0
 11
1.0
 21
1.0
 12
10.42990654205607
 22
4.5
 13
0.0
 23
0.0
 14
0.5
 24
0.5
 15
0.5
 25
0.5
 16
0.0
 26
0.0
 36
1.0
 17
0.0
 27
0.0
 37
0.0
 40
9.0
 41
1.972972972850329
 42
50.0
 43
0.0
 44
0.0
 50
0.0
 51
0.0
 71
     0
 72
   100
 73
     1
 74
     3
 75
     0
 76
     0
 77
     0
 78
     0
281
     0
 65
     1
110
0.0
120
0.0
130
0.0
111
1.0
121
0.0
131
0.0
112
0.0
122
1.0
132
0.0
 79
     0
146
0.0
  0
ENDTAB
  0
TABLE
  2
LTYPE
  5
5
330
0
100
AcDbSymbolTable
 70
     9
  0
LTYPE
  5
10
330
5
100
AcDbSymbolTableRecord
100
AcDbLinetypeTableRecord
  2
ByBlock
 70
     0
  3

 72
    65
 73
     0
 40
0.0
  0
LTYPE
  5
11
330
5
100
AcDbSymbolTableRecord
100
AcDbLinetypeTableRecord
  2
ByLayer
 70
     0
  3

 72
    65
 73
     0
 40
0.0
  0
LTYPE
  5
1B
330
5
100
AcDbSymbolTableRecord
100
AcDbLinetypeTableRecord
  2
CONTINUOUS
 70
     0
  3
Solid line
 72
    65
 73
     0
 40
0.0
  0
LTYPE
  5
1C
330
5
100
AcDbSymbolTableRecord
100
AcDbLinetypeTableRecord
  2
HIDDEN
 70
     0
  3
_ _ _ _ _ _ _ _ _ _ _ _ _ _ _ _ _ _ _ _ 
 72
    65
 73
     2
 40
0.375
 49
0.25
 74
     0
 49
-0.125
 74
     0
  0
LTYPE
  5
1D
330
5
100
AcDbSymbolTableRecord
100
AcDbLinetypeTableRecord
  2
DASHED
 70
     0
  3
__ __ __ __ __ __ __ __ __ __ __ __ __  
 72
    65
 73
     2
 40
0.75
 49
0.5
 74
     0
 49
-0.25
 74
     0
  0
LTYPE
  5
1E
330
5
100
AcDbSymbolTableRecord
100
AcDbLinetypeTableRecord
  2
CENTER
 70
     0
  3
____ _ ____ _ ____ _ ____ _ ____ _ ____ 
 72
    65
 73
     4
 40
2.0
 49
1.25
 74
     0
 49
-0.25
 74
     0
 49
0.25
 74
     0
 49
-0.25
 74
     0
  0
LTYPE
  5
1F
330
5
100
AcDbSymbolTableRecord
100
AcDbLinetypeTableRecord
  2
PHANTOM
 70
     0
  3
_____ _ _ _____ _ _ _____ _ _ _____ _ _ 
 72
    65
 73
     6
 40
2.5
 49
1.25
 74
     0
 49
-0.25
 74
     0
 49
0.25
 74
     0
 49
-0.25
 74
     0
 49
0.25
 74
     0
 49
-0.25
 74
     0
  0
LTYPE
  5
20
330
5
100
AcDbSymbolTableRecord
100
AcDbLinetypeTableRecord
  2
DOT
 70
     0
  3
........................................
 72
    65
 73
     2
 40
0.25
 49
0.0
 74
     0
 49
-0.25
 74
     0
  0
LTYPE
  5
21
330
5
100
AcDbSymbolTableRecord
100
AcDbLinetypeTableRecord
  2
DASHDOT
 70
     0
  3
__ . __ . __ . __ . __ . __ . __ . __ . 
 72
    65
 73
     4
 40
1.0
 49
0.5
 74
     0
 49
-0.25
 74
     0
 49
0.0
 74
     0
 49
-0.25
 74
     0
  0
LTYPE
  5
22
330
5
100
AcDbSymbolTableRecord
100
AcDbLinetypeTableRecord
  2
BORDER
 70
     0
  3
__ __ . __ __ . __ __ . __ __ . __ __ . 
 72
    65
 73
     6
 40
1.75
 49
0.5
 74
     0
 49
-0.25
 74
     0
 49
0.5
 74
     0
 49
-0.25
 74
     0
 49
0.0
 74
     0
 49
-0.25
 74
     0
  0
LTYPE
  5
23
330
5
100
AcDbSymbolTableRecord
100
AcDbLinetypeTableRecord
  2
DIVIDE
 70
     0
  3
__ . . __ . . __ . . __ . . __ . . __ . 
 72
    65
 73
     6
 40
1.25
 49
0.5
 74
     0
 49
-0.25
 74
     0
 49
0.0
 74
     0
 49
-0.25
 74
     0
 49
0.0
 74
     0
 49
-0.25
 74
     0
  0
ENDTAB
  0
TABLE
  2
LAYER
  5
2
330
0
100
AcDbSymbolTable
 70
     4
  0
LAYER
  5
24
330
2
100
AcDbSymbolTableRecord
100
AcDbLayerTableRecord
  2
0
 70
     0
 62
     7
  6
CONTINUOUS
370
    -3
390
F
  0
LAYER
  5
25
330
2
100
AcDbSymbolTableRecord
100
AcDbLayerTableRecord
  2
0010010007
 70
     0
 62
     7
  6
CONTINUOUS
370
    -3
390
F
  0
LAYER
  5
26
330
2
100
AcDbSymbolTableRecord
100
AcDbLayerTableRecord
  2
0020010004
 70
     0
 62
     4
  6
CONTINUOUS
370
    -3
390
F
  0
LAYER
  5
27
330
2
100
AcDbSymbolTableRecord
100
AcDbLayerTableRecord
  2
0030010002
 70
     0
 62
     2
  6
CONTINUOUS
370
    -3
390
F
  0
ENDTAB
  0
TABLE
  2
STYLE
  5
3
330
0
100
AcDbSymbolTable
 70
     1
  0
STYLE
  5
28
330
3
100
AcDbSymbolTableRecord
100
AcDbTextStyleTableRecord
  2
STANDARD
 70
     0
 40
0.0
 41
1.0
 50
0.0
 71
     0
 42
0.2
  3
txt
  4

  0
ENDTAB
  0
TABLE
  2
VIEW
  5
6
330
0
100
AcDbSymbolTable
 70
     1
  0
VIEW
  5
29
330
6
100
AcDbSymbolTableRecord
100
AcDbViewTableRecord
  2
1
 70
     0
 40
20600.0
 10
29641.0
 20
34500.0
 41
1.0
 11
0.0
 21
0.0
 31
1.0
 12
0.0
 22
0.0
 32
0.0
 42
50.0
 43
0.0
 44
0.0
 50
0.0
 71
     0
281
     0
 72
     0
  0
ENDTAB
  0
TABLE
  2
UCS
  5
7
330
0
100
AcDbSymbolTable
 70
     0
  0
ENDTAB
  0
TABLE
  2
APPID
  5
9
330
0
100
AcDbSymbolTable
 70
     1
  0
APPID
  5
2A
330
9
100
AcDbSymbolTableRecord
100
AcDbRegAppTableRecord
  2
ACAD
 70
     0
  0
ENDTAB
  0
TABLE
  2
DIMSTYLE
  5
A
330
0
100
AcDbSymbolTable
 70
     1
100
AcDbDimStyleTable
  0
DIMSTYLE
105
2B
330
A
100
AcDbSymbolTableRecord
100
AcDbDimStyleTableRecord
  2
Standard
 70
     0
340
28
  0
ENDTAB
  0
TABLE
  2
BLOCK_RECORD
  5
1
330
0
100
AcDbSymbolTable
 70
     0
  0
BLOCK_RECORD
  5
18
330
1
100
AcDbSymbolTableRecord
100
AcDbBlockTableRecord
  2
*Model_Space
340
19
  0
BLOCK_RECORD
  5
16
330
1
100
AcDbSymbolTableRecord
100
AcDbBlockTableRecord
  2
*Paper_Space
340
17
  0
ENDTAB
  0
ENDSEC
  0
SECTION
  2
BLOCKS
  0
BLOCK
  5
98
330
18
100
AcDbEntity
  8
0
100
AcDbBlockBegin
  2
*Model_Space
 70
     0
 71
     0
 10
0.0
 20
0.0
 30
0.0
  3
*Model_Space
  1

  0
ENDBLK
  5
99
330
18
100
AcDbEntity
  8
0
100
AcDbBlockEnd
  0
BLOCK
  5
9A
330
16
100
AcDbEntity
 67
     1
  8
0
100
AcDbBlockBegin
  2
*Paper_Space
 70
     0
 71
     0
 10
0.0
 20
0.0
 30
0.0
  3
*Paper_Space
  1

  0
ENDBLK
  5
9B
330
16
100
AcDbEntity
 67
     1
  8
0
100
AcDbBlockEnd
  0
ENDSEC
  0
SECTION
  2
ENTITIES
  0
CIRCLE
  5
2C
330
18
100
AcDbEntity
  8
0010010007
100
AcDbCircle
 10
-0.0000008259030437
 20
221.000000000004
 30
0.0
 40
183.000000000001
  0
CIRCLE
  5
2D
330
18
100
AcDbEntity
  8
0010010007
100
AcDbCircle
 10
403.999999174093
 20
221.000000000004
 30
0.0
 40
183.000000000001
  0
CIRCLE
  5
2E
330
18
100
AcDbEntity
  8
0010010007
100
AcDbCircle
 10
59.999999174097
 20
221.000000000004
 30
0.0
 40
44.8500000000002
  0
CIRCLE
  5
2F
330
18
100
AcDbEntity
  8
0020010004
100
AcDbCircle
 10
59.999999174097
 20
221.000000000004
 30
0.0
 40
61.5000000000003
  0
CIRCLE
  5
30
330
18
100
AcDbEntity
  8
0010010007
100
AcDbCircle
 10
343.999999174093
 20
221.000000000004
 30
0.0
 40
44.8500000000002
  0
CIRCLE
  5
31
330
18
100
AcDbEntity
  8
0020010004
100
AcDbCircle
 10
343.999999174093
 20
221.000000000004
 30
0.0
 40
61.5000000000003
  0
LINE
  5
32
330
18
100
AcDbEntity
  8
0010010007
100
AcDbLine
 10
0.0000061169612309
 20
442.0
 30
0.0
 11
403.99999917411
 21
442.0
 31
0.0
  0
ARC
  5
33
330
18
100
AcDbEntity
  8
0010010007
100
AcDbCircle
 10
403.999999174093
 20
221.000000000004
 30
0.0
 40
221.000000000001
100
AcDbArc
 50
269.999998162207
 51
90.0
  0
LINE
  5
34
330
18
100
AcDbEntity
  8
0010010007
100
AcDbLine
 10
403.999992085401
 20
0.0
 30
0.0
 11
0.0
 21
0.0
 31
0.0
  0
ARC
  5
35
330
18
100
AcDbEntity
  8
0010010007
100
AcDbCircle
 10
-0.0000008259030437
 20
221.000000000004
 30
0.0
 40
221.000000000001
100
AcDbArc
 50
90.0000018247533
 51
269.999999785878
  0
LINE
  5
36
330
18
100
AcDbEntity
  8
0010010007
100
AcDbLine
 10
-221.000000825907
 20
968.621578332879
 30
0.0
 11
-221.000000825907
 21
969.321578332879
 31
0.0
  0
LINE
  5
37
330
18
100
AcDbEntity
  8
0010010007
100
AcDbLine
 10
-221.000000825899
 20
969.32157833288
 30
0.0
 11
624.9999991740901
 21
969.32157833288
 31
0.0
  0
ARC
  5
38
330
18
100
AcDbEntity
  8
0010010007
100
AcDbCircle
 10
-219.000000825899
 20
970.321578332878
 30
0.0
 40
1.00000000000001
100
AcDbArc
 50
270.0
 51
0.0
  0
ARC
  5
39
330
18
100
AcDbEntity
  8
0010010007
100
AcDbCircle
 10
-217.00000082591
 20
970.321578332878
 30
0.0
 40
1.00000000000001
100
AcDbArc
 50
90.0
 51
180.0
  0
LINE
  5
3A
330
18
100
AcDbEntity
  8
0010010007
100
AcDbLine
 10
203.999999174093
 20
971.321578332878
 30
0.0
 11
-217.000000825909
 21
971.321578332878
 31
0.0
  0
ARC
  5
3B
330
18
100
AcDbEntity
  8
0010010007
100
AcDbCircle
 10
-200.000000825903
 20
965.321578332878
 30
0.0
 40
3.29999999999997
100
AcDbArc
 50
359.999963158663
 51
90.0000003870683
  0
LINE
  5
3C
330
18
100
AcDbEntity
  8
0010010007
100
AcDbLine
 10
-196.700000825904
 20
965.321576210968
 30
0.0
 11
-196.700000825904
 21
964.321578356731
 31
0.0
  0
ARC
  5
3D
330
18
100
AcDbEntity
  8
0010010007
100
AcDbCircle
 10
-192.00000082591
 20
964.321578332876
 30
0.0
 40
4.70000000000075
100
AcDbArc
 50
180.000000290789
 51
269.999969132596
  0
LINE
  5
3E
330
18
100
AcDbEntity
  8
0010010007
100
AcDbLine
 10
-1.6430814656178
 20
816.627686395832
 30
0.0
 11
2.29521423136432
 21
815.2716224380609
 31
0.0
  0
LINE
  5
3F
330
18
100
AcDbEntity
  8
0010010007
100
AcDbLine
 10
2.29521423135338
 20
815.271622438064
 30
0.0
 11
15.0578424258002
 21
811.851886520064
 31
0.0
  0
LINE
  5
40
330
18
100
AcDbEntity
  8
0010010007
100
AcDbLine
 10
104.942155922408
 20
811.851886520064
 30
0.0
 11
117.704784116868
 21
815.271622438068
 31
0.0
  0
LINE
  5
41
330
18
100
AcDbEntity
  8
0010010007
100
AcDbLine
 10
117.704784116877
 20
815.271622438064
 30
0.0
 11
121.64307981385
 21
816.627686395832
 31
0.0
  0
LINE
  5
42
330
18
100
AcDbEntity
  8
0010010007
100
AcDbLine
 10
190.591718792684
 20
959.621578332892
 30
0.0
 11
201.99999917409
 21
959.621578332892
 31
0.0
  0
ARC
  5
43
330
18
100
AcDbEntity
  8
0020010004
100
AcDbCircle
 10
201.999999174104
 20
363.500000000004
 30
0.0
 40
35.0000000000002
100
AcDbArc
 50
210.0
 51
330.0
  0
LINE
  5
44
330
18
100
AcDbEntity
  8
0010010007
100
AcDbLine
 10
-191.999998293823
 20
959.621578332881
 30
0.0
 11
-191.699677223443
 21
959.621578332881
 31
0.0
  0
ARC
  5
45
330
18
100
AcDbEntity
  8
0010010007
100
AcDbCircle
 10
-191.699677223451
 20
951.621578332877
 30
0.0
 40
8.000000000000041
100
AcDbArc
 50
0.494180095377337
 51
90.0
  0
ARC
  5
46
330
18
100
AcDbEntity
  8
0010010007
100
AcDbCircle
 10
191.699675571645
 20
951.621578332877
 30
0.0
 40
8.000000000000041
100
AcDbArc
 50
90.0
 51
179.505819904623
  0
LINE
  5
47
330
18
100
AcDbEntity
  8
0010010007
100
AcDbLine
 10
121.643079813848
 20
816.627686395832
 30
0.0
 11
126.865037268997
 21
816.901357589565
 31
0.0
  0
ARC
  5
48
330
18
100
AcDbEntity
  8
0010010007
100
AcDbCircle
 10
123.949924506278
 20
872.525022675396
 30
0.0
 40
55.7000000000003
100
AcDbArc
 50
273.0
 51
354.669167150264
  0
ARC
  5
49
330
18
100
AcDbEntity
  8
0010010007
100
AcDbCircle
 10
-816.962805142275
 20
960.32157833288
 30
0.0
 40
1000.70000000001
100
AcDbArc
 50
354.669167150264
 51
359.505819904623
  0
LINE
  5
4A
330
18
100
AcDbEntity
  8
0010010007
100
AcDbLine
 10
-1.6430814656178
 20
816.627686395832
 30
0.0
 11
-127.43324961109
 21
823.220069763986
 31
0.0
  0
ARC
  5
4B
330
18
100
AcDbEntity
  8
0010010007
100
AcDbCircle
 10
-124.518136848374
 20
878.843734849816
 30
0.0
 40
55.7000000000003
100
AcDbArc
 50
184.946179856516
 51
266.999999999994
  0
ARC
  5
4C
330
18
100
AcDbEntity
  8
0010010007
100
AcDbCircle
 10
816.962803490469
 20
960.32157833288
 30
0.0
 40
1000.70000000001
100
AcDbArc
 50
180.494180095377
 51
184.946179856516
  0
LINE
  5
4D
330
18
100
AcDbEntity
  8
0010010007
100
AcDbLine
 10
624.999999174097
 20
968.621578332879
 30
0.0
 11
624.999999174097
 21
969.321578332879
 31
0.0
  0
ARC
  5
4E
330
18
100
AcDbEntity
  8
0010010007
100
AcDbCircle
 10
622.99999917409
 20
970.321578332878
 30
0.0
 40
1.00000000000001
100
AcDbArc
 50
180.0
 51
270.0
  0
ARC
  5
4F
330
18
100
AcDbEntity
  8
0010010007
100
AcDbCircle
 10
620.9999991741011
 20
970.321578332878
 30
0.0
 40
1.00000000000001
100
AcDbArc
 50
0.0
 51
90.0
  0
LINE
  5
50
330
18
100
AcDbEntity
  8
0010010007
100
AcDbLine
 10
199.999999174097
 20
971.321578332878
 30
0.0
 11
620.999999174099
 21
971.321578332878
 31
0.0
  0
ARC
  5
51
330
18
100
AcDbEntity
  8
0010010007
100
AcDbCircle
 10
603.999999174093
 20
965.321578332878
 30
0.0
 40
3.29999999999997
100
AcDbArc
 50
89.9999996129317
 51
180.000036841337
  0
LINE
  5
52
330
18
100
AcDbEntity
  8
0010010007
100
AcDbLine
 10
600.6999991740941
 20
965.321576210968
 30
0.0
 11
600.6999991740941
 21
964.321578356731
 31
0.0
  0
ARC
  5
53
330
18
100
AcDbEntity
  8
0010010007
100
AcDbCircle
 10
595.9999991741011
 20
964.321578332876
 30
0.0
 40
4.70000000000075
100
AcDbArc
 50
270.000030867404
 51
359.999999709211
  0
LINE
  5
54
330
18
100
AcDbEntity
  8
0010010007
100
AcDbLine
 10
405.643079813808
 20
816.627686395832
 30
0.0
 11
401.704784116826
 21
815.2716224380609
 31
0.0
  0
LINE
  5
55
330
18
100
AcDbEntity
  8
0010010007
100
AcDbLine
 10
401.704784116837
 20
815.271622438064
 30
0.0
 11
388.94215592239
 21
811.851886520064
 31
0.0
  0
LINE
  5
56
330
18
100
AcDbEntity
  8
0010010007
100
AcDbLine
 10
299.057842425782
 20
811.851886520064
 30
0.0
 11
286.295214231322
 21
815.271622438068
 31
0.0
  0
LINE
  5
57
330
18
100
AcDbEntity
  8
0010010007
100
AcDbLine
 10
286.295214231313
 20
815.271622438064
 30
0.0
 11
282.35691853434
 21
816.627686395832
 31
0.0
  0
LINE
  5
58
330
18
100
AcDbEntity
  8
0010010007
100
AcDbLine
 10
213.408279555524
 20
959.621578332892
 30
0.0
 11
201.999999174119
 21
959.621578332892
 31
0.0
  0
LINE
  5
59
330
18
100
AcDbEntity
  8
0010010007
100
AcDbLine
 10
595.999996642013
 20
959.621578332881
 30
0.0
 11
595.699675571634
 21
959.621578332881
 31
0.0
  0
ARC
  5
5A
330
18
100
AcDbEntity
  8
0010010007
100
AcDbCircle
 10
595.699675571641
 20
951.621578332877
 30
0.0
 40
8.000000000000041
100
AcDbArc
 50
90.0
 51
179.505819904623
  0
ARC
  5
5B
330
18
100
AcDbEntity
  8
0010010007
100
AcDbCircle
 10
212.300322776546
 20
951.621578332877
 30
0.0
 40
8.000000000000041
100
AcDbArc
 50
0.494180095377313
 51
90.0
  0
LINE
  5
5C
330
18
100
AcDbEntity
  8
0010010007
100
AcDbLine
 10
282.356918534342
 20
816.627686395832
 30
0.0
 11
277.134961079193
 21
816.901357589565
 31
0.0
  0
ARC
  5
5D
330
18
100
AcDbEntity
  8
0010010007
100
AcDbCircle
 10
280.050073841949
 20
872.525022675396
 30
0.0
 40
55.7000000000003
100
AcDbArc
 50
185.330832849736
 51
267.0
  0
ARC
  5
5E
330
18
100
AcDbEntity
  8
0010010007
100
AcDbCircle
 10
1220.96280349047
 20
960.32157833288
 30
0.0
 40
1000.70000000001
100
AcDbArc
 50
180.494180095377
 51
185.330832849736
  0
LINE
  5
5F
330
18
100
AcDbEntity
  8
0010010007
100
AcDbLine
 10
405.643079813808
 20
816.627686395832
 30
0.0
 11
531.43324795928
 21
823.220069763986
 31
0.0
  0
ARC
  5
60
330
18
100
AcDbEntity
  8
0010010007
100
AcDbCircle
 10
528.518135196564
 20
878.843734849816
 30
0.0
 40
55.7000000000003
100
AcDbArc
 50
273.000000000006
 51
355.053820143484
  0
ARC
  5
61
330
18
100
AcDbEntity
  8
0010010007
100
AcDbCircle
 10
-412.962805142279
 20
960.32157833288
 30
0.0
 40
1000.70000000001
100
AcDbArc
 50
355.053820143484
 51
359.505819904623
  0
LINE
  5
62
330
18
100
AcDbEntity
  8
0010010007
100
AcDbLine
 10
-0.0000008259030437
 20
25.0
 30
0.0
 11
403.999999174104
 21
25.0
 31
0.0
  0
ARC
  5
63
330
18
100
AcDbEntity
  8
0020010004
100
AcDbCircle
 10
179.541080823956
 20
120.000000000002
 30
0.0
 40
10.0000000000001
100
AcDbArc
 50
90.0
 51
150.640272813702
  0
LINE
  5
64
330
18
100
AcDbEntity
  8
0020010004
100
AcDbLine
 10
179.541080823956
 20
130.000000000007
 30
0.0
 11
224.458917524245
 21
130.000000000007
 31
0.0
  0
ARC
  5
65
330
18
100
AcDbEntity
  8
0020010004
100
AcDbCircle
 10
224.458917524234
 20
120.000000000002
 30
0.0
 40
10.0000000000001
100
AcDbArc
 50
29.3597271862978
 51
90.0
  0
LINE
  5
66
330
18
100
AcDbEntity
  8
0010010007
100
AcDbLine
 10
-0.0000008259030437
 20
417.0
 30
0.0
 11
403.999999174092
 21
417.0
 31
0.0
  0
ARC
  5
67
330
18
100
AcDbEntity
  8
0020010004
100
AcDbCircle
 10
96.0562247778125
 20
357.000000000005
 30
0.0
 40
60.0000000000003
100
AcDbArc
 50
29.9999999999991
 51
90.0
  0
LINE
  5
68
330
18
100
AcDbEntity
  8
0020010004
100
AcDbLine
 10
148.017749004857
 20
387.000000000005
 30
0.0
 11
171.689110041631
 21
346.000000000006
 31
0.0
  0
LINE
  5
69
330
18
100
AcDbEntity
  8
0020010004
100
AcDbLine
 10
232.310888306538
 20
346.000000000004
 30
0.0
 11
255.982249343313
 21
387.000000000005
 31
0.0
  0
ARC
  5
6A
330
18
100
AcDbEntity
  8
0020010004
100
AcDbCircle
 10
307.943773570378
 20
357.000000000005
 30
0.0
 40
60.0000000000003
100
AcDbArc
 50
90.0
 51
150.0
  0
ARC
  5
6B
330
18
100
AcDbEntity
  8
0020010004
100
AcDbCircle
 10
179.541080823956
 20
322.0
 30
0.0
 40
10.0000000000001
100
AcDbArc
 50
209.359727186298
 51
270.0
  0
LINE
  5
6C
330
18
100
AcDbEntity
  8
0020010004
100
AcDbLine
 10
179.541080823956
 20
312.000000000005
 30
0.0
 11
224.458917524245
 21
312.000000000005
 31
0.0
  0
ARC
  5
6D
330
18
100
AcDbEntity
  8
0020010004
100
AcDbCircle
 10
224.458917524234
 20
322.0
 30
0.0
 40
10.0000000000001
100
AcDbArc
 50
270.0
 51
330.640272813702
  0
ARC
  5
6E
330
18
100
AcDbEntity
  8
0020010004
100
AcDbCircle
 10
201.999999174104
 20
78.5000000000055
 30
0.0
 40
35.0000000000002
100
AcDbArc
 50
29.9999999999999
 51
150.0
  0
ARC
  5
6F
330
18
100
AcDbEntity
  8
0020010004
100
AcDbCircle
 10
96.0562247778125
 20
85.00000000000181
 30
0.0
 40
60.0000000000003
100
AcDbArc
 50
270.0
 51
330.000000000001
  0
LINE
  5
70
330
18
100
AcDbEntity
  8
0020010004
100
AcDbLine
 10
148.017749004857
 20
55.0000000000073
 30
0.0
 11
171.689110041631
 21
96.00000000000681
 31
0.0
  0
LINE
  5
71
330
18
100
AcDbEntity
  8
0020010004
100
AcDbLine
 10
232.310888306538
 20
96.0000000000036
 30
0.0
 11
255.982249343313
 21
55.0000000000025
 31
0.0
  0
ARC
  5
72
330
18
100
AcDbEntity
  8
0020010004
100
AcDbCircle
 10
307.943773570378
 20
85.00000000000181
 30
0.0
 40
60.0000000000003
100
AcDbArc
 50
210.0
 51
270.0
  0
ARC
  5
73
330
18
100
AcDbEntity
  8
0020010004
100
AcDbCircle
 10
403.999999174093
 20
221.000000000004
 30
0.0
 40
196.000000000001
100
AcDbArc
 50
209.359727186297
 51
270.000000000004
  0
ARC
  5
74
330
18
100
AcDbEntity
  8
0020010004
100
AcDbCircle
 10
403.999999174093
 20
221.000000000004
 30
0.0
 40
196.000000000001
100
AcDbArc
 50
90.0
 51
150.640272813703
  0
ARC
  5
75
330
18
100
AcDbEntity
  8
0010010007
100
AcDbCircle
 10
403.999999174093
 20
221.000000000004
 30
0.0
 40
196.000000000001
100
AcDbArc
 50
270.000000000004
 51
90.0
  0
ARC
  5
76
330
18
100
AcDbEntity
  8
0020010004
100
AcDbCircle
 10
-0.0000008259030437
 20
221.000000000004
 30
0.0
 40
196.000000000001
100
AcDbArc
 50
29.359727186297
 51
90.0
  0
ARC
  5
77
330
18
100
AcDbEntity
  8
0020010004
100
AcDbCircle
 10
-0.0000008259030437
 20
221.000000000004
 30
0.0
 40
196.000000000001
100
AcDbArc
 50
270.0
 51
330.640272813703
  0
ARC
  5
78
330
18
100
AcDbEntity
  8
0010010007
100
AcDbCircle
 10
-0.0000008259030437
 20
221.000000000004
 30
0.0
 40
196.000000000001
100
AcDbArc
 50
90.0
 51
270.0
  0
LINE
  5
79
330
18
100
AcDbEntity
  8
0030010002
100
AcDbLine
 10
-221.000000825905
 20
222.000000000004
 30
0.0
 11
-221.000000825905
 21
543.0
 31
0.0
  0
LINE
  5
7A
330
18
100
AcDbEntity
  8
0030010002
100
AcDbLine
 10
624.999999174095
 20
222.000000000004
 30
0.0
 11
624.999999174095
 21
543.0
 31
0.0
  0
SOLID
  5
7B
330
18
100
AcDbEntity
  8
0030010002
100
AcDbTrace
 10
-201.474080683506
 20
537.671207721238
 30
0.0
 11
-201.474080683506
 21
546.328792278762
 31
0.0
 12
-221.000000825905
 22
542.0
 32
0.0
 13
-221.000000825905
 23
542.0
 33
0.0
  0
SOLID
  5
7C
330
18
100
AcDbEntity
  8
0030010002
100
AcDbTrace
 10
605.474079031696
 20
546.328792278762
 30
0.0
 11
605.474079031696
 21
537.671207721238
 31
0.0
 12
624.999999174095
 22
542.0
 32
0.0
 13
624.999999174095
 23
542.0
 33
0.0
  0
LINE
  5
7D
330
18
100
AcDbEntity
  8
0030010002
100
AcDbLine
 10
-221.000000825905
 20
542.0
 30
0.0
 11
624.999999174095
 21
542.0
 31
0.0
  0
TEXT
  5
7E
330
18
100
AcDbEntity
  8
0030010002
100
AcDbText
 10
171.999999766747
 20
557.000000953674
 30
0.0
 40
30.0000019073486
  1
846
 41
0.75
100
AcDbText
  0
LINE
  5
7F
330
18
100
AcDbEntity
  8
0030010002
100
AcDbLine
 10
404.99999917411
 20
442.0
 30
0.0
 11
729.72671786608
 21
442.0
 31
0.0
  0
LINE
  5
80
330
18
100
AcDbEntity
  8
0030010002
100
AcDbLine
 10
404.999992085401
 20
0.0
 30
0.0
 11
729.72671786608
 21
0.0
 31
0.0
  0
SOLID
  5
81
330
18
100
AcDbEntity
  8
0030010002
100
AcDbTrace
 10
724.397925587318
 20
422.474079857601
 30
0.0
 11
733.055510144843
 21
422.474079857601
 31
0.0
 12
728.72671786608
 22
442.0
 32
0.0
 13
728.72671786608
 23
442.0
 33
0.0
  0
SOLID
  5
82
330
18
100
AcDbEntity
  8
0030010002
100
AcDbTrace
 10
733.055510144843
 20
19.5259201423987
 30
0.0
 11
724.397925587318
 21
19.5259201423987
 31
0.0
 12
728.72671786608
 22
0.0
 32
0.0
 13
728.72671786608
 23
0.0
 33
0.0
  0
LINE
  5
83
330
18
100
AcDbEntity
  8
0030010002
100
AcDbLine
 10
728.72671786608
 20
442.0
 30
0.0
 11
728.72671786608
 21
0.0
 31
0.0
  0
TEXT
  5
84
330
18
100
AcDbEntity
  8
0030010002
100
AcDbText
 10
713.726716912406
 20
190.999995592651
 30
0.0
 40
30.0000019073486
  1
442
 50
90.0
 41
0.75
100
AcDbText
  0
LINE
  5
85
330
18
100
AcDbEntity
  8
0010010007
100
AcDbLine
 10
624.999999174097
 20
968.621578332879
 30
0.0
 11
-221.000000825907
 21
968.621578332879
 31
0.0
  0
LINE
  5
86
330
18
100
AcDbEntity
  8
0010010007
100
AcDbLine
 10
-192.000003357978
 20
959.621578332876
 30
0.0
 11
596.000001706168
 21
959.621578332876
 31
0.0
  0
LINE
  5
87
330
18
100
AcDbEntity
  8
0010010007
100
AcDbLine
 10
15.0578424258001
 20
811.851886520063
 30
0.0
 11
104.942155922408
 21
811.851886520064
 31
0.0
  0
LINE
  5
88
330
18
100
AcDbEntity
  8
0010010007
100
AcDbLine
 10
117.704784116868
 20
815.271622438067
 30
0.0
 11
2.295214231353384
 21
815.271622438064
 31
0.0
  0
LINE
  5
89
330
18
100
AcDbEntity
  8
0010010007
100
AcDbLine
 10
-1.6430814656178
 20
816.627686395832
 30
0.0
 11
121.643079813848
 21
816.627686395832
 31
0.0
  0
LINE
  5
8A
330
18
100
AcDbEntity
  8
0010010007
100
AcDbLine
 10
299.057842425782
 20
811.851886520064
 30
0.0
 11
388.94215592239
 21
811.851886520063
 31
0.0
  0
LINE
  5
8B
330
18
100
AcDbEntity
  8
0010010007
100
AcDbLine
 10
401.704784116837
 20
815.271622438064
 30
0.0
 11
286.295214231322
 21
815.271622438067
 31
0.0
  0
LINE
  5
8C
330
18
100
AcDbEntity
  8
0010010007
100
AcDbLine
 10
282.356918534342
 20
816.627686395832
 30
0.0
 11
405.643079813808
 21
816.627686395832
 31
0.0
  0
LINE
  5
8D
330
18
100
AcDbEntity
  8
0030010002
100
AcDbLine
 10
406.643079813808
 20
816.627686395832
 30
0.0
 11
730.1539413400971
 21
816.627686395832
 31
0.0
  0
LINE
  5
8E
330
18
100
AcDbEntity
  8
0030010002
100
AcDbLine
 10
621.999999174099
 20
971.321578332878
 30
0.0
 11
730.1539413400971
 21
971.321578332878
 31
0.0
  0
SOLID
  5
8F
330
18
100
AcDbEntity
  8
0030010002
100
AcDbTrace
 10
733.482733618859
 20
836.153606538231
 30
0.0
 11
724.825149061335
 21
836.153606538231
 31
0.0
 12
729.1539413400971
 22
816.627686395832
 32
0.0
 13
729.1539413400971
 23
816.627686395832
 33
0.0
  0
SOLID
  5
90
330
18
100
AcDbEntity
  8
0030010002
100
AcDbTrace
 10
724.825149061335
 20
951.795658190479
 30
0.0
 11
733.482733618859
 21
951.795658190479
 31
0.0
 12
729.1539413400971
 22
971.321578332878
 32
0.0
 13
729.1539413400971
 23
971.321578332878
 33
0.0
  0
LINE
  5
91
330
18
100
AcDbEntity
  8
0030010002
100
AcDbLine
 10
729.1539413400971
 20
816.627686395832
 30
0.0
 11
729.1539413400971
 21
971.321578332878
 31
0.0
  0
TEXT
  5
92
330
18
100
AcDbEntity
  8
0030010002
100
AcDbText
 10
714.153940386423
 20
863.974632957006
 30
0.0
 40
30.0000019073486
  1
157
 50
90.0
 41
0.75
100
AcDbText
  0
ENDSEC
  0
SECTION
  2
OBJECTS
  0
DICTIONARY
  5
C
330
0
100
AcDbDictionary
281
     1
  3
ACAD_GROUP
350
D
  3
ACAD_LAYOUT
350
15
  3
ACAD_MLINESTYLE
350
12
  3
ACAD_PLOTSETTINGS
350
14
  3
ACAD_PLOTSTYLENAME
350
E
  3
ACAD_TABLESTYLE
350
94
  3
AcDbVariableDictionary
350
96
  0
DICTIONARY
  5
D
102
{ACAD_REACTORS
330
C
102
}
330
C
100
AcDbDictionary
281
     1
  0
DICTIONARY
  5
15
102
{ACAD_REACTORS
330
C
102
}
330
C
100
AcDbDictionary
281
     1
  3
Layout1
350
17
  3
Model
350
19
  0
DICTIONARY
  5
12
102
{ACAD_REACTORS
330
C
102
}
330
C
100
AcDbDictionary
281
     1
  3
Standard
350
13
  0
DICTIONARY
  5
14
102
{ACAD_REACTORS
330
C
102
}
330
C
100
AcDbDictionary
281
     1
  0
ACDBDICTIONARYWDFLT
  5
E
102
{ACAD_REACTORS
330
C
102
}
330
C
100
AcDbDictionary
281
     1
  3
Normal
350
F
100
AcDbDictionaryWithDefault
340
F
  0
DICTIONARY
  5
94
102
{ACAD_REACTORS
330
C
102
}
330
C
100
AcDbDictionary
281
     1
  3
Standard
350
95
  0
DICTIONARY
  5
96
102
{ACAD_REACTORS
330
C
102
}
330
C
100
AcDbDictionary
281
     1
  3
CTABLESTYLE
350
97
  0
LAYOUT
  5
17
102
{ACAD_REACTORS
330
15
102
}
330
15
100
AcDbPlotSettings
  1

  2

  4

  6

 40
0.0
 41
0.0
 42
0.0
 43
0.0
 44
0.0
 45
0.0
 46
0.0
 47
0.0
 48
0.0
 49
0.0
140
0.0
141
0.0
142
1.0
143
1.0
 70
   688
 72
     0
 73
     0
 74
     5
  7

 75
    16
147
1.0
148
0.0
149
0.0
100
AcDbLayout
  1
Layout1
 70
     1
 71
     1
 10
0.0
 20
0.0
 11
12.0
 21
9.0
 12
0.0
 22
0.0
 32
0.0
 14
1.000000000000000E+20
 24
1.000000000000000E+20
 34
1.000000000000000E+20
 15
-1.000000000000000E+20
 25
-1.000000000000000E+20
 35
-1.000000000000000E+20
146
0.0
 13
0.0
 23
0.0
 33
0.0
 16
1.0
 26
0.0
 36
0.0
 17
0.0
 27
1.0
 37
0.0
 76
     0
330
16
  0
LAYOUT
  5
19
102
{ACAD_REACTORS
330
15
102
}
330
15
100
AcDbPlotSettings
  1

  2

  4

  6

 40
0.0
 41
0.0
 42
0.0
 43
0.0
 44
0.0
 45
0.0
 46
0.0
 47
0.0
 48
0.0
 49
0.0
140
0.0
141
0.0
142
1.0
143
1.0
 70
  1712
 72
     0
 73
     0
 74
     0
  7

 75
     0
147
1.0
148
0.0
149
0.0
100
AcDbLayout
  1
Model
 70
     1
 71
     0
 10
0.0
 20
0.0
 11
0.0
 21
0.0
 12
0.0
 22
0.0
 32
0.0
 14
-32.05
 24
-32.05
 34
0.0
 15
1258.45
 25
893.05
 35
0.0
146
0.0
 13
0.0
 23
0.0
 33
0.0
 16
1.0
 26
0.0
 36
0.0
 17
0.0
 27
1.0
 37
0.0
 76
     0
330
18
  0
MLINESTYLE
  5
13
102
{ACAD_REACTORS
330
12
102
}
330
12
100
AcDbMlineStyle
  2
Standard
 70
     0
  3

 62
   256
 51
90.0
 52
90.0
 71
     2
 49
0.5
 62
   256
  6
BYLAYER
 49
-0.5
 62
   256
  6
BYLAYER
  0
ACDBPLACEHOLDER
  5
F
102
{ACAD_REACTORS
330
E
102
}
330
E
  0
TABLESTYLE
  5
95
102
{ACAD_REACTORS
330
94
102
}
330
94
100
AcDbTableStyle
  3
Standard
 70
     0
 71
     0
 40
0.06
 41
0.06
280
     0
281
     0
  7
STANDARD
140
0.18
170
     2
 62
     0
 63
     7
283
     0
274
    -2
284
     1
 64
     0
275
    -2
285
     1
 65
     0
276
    -2
286
     1
 66
     0
277
    -2
287
     1
 67
     0
278
    -2
288
     1
 68
     0
279
    -2
289
     1
 69
     0
  7
STANDARD
140
0.25
170
     5
 62
     0
 63
     7
283
     0
274
    -2
284
     1
 64
     0
275
    -2
285
     1
 65
     0
276
    -2
286
     1
 66
     0
277
    -2
287
     1
 67
     0
278
    -2
288
     1
 68
     0
279
    -2
289
     1
 69
     0
  7
STANDARD
140
0.18
170
     5
 62
     0
 63
     7
283
     0
274
    -2
284
     1
 64
     0
275
    -2
285
     1
 65
     0
276
    -2
286
     1
 66
     0
277
    -2
287
     1
 67
     0
278
    -2
288
     1
 68
     0
279
    -2
289
     1
 69
     0
  0
DICTIONARYVAR
  5
97
102
{ACAD_REACTORS
330
96
102
}
330
96
100
DictionaryVariables
280
     0
  1
Standard
  0
ENDSEC
  0
EOF
