999
DXF file: S:\Engenharia\Wildfire\Engenharia\Componentes\Pias_Cubas\Cubas\Prime\14027100\14027100.dxf
999
Pro/ENGINEER 2013150 by Parametric Technology Corporation
  0
SECTION
  2
HEADER
  9
$ACADVER
  1
AC1021
  9
$DWGCODEPAGE
  3
ANSI_1252
  9
$EXTMAX
 10
800.0
 20
1000.0
 30
0.0
  9
$EXTMIN
 10
0.0
 20
0.0
 30
0.0
  9
$LIMMIN
 10
0.0
 20
0.0
  9
$LIMMAX
 10
800.0
 20
1000.0
  9
$VIEWCTR
 10
400.0
 20
500.0
  9
$VIEWSIZE
 40
1000.0
  9
$CLAYER
  8
0
  9
$LTSCALE
 40
65.1851851852
  9
$CELTYPE
  6
BYLAYER
  9
$DIMSCALE
 40
1.0
  9
$DIMASZ
 40
3.0
  9
$DIMEXO
 40
0.5
  9
$DIMDLI
 40
45.037037037
  9
$DIMEXE
 40
0.5
  9
$DIMCEN
 40
10.6666666667
  9
$DIMLFAC
 40
1.0
  9
$DIMBLK
  1
_FILLED
  9
$DIMTXT
 40
1.8
  9
$DIMTOL
 70
1
  9
$DIMLIM
 70
0
  9
$DIMTFAC
 40
1.0
  9
$DIMTP
 40
0.001
  9
$DIMTM
 40
0.001
  9
$DIMGAP
 40
0.625
  9
$DIMDSEP
 70
46
  9
$PDMODE
 70
3
  9
$PDSIZE
 40
1.0
  9
$HANDSEED
  5
261
  9
$TILEMODE
 70
1
  9
$MEASUREMENT
 70
1
  9
$INSUNITS
 70
4
  0
ENDSEC
  0
SECTION
  2
CLASSES
  0
CLASS
  1
ACDBDICTIONARYWDFLT
  2
AcDbDictionaryWithDefault
  3
AutoCAD 2000
 90
0
 91
1
280
0
281
0
  0
CLASS
  1
ACDBPLACEHOLDER
  2
AcDbPlaceHolder
  3
AutoCAD 2000
 90
0
 91
1
280
0
281
0
  0
CLASS
  1
LAYOUT
  2
AcDbLayout
  3
AutoCAD 2000
 90
0
 91
0
280
0
281
0
  0
ENDSEC
  0
SECTION
  2
TABLES
  0
TABLE
  2
VPORT
  5
8
100
AcDbSymbolTable
 70
2
  0
VPORT
  5
1F4
100
AcDbSymbolTableRecord
100
AcDbViewportTableRecord
  2
*ACTIVE
 70
0
 10
0.0
 20
0.0
 11
1.0
 21
1.0
 12
400.0
 22
500.0
 13
0.0
 23
0.0
 14
1.0
 24
1.0
 15
0.0
 25
0.0
 16
0.0
 26
0.0
 36
1.0
 17
0.0
 27
0.0
 37
0.0
 40
1000.0
 41
0.8
 42
50.0
 43
0.0
 44
0.0
 50
0.0
 51
0.0
 71
0
 72
100
 73
1
 74
1
 75
0
 76
0
 77
0
 78
0
  0
ENDTAB
  0
TABLE
  2
LTYPE
  5
5
100
AcDbSymbolTable
 70
6
  0
LTYPE
  5
14
100
AcDbSymbolTableRecord
100
AcDbLinetypeTableRecord
  2
BYBLOCK
 70
0
  3

 72
65
 73
0
 40
0.0
  0
LTYPE
  5
15
100
AcDbSymbolTableRecord
100
AcDbLinetypeTableRecord
  2
BYLAYER
 70
0
  3

 72
65
 73
0
 40
0.0
  0
LTYPE
  5
16
100
AcDbSymbolTableRecord
100
AcDbLinetypeTableRecord
  2
CONTINUOUS
 70
64
  3
Solid line
 72
65
 73
0
 40
0.0
  0
LTYPE
  5
1F5
100
AcDbSymbolTableRecord
100
AcDbLinetypeTableRecord
  2
CENTER
 70
64
  3
____ _ ____ _ ____ _ ____ _ ____ _ ____ _ ____
 72
65
 73
4
 40
0.6
 49
0.375
 74
0
 49
-0.075
 74
0
 49
0.075
 74
0
 49
-0.075
 74
0
  0
LTYPE
  5
1F6
100
AcDbSymbolTableRecord
100
AcDbLinetypeTableRecord
  2
HIDDEN
 70
64
  3
- - - - - - - - - - - - - - - - - - - -
 72
65
 73
2
 40
0.2
 49
0.1
 74
0
 49
-0.1
 74
0
  0
LTYPE
  5
1F7
100
AcDbSymbolTableRecord
100
AcDbLinetypeTableRecord
  2
PHANTOM
 70
64
  3
_____ _ _ _____ _ _ _____ _ _ _____
 72
65
 73
6
 40
0.8
 49
0.45
 74
0
 49
-0.05
 74
0
 49
0.1
 74
0
 49
-0.05
 74
0
 49
0.1
 74
0
 49
-0.05
 74
0
  0
LTYPE
  5
1F8
100
AcDbSymbolTableRecord
100
AcDbLinetypeTableRecord
  2
DOT
 70
64
  3
. . . . . . . . . . . . . . . . . . . .
 72
65
 73
2
 40
0.2
 49
0.1
 74
0
 49
-0.1
 74
0
  0
LTYPE
  5
1F9
100
AcDbSymbolTableRecord
100
AcDbLinetypeTableRecord
  2
DASHED
 70
64
  3
- - - - - - - - - - - - - - - - - - - -
 72
65
 73
2
 40
0.2
 49
0.1
 74
0
 49
-0.1
 74
0
  0
ENDTAB
  0
TABLE
  2
LAYER
  5
2
100
AcDbSymbolTable
 70
36
  0
LAYER
  5
10
100
AcDbSymbolTableRecord
100
AcDbLayerTableRecord
  2
0
 70
0
 62
7
  6
CONTINUOUS
370
-3
390
F
  0
LAYER
  5
1FA
100
AcDbSymbolTableRecord
100
AcDbLayerTableRecord
  2
DEFAULT_1
 70
0
 62
7
  6
CENTER
370
-3
390
F
  0
LAYER
  5
1FB
100
AcDbSymbolTableRecord
100
AcDbLayerTableRecord
  2
DEFAULT_2
 70
0
 62
8
  6
HIDDEN
370
-3
390
F
  0
LAYER
  5
1FC
100
AcDbSymbolTableRecord
100
AcDbLayerTableRecord
  2
DEFAULT_3
 70
0
 62
7
  6
PHANTOM
370
-3
390
F
  0
LAYER
  5
1FD
100
AcDbSymbolTableRecord
100
AcDbLayerTableRecord
  2
01___PRT_ALL_DTM_PLN
 70
0
 62
7
  6
CONTINUOUS
370
-3
390
F
  0
LAYER
  5
1FE
100
AcDbSymbolTableRecord
100
AcDbLayerTableRecord
  2
01___PRT_DEF_DTM_PLN
 70
0
 62
7
  6
CONTINUOUS
370
-3
390
F
  0
LAYER
  5
1FF
100
AcDbSymbolTableRecord
100
AcDbLayerTableRecord
  2
02___PRT_ALL_AXES
 70
0
 62
7
  6
CONTINUOUS
370
-3
390
F
  0
LAYER
  5
200
100
AcDbSymbolTableRecord
100
AcDbLayerTableRecord
  2
03___PRT_ALL_CURVES
 70
0
 62
7
  6
CONTINUOUS
370
-3
390
F
  0
LAYER
  5
201
100
AcDbSymbolTableRecord
100
AcDbLayerTableRecord
  2
04___PRT_ALL_DTM_PNT
 70
0
 62
7
  6
CONTINUOUS
370
-3
390
F
  0
LAYER
  5
202
100
AcDbSymbolTableRecord
100
AcDbLayerTableRecord
  2
05___PRT_ALL_DTM_CSYS
 70
0
 62
7
  6
CONTINUOUS
370
-3
390
F
  0
LAYER
  5
203
100
AcDbSymbolTableRecord
100
AcDbLayerTableRecord
  2
05___PRT_DEF_DTM_CSYS
 70
0
 62
7
  6
CONTINUOUS
370
-3
390
F
  0
LAYER
  5
204
100
AcDbSymbolTableRecord
100
AcDbLayerTableRecord
  2
06___PRT_ALL_SURFS
 70
0
 62
7
  6
CONTINUOUS
370
-3
390
F
  0
ENDTAB
  0
TABLE
  2
STYLE
  5
3
100
AcDbSymbolTable
 70
1
  0
STYLE
  5
11
100
AcDbSymbolTableRecord
100
AcDbTextStyleTableRecord
  2
STANDARD
 70
0
 40
0.0
 41
0.8
 50
0.0
 71
0
 42
0.2
  3
txt
  4

  0
STYLE
  5
205
100
AcDbSymbolTableRecord
100
AcDbTextStyleTableRecord
  2
TEXTSTYLE_1
 70
0
 40
0.0
 41
0.8
 50
0.0
 71
0
 42
0.2
  3
gdt
  4

  0
ENDTAB
  0
TABLE
  2
VIEW
  5
6
100
AcDbSymbolTable
 70
0
  0
ENDTAB
  0
TABLE
  2
UCS
  5
7
100
AcDbSymbolTable
 70
0
  0
ENDTAB
  0
TABLE
  2
APPID
  5
9
100
AcDbSymbolTable
 70
1
  0
APPID
  5
206
100
AcDbSymbolTableRecord
100
AcDbRegAppTableRecord
  2
ACAD
 70
0
  0
ENDTAB
  0
TABLE
  2
BLOCK_RECORD
  5
1
100
AcDbSymbolTable
 70
0
  0
BLOCK_RECORD
  5
207
100
AcDbSymbolTableRecord
100
AcDbBlockTableRecord
  2
*Model_Space
  0
BLOCK_RECORD
  5
208
100
AcDbSymbolTableRecord
100
AcDbBlockTableRecord
  2
*Paper_Space
  0
ENDTAB
  0
TABLE
  2
DIMSTYLE
  5
A
100
AcDbSymbolTable
 70
1
100
AcDbDimStyleTable
 71
0
  0
DIMSTYLE
105
209
100
AcDbSymbolTableRecord
100
AcDbDimStyleTableRecord
  2
STANDARD
 70
0
  3

  4

 40
1.0
 41
3.0
 42
0.5
 43
0.38
 44
0.5
 45
0.0
 46
0.0
 47
0.001
 48
0.001
140
1.8
141
0.09
142
0.0
143
25.4
144
1.0
145
0.0
146
1.0
147
0.625
 71
1.0
 72
0.0
 73
0
 74
0
 75
0
 76
0
 77
1
 78
8
170
0
171
2
172
0
173
0
174
0
175
0
176
0
177
0
178
0
270
2
271
3
272
3
273
2
274
2
275
0
280
0
281
0
282
0
283
1
284
8
285
0
286
0
287
3
288
0
340
11
278
46
  0
ENDTAB
  0
ENDSEC
  0
SECTION
  2
BLOCKS
  0
BLOCK
  5
20
100
AcDbEntity
  8
0
100
AcDbBlockBegin
  2
*Model_Space
 70
0
 10
0.0
 20
0.0
 30
0.0
  3
*Model_Space
  1

  0
ENDBLK
  5
21
100
AcDbEntity
  8
0
100
AcDbBlockEnd
  0
BLOCK
  5
1C
100
AcDbEntity
  8
0
100
AcDbBlockBegin
  2
*Paper_Space
 70
0
 10
0.0
 20
0.0
 30
0.0
  3
*Paper_Space
  1

  0
ENDBLK
  5
1D
100
AcDbEntity
  8
0
100
AcDbBlockEnd
  0
ENDSEC
  0
SECTION
  2
ENTITIES
  0
LINE
  5
20A
100
AcDbEntity
  8
0
100
AcDbLine
 62
7
  6
CONTINUOUS
 10
240.1548029098
 20
476.9881218919
 11
240.4793960196
 21
470.988536171
  0
LINE
  5
20B
100
AcDbEntity
  8
0
100
AcDbLine
 62
7
  6
CONTINUOUS
 10
240.1548029098
 20
141.5541575209
 11
240.4635301769
 21
147.2602422184
  0
LINE
  5
20C
100
AcDbEntity
  8
0
100
AcDbLine
 62
7
  6
CONTINUOUS
 10
162.6046581777
 20
219.1892341178
 11
168.3036161265
 21
219.4913098679
  0
LINE
  5
20D
100
AcDbEntity
  8
0
100
AcDbLine
 62
7
  6
CONTINUOUS
 10
642.0338221907
 20
219.1892341178
 11
636.3348648238
 21
219.4913210513
  0
LINE
  5
20E
100
AcDbEntity
  8
0
100
AcDbLine
 62
7
  6
CONTINUOUS
 10
642.0338221907
 20
399.3530452951
 11
636.1285372258
 21
399.0400346952
  0
LINE
  5
20F
100
AcDbEntity
  8
0
100
AcDbLine
 62
7
  6
CONTINUOUS
 10
162.6046581777
 20
399.3530452951
 11
168.5099425643
 21
399.0400235563
  0
LINE
  5
210
100
AcDbEntity
  8
0
100
AcDbLine
 62
7
  6
CONTINUOUS
 10
564.4836774587
 20
141.5541575209
 11
564.1749611319
 21
147.2602427191
  0
LINE
  5
211
100
AcDbEntity
  8
0
100
AcDbLine
 62
7
  6
CONTINUOUS
 10
564.4836774587
 20
476.9881218919
 11
564.1590735024
 21
470.9885366199
  0
LWPOLYLINE
  5
212
100
AcDbEntity
  8
0
100
AcDbPolyline
 62
7
  6
CONTINUOUS
 90
47
 70
0
 10
165.4956509558
 20
744.3391990039
 10
165.5624927406
 20
743.4066360112
 10
165.7171173083
 20
741.8439461538
 10
165.9264442144
 20
740.2758722487
 10
166.1911014522
 20
738.7062262406
 10
166.5115270209
 20
737.1382560135
 10
166.8879365842
 20
735.5751499587
 10
167.3202808178
 20
734.0202057623
 10
167.8083703639
 20
732.4763786253
 10
168.3517703869
 20
730.9467185069
 10
168.9498801977
 20
729.4341118291
 10
169.6018891042
 20
727.9414256428
 10
170.3067820347
 20
726.4714774489
 10
171.0633478323
 20
725.0270092307
 10
171.8701994068
 20
723.6106489396
 10
172.7258061511
 20
722.2248662181
 10
173.6283112059
 20
720.8722554062
 10
174.5757375813
 20
719.5551754648
 10
175.5658436415
 20
718.2759630139
 10
176.596260729
 20
717.0367318474
 10
177.6644085957
 20
715.8394847994
 10
178.7676645316
 20
714.6859248839
 10
179.9029440249
 20
713.5778905849
 10
181.0672232453
 20
712.5167939904
 10
182.2569127206
 20
711.504204203
 10
183.4684063272
 20
710.5413077129
 10
184.6980239517
 20
709.6289914816
 10
185.9419570303
 20
708.7678979989
 10
187.196558166
 20
707.9582462866
 10
188.4578959769
 20
707.2001521404
 10
189.7229040051
 20
706.4929693889
 10
190.9882439131
 20
705.836047178
 10
192.2510969295
 20
705.2283146099
 10
193.5084783095
 20
704.6686713173
 10
194.7580650647
 20
704.1556303819
 10
195.9966257538
 20
703.6879929384
 10
197.2245858962
 20
703.2631900755
 10
198.4414023834
 20
702.8792222308
 10
199.6478821232
 20
702.533852849
 10
200.845078522
 20
702.225044752
 10
202.0328184088
 20
701.951283822
 10
203.2118986896
 20
701.7109723203
 10
204.3813193196
 20
701.5029957819
 10
205.5409035557
 20
701.3261121766
 10
206.689672877
 20
701.1792348683
 10
207.8269027909
 20
701.0612307257
 10
208.8893093644
 20
700.9752969062
  0
LINE
  5
213
100
AcDbEntity
  8
0
100
AcDbLine
 62
7
  6
CONTINUOUS
 10
165.495650907
 20
744.339199757
 11
165.495665318
 21
744.3389660659
  0
LINE
  5
214
100
AcDbEntity
  8
0
100
AcDbLine
 62
7
  6
CONTINUOUS
 10
161.7192401842
 20
867.2046273789
 11
161.7192401842
 21
870.1046273789
  0
LWPOLYLINE
  5
215
100
AcDbEntity
  8
0
100
AcDbPolyline
 62
7
  6
CONTINUOUS
 90
47
 70
0
 10
595.7491697118
 20
700.9752968155
 10
596.806003006
 20
701.0607188073
 10
597.9433346294
 20
701.1786020074
 10
599.0922015042
 20
701.3253595238
 10
600.2518803959
 20
701.5021244117
 10
601.4213942462
 20
701.7099833908
 10
602.6005655379
 20
701.950178125
 10
603.7883936349
 20
702.2238227341
 10
604.9856761588
 20
702.5325146567
 10
606.1922392453
 20
702.8777674395
 10
607.4091398133
 20
703.2616188082
 10
608.6371866826
 20
703.6863056897
 10
609.8758403844
 20
704.1538290646
 10
611.1255306342
 20
704.6667598388
 10
612.3830252685
 20
705.2262976381
 10
613.6460020228
 20
705.8339307072
 10
614.9114753993
 20
706.4907602053
 10
616.1766258633
 20
707.1978577628
 10
617.4381153875
 20
707.9558756715
 10
618.6928776785
 20
708.7654615776
 10
619.9369802859
 20
709.6265005715
 10
621.1667751187
 20
710.5387747325
 10
622.3784521352
 20
711.5016421042
 10
623.5683299602
 20
712.5142163234
 10
624.7328008912
 20
713.5753111283
 10
625.8682740621
 20
714.6833576853
 10
626.9717238342
 20
715.83694353
 10
628.0400638892
 20
717.0342295597
 10
629.0706704946
 20
718.2735127424
 10
630.060962219
 20
719.5527899309
 10
631.0085692947
 20
720.8699469373
 10
631.9112490427
 20
722.2226466781
 10
632.7670234074
 20
723.6085294839
 10
633.574034527
 20
725.0250001791
 10
634.330751047
 20
726.4695884727
 10
635.0357851428
 20
727.9396656001
 10
635.6879250626
 20
729.4324888357
 10
636.2861551929
 20
730.945239841
 10
636.8296644019
 20
732.4750507451
 10
637.3178516339
 20
734.0190342597
 10
637.7502817628
 20
735.5741395306
 10
638.1267652364
 20
737.1374104859
 10
638.4472525766
 20
738.7055483899
 10
638.7119594113
 20
740.2753638641
 10
638.9213237849
 20
741.8436079324
 10
639.0759738281
 20
743.4064673899
 10
639.1428294129
 20
744.3391990084
  0
LINE
  5
216
100
AcDbEntity
  8
0
100
AcDbLine
 62
7
  6
CONTINUOUS
 10
461.76794698
 20
691.6064170478
 11
595.7491960331
 21
700.9752986543
  0
LINE
  5
217
100
AcDbEntity
  8
0
100
AcDbLine
 62
7
  6
CONTINUOUS
 10
345.2774057712
 20
689.6826273789
 11
459.3610745972
 21
689.6826273789
  0
LINE
  5
218
100
AcDbEntity
  8
0
100
AcDbLine
 62
7
  6
CONTINUOUS
 10
342.8705333885
 20
691.6064170478
 11
208.8892843353
 21
700.9752986543
  0
LINE
  5
219
100
AcDbEntity
  8
0
100
AcDbLine
 62
7
  6
CONTINUOUS
 10
147.3197869374
 20
871.6046273789
 11
657.3186554412
 21
871.6046273789
  0
LINE
  5
21A
100
AcDbEntity
  8
0
100
AcDbLine
 62
7
  6
CONTINUOUS
 10
147.3192398435
 20
872.2046273789
 11
657.3192405486
 21
872.2046273789
  0
LINE
  5
21B
100
AcDbEntity
  8
0
100
AcDbLine
 62
7
  6
CONTINUOUS
 10
642.9192401842
 20
867.2046273789
 11
642.9192401842
 21
870.1046273789
  0
LINE
  5
21C
100
AcDbEntity
  8
0
100
AcDbLine
 62
7
  6
CONTINUOUS
 10
639.1428150487
 20
744.338966036
 11
639.1428294592
 21
744.3391997204
  0
ARC
  5
21D
100
AcDbEntity
  8
0
100
AcDbCircle
 62
7
  6
CONTINUOUS
 10
-1115.7296657993
 20
306.965306355
 40
1754.2761809581
100
AcDbArc
 50
2.0215713871
 51
3.0086017953
  0
ARC
  5
21E
100
AcDbEntity
  8
0
100
AcDbCircle
 62
7
  6
CONTINUOUS
 10
-1105.2300468758
 20
307.2317357948
 40
1743.7737014291
100
AcDbArc
 50
357.1158647963
 51
2.0249924411
  0
ARC
  5
21F
100
AcDbEntity
  8
0
100
AcDbCircle
 62
7
  6
CONTINUOUS
 10
-1057.6807598158
 20
309.2711397064
 40
1715.0
100
AcDbArc
 50
356.9662619878
 51
3.0337380122
  0
ARC
  5
220
100
AcDbEntity
  8
0
100
AcDbCircle
 62
7
  6
CONTINUOUS
 10
-1057.6807598158
 20
309.2711397064
 40
1702.1000000008
100
AcDbArc
 50
356.9662619878
 51
3.0337380122
  0
ARC
  5
221
100
AcDbEntity
  8
0
100
AcDbCircle
 62
7
  6
CONTINUOUS
 10
-1057.6807598158
 20
309.2711397064
 40
1700.0
100
AcDbArc
 50
356.9662619878
 51
3.0337380122
  0
ARC
  5
222
100
AcDbEntity
  8
0
100
AcDbCircle
 62
7
  6
CONTINUOUS
 10
-942.4710715343
 20
313.8453044453
 40
1539.1059587288
100
AcDbArc
 50
1.9892652154
 51
3.1025044473
  0
ARC
  5
223
100
AcDbEntity
  8
0
100
AcDbCircle
 62
7
  6
CONTINUOUS
 10
244.5895986529
 20
223.5342928386
 40
95.0
100
AcDbArc
 50
183.0337380122
 51
266.9035467773
  0
ARC
  5
224
100
AcDbEntity
  8
0
100
AcDbCircle
 62
7
  6
CONTINUOUS
 10
244.5895986529
 20
395.0079865742
 40
95.0
100
AcDbArc
 50
93.0964532227
 51
176.9662619878
  0
ARC
  5
225
100
AcDbEntity
  8
0
100
AcDbCircle
 62
7
  6
CONTINUOUS
 10
244.5895986529
 20
395.0079865742
 40
82.1000000011
100
AcDbArc
 50
93.0964532227
 51
176.9662619878
  0
ARC
  5
226
100
AcDbEntity
  8
0
100
AcDbCircle
 62
7
  6
CONTINUOUS
 10
244.5895986529
 20
223.5342928386
 40
82.1000000011
100
AcDbArc
 50
183.0337380122
 51
266.9035467773
  0
ARC
  5
227
100
AcDbEntity
  8
0
100
AcDbCircle
 62
7
  6
CONTINUOUS
 10
244.5895986529
 20
223.5342928386
 40
80.0
100
AcDbArc
 50
183.0337380122
 51
266.9035467773
  0
ARC
  5
228
100
AcDbEntity
  8
0
100
AcDbCircle
 62
7
  6
CONTINUOUS
 10
244.5895986529
 20
395.0079865742
 40
80.0
100
AcDbArc
 50
93.0964532227
 51
176.9662619878
  0
ARC
  5
229
100
AcDbEntity
  8
0
100
AcDbCircle
 62
7
  6
CONTINUOUS
 10
244.5009006012
 20
223.4535138728
 40
76.3002390257
100
AcDbArc
 50
182.9766583821
 51
266.9668168641
  0
ARC
  5
22A
100
AcDbEntity
  8
0
100
AcDbCircle
 62
7
  6
CONTINUOUS
 10
244.4656036364
 20
395.0326794547
 40
76.0608743246
100
AcDbArc
 50
93.0041598849
 51
176.9799324907
  0
ARC
  5
22B
100
AcDbEntity
  8
0
100
AcDbCircle
 62
7
  6
CONTINUOUS
 10
402.3192401842
 20
-2520.7288602936
 40
3015.0
100
AcDbArc
 50
86.9035467773
 51
93.0964532227
  0
ARC
  5
22C
100
AcDbEntity
  8
0
100
AcDbCircle
 62
7
  6
CONTINUOUS
 10
402.3192401842
 20
-2520.7288602936
 40
3002.1000000003
100
AcDbArc
 50
86.9035467773
 51
93.0964532227
  0
ARC
  5
22D
100
AcDbEntity
  8
0
100
AcDbCircle
 62
7
  6
CONTINUOUS
 10
402.3192401842
 20
-2520.7288602936
 40
3000.0
100
AcDbArc
 50
86.9035467773
 51
93.0964532227
  0
ARC
  5
22E
100
AcDbEntity
  8
0
100
AcDbCircle
 62
7
  6
CONTINUOUS
 10
1920.3678532966
 20
306.965319283
 40
1754.2758878131
100
AcDbArc
 50
176.9913984886
 51
177.9784286974
  0
ARC
  5
22F
100
AcDbEntity
  8
0
100
AcDbCircle
 62
7
  6
CONTINUOUS
 10
1903.7551334518
 20
307.1859001806
 40
1737.6657647441
100
AcDbArc
 50
177.966374399
 51
182.8927687339
  0
ARC
  5
230
100
AcDbEntity
  8
0
100
AcDbCircle
 62
7
  6
CONTINUOUS
 10
1862.3192401842
 20
309.2711397064
 40
1715.0
100
AcDbArc
 50
176.9662619878
 51
183.0337380122
  0
ARC
  5
231
100
AcDbEntity
  8
0
100
AcDbCircle
 62
7
  6
CONTINUOUS
 10
1862.3192401842
 20
309.2711397064
 40
1702.1000000008
100
AcDbArc
 50
176.9662619878
 51
183.0337380122
  0
ARC
  5
232
100
AcDbEntity
  8
0
100
AcDbCircle
 62
7
  6
CONTINUOUS
 10
1862.3192401842
 20
309.2711397064
 40
1700.0
100
AcDbArc
 50
176.9662619878
 51
183.0337380122
  0
ARC
  5
233
100
AcDbEntity
  8
0
100
AcDbCircle
 62
7
  6
CONTINUOUS
 10
1747.1095211283
 20
313.8453058137
 40
1539.1059279253
100
AcDbArc
 50
176.8974955415
 51
178.0107347957
  0
ARC
  5
234
100
AcDbEntity
  8
0
100
AcDbCircle
 62
7
  6
CONTINUOUS
 10
560.0488817156
 20
395.0079865742
 40
95.0
100
AcDbArc
 50
3.0337380122
 51
86.9035467773
  0
ARC
  5
235
100
AcDbEntity
  8
0
100
AcDbCircle
 62
7
  6
CONTINUOUS
 10
560.0488817156
 20
223.5342928386
 40
95.0
100
AcDbArc
 50
273.0964532227
 51
356.9662619878
  0
ARC
  5
236
100
AcDbEntity
  8
0
100
AcDbCircle
 62
7
  6
CONTINUOUS
 10
560.0488817156
 20
223.5342928386
 40
82.1000000011
100
AcDbArc
 50
273.0964532227
 51
356.9662619878
  0
ARC
  5
237
100
AcDbEntity
  8
0
100
AcDbCircle
 62
7
  6
CONTINUOUS
 10
560.0488817156
 20
395.0079865742
 40
82.1000000011
100
AcDbArc
 50
3.0337380122
 51
86.9035467773
  0
ARC
  5
238
100
AcDbEntity
  8
0
100
AcDbCircle
 62
7
  6
CONTINUOUS
 10
560.0488817156
 20
223.5342928386
 40
80.0
100
AcDbArc
 50
273.0964532227
 51
356.9662619878
  0
ARC
  5
239
100
AcDbEntity
  8
0
100
AcDbCircle
 62
7
  6
CONTINUOUS
 10
560.0488817156
 20
395.0079865742
 40
80.0
100
AcDbArc
 50
3.0337380122
 51
86.9035467773
  0
ARC
  5
23A
100
AcDbEntity
  8
0
100
AcDbCircle
 62
7
  6
CONTINUOUS
 10
560.1375879824
 20
223.4535056542
 40
76.3002390231
100
AcDbArc
 50
273.0331855258
 51
357.0233558701
  0
ARC
  5
23B
100
AcDbEntity
  8
0
100
AcDbCircle
 62
7
  6
CONTINUOUS
 10
560.1728722386
 20
395.0326760992
 40
76.0608743543
100
AcDbArc
 50
3.0200782571
 51
86.9958450443
  0
CIRCLE
  5
23C
100
AcDbEntity
  8
0
100
AcDbCircle
 62
7
  6
CONTINUOUS
 10
402.3192401842
 20
367.2711397064
 40
59.4068529115
  0
CIRCLE
  5
23D
100
AcDbEntity
  8
0
100
AcDbCircle
 62
7
  6
CONTINUOUS
 10
402.3192401842
 20
367.2711397064
 40
57.5248165463
  0
CIRCLE
  5
23E
100
AcDbEntity
  8
0
100
AcDbCircle
 62
7
  6
CONTINUOUS
 10
402.3192401842
 20
367.2711397064
 40
57.041834413
  0
CIRCLE
  5
23F
100
AcDbEntity
  8
02___PRT_ALL_AXES
100
AcDbCircle
 62
7
  6
CONTINUOUS
 10
402.3192401842
 20
367.2711397064
 40
35.0
  0
ARC
  5
240
100
AcDbEntity
  8
0
100
AcDbCircle
 62
7
  6
CONTINUOUS
 10
402.3192401328
 20
3322.7757618896
 40
3179.6377288172
100
AcDbArc
 50
267.082164851
 51
272.9178353482
  0
ARC
  5
241
100
AcDbEntity
  8
0
100
AcDbCircle
 62
7
  6
CONTINUOUS
 10
402.3192401842
 20
3139.2711397064
 40
3015.0
100
AcDbArc
 50
266.9035467773
 51
273.0964532227
  0
ARC
  5
242
100
AcDbEntity
  8
0
100
AcDbCircle
 62
7
  6
CONTINUOUS
 10
402.3192401842
 20
3139.2711397064
 40
3002.1000000003
100
AcDbArc
 50
266.9035467773
 51
273.0964532227
  0
ARC
  5
243
100
AcDbEntity
  8
0
100
AcDbCircle
 62
7
  6
CONTINUOUS
 10
402.3192401842
 20
3139.2711397064
 40
3000.0
100
AcDbArc
 50
266.9035467773
 51
273.0964532227
  0
ARC
  5
244
100
AcDbEntity
  8
0
100
AcDbCircle
 62
7
  6
CONTINUOUS
 10
-1357.6807598158
 20
867.2046273789
 40
2000.6
100
AcDbArc
 50
356.4791762682
 51
360.0
  0
ARC
  5
245
100
AcDbEntity
  8
0
100
AcDbCircle
 62
7
  6
CONTINUOUS
 10
2162.3192401842
 20
867.2046273789
 40
2000.6
100
AcDbArc
 50
180.0
 51
183.5208237301
  0
ARC
  5
246
100
AcDbEntity
  8
0
100
AcDbCircle
 62
7
  6
CONTINUOUS
 10
644.4192401842
 20
870.1046273789
 40
1.5
100
AcDbArc
 50
90.0
 51
180.0
  0
ARC
  5
247
100
AcDbEntity
  8
0
100
AcDbCircle
 62
7
  6
CONTINUOUS
 10
160.2192401842
 20
870.1046273789
 40
1.5
100
AcDbArc
 50
0.0
 51
90.0
  0
ARC
  5
248
100
AcDbEntity
  8
0
100
AcDbCircle
 62
7
  6
CONTINUOUS
 10
342.7658986779
 20
690.1100709724
 40
1.5
100
AcDbArc
 50
14.9914879424
 51
86.0
  0
ARC
  5
249
100
AcDbEntity
  8
0
100
AcDbCircle
 62
7
  6
CONTINUOUS
 10
461.8725816906
 20
690.1100709724
 40
1.5
100
AcDbArc
 50
94.0
 51
165.0085120576
  0
ARC
  5
24A
100
AcDbEntity
  8
0
100
AcDbCircle
 62
7
  6
CONTINUOUS
 10
459.3610745972
 20
690.7826273789
 40
1.1
100
AcDbArc
 50
270.0
 51
345.0085120576
  0
ARC
  5
24B
100
AcDbEntity
  8
0
100
AcDbCircle
 62
7
  6
CONTINUOUS
 10
345.2774057712
 20
690.7826273789
 40
1.1
100
AcDbArc
 50
194.9914879424
 51
270.0
  0
SPLINE
  5
24C
100
AcDbEntity
  8
0
100
AcDbSpline
 62
7
  6
CONTINUOUS
 70
0
 71
3
 72
10
 73
6
 74
0
 42
0.0000001
 43
0.0000001
 44
0.0000000001
 40
0.0
 40
0.0
 40
0.0
 40
0.0
 40
0.2500751833
 40
0.6251030709
 40
1.0
 40
1.0
 40
1.0
 40
1.0
 10
595.7073421489
 20
367.2711397064
 30
0.0
 10
596.133681388
 20
354.9939291585
 30
0.0
 10
596.8309404431
 20
324.2912884065
 30
0.0
 10
596.4987561822
 20
275.1590352226
 30
0.0
 10
595.0105734867
 20
238.3422755412
 30
0.0
 10
593.9677167295
 20
219.9555129198
 30
0.0
  0
SPLINE
  5
24D
100
AcDbEntity
  8
0
100
AcDbSpline
 62
7
  6
CONTINUOUS
 70
0
 71
3
 72
15
 73
11
 74
0
 42
0.0000001
 43
0.0000001
 44
0.0000000001
 40
0.0
 40
0.0
 40
0.0
 40
0.0
 40
0.1249620695
 40
0.2499627139
 40
0.3749895696
 40
0.5000280469
 40
0.6250626313
 40
0.750078112
 40
0.8750608395
 40
1.0
 40
1.0
 40
1.0
 40
1.0
 10
593.9677167295
 20
219.9555129198
 30
0.0
 10
593.85790951
 20
218.0195620795
 30
0.0
 10
593.2816492069
 20
214.1580283979
 30
0.0
 10
591.3827734353
 20
208.6253504987
 30
0.0
 10
588.5143946949
 20
203.5240752849
 30
0.0
 10
584.7726003835
 20
199.0241091567
 30
0.0
 10
580.2809068811
 20
195.2726288344
 30
0.0
 10
575.1858887282
 20
192.394056109
 30
0.0
 10
569.6572705471
 20
190.4855590125
 30
0.0
 10
565.7970583017
 20
189.9039633549
 30
0.0
 10
563.861591433
 20
189.7919240904
 30
0.0
  0
SPLINE
  5
24E
100
AcDbEntity
  8
0
100
AcDbSpline
 62
7
  6
CONTINUOUS
 70
0
 71
3
 72
11
 73
7
 74
0
 42
0.0000001
 43
0.0000001
 44
0.0000000001
 40
0.0
 40
0.0
 40
0.0
 40
0.0
 40
0.2498533985
 40
0.5
 40
0.7501466014
 40
1.0
 40
1.0
 40
1.0
 40
1.0
 10
240.4793960246
 20
470.9885360773
 30
0.0
 10
267.4131091521
 20
472.3359777447
 30
0.0
 10
321.351545599
 20
474.3045956158
 30
0.0
 10
402.31923475
 20
475.1493627758
 30
0.0
 10
483.2869239034
 20
474.3045958318
 30
0.0
 10
537.2253603709
 20
472.3359782607
 30
0.0
 10
564.1590735024
 20
470.9885366199
 30
0.0
  0
SPLINE
  5
24F
100
AcDbEntity
  8
0
100
AcDbSpline
 62
7
  6
CONTINUOUS
 70
0
 71
3
 72
15
 73
11
 74
0
 42
0.0000001
 43
0.0000001
 44
0.0000000001
 40
0.0
 40
0.0
 40
0.0
 40
0.0
 40
0.1249470263
 40
0.2499329894
 40
0.3749551557
 40
0.5
 40
0.6250448443
 40
0.7500670106
 40
0.8750529737
 40
1.0
 40
1.0
 40
1.0
 40
1.0
 10
563.861591433
 20
189.7919240904
 30
0.0
 10
550.4200423794
 20
189.0138540606
 30
0.0
 10
523.5224348257
 20
187.6298648679
 30
0.0
 10
483.1460898884
 20
186.0910765984
 30
0.0
 10
442.7409811855
 20
185.1310617597
 30
0.0
 10
402.3192401842
 20
184.8024391657
 30
0.0
 10
361.897499183
 20
185.1310617613
 30
0.0
 10
321.4923904801
 20
186.0910765997
 30
0.0
 10
281.1160455426
 20
187.6298648641
 30
0.0
 10
254.2184379894
 20
189.0138540656
 30
0.0
 10
240.7768889355
 20
189.7919240904
 30
0.0
  0
SPLINE
  5
250
100
AcDbEntity
  8
0
100
AcDbSpline
 62
7
  6
CONTINUOUS
 70
0
 71
3
 72
15
 73
11
 74
0
 42
0.0000001
 43
0.0000001
 44
0.0000000001
 40
0.0
 40
0.0
 40
0.0
 40
0.0
 40
0.1249391602
 40
0.2499218878
 40
0.3749373686
 40
0.499971953
 40
0.6250104302
 40
0.7500372859
 40
0.8750379304
 40
1.0
 40
1.0
 40
1.0
 40
1.0
 10
240.7768889355
 20
189.7919240904
 30
0.0
 10
238.8414220975
 20
189.9039638044
 30
0.0
 10
234.9812098156
 20
190.4855587979
 30
0.0
 10
229.4525916565
 20
192.3940561722
 30
0.0
 10
224.3575734949
 20
195.2726288177
 30
0.0
 10
219.8658799856
 20
199.0241091565
 30
0.0
 10
216.1240856902
 20
203.5240752777
 30
0.0
 10
213.255706869
 20
208.6253504851
 30
0.0
 10
211.3568313744
 20
214.1580284066
 30
0.0
 10
210.7805704111
 20
218.019562052
 30
0.0
 10
210.670763639
 20
219.9555129197
 30
0.0
  0
SPLINE
  5
251
100
AcDbEntity
  8
0
100
AcDbSpline
 62
7
  6
CONTINUOUS
 70
0
 71
3
 72
10
 73
6
 74
0
 42
0.0000001
 43
0.0000001
 44
0.0000000001
 40
0.0
 40
0.0
 40
0.0
 40
0.0
 40
0.2499224371
 40
0.6249098902
 40
1.0
 40
1.0
 40
1.0
 40
1.0
 10
210.670763639
 20
219.9555129197
 30
0.0
 10
209.9755512143
 20
232.2129065909
 30
0.0
 10
208.5701070886
 20
262.8811720309
 30
0.0
 10
207.6777631691
 20
312.0059077657
 30
0.0
 10
208.2916687355
 20
348.856457767
 30
0.0
 10
208.9311382196
 20
367.2711397064
 30
0.0
  0
SPLINE
  5
252
100
AcDbEntity
  8
0
100
AcDbSpline
 62
7
  6
CONTINUOUS
 70
0
 71
3
 72
22
 73
18
 74
0
 42
0.0000001
 43
0.0000001
 44
0.0000000001
 40
0.0
 40
0.0
 40
0.0
 40
0.0
 40
0.1881216195
 40
0.3688887292
 40
0.5361567953
 40
0.6129322069
 40
0.6842530688
 40
0.7495169804
 40
0.8081756745
 40
0.8597414408
 40
0.9037943346
 40
0.9399917423
 40
0.9680871156
 40
0.979060577
 40
0.9879921285
 40
0.9949289976
 40
1.0
 40
1.0
 40
1.0
 40
1.0
 10
564.6777701861
 20
427.2294946673
 30
0.0
 10
564.8105517003
 20
429.9788540053
 30
0.0
 10
565.0394352922
 20
435.3716725382
 30
0.0
 10
565.2761152076
 20
443.2132458452
 30
0.0
 10
565.3789688112
 20
449.4284246771
 30
0.0
 10
565.3959651122
 20
454.0428079025
 30
0.0
 10
565.3773537778
 20
457.1646603974
 30
0.0
 10
565.3281112818
 20
460.0210740937
 30
0.0
 10
565.2488407446
 20
462.5876741554
 30
0.0
 10
565.1404205579
 20
464.8425409144
 30
0.0
 10
565.0045337966
 20
466.7667599527
 30
0.0
 10
564.8424772548
 20
468.3439067254
 30
0.0
 10
564.6788601942
 20
469.4340606165
 30
0.0
 10
564.5266523495
 20
470.1199112111
 30
0.0
 10
564.4167412394
 20
470.4976228337
 30
0.0
 10
564.3024964131
 20
470.7820473401
 30
0.0
 10
564.20951896
 20
470.9340758403
 30
0.0
 10
564.1591238708
 20
470.9885339527
 30
0.0
  0
SPLINE
  5
253
100
AcDbEntity
  8
0
100
AcDbSpline
 62
7
  6
CONTINUOUS
 70
0
 71
3
 72
18
 73
14
 74
0
 42
0.0000001
 43
0.0000001
 44
0.0000000001
 40
0.0
 40
0.0
 40
0.0
 40
0.0
 40
0.1910355314
 40
0.3734895826
 40
0.5414700034
 40
0.6895526385
 40
0.8129561785
 40
0.864123385
 40
0.9076967014
 40
0.9433240209
 40
0.9707178894
 40
0.9896586979
 40
1.0
 40
1.0
 40
1.0
 40
1.0
 10
594.3790281192
 20
397.1455048572
 30
0.0
 10
597.0368167019
 20
397.2838743127
 30
0.0
 10
602.2331747709
 20
397.5511274332
 30
0.0
 10
609.7671556099
 20
397.9284738736
 30
0.0
 10
616.7040116947
 20
398.2654149433
 30
0.0
 10
622.8197181089
 20
398.5510974858
 30
0.0
 10
627.3103335078
 20
398.7500761155
 30
0.0
 10
630.3467883314
 20
398.875362466
 30
0.0
 10
632.1616550482
 20
398.9457512742
 30
0.0
 10
633.6457051934
 20
398.9973098255
 30
0.0
 10
634.787188521
 20
399.0321963665
 30
0.0
 10
635.5763522215
 20
399.0453030806
 30
0.0
 10
635.9847423565
 20
399.048986613
 30
0.0
 10
636.1285350746
 20
399.040075387
 30
0.0
  0
SPLINE
  5
254
100
AcDbEntity
  8
0
100
AcDbSpline
 62
7
  6
CONTINUOUS
 70
0
 71
3
 72
22
 73
18
 74
0
 42
0.0000001
 43
0.0000001
 44
0.0000000001
 40
0.0
 40
0.0
 40
0.0
 40
0.0
 40
0.190321393
 40
0.372390208
 40
0.5402262657
 40
0.6170625045
 40
0.6883223513
 40
0.7534215172
 40
0.8118273375
 40
0.8630639826
 40
0.9067176768
 40
0.9424423996
 40
0.9699694875
 40
0.980602913
 40
0.9891362666
 40
0.9955823192
 40
1.0
 40
1.0
 40
1.0
 40
1.0
 10
593.9677167294
 20
219.9555129198
 30
0.0
 10
596.6559119545
 20
219.825641797
 30
0.0
 10
601.9166645612
 20
219.5901991685
 30
0.0
 10
609.5507787476
 20
219.3061359545
 30
0.0
 10
615.5829250373
 20
219.132694563
 30
0.0
 10
620.0495781389
 20
219.0401942727
 30
0.0
 10
623.0640653935
 20
218.9959902981
 30
0.0
 10
625.8181772214
 20
218.975128967
 30
0.0
 10
628.289236253
 20
218.9776623209
 30
0.0
 10
630.4568789319
 20
219.0034550502
 30
0.0
 10
632.3034010644
 20
219.0517635926
 30
0.0
 10
633.8135373473
 20
219.1221823679
 30
0.0
 10
634.8557867007
 20
219.2020184082
 30
0.0
 10
635.5111551427
 20
219.2826008508
 30
0.0
 10
635.8688162208
 20
219.3422557717
 30
0.0
 10
636.1353088123
 20
219.4061238323
 30
0.0
 10
636.2810530183
 20
219.4595336199
 30
0.0
 10
636.334861971
 20
219.4912690605
 30
0.0
  0
SPLINE
  5
255
100
AcDbEntity
  8
0
100
AcDbSpline
 62
7
  6
CONTINUOUS
 70
0
 71
3
 72
22
 73
18
 74
0
 42
0.0000001
 43
0.0000001
 44
0.0000000001
 40
0.0
 40
0.0
 40
0.0
 40
0.0
 40
0.1900679043
 40
0.3719851756
 40
0.5397516909
 40
0.6165777639
 40
0.6878407313
 40
0.7529542915
 40
0.8113841441
 40
0.862653382
 40
0.9063480206
 40
0.942123324
 40
0.9697149313
 40
0.9803893937
 40
0.9889733437
 40
0.9954858753
 40
1.0
 40
1.0
 40
1.0
 40
1.0
 10
563.8615914331
 20
189.7919240903
 30
0.0
 10
563.9937305143
 20
187.0962768402
 30
0.0
 10
564.231412663
 20
181.8195233887
 30
0.0
 10
564.5119062024
 20
174.1603243796
 30
0.0
 10
564.6765243292
 20
168.1061739303
 30
0.0
 10
564.7582678788
 20
163.6218766189
 30
0.0
 10
564.7930666719
 20
160.594662242
 30
0.0
 10
564.8030291161
 20
157.8284796827
 30
0.0
 10
564.7882050819
 20
155.3462051987
 30
0.0
 10
564.7488475557
 20
153.1683854018
 30
0.0
 10
564.685862069
 20
151.3128557036
 30
0.0
 10
564.5997987146
 20
149.79502008
 30
0.0
 10
564.5054292005
 20
148.7473123525
 30
0.0
 10
564.4122021778
 20
148.0885944614
 30
0.0
 10
564.3436597167
 20
147.7286627496
 30
0.0
 10
564.2708983727
 20
147.4601058195
 30
0.0
 10
564.2102697747
 20
147.3137682678
 30
0.0
 10
564.1750010746
 20
147.2602448364
 30
0.0
  0
SPLINE
  5
256
100
AcDbEntity
  8
0
100
AcDbSpline
 62
7
  6
CONTINUOUS
 70
0
 71
3
 72
22
 73
18
 74
0
 42
0.0000001
 43
0.0000001
 44
0.0000000001
 40
0.0
 40
0.0
 40
0.0
 40
0.0
 40
0.1900679045
 40
0.3719851759
 40
0.5397516912
 40
0.6165777642
 40
0.6878407316
 40
0.7529542917
 40
0.8113841443
 40
0.8626533822
 40
0.9063480208
 40
0.9421233241
 40
0.9697149313
 40
0.9803893938
 40
0.9889733437
 40
0.9954858753
 40
1.0
 40
1.0
 40
1.0
 40
1.0
 10
240.7768889355
 20
189.7919240904
 30
0.0
 10
240.6447498548
 20
187.0962768468
 30
0.0
 10
240.4070677072
 20
181.8195234093
 30
0.0
 10
240.1265741692
 20
174.1603244219
 30
0.0
 10
239.9619560436
 20
168.1061739919
 30
0.0
 10
239.8802124949
 20
163.621876696
 30
0.0
 10
239.8454137023
 20
160.5946623304
 30
0.0
 10
239.8354512587
 20
157.8284797821
 30
0.0
 10
239.8502752934
 20
155.3462053083
 30
0.0
 10
239.8896328199
 20
153.1683855206
 30
0.0
 10
239.952618307
 20
151.3128558307
 30
0.0
 10
240.0386816616
 20
149.7950202141
 30
0.0
 10
240.1330511759
 20
148.7473124917
 30
0.0
 10
240.2262781987
 20
148.0885946039
 30
0.0
 10
240.2948206597
 20
147.7286628941
 30
0.0
 10
240.3675820038
 20
147.4601059655
 30
0.0
 10
240.4282106018
 20
147.3137684148
 30
0.0
 10
240.4634793019
 20
147.2602449838
 30
0.0
  0
SPLINE
  5
257
100
AcDbEntity
  8
0
100
AcDbSpline
 62
7
  6
CONTINUOUS
 70
0
 71
3
 72
22
 73
18
 74
0
 42
0.0000001
 43
0.0000001
 44
0.0000000001
 40
0.0
 40
0.0
 40
0.0
 40
0.0
 40
0.1903213928
 40
0.3723902077
 40
0.5402262654
 40
0.6170625042
 40
0.688322351
 40
0.7534215169
 40
0.8118273373
 40
0.8630639824
 40
0.9067176767
 40
0.9424423995
 40
0.9699694874
 40
0.980602913
 40
0.9891362665
 40
0.9955823191
 40
1.0
 40
1.0
 40
1.0
 40
1.0
 10
210.670763639
 20
219.9555129197
 30
0.0
 10
207.9825684074
 20
219.8256417964
 30
0.0
 10
202.7218157869
 20
219.5901991671
 30
0.0
 10
195.0877015787
 20
219.3061359517
 30
0.0
 10
189.0555552699
 20
219.1326945591
 30
0.0
 10
184.5889021528
 20
219.0401942679
 30
0.0
 10
181.5744148868
 20
218.9959902927
 30
0.0
 10
178.8203030481
 20
218.9751289611
 30
0.0
 10
176.3492440063
 20
218.9776623145
 30
0.0
 10
174.1816013181
 20
219.0034550434
 30
0.0
 10
172.3350791774
 20
219.0517635855
 30
0.0
 10
170.8249428874
 20
219.1221823605
 30
0.0
 10
169.7826935289
 20
219.2020184006
 30
0.0
 10
169.1273250835
 20
219.2826008431
 30
0.0
 10
168.7696640034
 20
219.3422557639
 30
0.0
 10
168.5031714103
 20
219.4061238246
 30
0.0
 10
168.3574272034
 20
219.4595336121
 30
0.0
 10
168.3036182503
 20
219.4912690527
 30
0.0
  0
SPLINE
  5
258
100
AcDbEntity
  8
0
100
AcDbSpline
 62
7
  6
CONTINUOUS
 70
0
 71
3
 72
18
 73
14
 74
0
 42
0.0000001
 43
0.0000001
 44
0.0000000001
 40
0.0
 40
0.0
 40
0.0
 40
0.0
 40
0.1910355316
 40
0.3734895829
 40
0.5414700037
 40
0.6895526388
 40
0.8129561787
 40
0.8641233853
 40
0.9076967016
 40
0.943324021
 40
0.9707178895
 40
0.9896586979
 40
1.0
 40
1.0
 40
1.0
 40
1.0
 10
210.2594522492
 20
397.1455048572
 30
0.0
 10
207.6016636729
 20
397.2838743125
 30
0.0
 10
202.4053056175
 20
397.5511274324
 30
0.0
 10
194.8713247997
 20
397.9284738719
 30
0.0
 10
187.9344687374
 20
398.2654149405
 30
0.0
 10
181.8187623455
 20
398.5510974819
 30
0.0
 10
177.3281469643
 20
398.7500761106
 30
0.0
 10
174.2916921537
 20
398.8753624603
 30
0.0
 10
172.4768254452
 20
398.9457512681
 30
0.0
 10
170.9927753072
 20
398.9973098189
 30
0.0
 10
169.8512919856
 20
399.0321963595
 30
0.0
 10
169.0621282898
 20
399.0453030732
 30
0.0
 10
168.6537381573
 20
399.0489866054
 30
0.0
 10
168.5099454404
 20
399.0400753792
 30
0.0
  0
SPLINE
  5
259
100
AcDbEntity
  8
0
100
AcDbSpline
 62
7
  6
CONTINUOUS
 70
0
 71
3
 72
22
 73
18
 74
0
 42
0.0000001
 43
0.0000001
 44
0.0000000001
 40
0.0
 40
0.0
 40
0.0
 40
0.0
 40
0.1881216193
 40
0.3688887289
 40
0.536156795
 40
0.6129322066
 40
0.6842530685
 40
0.7495169802
 40
0.8081756744
 40
0.8597414406
 40
0.9037943345
 40
0.9399917423
 40
0.9680871156
 40
0.979060577
 40
0.9879921285
 40
0.9949289976
 40
1.0
 40
1.0
 40
1.0
 40
1.0
 10
239.9607101822
 20
427.2294946674
 30
0.0
 10
239.827928667
 20
429.9788540118
 30
0.0
 10
239.5990450735
 20
435.3716725586
 30
0.0
 10
239.362365156
 20
443.2132458874
 30
0.0
 10
239.259511551
 20
449.4284247385
 30
0.0
 10
239.2425152491
 20
454.0428079796
 30
0.0
 10
239.2611265829
 20
457.1646604858
 30
0.0
 10
239.3103690784
 20
460.021074193
 30
0.0
 10
239.3896396153
 20
462.5876742649
 30
0.0
 10
239.4980598018
 20
464.842541033
 30
0.0
 10
239.633946563
 20
466.7667600795
 30
0.0
 10
239.7960031049
 20
468.3439068589
 30
0.0
 10
239.9596201656
 20
469.4340607549
 30
0.0
 10
240.1118280106
 20
470.1199113527
 30
0.0
 10
240.2217391208
 20
470.497622977
 30
0.0
 10
240.3359839473
 20
470.7820474848
 30
0.0
 10
240.4289614004
 20
470.9340759858
 30
0.0
 10
240.4793564898
 20
470.9885340985
 30
0.0
  0
SPLINE
  5
25A
100
AcDbEntity
  8
0
100
AcDbSpline
 62
7
  6
CONTINUOUS
 70
0
 71
3
 72
15
 73
11
 74
0
 42
0.0000001
 43
0.0000001
 44
0.0000000001
 40
0.0
 40
0.0
 40
0.0
 40
0.0
 40
0.1250958605
 40
0.2501869169
 40
0.3752592702
 40
0.5003002934
 40
0.6252996654
 40
0.750250359
 40
0.875149633
 40
1.0
 40
1.0
 40
1.0
 40
1.0
 10
210.2594522491
 20
397.1455048573
 30
0.0
 10
210.363712079
 20
399.069210458
 30
0.0
 10
210.9209701268
 20
402.9066568904
 30
0.0
 10
212.7737989949
 20
408.4123336531
 30
0.0
 10
215.5849427308
 20
413.4972154228
 30
0.0
 10
219.2648691988
 20
417.9914266282
 30
0.0
 10
223.6955822394
 20
421.745153709
 30
0.0
 10
228.7341655299
 20
424.6294334225
 30
0.0
 10
234.211956086
 20
426.5415460378
 30
0.0
 10
238.0410491108
 20
427.1205830041
 30
0.0
 10
239.9607101826
 20
427.2294946674
 30
0.0
  0
SPLINE
  5
25B
100
AcDbEntity
  8
0
100
AcDbSpline
 62
7
  6
CONTINUOUS
 70
0
 71
3
 72
21
 73
17
 74
0
 42
0.0000001
 43
0.0000001
 44
0.0000000001
 40
0.0
 40
0.0
 40
0.0
 40
0.0
 40
0.1249081013
 40
0.187374697
 40
0.2498544052
 40
0.3123528203
 40
0.374876355
 40
0.4374280748
 40
0.5
 40
0.5625719252
 40
0.625123645
 40
0.6876471797
 40
0.7501455948
 40
0.812625303
 40
0.8750918987
 40
1.0
 40
1.0
 40
1.0
 40
1.0
 10
239.9607101826
 20
427.2294946674
 30
0.0
 10
253.4689703246
 20
427.9958561936
 30
0.0
 10
273.7393618621
 20
429.0309991712
 30
0.0
 10
300.7772526055
 20
430.2226441361
 30
0.0
 10
321.0649091797
 20
431.0363712311
 30
0.0
 10
341.3613757076
 20
431.7809916536
 30
0.0
 10
361.6683787266
 20
432.4478583904
 30
0.0
 10
381.9879777827
 20
432.9665370061
 30
0.0
 10
402.3192401838
 20
433.1754175801
 30
0.0
 10
422.6505025847
 20
432.9665369957
 30
0.0
 10
442.9701016411
 20
432.4478583966
 30
0.0
 10
463.2771046602
 20
431.780991662
 30
0.0
 10
483.5735711881
 20
431.0363712388
 30
0.0
 10
503.8612277623
 20
430.2226441421
 30
0.0
 10
530.8991185061
 20
429.0309991782
 30
0.0
 10
551.1695100431
 20
427.9958561841
 30
0.0
 10
564.6777701859
 20
427.2294946674
 30
0.0
  0
SPLINE
  5
25C
100
AcDbEntity
  8
0
100
AcDbSpline
 62
7
  6
CONTINUOUS
 70
0
 71
3
 72
15
 73
11
 74
0
 42
0.0000001
 43
0.0000001
 44
0.0000000001
 40
0.0
 40
0.0
 40
0.0
 40
0.0
 40
0.1248503669
 40
0.2497496409
 40
0.3747003344
 40
0.4996997065
 40
0.6247407296
 40
0.7498130828
 40
0.8749041394
 40
1.0
 40
1.0
 40
1.0
 40
1.0
 10
564.6777701859
 20
427.2294946674
 30
0.0
 10
566.5974312283
 20
427.1205825316
 30
0.0
 10
570.4265242918
 20
426.5415462648
 30
0.0
 10
575.9043148237
 20
424.6294333557
 30
0.0
 10
580.9428981215
 20
421.745153726
 30
0.0
 10
585.373611168
 20
417.9914266275
 30
0.0
 10
589.0535376191
 20
413.49721543
 30
0.0
 10
591.8646814345
 20
408.4123336665
 30
0.0
 10
593.7175100327
 20
402.9066568832
 30
0.0
 10
594.2747687269
 20
399.0692104829
 30
0.0
 10
594.3790281194
 20
397.1455048572
 30
0.0
  0
LINE
  5
25D
100
AcDbEntity
  8
0
100
AcDbLine
 62
7
  6
CONTINUOUS
 10
147.3192401842
 20
872.2046273789
 11
147.3192401843
 21
871.6046273789
  0
LINE
  5
25E
100
AcDbEntity
  8
0
100
AcDbLine
 62
7
  6
CONTINUOUS
 10
657.3192401842
 20
872.2046273789
 11
657.3192401843
 21
871.6046273789
  0
ENDSEC
  0
SECTION
  2
OBJECTS
  0
DICTIONARY
  5
C
100
AcDbDictionary
280
0
281
1
  3
ACAD_GROUP
350
D
  3
ACAD_MLINESTYLE
350
17
  3
ACAD_LAYOUT
350
1A
  3
ACAD_PLOTSETTINGS
350
19
  3
ACAD_PLOTSTYLENAME
350
E
  0
DICTIONARY
  5
D
102
{ACAD_REACTORS
330
C
102
}
100
AcDbDictionary
280
0
281
1
  0
ACDBDICTIONARYWDFLT
  5
E
102
{ACAD_REACTORS
330
C
102
}
100
AcDbDictionary
281
1
  3
Normal
350
F
100
AcDbDictionaryWithDefault
340
F
  0
DICTIONARY
  5
17
102
{ACAD_REACTORS
330
C
102
}
100
AcDbDictionary
280
0
281
1
  3
Standard
350
18
  0
DICTIONARY
  5
19
102
{ACAD_REACTORS
330
C
102
}
100
AcDbDictionary
281
1
  0
DICTIONARY
  5
1A
102
{ACAD_REACTORS
330
C
102
}
100
AcDbDictionary
281
1
  3
Model
350
25F
  3
Layout1
350
260
  0
ACDBPLACEHOLDER
  5
F
102
{ACAD_REACTORS
330
E
102
}
  0
MLINESTYLE
  5
18
102
{ACAD_REACTORS
330
17
102
}
100
AcDbMlineStyle
  2
STANDARD
 70
0
  3

 62
256
 51
90.0
 52
90.0
 71
2
 49
0.5
 62
256
  6
BYLAYER
 49
-0.5
 62
256
  6
BYLAYER
  0
LAYOUT
  5
25F
102
{ACAD_REACTORS
330
1A
102
}
100
AcDbPlotSettings
  1

  2
none_device
  4

  6

 40
0.0
 41
0.0
 42
0.0
 43
0.0
 44
800.0
 45
1000.0
 46
0.0
 47
0.0
 48
0.0
 49
0.0
140
0.0
141
0.0
142
1.0
143
1.0
 70
1024
 72
1
 73
0
 74
0
  7

 75
0
147
1.0
148
0.0
149
0.0
100
AcDbLayout
  1
Model
 70
0
 71
0
 10
0.0
 20
0.0
 11
800.0
 21
1000.0
 12
0.0
 22
0.0
 32
0.0
 14
0.0
 24
0.0
 34
0.0
 15
0.0
 25
0.0
 35
0.0
146
0.0
 13
0.0
 23
0.0
 33
0.0
 16
1.0
 26
0.0
 36
0.0
 17
0.0
 27
1.0
 37
0.0
 76
0
330
207
345
0
346
0
  0
LAYOUT
  5
260
102
{ACAD_REACTORS
330
1A
102
}
100
AcDbPlotSettings
  1

  2
none_device
  4

  6

 40
0.0
 41
0.0
 42
0.0
 43
0.0
 44
800.0
 45
1000.0
 46
0.0
 47
0.0
 48
0.0
 49
0.0
140
0.0
141
0.0
142
1.0
143
1.0
 70
0
 72
1
 73
0
 74
0
  7

 75
0
147
1.0
148
0.0
149
0.0
100
AcDbLayout
  1
Layout1
 70
0
 71
1
 10
0.0
 20
0.0
 11
800.0
 21
1000.0
 12
0.0
 22
0.0
 32
0.0
 14
0.0
 24
0.0
 34
0.0
 15
0.0
 25
0.0
 35
0.0
146
0.0
 13
0.0
 23
0.0
 33
0.0
 16
1.0
 26
0.0
 36
0.0
 17
0.0
 27
1.0
 37
0.0
 76
0
330
208
345
0
346
0
  0
ENDSEC
  0
EOF
