  0
SECTION
  2
HEADER
  9
$ACADVER
  1
AC1032
  9
$ACADMAINTVER
 90
      251
  9
$DWGCODEPAGE
  3
ANSI_1252
  9
$REQUIREDVERSIONS
160
                 0
  9
$INSBASE
 10
0.0
 20
0.0
 30
0.0
  9
$EXTMIN
 10
1.000000000000000E+20
 20
1.000000000000000E+20
 30
1.000000000000000E+20
  9
$EXTMAX
 10
-1.000000000000000E+20
 20
-1.000000000000000E+20
 30
-1.000000000000000E+20
  9
$LIMMIN
 10
0.0
 20
0.0
  9
$LIMMAX
 10
12.0
 20
9.0
  9
$ORTHOMODE
 70
     0
  9
$REGENMODE
 70
     1
  9
$FILLMODE
 70
     1
  9
$QTEXTMODE
 70
     0
  9
$MIRRTEXT
 70
     0
  9
$LTSCALE
 40
1.0
  9
$ATTMODE
 70
     1
  9
$TEXTSIZE
 40
0.2
  9
$TRACEWID
 40
0.05
  9
$TEXTSTYLE
  7
Standard
  9
$CLAYER
  8
0
  9
$CELTYPE
  6
ByLayer
  9
$CECOLOR
 62
   256
  9
$CELTSCALE
 40
1.0
  9
$DISPSILH
 70
     0
  9
$DIMSCALE
 40
1.0
  9
$DIMASZ
 40
0.18
  9
$DIMEXO
 40
0.0625
  9
$DIMDLI
 40
0.38
  9
$DIMRND
 40
0.0
  9
$DIMDLE
 40
0.0
  9
$DIMEXE
 40
0.18
  9
$DIMTP
 40
0.0
  9
$DIMTM
 40
0.0
  9
$DIMTXT
 40
0.18
  9
$DIMCEN
 40
0.09
  9
$DIMTSZ
 40
0.0
  9
$DIMTOL
 70
     0
  9
$DIMLIM
 70
     0
  9
$DIMTIH
 70
     1
  9
$DIMTOH
 70
     1
  9
$DIMSE1
 70
     0
  9
$DIMSE2
 70
     0
  9
$DIMTAD
 70
     0
  9
$DIMZIN
 70
     0
  9
$DIMBLK
  1

  9
$DIMASO
 70
     1
  9
$DIMSHO
 70
     1
  9
$DIMPOST
  1

  9
$DIMAPOST
  1

  9
$DIMALT
 70
     0
  9
$DIMALTD
 70
     2
  9
$DIMALTF
 40
25.4
  9
$DIMLFAC
 40
1.0
  9
$DIMTOFL
 70
     0
  9
$DIMTVP
 40
0.0
  9
$DIMTIX
 70
     0
  9
$DIMSOXD
 70
     0
  9
$DIMSAH
 70
     0
  9
$DIMBLK1
  1

  9
$DIMBLK2
  1

  9
$DIMSTYLE
  2
Standard
  9
$DIMCLRD
 70
     0
  9
$DIMCLRE
 70
     0
  9
$DIMCLRT
 70
     0
  9
$DIMTFAC
 40
1.0
  9
$DIMGAP
 40
0.09
  9
$DIMJUST
 70
     0
  9
$DIMSD1
 70
     0
  9
$DIMSD2
 70
     0
  9
$DIMTOLJ
 70
     1
  9
$DIMTZIN
 70
     0
  9
$DIMALTZ
 70
     0
  9
$DIMALTTZ
 70
     0
  9
$DIMUPT
 70
     0
  9
$DIMDEC
 70
     4
  9
$DIMTDEC
 70
     4
  9
$DIMALTU
 70
     2
  9
$DIMALTTD
 70
     2
  9
$DIMTXSTY
  7
Standard
  9
$DIMAUNIT
 70
     0
  9
$DIMADEC
 70
     0
  9
$DIMALTRND
 40
0.0
  9
$DIMAZIN
 70
     0
  9
$DIMDSEP
 70
    46
  9
$DIMATFIT
 70
     3
  9
$DIMFRAC
 70
     0
  9
$DIMLDRBLK
  1

  9
$DIMLUNIT
 70
     2
  9
$DIMLWD
 70
    -2
  9
$DIMLWE
 70
    -2
  9
$DIMTMOVE
 70
     0
  9
$DIMFXL
 40
1.0
  9
$DIMFXLON
 70
     0
  9
$DIMJOGANG
 40
0.7853981633974483
  9
$DIMTFILL
 70
     0
  9
$DIMTFILLCLR
 70
     0
  9
$DIMARCSYM
 70
     0
  9
$DIMLTYPE
  6

  9
$DIMLTEX1
  6

  9
$DIMLTEX2
  6

  9
$DIMTXTDIRECTION
 70
     0
  9
$LUNITS
 70
     2
  9
$LUPREC
 70
     4
  9
$SKETCHINC
 40
0.1
  9
$FILLETRAD
 40
0.0
  9
$AUNITS
 70
     0
  9
$AUPREC
 70
     0
  9
$MENU
  1
.
  9
$ELEVATION
 40
0.0
  9
$PELEVATION
 40
0.0
  9
$THICKNESS
 40
0.0
  9
$LIMCHECK
 70
     0
  9
$CHAMFERA
 40
0.0
  9
$CHAMFERB
 40
0.0
  9
$CHAMFERC
 40
0.0
  9
$CHAMFERD
 40
0.0
  9
$SKPOLY
 70
     0
  9
$TDCREATE
 40
2460175.310150463
  9
$TDUCREATE
 40
2460175.435150463
  9
$TDUPDATE
 40
2460175.310150463
  9
$TDUUPDATE
 40
2460175.435150463
  9
$TDINDWG
 40
0.0000000000
  9
$TDUSRTIMER
 40
0.0000000000
  9
$USRTIMER
 70
     1
  9
$ANGBASE
 50
0.0
  9
$ANGDIR
 70
     0
  9
$PDMODE
 70
     0
  9
$PDSIZE
 40
0.0
  9
$PLINEWID
 40
0.0
  9
$SPLFRAME
 70
     0
  9
$SPLINETYPE
 70
     6
  9
$SPLINESEGS
 70
     8
  9
$HANDSEED
  5
41F
  9
$SURFTAB1
 70
     6
  9
$SURFTAB2
 70
     6
  9
$SURFTYPE
 70
     6
  9
$SURFU
 70
     6
  9
$SURFV
 70
     6
  9
$UCSBASE
  2

  9
$UCSNAME
  2

  9
$UCSORG
 10
0.0
 20
0.0
 30
0.0
  9
$UCSXDIR
 10
1.0
 20
0.0
 30
0.0
  9
$UCSYDIR
 10
0.0
 20
1.0
 30
0.0
  9
$UCSORTHOREF
  2

  9
$UCSORTHOVIEW
 70
     0
  9
$UCSORGTOP
 10
0.0
 20
0.0
 30
0.0
  9
$UCSORGBOTTOM
 10
0.0
 20
0.0
 30
0.0
  9
$UCSORGLEFT
 10
0.0
 20
0.0
 30
0.0
  9
$UCSORGRIGHT
 10
0.0
 20
0.0
 30
0.0
  9
$UCSORGFRONT
 10
0.0
 20
0.0
 30
0.0
  9
$UCSORGBACK
 10
0.0
 20
0.0
 30
0.0
  9
$PUCSBASE
  2

  9
$PUCSNAME
  2

  9
$PUCSORG
 10
0.0
 20
0.0
 30
0.0
  9
$PUCSXDIR
 10
1.0
 20
0.0
 30
0.0
  9
$PUCSYDIR
 10
0.0
 20
1.0
 30
0.0
  9
$PUCSORTHOREF
  2

  9
$PUCSORTHOVIEW
 70
     0
  9
$PUCSORGTOP
 10
0.0
 20
0.0
 30
0.0
  9
$PUCSORGBOTTOM
 10
0.0
 20
0.0
 30
0.0
  9
$PUCSORGLEFT
 10
0.0
 20
0.0
 30
0.0
  9
$PUCSORGRIGHT
 10
0.0
 20
0.0
 30
0.0
  9
$PUCSORGFRONT
 10
0.0
 20
0.0
 30
0.0
  9
$PUCSORGBACK
 10
0.0
 20
0.0
 30
0.0
  9
$USERI1
 70
     0
  9
$USERI2
 70
     0
  9
$USERI3
 70
     0
  9
$USERI4
 70
     0
  9
$USERI5
 70
     0
  9
$USERR1
 40
0.0
  9
$USERR2
 40
0.0
  9
$USERR3
 40
0.0
  9
$USERR4
 40
0.0
  9
$USERR5
 40
0.0
  9
$WORLDVIEW
 70
     1
  9
$SHADEDGE
 70
     3
  9
$SHADEDIF
 70
    70
  9
$TILEMODE
 70
     1
  9
$MAXACTVP
 70
    64
  9
$PINSBASE
 10
0.0
 20
0.0
 30
0.0
  9
$PLIMCHECK
 70
     0
  9
$PEXTMIN
 10
1.000000000000000E+20
 20
1.000000000000000E+20
 30
1.000000000000000E+20
  9
$PEXTMAX
 10
-1.000000000000000E+20
 20
-1.000000000000000E+20
 30
-1.000000000000000E+20
  9
$PLIMMIN
 10
0.0
 20
0.0
  9
$PLIMMAX
 10
12.0
 20
9.0
  9
$UNITMODE
 70
     0
  9
$VISRETAIN
 70
     1
  9
$PLINEGEN
 70
     0
  9
$PSLTSCALE
 70
     1
  9
$TREEDEPTH
 70
  3020
  9
$CMLSTYLE
  2
Standard
  9
$CMLJUST
 70
     0
  9
$CMLSCALE
 40
1.0
  9
$PROXYGRAPHICS
 70
     1
  9
$MEASUREMENT
 70
     0
  9
$CELWEIGHT
370
    -1
  9
$ENDCAPS
280
     0
  9
$JOINSTYLE
280
     0
  9
$LWDISPLAY
290
     1
  9
$INSUNITS
 70
     0
  9
$HYPERLINKBASE
  1

  9
$STYLESHEET
  1

  9
$XEDIT
290
     1
  9
$CEPSNTYPE
380
     0
  9
$PSTYLEMODE
290
     1
  9
$FINGERPRINTGUID
  2
{97113652-5E1F-C648-9D39-FB7EA4C943BE}
  9
$VERSIONGUID
  2
{D70EF8DB-5BBA-7C4A-B1E3-E7E5E4FAC9BE}
  9
$EXTNAMES
290
     1
  9
$PSVPSCALE
 40
0.0
  9
$OLESTARTUP
290
     0
  9
$SORTENTS
280
   127
  9
$INDEXCTL
280
     0
  9
$HIDETEXT
280
     1
  9
$XCLIPFRAME
280
     2
  9
$HALOGAP
280
     0
  9
$OBSCOLOR
 70
   257
  9
$OBSLTYPE
280
     0
  9
$INTERSECTIONDISPLAY
280
     0
  9
$INTERSECTIONCOLOR
 70
   257
  9
$DIMASSOC
280
     2
  9
$PROJECTNAME
  1

  9
$CAMERADISPLAY
290
     0
  9
$LENSLENGTH
 40
50.0
  9
$CAMERAHEIGHT
 40
0.0
  9
$STEPSPERSEC
 40
2.0
  9
$STEPSIZE
 40
6.0
  9
$3DDWFPREC
 40
2.0
  9
$PSOLWIDTH
 40
0.25
  9
$PSOLHEIGHT
 40
4.0
  9
$LOFTANG1
 40
1.570796326794896
  9
$LOFTANG2
 40
1.570796326794896
  9
$LOFTMAG1
 40
0.0
  9
$LOFTMAG2
 40
0.0
  9
$LOFTPARAM
 70
     7
  9
$LOFTNORMALS
280
     1
  9
$LATITUDE
 40
37.795
  9
$LONGITUDE
 40
-122.394
  9
$NORTHDIRECTION
 40
0.0
  9
$TIMEZONE
 70
 -8000
  9
$LIGHTGLYPHDISPLAY
280
     1
  9
$TILEMODELIGHTSYNCH
280
     1
  9
$CMATERIAL
347
11
  9
$SOLIDHIST
280
     0
  9
$SHOWHIST
280
     1
  9
$DWFFRAME
280
     2
  9
$DGNFRAME
280
     0
  9
$REALWORLDSCALE
290
     1
  9
$INTERFERECOLOR
 62
     1
  9
$INTERFEREOBJVS
345
33
  9
$INTERFEREVPVS
346
30
  9
$CSHADOW
280
     0
  9
$SHADOWPLANELOCATION
 40
0.0
  0
ENDSEC
  0
SECTION
  2
CLASSES
  0
CLASS
  1
ACDBDICTIONARYWDFLT
  2
AcDbDictionaryWithDefault
  3
ObjectDBX Classes
 90
        0
 91
        1
280
     0
281
     0
  0
CLASS
  1
MATERIAL
  2
AcDbMaterial
  3
ObjectDBX Classes
 90
     1153
 91
        3
280
     0
281
     0
  0
CLASS
  1
VISUALSTYLE
  2
AcDbVisualStyle
  3
ObjectDBX Classes
 90
     4095
 91
       24
280
     0
281
     0
  0
CLASS
  1
SCALE
  2
AcDbScale
  3
ObjectDBX Classes
 90
     1153
 91
       17
280
     0
281
     0
  0
CLASS
  1
TABLESTYLE
  2
AcDbTableStyle
  3
ObjectDBX Classes
 90
     4095
 91
        1
280
     0
281
     0
  0
CLASS
  1
MLEADERSTYLE
  2
AcDbMLeaderStyle
  3
ACDB_MLEADERSTYLE_CLASS
 90
     4095
 91
        1
280
     0
281
     0
  0
CLASS
  1
ACDBSECTIONVIEWSTYLE
  2
AcDbSectionViewStyle
  3
ObjectDBX Classes
 90
     1025
 91
        1
280
     0
281
     0
  0
CLASS
  1
ACDBDETAILVIEWSTYLE
  2
AcDbDetailViewStyle
  3
ObjectDBX Classes
 90
     1025
 91
        1
280
     0
281
     0
  0
CLASS
  1
DICTIONARYVAR
  2
AcDbDictionaryVar
  3
ObjectDBX Classes
 90
        0
 91
        5
280
     0
281
     0
  0
CLASS
  1
CELLSTYLEMAP
  2
AcDbCellStyleMap
  3
ObjectDBX Classes
 90
     1152
 91
        1
280
     0
281
     0
  0
ENDSEC
  0
SECTION
  2
TABLES
  0
TABLE
  2
VPORT
  5
8
330
0
100
AcDbSymbolTable
 70
     1
  0
VPORT
  5
57
330
8
100
AcDbSymbolTableRecord
100
AcDbViewportTableRecord
  2
*Active
 70
     0
 10
0.0
 20
0.0
 11
1.0
 21
1.0
 12
0.0
 22
0.0
 13
0.0
 23
0.0
 14
1.0
 24
1.0
 15
0.0
 25
0.0
 16
0.0
 26
0.0
 36
1.0
 17
831.8767819008552
 27
545.8846333160395
 37
0.0
 40
1953.745094093898
 41
1.866666666666667
 42
50.0
 43
0.0
 44
0.0
 50
0.0
 51
0.0
 71
     0
 72
   100
 73
     1
 74
     1
 75
     0
 76
     0
 77
     0
 78
     0
281
     0
 65
     1
110
0.0
120
0.0
130
0.0
111
1.0
121
0.0
131
0.0
112
0.0
122
1.0
132
0.0
 79
     0
146
0.0
 60
     3
 61
     5
292
     1
282
     1
141
0.0
142
0.0
 63
   250
421
  3355443
  0
ENDTAB
  0
TABLE
  2
LTYPE
  5
5
330
0
100
AcDbSymbolTable
 70
     1
  0
LTYPE
  5
5B
330
5
100
AcDbSymbolTableRecord
100
AcDbLinetypeTableRecord
  2
ByBlock
 70
     0
  3

 72
    65
 73
     0
 40
0.0
  0
LTYPE
  5
5C
330
5
100
AcDbSymbolTableRecord
100
AcDbLinetypeTableRecord
  2
ByLayer
 70
     0
  3

 72
    65
 73
     0
 40
0.0
  0
LTYPE
  5
5D
330
5
100
AcDbSymbolTableRecord
100
AcDbLinetypeTableRecord
  2
Continuous
 70
     0
  3
Solid line
 72
    65
 73
     0
 40
0.0
  0
ENDTAB
  0
TABLE
  2
LAYER
  5
2
330
0
100
AcDbSymbolTable
 70
     2
  0
LAYER
  5
54
330
2
100
AcDbSymbolTableRecord
100
AcDbLayerTableRecord
  2
0
 70
     0
 62
     7
  6
Continuous
370
    -3
390
F
347
21
348
0
  0
LAYER
  5
78
330
2
100
AcDbSymbolTableRecord
100
AcDbLayerTableRecord
  2
Camada 1
 70
     0
 62
     7
  6
Continuous
370
     0
390
F
347
21
348
0
  0
ENDTAB
  0
TABLE
  2
STYLE
  5
3
330
0
100
AcDbSymbolTable
 70
     2
  0
STYLE
  5
55
330
3
100
AcDbSymbolTableRecord
100
AcDbTextStyleTableRecord
  2
Standard
 70
     0
 40
0.0
 41
1.0
 50
0.0
 71
     0
 42
0.2
  3
txt
  4

  0
STYLE
  5
5A
330
3
100
AcDbSymbolTableRecord
100
AcDbTextStyleTableRecord
  2
Annotative
 70
     0
 40
0.0
 41
1.0
 50
0.0
 71
     0
 42
0.2
  3
txt
  4

1001
AcadAnnotative
1000
AnnotativeData
1002
{
1070
     1
1070
     1
1002
}
  0
ENDTAB
  0
TABLE
  2
VIEW
  5
6
330
0
100
AcDbSymbolTable
 70
     0
  0
ENDTAB
  0
TABLE
  2
UCS
  5
7
330
0
100
AcDbSymbolTable
 70
     0
  0
ENDTAB
  0
TABLE
  2
APPID
  5
9
330
0
100
AcDbSymbolTable
 70
     2
  0
APPID
  5
56
330
9
100
AcDbSymbolTableRecord
100
AcDbRegAppTableRecord
  2
ACAD
 70
     0
  0
APPID
  5
5E
330
9
100
AcDbSymbolTableRecord
100
AcDbRegAppTableRecord
  2
AcadAnnotative
 70
     0
  0
ENDTAB
  0
TABLE
  2
DIMSTYLE
  5
A
330
0
100
AcDbSymbolTable
 70
     2
100
AcDbDimStyleTable
 71
     0
  0
DIMSTYLE
105
58
330
A
100
AcDbSymbolTableRecord
100
AcDbDimStyleTableRecord
  2
Standard
 70
     0
340
55
  0
DIMSTYLE
105
59
330
A
100
AcDbSymbolTableRecord
100
AcDbDimStyleTableRecord
  2
Annotative
 70
     0
340
55
1001
AcadAnnotative
1000
AnnotativeData
1002
{
1070
     1
1070
     1
1002
}
  0
ENDTAB
  0
TABLE
  2
BLOCK_RECORD
  5
1
330
0
100
AcDbSymbolTable
 70
     1
  0
BLOCK_RECORD
  5
70
330
1
100
AcDbSymbolTableRecord
100
AcDbBlockTableRecord
  2
*Model_Space
340
73
 70
     0
280
     1
281
     0
  0
BLOCK_RECORD
  5
6C
330
1
100
AcDbSymbolTableRecord
100
AcDbBlockTableRecord
  2
*Paper_Space
340
6F
 70
     0
280
     1
281
     0
  0
BLOCK_RECORD
  5
74
330
1
100
AcDbSymbolTableRecord
100
AcDbBlockTableRecord
  2
*Paper_Space0
340
77
 70
     0
280
     1
281
     0
  0
ENDTAB
  0
ENDSEC
  0
SECTION
  2
BLOCKS
  0
BLOCK
  5
71
330
70
100
AcDbEntity
  8
0
100
AcDbBlockBegin
  2
*Model_Space
 70
     0
 10
0.0
 20
0.0
 30
0.0
  3
*Model_Space
  1

  0
ENDBLK
  5
72
330
70
100
AcDbEntity
  8
0
100
AcDbBlockEnd
  0
BLOCK
  5
6D
330
6C
100
AcDbEntity
 67
     1
  8
0
100
AcDbBlockBegin
  2
*Paper_Space
 70
     0
 10
0.0
 20
0.0
 30
0.0
  3
*Paper_Space
  1

  0
ENDBLK
  5
6E
330
6C
100
AcDbEntity
 67
     1
  8
0
100
AcDbBlockEnd
  0
BLOCK
  5
75
330
74
100
AcDbEntity
 67
     1
  8
0
100
AcDbBlockBegin
  2
*Paper_Space0
 70
     0
 10
0.0
 20
0.0
 30
0.0
  3
*Paper_Space0
  1

  0
ENDBLK
  5
76
330
74
100
AcDbEntity
 67
     1
  8
0
100
AcDbBlockEnd
  0
ENDSEC
  0
SECTION
  2
ENTITIES
  0
SPLINE
  5
79
330
70
100
AcDbEntity
  8
Camada 1
 62
    18
420
        0
370
    70
100
AcDbSpline
210
0.0
220
0.0
230
1.0
 70
     9
 71
     3
 72
    17
 73
    13
 74
     0
 42
0.0000000001
 43
0.0000000001
 40
0.0
 40
0.0
 40
0.0
 40
0.0
 40
1.0
 40
1.0
 40
1.0
 40
2.0
 40
2.0
 40
2.0
 40
3.0
 40
3.0
 40
3.0
 40
4.0
 40
4.0
 40
4.0
 40
4.0
 10
461.1357767597964
 20
369.5543120435614
 30
0.0
 10
461.1357767597964
 20
415.8308146290782
 30
0.0
 10
423.6229279179842
 20
453.343600169821
 30
0.0
 10
377.351616020449
 20
453.343600169821
 30
0.0
 10
331.0751134349303
 20
453.343600169821
 30
0.0
 10
293.5622645931162
 20
415.8308146290782
 30
0.0
 10
293.5622645931162
 20
369.5543120435614
 30
0.0
 10
293.5622645931162
 20
323.2829368449529
 30
0.0
 10
331.0751134349303
 20
285.770151304212
 30
0.0
 10
377.351616020449
 20
285.770151304212
 30
0.0
 10
423.6229279179842
 20
285.770151304212
 30
0.0
 10
461.1357767597964
 20
323.2829368449529
 30
0.0
 10
461.1357767597964
 20
369.5543120435614
 30
0.0
  0
SPLINE
  5
7A
330
70
100
AcDbEntity
  8
Camada 1
 62
    18
420
        0
370
    70
100
AcDbSpline
210
0.0
220
0.0
230
1.0
 70
     8
 71
     3
 72
     8
 73
     4
 74
     0
 42
0.0000000001
 43
0.0000000001
 40
0.0
 40
0.0
 40
0.0
 40
0.0
 40
1.0
 40
1.0
 40
1.0
 40
1.0
 10
715.5320277696464
 20
581.2262634776434
 30
0.0
 10
715.5320277696464
 20
586.0955719122939
 30
0.0
 10
711.5858388818469
 20
590.0470147891483
 30
0.0
 10
706.7112764581398
 20
590.0470147891483
 30
0.0
  0
SPLINE
  5
7B
330
70
100
AcDbEntity
  8
Camada 1
 62
    18
420
        0
370
    70
100
AcDbSpline
210
0.0
220
0.0
230
1.0
 70
     8
 71
     3
 72
     8
 73
     4
 74
     0
 42
0.0000000001
 43
0.0000000001
 40
0.0
 40
0.0
 40
0.0
 40
0.0
 40
1.0
 40
1.0
 40
1.0
 40
1.0
 10
706.7112764581398
 20
-86.12618432901944
 30
0.0
 10
711.5858388818469
 20
-86.12618432901944
 30
0.0
 10
715.5320277696464
 20
-82.17733679615776
 30
0.0
 10
715.5320277696464
 20
-77.30647748521732
 30
0.0
  0
SPLINE
  5
7C
330
70
100
AcDbEntity
  8
Camada 1
 62
    18
420
        0
370
    70
100
AcDbSpline
210
0.0
220
0.0
230
1.0
 70
     8
 71
     3
 72
     8
 73
     4
 74
     0
 42
0.0000000001
 43
0.0000000001
 40
0.0
 40
0.0
 40
0.0
 40
0.0
 40
1.0
 40
1.0
 40
1.0
 40
1.0
 10
-592.7137156617354
 20
-77.30647748521732
 30
0.0
 10
-592.7137156617354
 20
-82.17733679615776
 30
0.0
 10
-588.7648681288728
 20
-86.12618432901944
 30
0.0
 10
-583.8940088179342
 20
-86.12618432901944
 30
0.0
  0
SPLINE
  5
7D
330
70
100
AcDbEntity
  8
Camada 1
 62
    18
420
        0
370
    70
100
AcDbSpline
210
0.0
220
0.0
230
1.0
 70
     8
 71
     3
 72
     8
 73
     4
 74
     0
 42
0.0000000001
 43
0.0000000001
 40
0.0
 40
0.0
 40
0.0
 40
0.0
 40
1.0
 40
1.0
 40
1.0
 40
1.0
 10
-583.8940088179342
 20
590.0470147891483
 30
0.0
 10
-588.7648681288728
 20
590.0470147891483
 30
0.0
 10
-592.7137156617354
 20
586.0955719122939
 30
0.0
 10
-592.7137156617354
 20
581.2262634776434
 30
0.0
  0
SPLINE
  5
7E
330
70
100
AcDbEntity
  8
Camada 1
 62
    18
420
        0
370
    70
100
AcDbSpline
210
0.0
220
0.0
230
1.0
 70
     8
 71
     3
 72
     8
 73
     4
 74
     0
 42
0.0000000001
 43
0.0000000001
 40
0.0
 40
0.0
 40
0.0
 40
0.0
 40
1.0
 40
1.0
 40
1.0
 40
1.0
 10
-564.1419692963772
 20
-25.85834054063344
 30
0.0
 10
-564.1419692963772
 20
-43.36346100196897
 30
0.0
 10
-549.9515145685381
 20
-57.55443796366126
 30
0.0
 10
-532.4464099324687
 20
-57.55443796366126
 30
0.0
  0
SPLINE
  5
7F
330
70
100
AcDbEntity
  8
Camada 1
 62
    18
420
        0
370
    70
100
AcDbSpline
210
0.0
220
0.0
230
1.0
 70
     8
 71
     3
 72
     8
 73
     4
 74
     0
 42
0.0000000001
 43
0.0000000001
 40
0.0
 40
0.0
 40
0.0
 40
0.0
 40
1.0
 40
1.0
 40
1.0
 40
1.0
 10
-532.4464099324687
 20
561.4742397813533
 30
0.0
 10
-549.9515145685381
 20
561.4742397813533
 30
0.0
 10
-564.1419692963772
 20
547.2863803975051
 30
0.0
 10
-564.1419692963772
 20
529.7797090598814
 30
0.0
  0
SPLINE
  5
80
330
70
100
AcDbEntity
  8
Camada 1
 62
    18
420
        0
370
    70
100
AcDbSpline
210
0.0
220
0.0
230
1.0
 70
     8
 71
     3
 72
     8
 73
     4
 74
     0
 42
0.0000000001
 43
0.0000000001
 40
0.0
 40
0.0
 40
0.0
 40
0.0
 40
1.0
 40
1.0
 40
1.0
 40
1.0
 10
686.9593160629246
 20
529.7797090598814
 30
0.0
 10
686.9593160629246
 20
547.2863803975051
 30
0.0
 10
672.7713933780032
 20
561.4742397813533
 30
0.0
 10
655.2647220403796
 20
561.4742397813533
 30
0.0
  0
SPLINE
  5
81
330
70
100
AcDbEntity
  8
Camada 1
 62
    18
420
        0
370
    70
100
AcDbSpline
210
0.0
220
0.0
230
1.0
 70
     8
 71
     3
 72
     8
 73
     4
 74
     0
 42
0.0000000001
 43
0.0000000001
 40
0.0
 40
0.0
 40
0.0
 40
0.0
 40
1.0
 40
1.0
 40
1.0
 40
1.0
 10
655.2647220403796
 20
-57.55443796366126
 30
0.0
 10
672.7713933780032
 20
-57.55443796366126
 30
0.0
 10
686.9593160629246
 20
-43.36346100196897
 30
0.0
 10
686.9593160629246
 20
-25.85834054063344
 30
0.0
  0
SPLINE
  5
82
330
70
100
AcDbEntity
  8
Camada 1
 62
    18
420
        0
370
    70
100
AcDbSpline
210
0.0
220
0.0
230
1.0
 70
     8
 71
     3
 72
     8
 73
     4
 74
     0
 42
0.0000000001
 43
0.0000000001
 40
0.0
 40
0.0
 40
0.0
 40
0.0
 40
1.0
 40
1.0
 40
1.0
 40
1.0
 10
39.89714097585784
 20
524.0184885073412
 30
0.0
 10
39.81415326921888
 20
536.4639858581995
 30
0.0
 10
29.75403025039486
 20
546.5396176398972
 30
0.0
 10
17.30853289953756
 20
546.6433680984646
 30
0.0
  0
SPLINE
  5
83
330
70
100
AcDbEntity
  8
Camada 1
 62
    18
420
        0
370
    70
100
AcDbSpline
210
0.0
220
0.0
230
1.0
 70
     8
 71
     3
 72
     8
 73
     4
 74
     0
 42
0.0000000001
 43
0.0000000001
 40
0.0
 40
0.0
 40
0.0
 40
0.0
 40
1.0
 40
1.0
 40
1.0
 40
1.0
 10
17.30853289953756
 20
546.6433680984646
 30
0.0
 10
-164.1571593392336
 20
548.1731018274112
 30
0.0
 10
-345.6348154807929
 20
548.1731018274112
 30
0.0
 10
-527.1010457786851
 20
546.6433680984646
 30
0.0
  0
SPLINE
  5
84
330
70
100
AcDbEntity
  8
Camada 1
 62
    18
420
        0
370
    70
100
AcDbSpline
210
0.0
220
0.0
230
1.0
 70
     8
 71
     3
 72
     8
 73
     4
 74
     0
 42
0.0000000001
 43
0.0000000001
 40
0.0
 40
0.0
 40
0.0
 40
0.0
 40
1.0
 40
1.0
 40
1.0
 40
1.0
 10
-527.1010457786851
 20
546.6433680984646
 30
0.0
 10
-539.5377442804019
 20
546.5396176398972
 30
0.0
 10
-549.5921385521232
 20
536.4794946210714
 30
0.0
 10
-549.6922333737284
 20
524.0443786461801
 30
0.0
  0
SPLINE
  5
85
330
70
100
AcDbEntity
  8
Camada 1
 62
    18
420
        0
370
    70
100
AcDbSpline
210
0.0
220
0.0
230
1.0
 70
     8
 71
     3
 72
     8
 73
     4
 74
     0
 42
0.0000000001
 43
0.0000000001
 40
0.0
 40
0.0
 40
0.0
 40
0.0
 40
1.0
 40
1.0
 40
1.0
 40
1.0
 10
-549.6896380297376
 20
524.0443786461801
 30
0.0
 10
-551.149392422536
 20
342.6564834260662
 30
0.0
 10
-551.149392422536
 20
161.262289749191
 30
0.0
 10
-549.6896380297376
 20
-20.12459265375583
 30
0.0
  0
SPLINE
  5
86
330
70
100
AcDbEntity
  8
Camada 1
 62
    18
420
        0
370
    70
100
AcDbSpline
210
0.0
220
0.0
230
1.0
 70
     8
 71
     3
 72
     8
 73
     4
 74
     0
 42
0.0000000001
 43
0.0000000001
 40
0.0
 40
0.0
 40
0.0
 40
0.0
 40
1.0
 40
1.0
 40
1.0
 40
1.0
 10
-549.6922333737284
 20
-20.12459265375583
 30
0.0
 10
-549.5926607859756
 20
-32.55765134377725
 30
0.0
 10
-539.5429349683836
 20
-42.6146726100269
 30
0.0
 10
-527.1098762783622
 20
-42.72408851462387
 30
0.0
  0
SPLINE
  5
87
330
70
100
AcDbEntity
  8
Camada 1
 62
    18
420
        0
370
    70
100
AcDbSpline
210
0.0
220
0.0
230
1.0
 70
     8
 71
     3
 72
     8
 73
     4
 74
     0
 42
0.0000000001
 43
0.0000000001
 40
0.0
 40
0.0
 40
0.0
 40
0.0
 40
1.0
 40
1.0
 40
1.0
 40
1.0
 10
-527.1098762783622
 20
-42.72563939091014
 30
0.0
 10
-345.6384552924883
 20
-44.32592216566263
 30
0.0
 10
-164.1571593392336
 20
-44.32592216566263
 30
0.0
 10
17.31372358752014
 20
-42.72563939091014
 30
0.0
  0
SPLINE
  5
88
330
70
100
AcDbEntity
  8
Camada 1
 62
    18
420
        0
370
    70
100
AcDbSpline
210
0.0
220
0.0
230
1.0
 70
     8
 71
     3
 72
     8
 73
     4
 74
     0
 42
0.0000000001
 43
0.0000000001
 40
0.0
 40
0.0
 40
0.0
 40
0.0
 40
1.0
 40
1.0
 40
1.0
 40
1.0
 10
17.31372358752014
 20
-42.72408851462387
 30
0.0
 10
29.75922093837653
 20
-42.6146726100269
 30
0.0
 10
39.81415326921888
 20
-32.54106646266337
 30
0.0
 10
39.89714097585784
 20
-20.09711998809326
 30
0.0
  0
SPLINE
  5
89
330
70
100
AcDbEntity
  8
Camada 1
 62
    18
420
        0
370
    70
100
AcDbSpline
210
0.0
220
0.0
230
1.0
 70
     8
 71
     3
 72
     8
 73
     4
 74
     0
 42
0.0000000001
 43
0.0000000001
 40
0.0
 40
0.0
 40
0.0
 40
0.0
 40
1.0
 40
1.0
 40
1.0
 40
1.0
 10
39.89714097585784
 20
-20.09711998809326
 30
0.0
 10
41.13651268317698
 20
161.2721330660351
 30
0.0
 10
41.13651268317698
 20
342.646102050101
 30
0.0
 10
39.89714097585784
 20
524.0184885073412
 30
0.0
  0
SPLINE
  5
8A
330
70
100
AcDbEntity
  8
Camada 1
 62
    18
420
        0
370
    70
100
AcDbSpline
210
0.0
220
0.0
230
1.0
 70
     8
 71
     3
 72
     8
 73
     4
 74
     0
 42
0.0000000001
 43
0.0000000001
 40
0.0
 40
0.0
 40
0.0
 40
0.0
 40
1.0
 40
1.0
 40
1.0
 40
1.0
 10
82.92224725029337
 20
-20.09711998809326
 30
0.0
 10
83.00523495693232
 20
-32.54106646266337
 30
0.0
 10
93.06016728777285
 20
-42.6146726100269
 30
0.0
 10
105.505664638631
 20
-42.72408851462387
 30
0.0
  0
SPLINE
  5
8B
330
70
100
AcDbEntity
  8
Camada 1
 62
    18
420
        0
370
    70
100
AcDbSpline
210
0.0
220
0.0
230
1.0
 70
     8
 71
     3
 72
     8
 73
     4
 74
     0
 42
0.0000000001
 43
0.0000000001
 40
0.0
 40
0.0
 40
0.0
 40
0.0
 40
1.0
 40
1.0
 40
1.0
 40
1.0
 10
105.505664638631
 20
-42.72563939091014
 30
0.0
 10
286.9765475653839
 20
-44.32592216566263
 30
0.0
 10
468.4578118681019
 20
-44.32592216566263
 30
0.0
 10
649.9286947948548
 20
-42.72563939091014
 30
0.0
  0
SPLINE
  5
8C
330
70
100
AcDbEntity
  8
Camada 1
 62
    18
420
        0
370
    70
100
AcDbSpline
210
0.0
220
0.0
230
1.0
 70
     8
 71
     3
 72
     8
 73
     4
 74
     0
 42
0.0000000001
 43
0.0000000001
 40
0.0
 40
0.0
 40
0.0
 40
0.0
 40
1.0
 40
1.0
 40
1.0
 40
1.0
 10
649.9286947948548
 20
-42.72408851462387
 30
0.0
 10
662.3638107697479
 20
-42.6146726100269
 30
0.0
 10
672.4136157136817
 20
-32.55765134377725
 30
0.0
 10
672.5121121831944
 20
-20.12459265375583
 30
0.0
  0
SPLINE
  5
8D
330
70
100
AcDbEntity
  8
Camada 1
 62
    18
420
        0
370
    70
100
AcDbSpline
210
0.0
220
0.0
230
1.0
 70
     8
 71
     3
 72
     8
 73
     4
 74
     0
 42
0.0000000001
 43
0.0000000001
 40
0.0
 40
0.0
 40
0.0
 40
0.0
 40
1.0
 40
1.0
 40
1.0
 40
1.0
 10
672.5121121831944
 20
-20.12459265375583
 30
0.0
 10
673.9693028825386
 20
161.262289749191
 30
0.0
 10
673.9693028825386
 20
342.6564834260662
 30
0.0
 10
672.5121121831944
 20
524.0443786461801
 30
0.0
  0
SPLINE
  5
8E
330
70
100
AcDbEntity
  8
Camada 1
 62
    18
420
        0
370
    70
100
AcDbSpline
210
0.0
220
0.0
230
1.0
 70
     8
 71
     3
 72
     8
 73
     4
 74
     0
 42
0.0000000001
 43
0.0000000001
 40
0.0
 40
0.0
 40
0.0
 40
0.0
 40
1.0
 40
1.0
 40
1.0
 40
1.0
 10
672.5121121831944
 20
524.0443786461801
 30
0.0
 10
672.4136157136817
 20
536.4794946210714
 30
0.0
 10
662.3587466839126
 20
546.5396176398972
 30
0.0
 10
649.9183134188915
 20
546.6433680984646
 30
0.0
  0
SPLINE
  5
8F
330
70
100
AcDbEntity
  8
Camada 1
 62
    18
420
        0
370
    70
100
AcDbSpline
210
0.0
220
0.0
230
1.0
 70
     8
 71
     3
 72
     8
 73
     4
 74
     0
 42
0.0000000001
 43
0.0000000001
 40
0.0
 40
0.0
 40
0.0
 40
0.0
 40
1.0
 40
1.0
 40
1.0
 40
1.0
 10
649.9183134188915
 20
546.6433680984646
 30
0.0
 10
468.4526211801203
 20
548.1731018274112
 30
0.0
 10
286.9817382533674
 20
548.1731018274112
 30
0.0
 10
105.5108553266127
 20
546.6433680984646
 30
0.0
  0
SPLINE
  5
90
330
70
100
AcDbEntity
  8
Camada 1
 62
    18
420
        0
370
    70
100
AcDbSpline
210
0.0
220
0.0
230
1.0
 70
     8
 71
     3
 72
     8
 73
     4
 74
     0
 42
0.0000000001
 43
0.0000000001
 40
0.0
 40
0.0
 40
0.0
 40
0.0
 40
1.0
 40
1.0
 40
1.0
 40
1.0
 10
105.5108553266127
 20
546.6433680984646
 30
0.0
 10
93.06535797575453
 20
546.5396176398972
 30
0.0
 10
83.00523495693232
 20
536.4639858581995
 30
0.0
 10
82.92224725029337
 20
524.0184885073412
 30
0.0
  0
SPLINE
  5
91
330
70
100
AcDbEntity
  8
Camada 1
 62
    18
420
        0
370
    70
100
AcDbSpline
210
0.0
220
0.0
230
1.0
 70
     8
 71
     3
 72
     8
 73
     4
 74
     0
 42
0.0000000001
 43
0.0000000001
 40
0.0
 40
0.0
 40
0.0
 40
0.0
 40
1.0
 40
1.0
 40
1.0
 40
1.0
 10
82.92224725029337
 20
524.0184885073412
 30
0.0
 10
81.68287554297421
 20
342.646102050101
 30
0.0
 10
81.68287554297421
 20
161.2721330660351
 30
0.0
 10
82.92224725029337
 20
-20.09711998809326
 30
0.0
  0
SPLINE
  5
92
330
70
100
AcDbEntity
  8
Camada 1
 62
    18
420
        0
370
    70
100
AcDbSpline
210
0.0
220
0.0
230
1.0
 70
     9
 71
     3
 72
    17
 73
    13
 74
     0
 42
0.0000000001
 43
0.0000000001
 40
0.0
 40
0.0
 40
0.0
 40
0.0
 40
1.0
 40
1.0
 40
1.0
 40
2.0
 40
2.0
 40
2.0
 40
3.0
 40
3.0
 40
3.0
 40
4.0
 40
4.0
 40
4.0
 40
4.0
 10
-170.7428763669668
 20
369.5543120435614
 30
0.0
 10
-170.7428763669668
 20
415.8308146290782
 30
0.0
 10
-208.2557252087799
 20
453.343600169821
 30
0.0
 10
-254.5322277942978
 20
453.343600169821
 30
0.0
 10
-300.8040461004166
 20
453.343600169821
 30
0.0
 10
-338.3163568831096
 20
415.8308146290782
 30
0.0
 10
-338.3163568831096
 20
369.5543120435614
 30
0.0
 10
-338.3163568831096
 20
323.2829368449529
 30
0.0
 10
-300.8040461004166
 20
285.770151304212
 30
0.0
 10
-254.5322277942978
 20
285.770151304212
 30
0.0
 10
-208.2557252087799
 20
285.770151304212
 30
0.0
 10
-170.7428763669668
 20
323.2829368449529
 30
0.0
 10
-170.7428763669668
 20
369.5543120435614
 30
0.0
  0
SPLINE
  5
93
330
70
100
AcDbEntity
  8
Camada 1
 62
    18
420
        0
370
    70
100
AcDbSpline
210
0.0
220
0.0
230
1.0
 70
     8
 71
     3
 72
     8
 73
     4
 74
     0
 42
0.0000000001
 43
0.0000000001
 40
0.0
 40
0.0
 40
0.0
 40
0.0
 40
1.0
 40
1.0
 40
1.0
 40
1.0
 10
692.653120972769
 20
1260.340810251577
 30
0.0
 10
691.6471403214236
 20
1260.340810251577
 30
0.0
 10
690.7706736653381
 20
1259.661463136661
 30
0.0
 10
690.5217738464907
 20
1258.686500011061
 30
0.0
  0
SPLINE
  5
94
330
70
100
AcDbEntity
  8
Camada 1
 62
    18
420
        0
370
    70
100
AcDbSpline
210
0.0
220
0.0
230
1.0
 70
     8
 71
     3
 72
     8
 73
     4
 74
     0
 42
0.0000000001
 43
0.0000000001
 40
0.0
 40
0.0
 40
0.0
 40
0.0
 40
1.0
 40
1.0
 40
1.0
 40
1.0
 10
-567.7003441607385
 20
1258.686500011061
 30
0.0
 10
-567.9513329149913
 20
1259.661463136661
 30
0.0
 10
-568.8297777296083
 20
1260.340810251577
 30
0.0
 10
-569.835267797639
 20
1260.340810251577
 30
0.0
  0
SPLINE
  5
95
330
70
100
AcDbEntity
  8
Camada 1
 62
    18
420
        0
370
    70
100
AcDbSpline
210
0.0
220
0.0
230
1.0
 70
     8
 71
     3
 72
     8
 73
     4
 74
     0
 42
0.0000000001
 43
0.0000000001
 40
0.0
 40
0.0
 40
0.0
 40
0.0
 40
1.0
 40
1.0
 40
1.0
 40
1.0
 10
-567.7003441607385
 20
1258.686500011061
 30
0.0
 10
-567.2808321250204
 20
1257.063460500583
 30
0.0
 10
-565.8174379205266
 20
1255.933029939816
 30
0.0
 10
-564.1419692963772
 20
1255.933029939816
 30
0.0
  0
SPLINE
  5
96
330
70
100
AcDbEntity
  8
Camada 1
 62
    18
420
        0
370
    70
100
AcDbSpline
210
0.0
220
0.0
230
1.0
 70
     8
 71
     3
 72
     8
 73
     4
 74
     0
 42
0.0000000001
 43
0.0000000001
 40
0.0
 40
0.0
 40
0.0
 40
0.0
 40
1.0
 40
1.0
 40
1.0
 40
1.0
 10
686.9593160629246
 20
1255.933029939816
 30
0.0
 10
688.6394531412043
 20
1255.933029939816
 30
0.0
 10
690.1018345285301
 20
1257.063460500583
 30
0.0
 10
690.5217738464907
 20
1258.686500011061
 30
0.0
  0
SPLINE
  5
97
330
70
100
AcDbEntity
  8
Camada 1
 62
    18
420
        0
370
    70
100
AcDbSpline
210
0.0
220
0.0
230
1.0
 70
     8
 71
     3
 72
     8
 73
     4
 74
     0
 42
0.0000000001
 43
0.0000000001
 40
0.0
 40
0.0
 40
0.0
 40
0.0
 40
1.0
 40
1.0
 40
1.0
 40
1.0
 10
42.10622181972212
 20
1254.460267176524
 30
0.0
 10
41.45282814471648
 20
1254.460267176524
 30
0.0
 10
40.92907506711526
 20
1253.936514098923
 30
0.0
 10
40.92907506711526
 20
1253.283120423917
 30
0.0
  0
SPLINE
  5
98
330
70
100
AcDbEntity
  8
Camada 1
 62
    18
420
        0
370
    70
100
AcDbSpline
210
0.0
220
0.0
230
1.0
 70
     8
 71
     3
 72
     8
 73
     4
 74
     0
 42
0.0000000001
 43
0.0000000001
 40
0.0
 40
0.0
 40
0.0
 40
0.0
 40
1.0
 40
1.0
 40
1.0
 40
1.0
 10
-549.9878019086072
 20
1253.283120423917
 30
0.0
 10
-549.9878019086072
 20
1253.936514098923
 30
0.0
 10
-550.5141503301993
 20
1254.460267176524
 30
0.0
 10
-551.1639041935104
 20
1254.460267176524
 30
0.0
  0
SPLINE
  5
99
330
70
100
AcDbEntity
  8
Camada 1
 62
    18
420
        0
370
    70
100
AcDbSpline
210
0.0
220
0.0
230
1.0
 70
     8
 71
     3
 72
     8
 73
     4
 74
     0
 42
0.0000000001
 43
0.0000000001
 40
0.0
 40
0.0
 40
0.0
 40
0.0
 40
1.0
 40
1.0
 40
1.0
 40
1.0
 10
81.89031315903594
 20
1253.283120423917
 30
0.0
 10
81.89031315903594
 20
1253.936514098923
 30
0.0
 10
81.36656008143473
 20
1254.460267176524
 30
0.0
 10
80.71316640642908
 20
1254.460267176524
 30
0.0
  0
SPLINE
  5
9A
330
70
100
AcDbEntity
  8
Camada 1
 62
    18
420
        0
370
    70
100
AcDbSpline
210
0.0
220
0.0
230
1.0
 70
     8
 71
     3
 72
     8
 73
     4
 74
     0
 42
0.0000000001
 43
0.0000000001
 40
0.0
 40
0.0
 40
0.0
 40
0.0
 40
1.0
 40
1.0
 40
1.0
 40
1.0
 10
673.9848749464854
 20
1254.460267176524
 30
0.0
 10
673.3366719594614
 20
1254.460267176524
 30
0.0
 10
672.8077281938767
 20
1253.936514098923
 30
0.0
 10
672.8077281938767
 20
1253.283120423917
 30
0.0
  0
LINE
  5
9B
330
70
100
AcDbEntity
  8
Camada 1
 62
    18
420
        0
370
    70
100
AcDbLine
 10
81.89031315903594
 20
983.9936461743219
 30
0.0
 11
81.89031315903594
 21
1253.283120423917
 31
0.0
  0
LINE
  5
9C
330
70
100
AcDbEntity
  8
Camada 1
 62
    18
420
        0
370
    70
100
AcDbLine
 10
672.8077281938767
 20
983.9936461743219
 30
0.0
 11
672.8077281938767
 21
1253.283120423917
 31
0.0
  0
LINE
  5
9D
330
70
100
AcDbEntity
  8
Camada 1
 62
    18
420
        0
370
    70
100
AcDbLine
 10
105.4122955560269
 20
960.471727078403
 30
0.0
 11
649.290873183796
 21
960.471727078403
 31
0.0
  0
LWPOLYLINE
  5
9E
330
70
100
AcDbEntity
  8
Camada 1
 62
    18
420
        0
370
    70
100
AcDbPolyline
 90
       31
 70
     0
 43
0.0
 10
649.290873183796
 20
960.471727078403
 10
651.5674329714256
 20
960.5857956118615
 10
653.8179127169987
 20
960.9124291482912
 10
654.3728099224917
 20
961.0316883697324
 10
654.9277071279848
 20
961.1613289671385
 10
655.4774136454962
 20
961.3013509405064
 10
656.0269935608612
 20
961.456944977821
 10
657.1108345319371
 20
961.8147226421442
 10
658.179103439068
 20
962.2192164983044
 10
659.2266095942704
 20
962.6756172342838
 10
660.2533529975444
 20
963.1837982479392
 10
661.2541429609081
 20
963.7437595392693
 10
662.2239153985264
 20
964.3505636245818
 10
663.1676077940883
 20
965.0039572995883
 10
664.0802826639028
 20
965.7091312522679
 10
664.9566227178438
 20
966.4507666229692
 10
665.7967545580559
 20
967.2440556691981
 10
666.6005515823963
 20
968.0738061334459
 10
667.3628231028779
 20
968.9449554994062
 10
668.0835691195043
 20
969.8524396812381
 10
668.7577255464384
 20
970.7962586789454
 10
669.9608257389554
 20
972.7823931438724
 10
670.9719970782826
 20
974.8774054542773
 10
671.7654127266578
 20
977.0709142341948
 10
672.3410726840793
 20
979.3369660437138
 10
672.4499505295552
 20
979.9126260011362
 10
672.5432563110862
 20
980.4933500443931
 10
672.626180716652
 20
981.0690100018145
 10
672.6884689724374
 20
981.6549247330531
 10
672.7765840659849
 20
982.8216901096967
 10
672.8077281938767
 20
983.9936461743219
  0
LWPOLYLINE
  5
9F
330
70
100
AcDbEntity
  8
Camada 1
 62
    18
420
        0
370
    70
100
AcDbPolyline
 90
       15
 70
     0
 43
0.0
 10
81.89031315903594
 20
983.9650505991485
 10
81.99925430558687
 20
982.0827298938612
 10
82.2273913725021
 20
980.2210453383558
 10
82.53332545807825
 20
978.5512896360414
 10
82.9326286262567
 20
976.9125514594707
 10
83.36307592232698
 20
975.517649015911
 10
83.85568487203636
 20
974.1746534521707
 10
84.33278505887029
 20
973.0544776652205
 10
84.86166552338181
 20
971.9862087580896
 10
85.78991245714314
 20
970.3943133755055
 10
86.83741861234556
 20
968.8955971723045
 10
87.67229646350278
 20
967.8792351449938
 10
88.61611546121094
 20
966.8992079335584
 10
89.01535532831621
 20
966.5413036670907
 10
89.43023056044149
 20
966.1887166907499
  0
LWPOLYLINE
  5
A0
330
70
100
AcDbEntity
  8
Camada 1
 62
    18
420
        0
370
    70
100
AcDbPolyline
 90
        9
 70
     0
 43
0.0
 10
89.43023056044149
 20
966.1887166907499
 10
90.06176621470695
 20
965.6381735764197
 10
90.71541474604419
 20
965.1141237340253
 10
92.39950982408663
 20
963.9654788513571
 10
94.19991728304557
 20
962.9808337837339
 10
96.66506352361103
 20
961.9274354445561
 10
99.22447689149885
 20
961.1546073169284
 10
102.2713202835803
 20
960.61996016576
 10
105.4122955560269
 20
960.471727078403
  0
LINE
  5
A1
330
70
100
AcDbEntity
  8
Camada 1
 62
    18
420
        0
370
    70
100
AcDbLine
 10
656.0633283767347
 20
1255.933029939816
 30
0.0
 11
652.4697264652768
 21
1255.933029939816
 31
0.0
  0
LINE
  5
A2
330
70
100
AcDbEntity
  8
Camada 1
 62
    18
420
        0
370
    70
100
AcDbLine
 10
690.4492308168901
 20
1255.933029939816
 30
0.0
 11
686.954125374943
 21
1255.933029939816
 31
0.0
  0
LINE
  5
A3
330
70
100
AcDbEntity
  8
Camada 1
 62
    18
420
        0
370
    70
100
AcDbLine
 10
690.4492308168901
 20
1254.460267176524
 30
0.0
 11
652.4697264652768
 21
1254.460267176524
 31
0.0
  0
LINE
  5
A4
330
70
100
AcDbEntity
  8
Camada 1
 62
    18
420
        0
370
    70
100
AcDbLine
 10
690.4492308168901
 20
1254.460267176524
 30
0.0
 11
690.4492308168901
 21
1255.933029939816
 31
0.0
  0
LINE
  5
A5
330
70
100
AcDbEntity
  8
Camada 1
 62
    18
420
        0
370
    70
100
AcDbLine
 10
652.4697264652768
 20
1255.933029939816
 30
0.0
 11
102.2283148876377
 21
1255.933029939816
 31
0.0
  0
LINE
  5
A6
330
70
100
AcDbEntity
  8
Camada 1
 62
    18
420
        0
370
    70
100
AcDbLine
 10
652.4697264652768
 20
1254.460267176524
 30
0.0
 11
102.2283148876377
 21
1254.460267176524
 31
0.0
  0
LINE
  5
A7
330
70
100
AcDbEntity
  8
Camada 1
 62
    18
420
        0
370
    70
100
AcDbLine
 10
652.4697264652768
 20
1254.460267176524
 30
0.0
 11
652.4697264652768
 21
1255.933029939816
 31
0.0
  0
LINE
  5
A8
330
70
100
AcDbEntity
  8
Camada 1
 62
    18
420
        0
370
    70
100
AcDbLine
 10
102.2283148876377
 20
1255.933029939816
 30
0.0
 11
98.64509435214314
 21
1255.933029939816
 31
0.0
  0
LINE
  5
A9
330
70
100
AcDbEntity
  8
Camada 1
 62
    18
420
        0
370
    70
100
AcDbLine
 10
102.2283148876377
 20
1254.460267176524
 30
0.0
 11
64.25400122400787
 21
1254.460267176524
 31
0.0
  0
LINE
  5
AA
330
70
100
AcDbEntity
  8
Camada 1
 62
    18
420
        0
370
    70
100
AcDbLine
 10
102.2283148876377
 20
1254.460267176524
 30
0.0
 11
102.2283148876377
 21
1255.933029939816
 31
0.0
  0
LINE
  5
AB
330
70
100
AcDbEntity
  8
Camada 1
 62
    18
420
        0
370
    70
100
AcDbLine
 10
64.25400122400787
 20
1254.460267176524
 30
0.0
 11
64.25400122400787
 21
1255.933029939816
 31
0.0
  0
LINE
  5
AC
330
70
100
AcDbEntity
  8
Camada 1
 62
    18
420
        0
370
    70
100
AcDbLine
 10
-549.9878019086072
 20
983.9936461743219
 30
0.0
 11
-549.9878019086072
 21
1253.283120423917
 31
0.0
  0
LINE
  5
AD
330
70
100
AcDbEntity
  8
Camada 1
 62
    18
420
        0
370
    70
100
AcDbLine
 10
40.92907506711526
 20
983.9936461743219
 30
0.0
 11
40.92907506711526
 21
1253.283120423917
 31
0.0
  0
LINE
  5
AE
330
70
100
AcDbEntity
  8
Camada 1
 62
    18
420
        0
370
    70
100
AcDbLine
 10
-526.4689212641906
 20
960.471727078403
 30
0.0
 11
17.40709267012334
 21
960.471727078403
 31
0.0
  0
LWPOLYLINE
  5
AF
330
70
100
AcDbEntity
  8
Camada 1
 62
    18
420
        0
370
    70
100
AcDbPolyline
 90
       31
 70
     0
 43
0.0
 10
17.40709267012334
 20
960.471727078403
 10
19.68877984466144
 20
960.5857956118615
 10
21.93413220332605
 20
960.9124291482912
 10
22.49415679572849
 20
961.0316883697324
 10
23.04905400122152
 20
961.1613289671385
 10
23.59869721765972
 20
961.3013509405064
 10
24.14840373517109
 20
961.456944977821
 10
25.23218140517383
 20
961.8147226421442
 10
26.30045031230475
 20
962.2192164983044
 10
27.34795646750626
 20
962.6756172342838
 10
28.37469987078112
 20
963.1837982479392
 10
29.3754898341449
 20
963.7437595392693
 10
30.34519897069003
 20
964.3505636245818
 10
31.28901796839637
 20
965.0039572995883
 10
32.20169283821269
 20
965.7091312522679
 10
33.07803289215371
 20
966.4507666229692
 10
33.91810143129442
 20
967.2440556691981
 10
34.72189845563298
 20
968.0738061334459
 10
35.48416997611457
 20
968.9449554994062
 10
36.19978860583069
 20
969.8524396812381
 10
36.87394503276664
 20
970.7962586789454
 10
38.08217261219215
 20
972.7823931438724
 10
39.09334395151928
 20
974.8774054542773
 10
39.8867595998945
 20
977.0709142341948
 10
40.46235625624285
 20
979.3369660437138
 10
40.57129740279196
 20
979.9126260011362
 10
40.66460318432291
 20
980.4933500443931
 10
40.74759089096187
 20
981.0690100018145
 10
40.80981584567417
 20
981.6549247330531
 10
40.89793093922162
 20
982.8216901096967
 10
40.92907506711526
 20
983.9936461743219
  0
LWPOLYLINE
  5
B0
330
70
100
AcDbEntity
  8
Camada 1
 62
    18
420
        0
370
    70
100
AcDbPolyline
 90
       10
 70
     0
 43
0.0
 10
-537.1596179212219
 20
963.0437762745714
 10
-535.5028072883242
 20
962.2763140661064
 10
-533.3113557932783
 20
961.4932797936962
 10
-531.0566348758174
 20
960.9228105242564
 10
-529.9184182830758
 20
960.7310082732128
 10
-528.7723840078242
 20
960.5857956118615
 10
-528.2875294395526
 20
960.5442701080065
 10
-527.8016304035763
 20
960.5131259801146
 10
-527.1352916591522
 20
960.4872991423489
 10
-526.4689212641906
 20
960.471727078403
  0
LWPOLYLINE
  5
B1
330
70
100
AcDbEntity
  8
Camada 1
 62
    18
420
        0
370
    70
100
AcDbPolyline
 90
       15
 70
     0
 43
0.0
 10
-549.9878019086072
 20
984.1930347334882
 10
-549.8804591141497
 20
982.3107140281999
 10
-549.6533348643997
 20
980.4490294726948
 10
-549.346340485853
 20
978.7792737703803
 10
-548.9449800328038
 20
977.1405355938096
 10
-548.5171597312601
 20
975.745633150249
 10
-548.0229682547278
 20
974.4026375865106
 10
-547.5453774845764
 20
973.2824617995593
 10
-547.0190290629843
 20
972.2141928924283
 10
-546.0908137797596
 20
970.6222975098445
 10
-545.0391614042792
 20
969.1235813066432
 10
-544.2068788971119
 20
968.1072192793326
 10
-543.261540673654
 20
967.1271920678973
 10
-542.8653550833187
 20
966.7692878014294
 10
-542.4489448001749
 20
966.4167008250897
  0
LWPOLYLINE
  5
B2
330
70
100
AcDbEntity
  8
Camada 1
 62
    18
420
        0
370
    70
100
AcDbPolyline
 90
        6
 70
     0
 43
0.0
 10
-543.4690766625099
 20
967.3241263152631
 10
-542.8976474537457
 20
966.7650315995198
 10
-542.3030501603671
 20
966.2311164968523
 10
-540.765836880103
 20
965.0528827912294
 10
-539.1143099824221
 20
964.0315079640004
 10
-536.8447042858024
 20
962.9216963340068
  0
LINE
  5
B3
330
70
100
AcDbEntity
  8
Camada 1
 62
    18
420
        0
370
    70
100
AcDbLine
 10
58.56538700214333
 20
1254.460267176524
 30
0.0
 11
20.59107333851262
 21
1254.460267176524
 31
0.0
  0
LINE
  5
B4
330
70
100
AcDbEntity
  8
Camada 1
 62
    18
420
        0
370
    70
100
AcDbLine
 10
24.17429387400807
 20
1255.933029939816
 30
0.0
 11
20.59107333851262
 21
1255.933029939816
 31
0.0
  0
LINE
  5
B5
330
70
100
AcDbEntity
  8
Camada 1
 62
    18
420
        0
370
    70
100
AcDbLine
 10
58.56538700214333
 20
1254.460267176524
 30
0.0
 11
58.56538700214333
 21
1255.933029939816
 31
0.0
  0
LINE
  5
B6
330
70
100
AcDbEntity
  8
Camada 1
 62
    18
420
        0
370
    70
100
AcDbLine
 10
-529.6487557123018
 20
1254.460267176524
 30
0.0
 11
-567.6272314214793
 21
1254.460267176524
 31
0.0
  0
LINE
  5
B7
330
70
100
AcDbEntity
  8
Camada 1
 62
    18
420
        0
370
    70
100
AcDbLine
 10
-564.1321101542644
 20
1255.933029939816
 30
0.0
 11
-567.6272314214793
 21
1255.933029939816
 31
0.0
  0
LINE
  5
B8
330
70
100
AcDbEntity
  8
Camada 1
 62
    18
420
        0
370
    70
100
AcDbLine
 10
-529.6487557123018
 20
1255.933029939816
 30
0.0
 11
-533.2418828657146
 21
1255.933029939816
 31
0.0
  0
LINE
  5
B9
330
70
100
AcDbEntity
  8
Camada 1
 62
    18
420
        0
370
    70
100
AcDbLine
 10
-567.6272314214793
 20
1254.460267176524
 30
0.0
 11
-567.6272314214793
 21
1255.933029939816
 31
0.0
  0
LINE
  5
BA
330
70
100
AcDbEntity
  8
Camada 1
 62
    18
420
        0
370
    70
100
AcDbLine
 10
20.59107333851262
 20
1255.933029939816
 30
0.0
 11
-529.6487557123018
 21
1255.933029939816
 31
0.0
  0
LINE
  5
BB
330
70
100
AcDbEntity
  8
Camada 1
 62
    18
420
        0
370
    70
100
AcDbLine
 10
-529.6487557123018
 20
1254.460267176524
 30
0.0
 11
-529.6487557123018
 21
1255.933029939816
 31
0.0
  0
LINE
  5
BC
330
70
100
AcDbEntity
  8
Camada 1
 62
    18
420
        0
370
    70
100
AcDbLine
 10
20.59107333851262
 20
1254.460267176524
 30
0.0
 11
-529.6487557123018
 21
1254.460267176524
 31
0.0
  0
LINE
  5
BD
330
70
100
AcDbEntity
  8
Camada 1
 62
    18
420
        0
370
    70
100
AcDbLine
 10
20.59107333851262
 20
1254.460267176524
 30
0.0
 11
20.59107333851262
 21
1255.933029939816
 31
0.0
  0
LINE
  5
BE
330
70
100
AcDbEntity
  8
Camada 1
 62
    18
420
        0
370
    70
100
AcDbLine
 10
24.18467524997232
 20
1255.933029939816
 30
0.0
 11
98.63471297617799
 21
1255.933029939816
 31
0.0
  0
LWPOLYLINE
  5
BF
330
70
100
AcDbEntity
  8
Camada 1
 62
    18
420
        0
370
    70
100
AcDbPolyline
 90
       16
 70
     0
 43
0.0
 10
656.0633283767347
 20
1255.933029939816
 10
659.2628178079994
 20
1255.933029939816
 10
662.4260990255334
 20
1255.933029939816
 10
665.5115199233368
 20
1255.933029939816
 10
668.4984443516277
 20
1255.933029939816
 10
671.3453468065509
 20
1255.933029939816
 10
674.0264004503406
 20
1255.933029939816
 10
676.5153986387958
 20
1255.933029939816
 10
678.7867677384419
 20
1255.933029939816
 10
680.8143011050796
 20
1255.933029939816
 10
682.5826798790549
 20
1255.933029939816
 10
684.0708881041464
 20
1255.933029939816
 10
685.2584162327166
 20
1255.933029939816
 10
686.1451376626209
 20
1255.933029939816
 10
686.7104162440791
 20
1255.933029939816
 10
686.954125374943
 20
1255.933029939816
  0
LWPOLYLINE
  5
C0
330
70
100
AcDbEntity
  8
Camada 1
 62
    18
420
        0
370
    70
100
AcDbPolyline
 90
       16
 70
     0
 43
0.0
 10
-564.1321101542644
 20
1255.933029939816
 10
-563.8889074319849
 20
1255.933029939816
 10
-563.3226318586284
 20
1255.933029939816
 10
-562.4400408237334
 20
1255.933029939816
 10
-561.2489045340043
 20
1255.933029939816
 10
-559.7621838841278
 20
1255.933029939816
 10
-557.9949287041982
 20
1255.933029939816
 10
-555.9652747516166
 20
1255.933029939816
 10
-553.6944911868941
 20
1255.933029939816
 10
-551.2048758129785
 20
1255.933029939816
 10
-548.5233790616775
 20
1255.933029939816
 10
-545.6764766067554
 20
1255.933029939816
 10
-542.6937142240103
 20
1255.933029939816
 10
-539.6056663316785
 20
1255.933029939816
 10
-536.4445057000884
 20
1255.933029939816
 10
-533.2418828657146
 20
1255.933029939816
  0
LWPOLYLINE
  5
C1
330
70
100
AcDbEntity
  8
Camada 1
 62
    18
420
        0
370
    70
100
AcDbPolyline
 90
        9
 70
     0
 43
0.0
 10
706.7112764581398
 20
1260.340810251577
 10
708.4329390402763
 20
1260.340810251577
 10
710.0871226786457
 20
1260.340810251577
 10
711.611792321757
 20
1260.340810251577
 10
712.9495971975156
 20
1260.340810251577
 10
714.0490102325365
 20
1260.340810251577
 10
714.8631886328403
 20
1260.340810251577
 10
715.366178958513
 20
1260.340810251577
 10
715.5320277696464
 20
1260.340810251577
  0
LINE
  5
C2
330
70
100
AcDbEntity
  8
Camada 1
 62
    18
420
        0
370
    70
100
AcDbLine
 10
715.5320277696464
 20
1261.813446412721
 30
0.0
 11
715.5320277696464
 21
1260.340810251577
 31
0.0
  0
LWPOLYLINE
  5
C3
330
70
100
AcDbEntity
  8
Camada 1
 62
    18
420
        0
370
    70
100
AcDbPolyline
 90
        9
 70
     0
 43
0.0
 10
706.7112764581398
 20
1261.813446412721
 10
708.4329390402763
 20
1261.813446412721
 10
710.0871226786457
 20
1261.813446412721
 10
711.611792321757
 20
1261.813446412721
 10
712.9495971975156
 20
1261.813446412721
 10
714.0490102325365
 20
1261.813446412721
 10
714.8631886328403
 20
1261.813446412721
 10
715.366178958513
 20
1261.813446412721
 10
715.5320277696464
 20
1261.813446412721
  0
LINE
  5
C4
330
70
100
AcDbEntity
  8
Camada 1
 62
    18
420
        0
370
    70
100
AcDbLine
 10
706.7112764581398
 20
1260.340810251577
 30
0.0
 11
-583.8940088179342
 21
1260.340810251577
 31
0.0
  0
LINE
  5
C5
330
70
100
AcDbEntity
  8
Camada 1
 62
    18
420
        0
370
    70
100
AcDbLine
 10
706.7112764581398
 20
1261.813446412721
 30
0.0
 11
-583.8940088179342
 21
1261.813446412721
 31
0.0
  0
LINE
  5
C6
330
70
100
AcDbEntity
  8
Camada 1
 62
    18
420
        0
370
    70
100
AcDbLine
 10
-592.7137156617354
 20
1261.813446412721
 30
0.0
 11
-592.7137156617354
 21
1260.340810251577
 31
0.0
  0
LWPOLYLINE
  5
C7
330
70
100
AcDbEntity
  8
Camada 1
 62
    18
420
        0
370
    70
100
AcDbPolyline
 90
        9
 70
     0
 43
0.0
 10
-592.7137156617354
 20
1260.340810251577
 10
-592.5441479125675
 20
1260.340810251577
 10
-592.0421862293296
 20
1260.340810251577
 10
-591.2275172457111
 20
1260.340810251577
 10
-590.1307628557533
 20
1260.340810251577
 10
-588.7939074960895
 20
1260.340810251577
 10
-587.269332804588
 20
1260.340810251577
 10
-585.6145952818296
 20
1260.340810251577
 10
-583.8940088179342
 20
1260.340810251577
  0
LWPOLYLINE
  5
C8
330
70
100
AcDbEntity
  8
Camada 1
 62
    18
420
        0
370
    70
100
AcDbPolyline
 90
        9
 70
     0
 43
0.0
 10
-592.7137156617354
 20
1261.813446412721
 10
-592.5441479125675
 20
1261.813446412721
 10
-592.0421862293296
 20
1261.813446412721
 10
-591.2275172457111
 20
1261.813446412721
 10
-590.1307628557533
 20
1261.813446412721
 10
-588.7939074960895
 20
1261.813446412721
 10
-587.269332804588
 20
1261.813446412721
 10
-585.6145952818296
 20
1261.813446412721
 10
-583.8940088179342
 20
1261.813446412721
  0
LINE
  5
C9
330
70
100
AcDbEntity
  8
Camada 1
 62
    18
420
        0
370
    70
100
AcDbLine
 10
83.35782193327213
 20
528.3069462965904
 30
0.0
 11
83.36301262125379
 21
528.3069462965904
 31
0.0
  0
LINE
  5
CA
330
70
100
AcDbEntity
  8
Camada 1
 62
    18
420
        0
370
    70
100
AcDbLine
 10
39.46156629287907
 20
528.3069462965904
 30
0.0
 11
39.4563756048974
 21
528.3069462965904
 31
0.0
  0
LINE
  5
CB
330
70
100
AcDbEntity
  8
Camada 1
 62
    18
420
        0
370
    70
100
AcDbLine
 10
39.46156629287907
 20
-24.38874283098994
 30
0.0
 11
39.4563756048974
 21
-24.38874283098994
 31
0.0
  0
LINE
  5
CC
330
70
100
AcDbEntity
  8
Camada 1
 62
    18
420
        0
370
    70
100
AcDbLine
 10
-532.4464099324687
 20
-57.55443796366126
 30
0.0
 11
655.2647220403796
 21
-57.55443796366126
 31
0.0
  0
LINE
  5
CD
330
70
100
AcDbEntity
  8
Camada 1
 62
    18
420
        0
370
    70
100
AcDbLine
 10
686.9593160629246
 20
-25.85834054063344
 30
0.0
 11
686.9593160629246
 21
529.7797090598814
 31
0.0
  0
LINE
  5
CE
330
70
100
AcDbEntity
  8
Camada 1
 62
    18
420
        0
370
    70
100
AcDbLine
 10
655.2647220403796
 20
561.4742397813533
 30
0.0
 11
-532.4464099324687
 21
561.4742397813533
 31
0.0
  0
LINE
  5
CF
330
70
100
AcDbEntity
  8
Camada 1
 62
    18
420
        0
370
    70
100
AcDbLine
 10
-564.1419692963772
 20
529.7797090598814
 30
0.0
 11
-564.1419692963772
 21
-25.85834054063344
 31
0.0
  0
LINE
  5
D0
330
70
100
AcDbEntity
  8
Camada 1
 62
    18
420
        0
370
    70
100
AcDbLine
 10
-592.7137156617354
 20
-77.30647748521732
 30
0.0
 11
-592.7137156617354
 21
581.2262634776434
 31
0.0
  0
LINE
  5
D1
330
70
100
AcDbEntity
  8
Camada 1
 62
    18
420
        0
370
    70
100
AcDbLine
 10
706.7112764581398
 20
-86.12618432901944
 30
0.0
 11
-583.8940088179342
 21
-86.12618432901944
 31
0.0
  0
LINE
  5
D2
330
70
100
AcDbEntity
  8
Camada 1
 62
    18
420
        0
370
    70
100
AcDbLine
 10
715.5320277696464
 20
581.2262634776434
 30
0.0
 11
715.5320277696464
 21
-77.30647748521732
 31
0.0
  0
LINE
  5
D3
330
70
100
AcDbEntity
  8
Camada 1
 62
    18
420
        0
370
    70
100
AcDbLine
 10
-583.8940088179342
 20
590.0470147891483
 30
0.0
 11
706.7112764581398
 21
590.0470147891483
 31
0.0
  0
LINE
  5
D4
330
70
100
AcDbEntity
  8
Camada 1
 62
    18
420
        0
370
    35
100
AcDbLine
 10
-633.8720099937563
 20
960.471727078403
 30
0.0
 11
-633.8720099937563
 21
1261.813446412721
 31
0.0
  0
LINE
  5
D5
330
70
100
AcDbEntity
  8
Camada 1
 62
    18
420
        0
370
    35
100
AcDbLine
 10
-608.7643428963347
 20
1261.813446412721
 30
0.0
 11
-641.852175967947
 21
1261.813446412721
 31
0.0
  0
LINE
  5
D6
330
70
100
AcDbEntity
  8
Camada 1
 62
    18
420
        0
370
    35
100
AcDbLine
 10
-565.8796707878718
 20
960.471727078403
 30
0.0
 11
-641.852175967947
 21
960.471727078403
 31
0.0
  0
LINE
  5
D7
330
70
100
AcDbEntity
  8
Camada 1
 62
    18
420
        0
370
    35
100
AcDbLine
 10
665.9108230915153
 20
539.9020570334159
 30
0.0
 11
575.9662019325223
 21
450.7352161577783
 31
0.0
  0
LINE
  5
D8
330
70
100
AcDbEntity
  8
Camada 1
 62
    18
420
        0
370
    35
100
AcDbLine
 10
33.76257069505118
 20
539.4145754706169
 30
0.0
 11
-58.79049777705586
 21
452.9598690655875
 31
0.0
  0
LINE
  5
D9
330
70
100
AcDbEntity
  8
Camada 1
 62
    18
420
        0
370
    35
100
AcDbLine
 10
39.89714097585784
 20
620.9170490354281
 30
0.0
 11
82.92224725029337
 21
620.9170490354281
 31
0.0
  0
LINE
  5
DA
330
70
100
AcDbEntity
  8
Camada 1
 62
    18
420
        0
370
    35
100
AcDbLine
 10
82.92224725029337
 20
598.6171180682177
 30
0.0
 11
82.92224725029337
 21
628.7120818167696
 31
0.0
  0
LINE
  5
DB
330
70
100
AcDbEntity
  8
Camada 1
 62
    18
420
        0
370
    35
100
AcDbLine
 10
39.89714097585784
 20
598.6171180682177
 30
0.0
 11
39.89714097585784
 21
628.7120818167696
 31
0.0
  0
LINE
  5
DC
330
70
100
AcDbEntity
  8
Camada 1
 62
    18
420
        0
370
    35
100
AcDbLine
 10
-592.7137156617354
 20
682.6518635389311
 30
0.0
 11
715.5320277696464
 21
682.6518635389311
 31
0.0
  0
LINE
  5
DD
330
70
100
AcDbEntity
  8
Camada 1
 62
    18
420
        0
370
    35
100
AcDbLine
 10
715.5320277696464
 20
610.7548658784071
 30
0.0
 11
715.5320277696464
 21
691.1466613061711
 31
0.0
  0
LINE
  5
DE
330
70
100
AcDbEntity
  8
Camada 1
 62
    18
420
        0
370
    35
100
AcDbLine
 10
-592.7137156617354
 20
610.7548658784071
 30
0.0
 11
-592.7137156617354
 21
690.8972555292511
 31
0.0
  0
LINE
  5
DF
330
70
100
AcDbEntity
  8
Camada 1
 62
    18
420
        0
370
    35
100
AcDbLine
 10
-685.3201469383411
 20
-85.49436656092074
 30
0.0
 11
-685.3201469383411
 21
590.678832557247
 31
0.0
  0
LINE
  5
E0
330
70
100
AcDbEntity
  8
Camada 1
 62
    18
420
        0
370
    35
100
AcDbLine
 10
-613.4199173988727
 20
590.0470147891483
 30
0.0
 11
-691.8996018702373
 21
590.0470147891483
 31
0.0
  0
LINE
  5
E1
330
70
100
AcDbEntity
  8
Camada 1
 62
    18
420
        0
370
    35
100
AcDbLine
 10
-616.0802456860373
 20
-86.12618432901944
 30
0.0
 11
-691.8996018702364
 21
-86.12618432901944
 31
0.0
  0
LINE
  5
E2
330
70
100
AcDbEntity
  8
Camada 1
 62
    18
420
        0
370
    35
100
AcDbLine
 10
-623.5827054403107
 20
547.273254249696
 30
0.0
 11
-623.5827054403107
 21
-42.09420236339065
 31
0.0
  0
LINE
  5
E3
330
70
100
AcDbEntity
  8
Camada 1
 62
    18
420
        0
370
    35
100
AcDbLine
 10
-606.7690966809605
 20
-42.72408851462387
 30
0.0
 11
-630.1578162056184
 21
-42.72408851462387
 31
0.0
  0
LINE
  5
E4
330
70
100
AcDbEntity
  8
Camada 1
 62
    18
420
        0
370
    35
100
AcDbLine
 10
-604.7738504655872
 20
546.6433680984646
 30
0.0
 11
-630.3795102295489
 21
546.6433680984646
 31
0.0
  0
LINE
  5
E5
330
70
100
AcDbEntity
  8
Camada 1
 62
    18
420
        0
370
    35
100
AcDbLine
 10
775.1097316101786
 20
590.0470147891483
 30
0.0
 11
775.1097316101786
 21
369.5543120435614
 31
0.0
  0
LINE
  5
E6
330
70
100
AcDbEntity
  8
Camada 1
 62
    18
420
        0
370
    35
100
AcDbLine
 10
378.8191880957565
 20
369.5543120435614
 30
0.0
 11
782.2548102550099
 21
369.5543120435614
 31
0.0
  0
LINE
  5
E7
330
70
100
AcDbEntity
  8
Camada 1
 62
    18
420
        0
370
    35
100
AcDbLine
 10
735.5882182176592
 20
590.0470147891483
 30
0.0
 11
782.2548102550099
 21
590.0470147891483
 31
0.0
  0
LINE
  5
E8
330
70
100
AcDbEntity
  8
Camada 1
 62
    18
420
        0
370
    35
100
AcDbLine
 10
-593.0795642128587
 20
-135.4129536134787
 30
0.0
 11
-254.898076345421
 21
-135.4129536134787
 31
0.0
  0
LINE
  5
E9
330
70
100
AcDbEntity
  8
Camada 1
 62
    18
420
        0
370
    35
100
AcDbLine
 10
-254.5322277942978
 20
368.0867399682538
 30
0.0
 11
-254.5322277942978
 21
-143.1156624969444
 31
0.0
  0
LINE
  5
EA
330
70
100
AcDbEntity
  8
Camada 1
 62
    18
420
        0
370
    35
100
AcDbLine
 10
-592.7137156617354
 20
-100.7721039262378
 30
0.0
 11
-592.7137156617354
 21
-143.1156624969444
 31
0.0
  0
LINE
  5
EB
330
70
100
AcDbEntity
  8
Camada 1
 62
    18
420
        0
370
    35
100
AcDbLine
 10
-254.5322277942978
 20
-135.4129536134787
 30
0.0
 11
377.351616020449
 21
-135.4129536134787
 31
0.0
  0
LINE
  5
EC
330
70
100
AcDbEntity
  8
Camada 1
 62
    18
420
        0
370
    35
100
AcDbLine
 10
377.351616020449
 20
368.0867399682538
 30
0.0
 11
377.351616020449
 21
-143.1156624969444
 31
0.0
  0
LINE
  5
ED
330
70
100
AcDbEntity
  8
Camada 1
 62
    18
420
        0
370
    35
100
AcDbLine
 10
-254.5322277942978
 20
368.0867399682538
 30
0.0
 11
-254.5322277942978
 21
-143.1156624969444
 31
0.0
  0
LINE
  5
EE
330
70
100
AcDbEntity
  8
Camada 1
 62
    18
420
        0
370
    35
100
AcDbLine
 10
715.822283923806
 20
-135.4129536134787
 30
0.0
 11
377.6418721746068
 21
-135.4129536134787
 31
0.0
  0
LINE
  5
EF
330
70
100
AcDbEntity
  8
Camada 1
 62
    18
420
        0
370
    35
100
AcDbLine
 10
377.351616020449
 20
368.0867399682538
 30
0.0
 11
377.351616020449
 21
-143.1156624969444
 31
0.0
  0
LINE
  5
F0
330
70
100
AcDbEntity
  8
Camada 1
 62
    18
420
        0
370
    35
100
AcDbLine
 10
715.5320277696464
 20
-98.33346966300268
 30
0.0
 11
715.5320277696464
 21
-143.1156624969444
 31
0.0
  0
LINE
  5
F1
330
70
100
AcDbEntity
  8
Camada 1
 62
    18
420
        0
370
    35
100
AcDbLine
 10
82.92224725029337
 20
620.9170490354281
 30
0.0
 11
672.5121121831944
 21
620.9170490354281
 31
0.0
  0
LINE
  5
F2
330
70
100
AcDbEntity
  8
Camada 1
 62
    18
420
        0
370
    35
100
AcDbLine
 10
672.5121121831944
 20
598.6171180682177
 30
0.0
 11
672.5121121831944
 21
628.7120818167696
 31
0.0
  0
LINE
  5
F3
330
70
100
AcDbEntity
  8
Camada 1
 62
    18
420
        0
370
    35
100
AcDbLine
 10
82.92224725029337
 20
598.6171180682177
 30
0.0
 11
82.92224725029337
 21
628.7120818167696
 31
0.0
  0
LINE
  5
F4
330
70
100
AcDbEntity
  8
Camada 1
 62
    18
420
        0
370
    35
100
AcDbLine
 10
-549.9501166288464
 20
620.9170490354281
 30
0.0
 11
39.6392577207389
 21
620.9170490354281
 31
0.0
  0
LINE
  5
F5
330
70
100
AcDbEntity
  8
Camada 1
 62
    18
420
        0
370
    35
100
AcDbLine
 10
39.89714097585784
 20
598.6171180682177
 30
0.0
 11
39.89714097585784
 21
628.7120818167696
 31
0.0
  0
LINE
  5
F6
330
70
100
AcDbEntity
  8
Camada 1
 62
    18
420
        0
370
    35
100
AcDbLine
 10
-549.6922333737284
 20
598.7833885861618
 30
0.0
 11
-549.6922333737284
 21
628.7120818167696
 31
0.0
  0
MTEXT
  5
F7
330
70
100
AcDbEntity
  8
Camada 1
100
AcDbMText
 10
-644.2559814453125
 20
1072.920898437499
 30
0.0
 40
0.2
 41
0.0
 46
0.0
 71
     7
 72
     1
  1
\C18;\c0;\FMyriad Pro|b0|i0|c1;\H32.568000;\W1.000000;205
 11
0.0000000000000001
 21
1.0
 31
0.0
 73
     1
 44
1.0
  0
MTEXT
  5
F8
330
70
100
AcDbEntity
  8
Camada 1
100
AcDbMText
 10
-694.3856201171874
 20
212.8232421875
 30
0.0
 40
0.2
 41
0.0
 46
0.0
 71
     7
 72
     1
  1
\C18;\c0;\FMyriad Pro|b0|i0|c1;\H32.568000;\W1.000000;460
 11
0.0000000000000001
 21
1.0
 31
0.0
 73
     1
 44
1.0
  0
MTEXT
  5
F9
330
70
100
AcDbEntity
  8
Camada 1
100
AcDbMText
 10
-632.4918212890625
 20
212.1943359375
 30
0.0
 40
0.2
 41
0.0
 46
0.0
 71
     7
 72
     1
  1
\C18;\c0;\FMyriad Pro|b0|i0|c1;\H32.568000;\W1.000000;400
 11
0.0000000000000001
 21
1.0
 31
0.0
 73
     1
 44
1.0
  0
MTEXT
  5
FA
330
70
100
AcDbEntity
  8
Camada 1
100
AcDbMText
 10
-461.6879577636718
 20
-126.7639923095703
 30
0.0
 40
0.2
 41
0.0
 46
0.0
 71
     7
 72
     1
  1
\C18;\c0;\FMyriad Pro|b0|i0|c1;\H32.568000;\W1.000000;230
 73
     1
 44
1.0
  0
MTEXT
  5
FB
330
70
100
AcDbEntity
  8
Camada 1
100
AcDbMText
 10
509.0328979492187
 20
-126.7639923095703
 30
0.0
 40
0.2
 41
0.0
 46
0.0
 71
     7
 72
     1
  1
\C18;\c0;\FMyriad Pro|b0|i0|c1;\H32.568000;\W1.000000;230
 73
     1
 44
1.0
  0
MTEXT
  5
FC
330
70
100
AcDbEntity
  8
Camada 1
100
AcDbMText
 10
22.85319137573242
 20
-126.7639923095703
 30
0.0
 40
0.2
 41
0.0
 46
0.0
 71
     7
 72
     1
  1
\C18;\c0;\FMyriad Pro|b0|i0|c1;\H32.568000;\W1.000000;430
 73
     1
 44
1.0
  0
MTEXT
  5
FD
330
70
100
AcDbEntity
  8
Camada 1
100
AcDbMText
 10
337.3214721679687
 20
630.7119750976562
 30
0.0
 40
0.2
 41
0.0
 46
0.0
 71
     7
 72
     1
  1
\C18;\c0;\FMyriad Pro|b0|i0|c1;\H32.568000;\W1.000000;400
 73
     1
 44
1.0
  0
MTEXT
  5
FE
330
70
100
AcDbEntity
  8
Camada 1
100
AcDbMText
 10
767.1247367858886
 20
443.480468749999
 30
0.0
 40
0.2
 41
0.0
 46
0.0
 71
     7
 72
     1
  1
\C18;\c0;\FMyriad Pro|b0|i0|c1;\H32.568000;\W1.000000;150
 11
0.0000000000000001
 21
1.0
 31
0.0
 73
     1
 44
1.0
  0
MTEXT
  5
FF
330
70
100
AcDbEntity
  8
Camada 1
100
AcDbMText
 10
-295.551025390625
 20
630.7119750976562
 30
0.0
 40
0.2
 41
0.0
 46
0.0
 71
     7
 72
     1
  1
\C18;\c0;\FMyriad Pro|b0|i0|c1;\H32.568000;\W1.000000;400
 73
     1
 44
1.0
  0
MTEXT
  5
100
330
70
100
AcDbEntity
  8
Camada 1
100
AcDbMText
 10
21.72428512573242
 20
693.7694702148437
 30
0.0
 40
0.2
 41
0.0
 46
0.0
 71
     7
 72
     1
  1
\C18;\c0;\FMyriad Pro|b0|i0|c1;\H32.568000;\W1.000000;890
 73
     1
 44
1.0
  0
MTEXT
  5
101
330
70
100
AcDbEntity
  8
Camada 1
100
AcDbMText
 10
36.64225387573242
 20
633.7877807617187
 30
0.0
 40
0.2
 41
0.0
 46
0.0
 71
     7
 72
     1
  1
\C18;\c0;\FMyriad Pro|b0|i0|c1;\H32.568000;\W1.000000;30
 73
     1
 44
1.0
  0
MTEXT
  5
102
330
70
100
AcDbEntity
  8
Camada 1
100
AcDbMText
 10
-65.4828599691391
 20
460.2984983921051
 30
0.0
 40
0.2
 41
0.0
 46
0.0
 71
     7
 72
     1
  1
\C18;\c0;\FMyriad Pro|b0|i0|c1;\H32.568000;\W1.000000;R 12
 11
0.7320813634581289
 21
0.6812172027167894
 31
0.0
 73
     1
 44
1.0
  0
MTEXT
  5
103
330
70
100
AcDbEntity
  8
Camada 1
100
AcDbMText
 10
573.1492327451706
 20
462.0768655538559
 30
0.0
 40
0.2
 41
0.0
 46
0.0
 71
     7
 72
     1
  1
\C18;\c0;\FMyriad Pro|b0|i0|c1;\H32.568000;\W1.000000;R 12
 11
0.7090308169512138
 21
0.7051774958217926
 31
0.0
 73
     1
 44
1.0
  0
MTEXT
  5
104
330
70
100
AcDbEntity
  8
Camada 1
100
AcDbMText
 10
2071.110682348605
 20
876.3996732927626
 30
0.0
 40
0.2
 41
0.0
 46
0.0
 71
     7
 72
     1
  1
\C18;\c0;\FMyriad Pro|b0|i0|c1;\H20.938453;\W1.000000;424
 11
0.8704032227716147
 21
-0.49233954725249
 31
0.0
 73
     1
 44
1.0
  0
MTEXT
  5
105
330
70
100
AcDbEntity
  8
Camada 1
100
AcDbMText
 10
1547.862300411911
 20
753.2758780686017
 30
0.0
 40
0.2
 41
0.0
 46
0.0
 71
     7
 72
     1
  1
\C18;\c0;\FMyriad Pro|b0|i0|c1;\H20.938453;\W1.000000;128
 11
-0.0015203288869067
 21
0.99999884429937
 31
0.0
 73
     1
 44
1.0
  0
MTEXT
  5
106
330
70
100
AcDbEntity
  8
Camada 1
100
AcDbMText
 10
1623.650886791205
 20
928.8508645843831
 30
0.0
 40
0.2
 41
0.0
 46
0.0
 71
     7
 72
     1
  1
\C18;\c0;\FMyriad Pro|b0|i0|c1;\H20.938451;\W1.000000;169,5
 11
0.8620920812293167
 21
0.5067516585880162
 31
0.0
 73
     1
 44
1.0
  0
LWPOLYLINE
  5
107
330
70
100
AcDbEntity
  8
Camada 1
 62
    18
420
        0
370
    70
100
AcDbPolyline
 90
        4
 70
     0
 43
0.0
 10
1378.91366282911
 20
503.8125302625849
 10
1380.729761872904
 20
504.3812742910067
 10
1382.844923407532
 20
504.1626087722506
 10
1385.116115610573
 20
503.1998038374768
  0
LINE
  5
108
330
70
100
AcDbEntity
  8
Camada 1
 62
    18
420
        0
370
    70
100
AcDbLine
 10
1378.91366282911
 20
503.8125302625849
 30
0.0
 11
1377.450580390312
 21
502.9663588089024
 31
0.0
  0
LWPOLYLINE
  5
109
330
70
100
AcDbEntity
  8
Camada 1
 62
    18
420
        0
370
    70
100
AcDbPolyline
 90
        6
 70
     0
 43
0.0
 10
1350.893092228476
 20
463.6977354213777
 10
1349.886571996587
 20
464.7771738372484
 10
1348.213415742029
 20
465.5357366303214
 10
1346.155190933477
 20
465.8420108096834
 10
1344.058993468674
 20
465.6377686679824
 10
1342.280822564537
 20
464.9668145355171
  0
LWPOLYLINE
  5
10A
330
70
100
AcDbEntity
  8
Camada 1
 62
    18
420
        0
370
    70
100
AcDbPolyline
 90
        6
 70
     0
 43
0.0
 10
1399.137329735169
 20
435.8506459947202
 10
1398.13080950328
 20
436.930084410591
 10
1396.456228717656
 20
437.6886472036658
 10
1394.397959392507
 20
437.980498005978
 10
1392.303230975367
 20
437.7908573077075
 10
1390.525060071228
 20
437.1197251088597
  0
LWPOLYLINE
  5
10B
330
70
100
AcDbEntity
  8
Camada 1
 62
    18
420
        0
370
    70
100
AcDbPolyline
 90
        3
 70
     0
 43
0.0
 10
1450.949616914842
 20
424.6185746657374
 10
1448.73674145235
 20
424.6623789960413
 10
1446.808327037259
 20
424.0350511274973
  0
LWPOLYLINE
  5
10C
330
70
100
AcDbEntity
  8
Camada 1
 62
    18
420
        0
370
    70
100
AcDbPolyline
 90
        3
 70
     0
 43
0.0
 10
1333.94860680501
 20
496.7814010496058
 10
1332.603671411565
 20
498.2109179751441
 10
1332.047926229126
 20
500.0781220709577
  0
LWPOLYLINE
  5
10D
330
70
100
AcDbEntity
  8
Camada 1
 62
    18
420
        0
370
    70
100
AcDbPolyline
 90
        4
 70
     0
 43
0.0
 10
1108.372175904642
 20
404.1964972920304
 10
1106.401448465207
 20
405.6844199913066
 10
1105.161549979639
 20
407.4056096527747
 10
1104.739977817058
 20
409.2582123051524
  0
LINE
  5
10E
330
70
100
AcDbEntity
  8
Camada 1
 62
    18
420
        0
370
    70
100
AcDbLine
 10
1104.739977817058
 20
410.9503771461332
 30
0.0
 11
1104.739977817058
 21
409.2582123051524
 31
0.0
  0
LINE
  5
10F
330
70
100
AcDbEntity
  8
Camada 1
 62
    18
420
        0
370
    70
100
AcDbLine
 10
1342.280822564537
 20
464.9668145355171
 30
0.0
 11
1174.159001558175
 21
367.9035412366757
 31
0.0
  0
LINE
  5
110
330
70
100
AcDbEntity
  8
Camada 1
 62
    18
420
        0
370
    70
100
AcDbLine
 10
1342.280822564537
 20
464.9668145355171
 30
0.0
 11
1342.280822564537
 21
466.6588013101118
 31
0.0
  0
LINE
  5
111
330
70
100
AcDbEntity
  8
Camada 1
 62
    18
420
        0
370
    70
100
AcDbLine
 10
1108.372175904642
 20
416.0120921592551
 30
0.0
 11
1302.809337049779
 21
528.2751119408967
 31
0.0
  0
LWPOLYLINE
  5
112
330
70
100
AcDbEntity
  8
Camada 1
 62
    18
420
        0
370
    70
100
AcDbPolyline
 90
        7
 70
     0
 43
0.0
 10
1108.372175904642
 20
416.0120921592551
 10
1106.401448465207
 20
414.524169459979
 10
1105.161549979639
 20
412.8029797985127
 10
1104.739977817058
 20
410.9503771461332
 10
1105.161549979639
 20
409.0977744937553
 10
1106.401448465207
 20
407.3619833888551
 10
1108.372175904642
 20
405.8886621330112
  0
LINE
  5
113
330
70
100
AcDbEntity
  8
Camada 1
 62
    18
420
        0
370
    70
100
AcDbLine
 10
1328.685543228916
 20
523.4614433997812
 30
0.0
 11
1320.351902938322
 21
528.2751119408967
 31
0.0
  0
LWPOLYLINE
  5
114
330
70
100
AcDbEntity
  8
Camada 1
 62
    18
420
        0
370
    70
100
AcDbPolyline
 90
        7
 70
     0
 43
0.0
 10
1320.351902938322
 20
528.2751119408967
 10
1317.783072775512
 20
529.4129561305071
 10
1314.791245919054
 20
530.1277145932744
 10
1311.580619994051
 20
530.3611596218488
 10
1308.369949552452
 20
530.1277145932744
 10
1305.378122695993
 20
529.4129561305071
 10
1302.809337049779
 20
528.2751119408967
  0
LINE
  5
115
330
70
100
AcDbEntity
  8
Camada 1
 62
    18
420
        0
370
    70
100
AcDbLine
 10
1332.047926229126
 20
500.0781220709577
 30
0.0
 11
1120.068221453743
 21
377.6914941966879
 31
0.0
  0
LINE
  5
116
330
70
100
AcDbEntity
  8
Camada 1
 62
    18
420
        0
370
    70
100
AcDbLine
 10
1332.047926229126
 20
500.0781220709577
 30
0.0
 11
1332.047926229126
 21
517.641165593588
 31
0.0
  0
LWPOLYLINE
  5
117
330
70
100
AcDbEntity
  8
Camada 1
 62
    18
420
        0
370
    70
100
AcDbPolyline
 90
        4
 70
     0
 43
0.0
 10
1332.047926229126
 20
517.641165593588
 10
1331.597151179676
 20
519.8438467556334
 10
1330.366000205189
 20
521.9735207005051
 10
1328.685543228916
 20
523.4614433997812
  0
LINE
  5
118
330
70
100
AcDbEntity
  8
Camada 1
 62
    18
420
        0
370
    70
100
AcDbLine
 10
1116.705838453532
 20
401.0748155255132
 30
0.0
 11
1328.685543228916
 21
523.4614433997812
 31
0.0
  0
LINE
  5
119
330
70
100
AcDbEntity
  8
Camada 1
 62
    18
420
        0
370
    70
100
AcDbLine
 10
1332.047926229126
 20
517.641165593588
 30
0.0
 11
1120.068221453743
 21
395.2545377193183
 31
0.0
  0
LWPOLYLINE
  5
11A
330
70
100
AcDbEntity
  8
Camada 1
 62
    18
420
        0
370
    70
100
AcDbPolyline
 90
        3
 70
     0
 43
0.0
 10
1174.159001558175
 20
367.9035412366757
 10
1173.371280394829
 20
367.3200176984374
 10
1172.856356930773
 20
366.6344621225362
  0
LINE
  5
11B
330
70
100
AcDbEntity
  8
Camada 1
 62
    18
420
        0
370
    70
100
AcDbLine
 10
1174.159001558175
 20
369.5957060776564
 30
0.0
 11
1174.159001558175
 21
367.9035412366757
 31
0.0
  0
LINE
  5
11C
330
70
100
AcDbEntity
  8
Camada 1
 62
    18
420
        0
370
    70
100
AcDbLine
 10
1116.705838453532
 20
401.0748155255132
 30
0.0
 11
1108.372175904642
 21
405.8886621330112
 31
0.0
  0
LINE
  5
11D
330
70
100
AcDbEntity
  8
Camada 1
 62
    18
420
        0
370
    70
100
AcDbLine
 10
1108.372175904642
 20
405.8886621330112
 30
0.0
 11
1108.372175904642
 21
404.1964972920304
 31
0.0
  0
LINE
  5
11E
330
70
100
AcDbEntity
  8
Camada 1
 62
    18
420
        0
370
    70
100
AcDbLine
 10
1116.705838453532
 20
399.3826506845326
 30
0.0
 11
1108.372175904642
 21
404.1964972920304
 31
0.0
  0
LWPOLYLINE
  5
11F
330
70
100
AcDbEntity
  8
Camada 1
 62
    18
420
        0
370
    70
100
AcDbPolyline
 90
        3
 70
     0
 43
0.0
 10
1118.606563546011
 20
396.0859296631825
 10
1118.04934931591
 20
397.96773520243
 10
1116.705838453532
 20
399.3826506845326
  0
LINE
  5
120
330
70
100
AcDbEntity
  8
Camada 1
 62
    18
420
        0
370
    70
100
AcDbLine
 10
1118.606563546011
 20
378.5376656503704
 30
0.0
 11
1118.606563546011
 21
396.0859296631825
 31
0.0
  0
LWPOLYLINE
  5
121
330
70
100
AcDbEntity
  8
Camada 1
 62
    18
420
        0
370
    70
100
AcDbPolyline
 90
        3
 70
     0
 43
0.0
 10
1120.777148242457
 20
373.650811825697
 10
1119.201705915764
 20
375.9849059786575
 10
1118.606563546011
 20
378.5376656503704
  0
LWPOLYLINE
  5
122
330
70
100
AcDbEntity
  8
Camada 1
 62
    18
420
        0
370
    70
100
AcDbPolyline
 90
        3
 70
     0
 43
0.0
 10
1121.968902029628
 20
374.394773175336
 10
1120.625435683843
 20
375.8244681672586
 10
1120.068221453743
 20
377.6914941966879
  0
LINE
  5
123
330
70
100
AcDbEntity
  8
Camada 1
 62
    18
420
        0
370
    70
100
AcDbLine
 10
1120.068221453743
 20
377.6914941966879
 30
0.0
 11
1120.068221453743
 21
395.2545377193183
 31
0.0
  0
LWPOLYLINE
  5
124
330
70
100
AcDbEntity
  8
Camada 1
 62
    18
420
        0
370
    70
100
AcDbPolyline
 90
        4
 70
     0
 43
0.0
 10
1120.068221453743
 20
395.2545377193183
 10
1119.617446404292
 20
397.4572188813636
 10
1118.386295429806
 20
399.5868928262353
 10
1116.705838453532
 20
401.0748155255132
  0
LWPOLYLINE
  5
125
330
70
100
AcDbEntity
  8
Camada 1
 62
    18
420
        0
370
    70
100
AcDbPolyline
 90
        4
 70
     0
 43
0.0
 10
1121.968902029628
 20
355.8252984540104
 10
1118.682419825318
 20
358.3052289749321
 10
1116.616849778451
 20
361.1788642694446
 10
1115.913754663792
 20
364.271343149092
  0
LINE
  5
126
330
70
100
AcDbEntity
  8
Camada 1
 62
    18
420
        0
370
    70
100
AcDbLine
 10
1115.913754663792
 20
365.9635079900727
 30
0.0
 11
1115.913754663792
 21
364.271343149092
 31
0.0
  0
LINE
  5
127
330
70
100
AcDbEntity
  8
Camada 1
 62
    18
420
        0
370
    70
100
AcDbLine
 10
1121.968902029628
 20
355.8252984540104
 30
0.0
 11
1128.400392696672
 21
352.1202712156355
 31
0.0
  0
LINE
  5
128
330
70
100
AcDbEntity
  8
Camada 1
 62
    18
420
        0
370
    70
100
AcDbLine
 10
1121.968902029628
 20
357.5174632949911
 30
0.0
 11
1121.968902029628
 21
355.8252984540104
 31
0.0
  0
LINE
  5
129
330
70
100
AcDbEntity
  8
Camada 1
 62
    18
420
        0
370
    70
100
AcDbLine
 10
1390.525060071228
 20
437.1197251088597
 30
0.0
 11
1222.403239064868
 21
340.0420284329702
 31
0.0
  0
LINE
  5
12A
330
70
100
AcDbEntity
  8
Camada 1
 62
    18
420
        0
370
    70
100
AcDbLine
 10
1390.525060071228
 20
437.1197251088597
 30
0.0
 11
1390.525060071228
 21
438.7972885064064
 31
0.0
  0
LWPOLYLINE
  5
12B
330
70
100
AcDbEntity
  8
Camada 1
 62
    18
420
        0
370
    70
100
AcDbPolyline
 90
        4
 70
     0
 43
0.0
 10
1132.432305298283
 20
361.5143413356745
 10
1134.248404342075
 20
362.0686619870467
 10
1136.365034924369
 20
361.864419845344
 10
1138.634802596341
 20
360.9016149105664
  0
LINE
  5
12C
330
70
100
AcDbEntity
  8
Camada 1
 62
    18
420
        0
370
    70
100
AcDbLine
 10
1132.432305298283
 20
361.5143413356745
 30
0.0
 11
1130.970691907147
 21
360.6683479483781
 31
0.0
  0
LWPOLYLINE
  5
12D
330
70
100
AcDbEntity
  8
Camada 1
 62
    18
420
        0
370
    70
100
AcDbPolyline
 90
        3
 70
     0
 43
0.0
 10
1222.403239064868
 20
340.0420284329702
 10
1221.614048853858
 20
339.4585048947301
 10
1221.100594437468
 20
338.7875507622648
  0
LINE
  5
12E
330
70
100
AcDbEntity
  8
Camada 1
 62
    18
420
        0
370
    70
100
AcDbLine
 10
1222.403239064868
 20
341.7340152075667
 30
0.0
 11
1222.403239064868
 21
340.0420284329702
 31
0.0
  0
LINE
  5
12F
330
70
100
AcDbEntity
  8
Camada 1
 62
    18
420
        0
370
    70
100
AcDbLine
 10
1446.808327037259
 20
424.0350511274973
 30
0.0
 11
1245.062987644947
 21
307.556309720032
 31
0.0
  0
LINE
  5
130
330
70
100
AcDbEntity
  8
Camada 1
 62
    18
420
        0
370
    70
100
AcDbLine
 10
1446.808327037259
 20
424.0350511274973
 30
0.0
 11
1446.808327037259
 21
425.7126145250422
 31
0.0
  0
LWPOLYLINE
  5
131
330
70
100
AcDbEntity
  8
Camada 1
 62
    18
420
        0
370
    70
100
AcDbPolyline
 90
        3
 70
     0
 43
0.0
 10
1245.062987644947
 20
307.556309720032
 10
1244.55389585495
 20
307.1916297669304
 10
1244.173145410748
 20
306.7831454835232
  0
LINE
  5
132
330
70
100
AcDbEntity
  8
Camada 1
 62
    18
420
        0
370
    70
100
AcDbLine
 10
1245.062987644947
 20
309.2338731175769
 30
0.0
 11
1245.062987644947
 21
307.556309720032
 31
0.0
  0
LWPOLYLINE
  5
133
330
70
100
AcDbEntity
  8
Camada 1
 62
    18
420
        0
370
    70
100
AcDbPolyline
 90
        3
 70
     0
 43
0.0
 10
1372.981025135023
 20
491.1361624982437
 10
1374.325960528469
 20
492.551077980348
 10
1374.881750227501
 20
494.4182820761597
  0
LINE
  5
134
330
70
100
AcDbEntity
  8
Camada 1
 62
    18
420
        0
370
    70
100
AcDbLine
 10
1893.866552352852
 20
209.4720037790594
 30
0.0
 11
1385.116115610573
 21
503.1998038374768
 31
0.0
  0
LINE
  5
135
330
70
100
AcDbEntity
  8
Camada 1
 62
    18
420
        0
370
    70
100
AcDbLine
 10
1385.116115610573
 20
503.1998038374768
 30
0.0
 11
1383.653033171773
 21
502.3538104501767
 31
0.0
  0
LINE
  5
136
330
70
100
AcDbEntity
  8
Camada 1
 62
    18
420
        0
370
    70
100
AcDbLine
 10
1902.637835297126
 20
191.4130453787984
 30
0.0
 11
1902.637835297126
 21
194.2866806733109
 31
0.0
  0
LWPOLYLINE
  5
137
330
70
100
AcDbEntity
  8
Camada 1
 62
    18
420
        0
370
    70
100
AcDbPolyline
 90
        3
 70
     0
 43
0.0
 10
1899.275496813509
 20
187.2703309701501
 10
1900.618918642696
 20
188.6998478956884
 10
1901.176177389392
 20
190.567051991502
  0
LWPOLYLINE
  5
138
330
70
100
AcDbEntity
  8
Camada 1
 62
    18
420
        0
370
    70
100
AcDbPolyline
 90
        3
 70
     0
 43
0.0
 10
1900.505223256927
 20
186.5699958844307
 10
1902.054311758886
 20
188.8894885939553
 10
1902.637835297126
 20
191.4130453787984
  0
LWPOLYLINE
  5
139
330
70
100
AcDbEntity
  8
Camada 1
 62
    18
420
        0
370
    70
100
AcDbPolyline
 90
        7
 70
     0
 43
0.0
 10
1893.866552352852
 20
209.4720037790594
 10
1896.13627550823
 20
207.8236432683843
 10
1898.25143704286
 20
205.5917592194691
 10
1900.06904965091
 20
202.9223660666612
 10
1901.462062967861
 20
200.0195278852807
 10
1902.338772806288
 20
197.0728853735963
 10
1902.637835297126
 20
194.2866806733109
  0
LINE
  5
13A
330
70
100
AcDbEntity
  8
Camada 1
 62
    18
420
        0
370
    70
100
AcDbLine
 10
1892.403469914052
 20
208.6258323253787
 30
0.0
 11
1893.866552352852
 21
209.4720037790594
 31
0.0
  0
LINE
  5
13B
330
70
100
AcDbEntity
  8
Camada 1
 62
    18
420
        0
370
    70
100
AcDbLine
 10
1902.637835297126
 20
194.2866806733109
 30
0.0
 11
1901.176177389392
 21
193.4406872860127
 31
0.0
  0
LINE
  5
13C
330
70
100
AcDbEntity
  8
Camada 1
 62
    18
420
        0
370
    70
100
AcDbLine
 10
1901.176177389392
 20
190.567051991502
 30
0.0
 11
1901.176177389392
 21
193.4406872860127
 31
0.0
  0
LWPOLYLINE
  5
13D
330
70
100
AcDbEntity
  8
Camada 1
 62
    18
420
        0
370
    70
100
AcDbPolyline
 90
        7
 70
     0
 43
0.0
 10
1901.176177389392
 20
193.4406872860127
 10
1900.877114898554
 20
196.2267139199157
 10
1900.000494093319
 20
199.187957875034
 10
1898.60596721211
 20
202.0761946129787
 10
1896.789779135126
 20
204.745765832171
 10
1894.67470663369
 20
206.9776498810861
 10
1892.403469914052
 20
208.6258323253787
  0
LINE
  5
13E
330
70
100
AcDbEntity
  8
Camada 1
 62
    18
420
        0
370
    70
100
AcDbLine
 10
1892.403469914052
 20
208.6258323253787
 30
0.0
 11
1383.653033171773
 21
502.3538104501767
 31
0.0
  0
LWPOLYLINE
  5
13F
330
70
100
AcDbEntity
  8
Camada 1
 62
    18
420
        0
370
    70
100
AcDbPolyline
 90
        7
 70
     0
 43
0.0
 10
1383.653033171773
 20
502.3538104501767
 10
1381.3832654998
 20
503.331038762004
 10
1379.268103965171
 20
503.5352809037067
 10
1377.450580390312
 20
502.9663588089024
 10
1376.057478040169
 20
501.6826782513271
 10
1375.180812718338
 20
499.7426450047242
 10
1374.881750227501
 20
497.2919173706705
  0
LINE
  5
140
330
70
100
AcDbEntity
  8
Camada 1
 62
    18
420
        0
370
    70
100
AcDbLine
 10
1374.881750227501
 20
494.4182820761597
 30
0.0
 11
1374.881750227501
 21
497.2919173706705
 31
0.0
  0
LINE
  5
141
330
70
100
AcDbEntity
  8
Camada 1
 62
    18
420
        0
370
    70
100
AcDbLine
 10
1901.176177389392
 20
190.567051991502
 30
0.0
 11
1374.881750227501
 21
494.4182820761597
 31
0.0
  0
LINE
  5
142
330
70
100
AcDbEntity
  8
Camada 1
 62
    18
420
        0
370
    70
100
AcDbLine
 10
1588.973722958784
 20
345.322587031229
 30
0.0
 11
1746.21640020796
 21
254.5464815957294
 31
0.0
  0
LWPOLYLINE
  5
143
330
70
100
AcDbEntity
  8
Camada 1
 62
    18
420
        0
370
    70
100
AcDbPolyline
 90
        4
 70
     0
 43
0.0
 10
1926.299741482702
 20
173.7771727053805
 10
1925.876655755861
 20
171.9245700530009
 10
1924.636779528592
 20
170.1886008817164
 10
1922.66602983086
 20
168.7006781824384
  0
LINE
  5
144
330
70
100
AcDbEntity
  8
Camada 1
 62
    18
420
        0
370
    70
100
AcDbLine
 10
1926.299741482702
 20
173.7771727053805
 30
0.0
 11
1926.299741482702
 21
175.4545580365411
 31
0.0
  0
LWPOLYLINE
  5
145
330
70
100
AcDbEntity
  8
Camada 1
 62
    18
420
        0
370
    70
100
AcDbPolyline
 90
        3
 70
     0
 43
0.0
 10
1129.386524327668
 20
349.9466148740757
 10
1128.657164421465
 20
350.7781848843224
 10
1128.400392696672
 20
352.1202712156355
  0
LINE
  5
146
330
70
100
AcDbEntity
  8
Camada 1
 62
    18
420
        0
370
    70
100
AcDbLine
 10
1129.386524327668
 20
349.9466148740757
 30
0.0
 11
1655.6794379253
 21
46.08078334598213
 31
0.0
  0
LINE
  5
147
330
70
100
AcDbEntity
  8
Camada 1
 62
    18
420
        0
370
    70
100
AcDbLine
 10
1138.634802596341
 20
360.9016149105664
 30
0.0
 11
1647.385194822025
 21
67.17381485215264
 31
0.0
  0
LINE
  5
148
330
70
100
AcDbEntity
  8
Camada 1
 62
    18
420
        0
370
    70
100
AcDbLine
 10
1138.634802596341
 20
360.9016149105664
 30
0.0
 11
1137.173144688608
 21
360.0556215232682
 31
0.0
  0
LINE
  5
149
330
70
100
AcDbEntity
  8
Camada 1
 62
    18
420
        0
370
    70
100
AcDbLine
 10
1656.156477766298
 20
49.10025500845586
 30
0.0
 11
1656.156477766298
 21
51.97406836934897
 31
0.0
  0
LWPOLYLINE
  5
14A
330
70
100
AcDbEntity
  8
Camada 1
 62
    18
420
        0
370
    70
100
AcDbPolyline
 90
        4
 70
     0
 43
0.0
 10
1658.057158342181
 20
46.31422837455466
 10
1656.376745882502
 20
45.87654120427941
 10
1655.145594908017
 20
46.57669822361277
 10
1654.694819858565
 20
48.26886306459164
  0
LWPOLYLINE
  5
14B
330
70
100
AcDbEntity
  8
Camada 1
 62
    18
420
        0
370
    70
100
AcDbPolyline
 90
        3
 70
     0
 43
0.0
 10
1658.057158342181
 20
48.00621514914928
 10
1656.713736512993
 20
47.87498022462023
 10
1656.156477766298
 20
49.10025500845586
  0
LINE
  5
14C
330
70
100
AcDbEntity
  8
Camada 1
 62
    18
420
        0
370
    70
100
AcDbLine
 10
1658.057158342181
 20
46.31422837455466
 30
0.0
 11
1667.852501057101
 21
40.66898982319253
 31
0.0
  0
LINE
  5
14D
330
70
100
AcDbEntity
  8
Camada 1
 62
    18
420
        0
370
    70
100
AcDbLine
 10
1658.057158342181
 20
46.31422837455466
 30
0.0
 11
1658.057158342181
 21
48.00621514914928
 31
0.0
  0
LINE
  5
14E
330
70
100
AcDbEntity
  8
Camada 1
 62
    18
420
        0
370
    70
100
AcDbLine
 10
1699.46881065333
 20
40.43554479461818
 30
0.0
 11
1724.783439975974
 21
55.05194580556417
 31
0.0
  0
LINE
  5
14F
330
70
100
AcDbEntity
  8
Camada 1
 62
    18
420
        0
370
    70
100
AcDbLine
 10
1137.173144688608
 20
360.0556215232682
 30
0.0
 11
1645.923536914291
 21
66.3278214648526
 31
0.0
  0
LWPOLYLINE
  5
150
330
70
100
AcDbEntity
  8
Camada 1
 62
    18
420
        0
370
    70
100
AcDbPolyline
 90
        7
 70
     0
 43
0.0
 10
1137.173144688608
 20
360.0556215232682
 10
1134.901907968971
 20
361.0184264580457
 10
1132.786790950938
 20
361.2226685997484
 10
1130.970691907147
 20
360.6683479483781
 10
1129.57612050934
 20
359.3700659473689
 10
1128.69945518751
 20
357.4444560778175
 10
1128.400392696672
 20
354.9939065101462
  0
LINE
  5
151
330
70
100
AcDbEntity
  8
Camada 1
 62
    18
420
        0
370
    70
100
AcDbLine
 10
1128.400392696672
 20
352.1202712156355
 30
0.0
 11
1128.400392696672
 21
354.9939065101462
 31
0.0
  0
LINE
  5
152
330
70
100
AcDbEntity
  8
Camada 1
 62
    18
420
        0
370
    70
100
AcDbLine
 10
1128.400392696672
 20
352.1202712156355
 30
0.0
 11
1654.694819858565
 21
48.26886306459164
 31
0.0
  0
LINE
  5
153
330
70
100
AcDbEntity
  8
Camada 1
 62
    18
420
        0
370
    70
100
AcDbLine
 10
1654.694819858565
 20
48.26886306459164
 30
0.0
 11
1654.694819858565
 21
51.12789691567013
 31
0.0
  0
LWPOLYLINE
  5
154
330
70
100
AcDbEntity
  8
Camada 1
 62
    18
420
        0
370
    70
100
AcDbPolyline
 90
        7
 70
     0
 43
0.0
 10
1654.694819858565
 20
51.12789691567013
 10
1654.395846400919
 20
53.92870305938959
 10
1653.519136562492
 20
56.8753455710721
 10
1652.12603421235
 20
59.77818375245442
 10
1650.308510637491
 20
62.43297546182657
 10
1648.193349102861
 20
64.66485951074173
 10
1645.923536914291
 20
66.3278214648526
  0
LINE
  5
155
330
70
100
AcDbEntity
  8
Camada 1
 62
    18
420
        0
370
    70
100
AcDbLine
 10
1656.156477766298
 20
51.97406836934897
 30
0.0
 11
1654.694819858565
 21
51.12789691567013
 31
0.0
  0
LWPOLYLINE
  5
156
330
70
100
AcDbEntity
  8
Camada 1
 62
    18
420
        0
370
    70
100
AcDbPolyline
 90
        7
 70
     0
 43
0.0
 10
1647.385194822025
 20
67.17381485215264
 10
1649.655007010595
 20
65.51085289804177
 10
1651.771593076289
 20
63.27914691550905
 10
1653.587692120083
 20
60.62417713975264
 10
1654.982219001293
 20
57.72133895837033
 10
1655.857415275461
 20
54.77469644668781
 10
1656.156477766298
 20
51.97406836934897
  0
LINE
  5
157
330
70
100
AcDbEntity
  8
Camada 1
 62
    18
420
        0
370
    70
100
AcDbLine
 10
1645.923536914291
 20
66.3278214648526
 30
0.0
 11
1647.385194822025
 21
67.17381485215264
 31
0.0
  0
LINE
  5
158
330
70
100
AcDbEntity
  8
Camada 1
 62
    18
420
        0
370
    70
100
AcDbLine
 10
1667.852501057101
 20
40.66898982319253
 30
0.0
 11
1667.852501057101
 21
42.36097659778898
 31
0.0
  0
LWPOLYLINE
  5
159
330
70
100
AcDbEntity
  8
Camada 1
 62
    18
420
        0
370
    70
100
AcDbPolyline
 90
        8
 70
     0
 43
0.0
 10
1697.09109023645
 20
40.66898982319253
 10
1693.470555496975
 20
39.00602786907985
 10
1689.300062732523
 20
37.83898079260325
 10
1684.78679218012
 20
37.24094484411944
 10
1680.15679911343
 20
37.24094484411944
 10
1675.64352856103
 20
37.83898079260325
 10
1671.471611265509
 20
39.00602786907985
 10
1667.852501057101
 20
40.66898982319253
  0
LINE
  5
15A
330
70
100
AcDbEntity
  8
Camada 1
 62
    18
420
        0
370
    70
100
AcDbLine
 10
1342.280822564537
 20
466.6588013101118
 30
0.0
 11
1174.159001558175
 21
369.5957060776564
 31
0.0
  0
LWPOLYLINE
  5
15B
330
70
100
AcDbEntity
  8
Camada 1
 62
    18
420
        0
370
    70
100
AcDbPolyline
 90
        8
 70
     0
 43
0.0
 10
1342.280822564537
 20
466.6588013101118
 10
1344.228201049453
 20
467.3591363958312
 10
1346.514039212523
 20
467.5049727637943
 10
1348.686048440038
 20
467.067285593519
 10
1350.312551302157
 20
466.1336835456132
 10
1351.072538626296
 20
464.8792058749076
 10
1350.814342370439
 20
463.5663224304644
 10
1349.590447601074
 20
462.4286563072383
  0
LINE
  5
15C
330
70
100
AcDbEntity
  8
Camada 1
 62
    18
420
        0
370
    70
100
AcDbLine
 10
1181.468626594715
 20
365.3653830083968
 30
0.0
 11
1349.590447601074
 21
462.4286563072383
 31
0.0
  0
LWPOLYLINE
  5
15D
330
70
100
AcDbEntity
  8
Camada 1
 62
    18
420
        0
370
    70
100
AcDbPolyline
 90
        8
 70
     0
 43
0.0
 10
1181.468626594715
 20
365.3653830083968
 10
1179.521248109797
 20
364.6652259890652
 10
1177.235409946726
 20
364.5193896211003
 10
1175.064869766875
 20
364.9568987249913
 10
1173.438366904756
 20
365.890500772899
 10
1172.678379580617
 20
367.1449784436027
 10
1172.935106788811
 20
368.4724633314818
 10
1174.159001558175
 20
369.5957060776564
  0
LWPOLYLINE
  5
15E
330
70
100
AcDbEntity
  8
Camada 1
 62
    18
420
        0
370
    70
100
AcDbPolyline
 90
        8
 70
     0
 43
0.0
 10
1390.525060071228
 20
438.7972885064064
 10
1392.472438556145
 20
439.5120469691756
 10
1394.758276719216
 20
439.6578833371385
 10
1396.928861415665
 20
439.2203742332458
 10
1398.555319761186
 20
438.2721707419059
 10
1399.315307085328
 20
437.0322945146345
 10
1399.058579877132
 20
435.7048096267572
 10
1397.834729624364
 20
434.5815668805825
  0
LINE
  5
15F
330
70
100
AcDbEntity
  8
Camada 1
 62
    18
420
        0
370
    70
100
AcDbLine
 10
1229.712864101408
 20
337.5184716481253
 30
0.0
 11
1397.834729624364
 21
434.5815668805825
 31
0.0
  0
LWPOLYLINE
  5
160
330
70
100
AcDbEntity
  8
Camada 1
 62
    18
420
        0
370
    70
100
AcDbPolyline
 90
        8
 70
     0
 43
0.0
 10
1229.712864101408
 20
337.5184716481253
 10
1227.76548561649
 20
336.8037131853562
 10
1225.479691970015
 20
336.6576987510089
 10
1223.307638225906
 20
337.0953859212841
 10
1221.681179880383
 20
338.0435894126258
 10
1220.921192556241
 20
339.2980670833294
 10
1221.179344295504
 20
340.6109505277746
 10
1222.403239064868
 20
341.7340152075667
  0
LINE
  5
161
330
70
100
AcDbEntity
  8
Camada 1
 62
    18
420
        0
370
    70
100
AcDbLine
 10
1390.525060071228
 20
438.7972885064064
 30
0.0
 11
1222.403239064868
 21
341.7340152075667
 31
0.0
  0
LINE
  5
162
330
70
100
AcDbEntity
  8
Camada 1
 62
    18
420
        0
370
    70
100
AcDbLine
 10
1372.981025135023
 20
491.1361624982437
 30
0.0
 11
1363.187195984359
 21
496.7814010496058
 31
0.0
  0
LWPOLYLINE
  5
163
330
70
100
AcDbEntity
  8
Camada 1
 62
    18
420
        0
370
    70
100
AcDbPolyline
 90
        8
 70
     0
 43
0.0
 10
1363.187195984359
 20
496.7814010496058
 10
1359.566661244884
 20
498.4589644471506
 10
1355.396168480431
 20
499.6114100801951
 10
1350.88289792803
 20
500.2093569954868
 10
1346.252904861339
 20
500.2093569954868
 10
1341.738165261275
 20
499.6114100801951
 10
1337.567717013418
 20
498.4589644471506
 10
1333.94860680501
 20
496.7814010496058
  0
LINE
  5
164
330
70
100
AcDbEntity
  8
Camada 1
 62
    18
420
        0
370
    70
100
AcDbLine
 10
1333.94860680501
 20
496.7814010496058
 30
0.0
 11
1121.968902029628
 21
374.394773175336
 31
0.0
  0
LWPOLYLINE
  5
165
330
70
100
AcDbEntity
  8
Camada 1
 62
    18
420
        0
370
    70
100
AcDbPolyline
 90
        8
 70
     0
 43
0.0
 10
1121.968902029628
 20
374.394773175336
 10
1119.082089822748
 20
372.3089035607682
 10
1117.073456501959
 20
369.9019802570183
 10
1116.043609573851
 20
367.2908148115675
 10
1116.043609573851
 20
364.6214216587596
 10
1117.073456501959
 20
362.0248576567428
 10
1119.082089822748
 20
359.6033329095571
 10
1121.968902029628
 20
357.5174632949911
  0
LINE
  5
166
330
70
100
AcDbEntity
  8
Camada 1
 62
    18
420
        0
370
    70
100
AcDbLine
 10
1121.968902029628
 20
357.5174632949911
 30
0.0
 11
1128.400392696672
 21
353.8122579902319
 31
0.0
  0
LINE
  5
167
330
70
100
AcDbEntity
  8
Camada 1
 62
    18
420
        0
370
    70
100
AcDbLine
 10
1656.149177044579
 20
49.11485645189168
 30
0.0
 11
1658.057158342181
 21
48.00621514914928
 31
0.0
  0
LINE
  5
168
330
70
100
AcDbEntity
  8
Camada 1
 62
    18
420
        0
370
    70
100
AcDbLine
 10
1658.057158342181
 20
48.00621514914928
 30
0.0
 11
1667.852501057101
 21
42.36097659778898
 31
0.0
  0
LWPOLYLINE
  5
169
330
70
100
AcDbEntity
  8
Camada 1
 62
    18
420
        0
370
    70
100
AcDbPolyline
 90
        8
 70
     0
 43
0.0
 10
1667.852501057101
 20
42.36097659778898
 10
1671.471611265509
 20
40.68359126662835
 10
1675.64352856103
 20
39.53114563358213
 10
1680.15679911343
 20
38.93302065190619
 10
1684.78679218012
 20
38.93302065190619
 10
1689.300062732523
 20
39.53114563358213
 10
1693.470555496975
 20
40.68359126662835
 10
1697.09109023645
 20
42.36097659778898
  0
LINE
  5
16A
330
70
100
AcDbEntity
  8
Camada 1
 62
    18
420
        0
370
    70
100
AcDbLine
 10
1697.09109023645
 20
42.36097659778898
 30
0.0
 11
1698.991770812334
 21
43.45501645709373
 31
0.0
  0
LINE
  5
16B
330
70
100
AcDbEntity
  8
Camada 1
 62
    18
420
        0
370
    70
100
AcDbLine
 10
1907.092789108979
 20
182.7627585420141
 30
0.0
 11
1899.275496813509
 21
187.2703309701501
 31
0.0
  0
LINE
  5
16C
330
70
100
AcDbEntity
  8
Camada 1
 62
    18
420
        0
370
    70
100
AcDbLine
 10
1899.275496813509
 20
187.2703309701501
 30
0.0
 11
1372.981025135023
 21
491.1361624982437
 31
0.0
  0
LINE
  5
16D
330
70
100
AcDbEntity
  8
Camada 1
 62
    18
420
        0
370
    70
100
AcDbLine
 10
1446.808327037259
 20
425.7126145250422
 30
0.0
 11
1245.062987644947
 21
309.2338731175769
 31
0.0
  0
LWPOLYLINE
  5
16E
330
70
100
AcDbEntity
  8
Camada 1
 62
    18
420
        0
370
    70
100
AcDbPolyline
 90
        3
 70
     0
 43
0.0
 10
1446.808327037259
 20
425.7126145250422
 10
1448.809659636332
 20
426.3543657706377
 10
1451.092559704077
 20
426.2815366198465
  0
LINE
  5
16F
330
70
100
AcDbEntity
  8
Camada 1
 62
    18
420
        0
370
    70
100
AcDbLine
 10
1571.873117833717
 20
356.8901354264454
 30
0.0
 11
1767.576442255966
 21
243.8977557386024
 31
0.0
  0
LWPOLYLINE
  5
170
330
70
100
AcDbEntity
  8
Camada 1
 62
    18
420
        0
370
    70
100
AcDbPolyline
 90
        3
 70
     0
 43
0.0
 10
1886.233024564999
 20
173.2082506105744
 10
1885.865495549764
 20
172.8435706574728
 10
1885.387031177701
 20
172.508093591241
  0
LINE
  5
171
330
70
100
AcDbEntity
  8
Camada 1
 62
    18
420
        0
370
    70
100
AcDbLine
 10
1683.641647268792
 20
56.02917411739145
 30
0.0
 11
1885.387031177701
 21
172.508093591241
 31
0.0
  0
LWPOLYLINE
  5
172
330
70
100
AcDbEntity
  8
Camada 1
 62
    18
420
        0
370
    70
100
AcDbPolyline
 90
        3
 70
     0
 43
0.0
 10
1683.641647268792
 20
56.02917411739145
 10
1681.748267414627
 20
55.40202431522994
 10
1679.5689129488
 20
55.41662575866576
  0
LINE
  5
173
330
70
100
AcDbEntity
  8
Camada 1
 62
    18
420
        0
370
    70
100
AcDbLine
 10
1559.373302888467
 20
124.3993646022772
 30
0.0
 11
1366.470784609939
 21
235.7727647326992
 31
0.0
  0
LWPOLYLINE
  5
174
330
70
100
AcDbEntity
  8
Camada 1
 62
    18
420
        0
370
    70
100
AcDbPolyline
 90
        3
 70
     0
 43
0.0
 10
1244.08126315694
 20
306.7685440400892
 10
1243.955815389871
 20
308.0814274845325
 10
1245.062987644947
 20
309.2338731175769
  0
LINE
  5
175
330
70
100
AcDbEntity
  8
Camada 1
 62
    18
420
        0
370
    70
100
AcDbLine
 10
1700.453428720068
 20
42.60902306979551
 30
0.0
 11
1720.879868720163
 21
54.3954150501504
 31
0.0
  0
LINE
  5
176
330
70
100
AcDbEntity
  8
Camada 1
 62
    18
420
        0
370
    70
100
AcDbLine
 10
1700.453428720068
 20
60.15746514899001
 30
0.0
 11
1702.354109295949
 21
61.26610645173059
 31
0.0
  0
LWPOLYLINE
  5
177
330
70
100
AcDbEntity
  8
Camada 1
 62
    18
420
        0
370
    70
100
AcDbPolyline
 90
        3
 70
     0
 43
0.0
 10
1911.95613817105
 20
185.5781661291694
 10
1913.045815403962
 20
185.7824082708721
 10
1914.332345023671
 20
185.3301196571628
  0
LINE
  5
178
330
70
100
AcDbEntity
  8
Camada 1
 62
    18
420
        0
370
    70
100
AcDbLine
 10
1911.95613817105
 20
185.5781661291694
 30
0.0
 11
1699.976388879071
 21
63.19153825490139
 31
0.0
  0
LINE
  5
179
330
70
100
AcDbEntity
  8
Camada 1
 62
    18
420
        0
370
    70
100
AcDbLine
 10
1702.354109295949
 20
61.26610645173059
 30
0.0
 11
1710.686369572071
 21
56.45225984423269
 31
0.0
  0
LWPOLYLINE
  5
17A
330
70
100
AcDbEntity
  8
Camada 1
 62
    18
420
        0
370
    70
100
AcDbPolyline
 90
        4
 70
     0
 43
0.0
 10
1698.991770812334
 20
61.00345853628823
 10
1699.441032297527
 20
62.69562337726893
 10
1700.672272305204
 20
63.39578039660409
 10
1702.354109295949
 20
62.94349178289303
  0
LINE
  5
17B
330
70
100
AcDbEntity
  8
Camada 1
 62
    18
420
        0
370
    70
100
AcDbLine
 10
1698.991770812334
 20
43.45501645709373
 30
0.0
 11
1698.991770812334
 21
61.00345853628823
 31
0.0
  0
LWPOLYLINE
  5
17C
330
70
100
AcDbEntity
  8
Camada 1
 62
    18
420
        0
370
    70
100
AcDbPolyline
 90
        3
 70
     0
 43
0.0
 10
1697.09109023645
 20
42.36097659778898
 10
1698.43460109883
 20
42.2151402298241
 10
1698.991770812334
 20
43.45501645709373
  0
LINE
  5
17D
330
70
100
AcDbEntity
  8
Camada 1
 62
    18
420
        0
370
    70
100
AcDbLine
 10
1697.09109023645
 20
40.66898982319253
 30
0.0
 11
1697.09109023645
 21
42.36097659778898
 31
0.0
  0
LWPOLYLINE
  5
17E
330
70
100
AcDbEntity
  8
Camada 1
 62
    18
420
        0
370
    70
100
AcDbPolyline
 90
        4
 70
     0
 43
0.0
 10
1697.09109023645
 20
40.66898982319253
 10
1698.771502696128
 20
40.21670120947965
 10
1700.002653670615
 20
40.93145967225064
 10
1700.453428720068
 20
42.60902306979551
  0
LINE
  5
17F
330
70
100
AcDbEntity
  8
Camada 1
 62
    18
420
        0
370
    70
100
AcDbLine
 10
1700.453428720068
 20
42.60902306979551
 30
0.0
 11
1700.453428720068
 21
60.15746514899001
 31
0.0
  0
LWPOLYLINE
  5
180
330
70
100
AcDbEntity
  8
Camada 1
 62
    18
420
        0
370
    70
100
AcDbPolyline
 90
        3
 70
     0
 43
0.0
 10
1700.453428720068
 20
60.15746514899001
 10
1701.009173902505
 20
61.39734137625964
 10
1702.354109295949
 20
61.26610645173059
  0
LINE
  5
181
330
70
100
AcDbEntity
  8
Camada 1
 62
    18
420
        0
370
    70
100
AcDbLine
 10
1922.66602983086
 20
168.7006781824384
 30
0.0
 11
1728.230359991683
 21
56.45225984423269
 31
0.0
  0
LINE
  5
182
330
70
100
AcDbEntity
  8
Camada 1
 62
    18
420
        0
370
    70
100
AcDbLine
 10
1922.66602983086
 20
168.7006781824384
 30
0.0
 11
1922.66602983086
 21
170.3928430234191
 31
0.0
  0
LINE
  5
183
330
70
100
AcDbEntity
  8
Camada 1
 62
    18
420
        0
370
    70
100
AcDbLine
 10
1710.686369572071
 20
56.45225984423269
 30
0.0
 11
1710.686369572071
 21
58.14442468521338
 31
0.0
  0
LWPOLYLINE
  5
184
330
70
100
AcDbEntity
  8
Camada 1
 62
    18
420
        0
370
    70
100
AcDbPolyline
 90
        7
 70
     0
 43
0.0
 10
1728.230359991683
 20
56.45225984423269
 10
1725.660149814401
 20
55.31441565462228
 10
1722.668278441344
 20
54.59965719185311
 10
1719.457652516343
 20
54.35178878622901
 10
1716.247026591343
 20
54.59965719185311
 10
1713.255155218287
 20
55.31441565462228
 10
1710.686369572071
 20
56.45225984423269
  0
LINE
  5
185
330
70
100
AcDbEntity
  8
Camada 1
 62
    18
420
        0
370
    70
100
AcDbLine
 10
1728.230359991683
 20
58.14442468521338
 30
0.0
 11
1728.230359991683
 21
56.45225984423269
 31
0.0
  0
LINE
  5
186
330
70
100
AcDbEntity
  8
Camada 1
 62
    18
420
        0
370
    70
100
AcDbLine
 10
1922.66602983086
 20
170.3928430234191
 30
0.0
 11
1728.230359991683
 21
58.14442468521338
 31
0.0
  0
LWPOLYLINE
  5
187
330
70
100
AcDbEntity
  8
Camada 1
 62
    18
420
        0
370
    70
100
AcDbPolyline
 90
        7
 70
     0
 43
0.0
 10
1922.66602983086
 20
170.3928430234191
 10
1924.636779528592
 20
171.8807657226971
 10
1925.876655755861
 20
173.6021334505458
 10
1926.299741482702
 20
175.4545580365411
 10
1925.876655755861
 20
177.3071606889207
 10
1924.636779528592
 20
179.0431298602052
 10
1922.66602983086
 20
180.5310525594832
  0
LINE
  5
188
330
70
100
AcDbEntity
  8
Camada 1
 62
    18
420
        0
370
    70
100
AcDbLine
 10
1914.332345023671
 20
185.3301196571628
 30
0.0
 11
1922.66602983086
 21
180.5310525594832
 31
0.0
  0
LINE
  5
189
330
70
100
AcDbEntity
  8
Camada 1
 62
    18
420
        0
370
    70
100
AcDbLine
 10
1914.332345023671
 20
185.3301196571628
 30
0.0
 11
1702.354109295949
 21
62.94349178289303
 31
0.0
  0
LINE
  5
18A
330
70
100
AcDbEntity
  8
Camada 1
 62
    18
420
        0
370
    70
100
AcDbLine
 10
1702.354109295949
 20
62.94349178289303
 30
0.0
 11
1710.686369572071
 21
58.14442468521338
 31
0.0
  0
LWPOLYLINE
  5
18B
330
70
100
AcDbEntity
  8
Camada 1
 62
    18
420
        0
370
    70
100
AcDbPolyline
 90
        7
 70
     0
 43
0.0
 10
1710.686369572071
 20
58.14442468521338
 10
1713.255155218287
 20
57.00658049560297
 10
1716.247026591343
 20
56.2772205893998
 10
1719.457652516343
 20
56.04377556082545
 10
1722.668278441344
 20
56.2772205893998
 10
1725.660149814401
 20
57.00658049560297
 10
1728.230359991683
 20
58.14442468521338
  0
LWPOLYLINE
  5
18C
330
70
100
AcDbEntity
  8
Camada 1
 62
    18
420
        0
370
    70
100
AcDbPolyline
 90
        3
 70
     0
 43
0.0
 10
1450.95691763656
 20
424.0642540143653
 10
1450.951085962506
 20
424.1080583446709
 10
1450.949616914842
 20
424.1662860520263
  0
LINE
  5
18D
330
70
100
AcDbEntity
  8
Camada 1
 62
    18
420
        0
370
    70
100
AcDbLine
 10
1450.949616914842
 20
425.8438494495712
 30
0.0
 11
1450.949616914842
 21
424.1662860520263
 31
0.0
  0
LINE
  5
18E
330
70
100
AcDbEntity
  8
Camada 1
 62
    18
420
        0
370
    70
100
AcDbLine
 10
1451.554998101639
 20
424.997856062273
 30
0.0
 11
1451.554998101639
 21
424.1954889388962
 31
0.0
  0
LWPOLYLINE
  5
18F
330
70
100
AcDbEntity
  8
Camada 1
 62
    18
420
        0
370
    70
100
AcDbPolyline
 90
        8
 70
     0
 43
0.0
 10
1439.807914275409
 20
384.6058118621895
 10
1440.770674693589
 20
386.4001868072119
 10
1442.653860247308
 20
387.9317357704094
 10
1445.269343802556
 20
389.0549785165859
 10
1448.358929103477
 20
389.6531034982599
 10
1451.614783889849
 20
389.6531034982599
 10
1454.714563491214
 20
389.0841814034557
 10
1457.351949211614
 20
387.9755401007151
  0
LWPOLYLINE
  5
190
330
70
100
AcDbEntity
  8
Camada 1
 62
    18
420
        0
370
    70
100
AcDbPolyline
 90
        8
 70
     0
 43
0.0
 10
1412.763236488727
 20
368.9829796525464
 10
1413.725996906905
 20
370.7917779746221
 10
1415.607757929558
 20
372.3235050042021
 10
1418.223241484807
 20
373.4467477503786
 10
1421.312826785726
 20
374.0300932222344
 10
1424.568681572098
 20
374.0446946656703
 10
1427.669885704532
 20
373.4757725708641
 10
1430.30580237727
 20
372.3671312681235
  0
LWPOLYLINE
  5
191
330
70
100
AcDbEntity
  8
Camada 1
 62
    18
420
        0
370
    70
100
AcDbPolyline
 90
        3
 70
     0
 43
0.0
 10
1580.997417382981
 20
363.6440152805481
 10
1580.524740168375
 20
362.2729041287493
 10
1579.18131833919
 20
361.1058570522691
  0
LINE
  5
192
330
70
100
AcDbEntity
  8
Camada 1
 62
    18
420
        0
370
    70
100
AcDbLine
 10
1580.997417382981
 20
363.6440152805481
 30
0.0
 11
1580.997417382981
 21
365.3361801215287
 31
0.0
  0
LINE
  5
193
330
70
100
AcDbEntity
  8
Camada 1
 62
    18
420
        0
370
    70
100
AcDbLine
 10
1571.140819832188
 20
356.4672277659884
 30
0.0
 11
1579.18131833919
 21
361.1058570522691
 31
0.0
  0
LINE
  5
194
330
70
100
AcDbEntity
  8
Camada 1
 62
    18
420
        0
370
    70
100
AcDbLine
 10
1579.18131833919
 20
361.1058570522691
 30
0.0
 11
1579.18131833919
 21
362.7980218932498
 31
0.0
  0
LWPOLYLINE
  5
195
330
70
100
AcDbEntity
  8
Camada 1
 62
    18
420
        0
370
    70
100
AcDbPolyline
 90
        3
 70
     0
 43
0.0
 10
1571.140819832188
 20
356.4672277659884
 10
1570.84175734135
 20
356.2629856242856
 10
1570.598162528926
 20
356.0441420391471
  0
LINE
  5
196
330
70
100
AcDbEntity
  8
Camada 1
 62
    18
420
        0
370
    70
100
AcDbLine
 10
1571.140819832188
 20
358.1592145405848
 30
0.0
 11
1571.140819832188
 21
356.4672277659884
 31
0.0
  0
LWPOLYLINE
  5
197
330
70
100
AcDbEntity
  8
Camada 1
 62
    18
420
        0
370
    70
100
AcDbPolyline
 90
        8
 70
     0
 43
0.0
 10
1385.717134170976
 20
353.3747488863391
 10
1386.679894589157
 20
355.1689457649791
 10
1388.561611095214
 20
356.7004947281784
 10
1391.178563698124
 20
357.823737474353
 10
1394.266679951381
 20
358.4218624560272
 10
1397.524003785416
 20
358.436463899463
 10
1400.623783386783
 20
357.8529403612229
 10
1403.25970005952
 20
356.7442990584823
  0
LWPOLYLINE
  5
198
330
70
100
AcDbEntity
  8
Camada 1
 62
    18
420
        0
370
    70
100
AcDbPolyline
 90
        8
 70
     0
 43
0.0
 10
1358.670987336631
 20
337.7663400537494
 10
1359.633747754811
 20
339.5605369323894
 10
1361.516977825127
 20
341.0922639619712
 10
1364.132461380375
 20
342.2155067081458
 10
1367.222002164699
 20
342.7990302463859
 10
1370.477856951071
 20
342.8136316898199
 10
1373.577636552438
 20
342.2447095950156
 10
1376.215022272838
 20
341.136068292275
  0
LWPOLYLINE
  5
199
330
70
100
AcDbEntity
  8
Camada 1
 62
    18
420
        0
370
    70
100
AcDbPolyline
 90
        3
 70
     0
 43
0.0
 10
1591.259472088663
 20
342.9594680577848
 10
1590.19899774262
 20
344.3451806530175
 10
1588.966422237066
 20
345.337188474663
  0
LWPOLYLINE
  5
19A
330
70
100
AcDbEntity
  8
Camada 1
 62
    18
420
        0
370
    70
100
AcDbPolyline
 90
        8
 70
     0
 43
0.0
 10
1331.626354066544
 20
322.1435078441063
 10
1332.589069968129
 20
323.9377047227481
 10
1334.470830990782
 20
325.4694317523281
 10
1337.08631454603
 20
326.5926744985027
 10
1340.175899846948
 20
327.1906214137962
 10
1343.431754633322
 20
327.2052228572284
 10
1346.533003282351
 20
326.62169931899
 10
1349.168919955089
 20
325.5276594596835
  0
LWPOLYLINE
  5
19B
330
70
100
AcDbEntity
  8
Camada 1
 62
    18
420
        0
370
    70
100
AcDbPolyline
 90
        6
 70
     0
 43
0.0
 10
1617.614187156458
 20
235.9039996572301
 10
1618.838037409227
 20
233.1908021741165
 10
1619.348642763485
 20
230.3607931435272
 10
1619.102109855736
 20
227.6329942169814
 10
1618.121854415391
 20
225.2552738001014
 10
1616.48809534815
 20
223.4026711477218
  0
LWPOLYLINE
  5
19C
330
70
100
AcDbEntity
  8
Camada 1
 62
    18
420
        0
370
    70
100
AcDbPolyline
 90
        3
 70
     0
 43
0.0
 10
1549.229395228138
 20
318.7009504547914
 10
1548.168920882093
 20
320.0866630500259
 10
1546.936256343349
 20
321.0640694282374
  0
LWPOLYLINE
  5
19D
330
70
100
AcDbEntity
  8
Camada 1
 62
    18
420
        0
370
    70
100
AcDbPolyline
 90
        3
 70
     0
 43
0.0
 10
1248.492412638492
 20
305.5724721431252
 10
1247.792255619157
 20
305.893347765923
 10
1247.121256970096
 20
306.0245826904502
  0
LWPOLYLINE
  5
19E
330
70
100
AcDbEntity
  8
Camada 1
 62
    18
420
        0
370
    70
100
AcDbPolyline
 90
        3
 70
     0
 43
0.0
 10
1453.162492377336
 20
423.7433783915694
 10
1451.875918241032
 20
424.1808874954622
 10
1450.784771960456
 20
423.9766453537576
  0
LINE
  5
19F
330
70
100
AcDbEntity
  8
Camada 1
 62
    18
420
        0
370
    70
100
AcDbLine
 10
1450.784771960456
 20
423.9766453537576
 30
0.0
 11
1246.809062083488
 21
306.2142233887189
 31
0.0
  0
LWPOLYLINE
  5
1A0
330
70
100
AcDbEntity
  8
Camada 1
 62
    18
420
        0
370
    70
100
AcDbPolyline
 90
        8
 70
     0
 43
0.0
 10
1322.122773120743
 20
309.9048272500422
 10
1319.486856448006
 20
311.0134685527828
 10
1316.38707684664
 20
311.5823906475871
 10
1313.129753012603
 20
311.5677892041531
 10
1310.041636759348
 20
310.984265665913
 10
1307.424728673031
 20
309.8610229197384
 10
1305.542967650381
 20
308.329473956539
 10
1304.5802072322
 20
306.5352770778991
  0
LWPOLYLINE
  5
1A1
330
70
100
AcDbEntity
  8
Camada 1
 62
    18
420
        0
370
    70
100
AcDbPolyline
 90
        6
 70
     0
 43
0.0
 10
1590.568040322112
 20
220.2811674475888
 10
1591.791890574881
 20
217.5823933415268
 10
1592.30249592914
 20
214.7379609338859
 10
1592.057387552457
 20
212.0247634507723
 10
1591.075707581047
 20
209.6324415904582
 10
1589.441948513806
 20
207.7944403815145
  0
LWPOLYLINE
  5
1A2
330
70
100
AcDbEntity
  8
Camada 1
 62
    18
420
        0
370
    70
100
AcDbPolyline
 90
        3
 70
     0
 43
0.0
 10
1522.184761958051
 20
303.0779401787659
 10
1521.122774047748
 20
304.4638308403828
 10
1519.891623073263
 20
305.4556605956459
  0
LINE
  5
1A3
330
70
100
AcDbEntity
  8
Camada 1
 62
    18
420
        0
370
    70
100
AcDbLine
 10
1562.85236388637
 20
326.475862951027
 30
0.0
 11
1617.614187156458
 21
235.9039996572301
 31
0.0
  0
LINE
  5
1A4
330
70
100
AcDbEntity
  8
Camada 1
 62
    18
420
        0
370
    70
100
AcDbLine
 10
1457.351949211614
 20
387.9755401007151
 30
0.0
 11
1561.555595449621
 21
327.8179492823383
 31
0.0
  0
LWPOLYLINE
  5
1A5
330
70
100
AcDbEntity
  8
Camada 1
 62
    18
420
        0
370
    70
100
AcDbPolyline
 90
        3
 70
     0
 43
0.0
 10
1561.555595449621
 20
329.510114123319
 10
1562.788170955173
 20
328.5181063016735
 10
1563.848734334408
 20
327.1323937064408
  0
LINE
  5
1A6
330
70
100
AcDbEntity
  8
Camada 1
 62
    18
420
        0
370
    70
100
AcDbLine
 10
1457.351949211614
 20
387.9755401007151
 30
0.0
 11
1457.351949211614
 21
389.667704941694
 31
0.0
  0
LWPOLYLINE
  5
1A7
330
70
100
AcDbEntity
  8
Camada 1
 62
    18
420
        0
370
    70
100
AcDbPolyline
 90
        3
 70
     0
 43
0.0
 10
1562.85236388637
 20
326.475862951027
 10
1562.252814373629
 20
327.263628630968
 10
1561.555595449621
 20
327.8179492823383
  0
LINE
  5
1A8
330
70
100
AcDbEntity
  8
Camada 1
 62
    18
420
        0
370
    70
100
AcDbLine
 10
1617.614187156458
 20
235.9039996572301
 30
0.0
 11
1618.610468571305
 21
236.5603523462596
 31
0.0
  0
LWPOLYLINE
  5
1A9
330
70
100
AcDbEntity
  8
Camada 1
 62
    18
420
        0
370
    70
100
AcDbPolyline
 90
        6
 70
     0
 43
0.0
 10
1563.521982520961
 20
204.6727586149973
 10
1564.745832773728
 20
201.9595611318837
 10
1565.256349094794
 20
199.1297301676786
 10
1565.011329751303
 20
196.401931241131
 10
1564.03107431096
 20
194.0242108242509
 10
1562.39580167946
 20
192.1716081718732
  0
LWPOLYLINE
  5
1AA
330
70
100
AcDbEntity
  8
Camada 1
 62
    18
420
        0
370
    70
100
AcDbPolyline
 90
        3
 70
     0
 43
0.0
 10
1495.138615123706
 20
287.4697094125604
 10
1494.078140777661
 20
288.8554220077931
 10
1492.845476238917
 20
289.8328283860028
  0
LINE
  5
1AB
330
70
100
AcDbEntity
  8
Camada 1
 62
    18
420
        0
370
    70
100
AcDbLine
 10
1535.806306085216
 20
310.8676321848179
 30
0.0
 11
1590.568040322112
 21
220.2811674475888
 31
0.0
  0
LINE
  5
1AC
330
70
100
AcDbEntity
  8
Camada 1
 62
    18
420
        0
370
    70
100
AcDbLine
 10
1430.30580237727
 20
372.3671312681235
 30
0.0
 11
1534.509448615275
 21
312.2095404497486
 31
0.0
  0
LWPOLYLINE
  5
1AD
330
70
100
AcDbEntity
  8
Camada 1
 62
    18
420
        0
370
    70
100
AcDbPolyline
 90
        3
 70
     0
 43
0.0
 10
1534.509448615275
 20
313.8871038472935
 10
1535.742113154019
 20
312.9098755354644
 10
1536.804012031129
 20
311.5239848738493
  0
LINE
  5
1AE
330
70
100
AcDbEntity
  8
Camada 1
 62
    18
420
        0
370
    70
100
AcDbLine
 10
1430.30580237727
 20
372.3671312681235
 30
0.0
 11
1430.30580237727
 21
374.0592961091043
 31
0.0
  0
LWPOLYLINE
  5
1AF
330
70
100
AcDbEntity
  8
Camada 1
 62
    18
420
        0
370
    70
100
AcDbPolyline
 90
        3
 70
     0
 43
0.0
 10
1535.806306085216
 20
310.8676321848179
 10
1535.206756572475
 20
311.6552197983783
 10
1534.509448615275
 20
312.2095404497486
  0
LINE
  5
1B0
330
70
100
AcDbEntity
  8
Camada 1
 62
    18
420
        0
370
    70
100
AcDbLine
 10
1590.568040322112
 20
220.2811674475888
 30
0.0
 11
1591.564410770152
 21
220.9375201366165
 31
0.0
  0
LWPOLYLINE
  5
1B1
330
70
100
AcDbEntity
  8
Camada 1
 62
    18
420
        0
370
    70
100
AcDbPolyline
 90
        6
 70
     0
 43
0.0
 10
1536.477260217681
 20
189.0499264053542
 10
1537.70111047045
 20
186.3513303656782
 10
1538.211715824707
 20
183.5213213350871
 10
1537.965182916958
 20
180.7935224085413
 10
1536.984927476615
 20
178.4012005482254
 10
1535.351168409374
 20
176.5631993392817
  0
LWPOLYLINE
  5
1B2
330
70
100
AcDbEntity
  8
Camada 1
 62
    18
420
        0
370
    70
100
AcDbPolyline
 90
        3
 70
     0
 43
0.0
 10
1468.09246828936
 20
271.8614786463513
 10
1467.031993943315
 20
273.23258979815
 10
1465.799373921169
 20
274.2245976197955
  0
LINE
  5
1B3
330
70
100
AcDbEntity
  8
Camada 1
 62
    18
420
        0
370
    70
100
AcDbLine
 10
1508.76015925087
 20
295.2446219087942
 30
0.0
 11
1563.521982520961
 21
204.6727586149973
 31
0.0
  0
LINE
  5
1B4
330
70
100
AcDbEntity
  8
Camada 1
 62
    18
420
        0
370
    70
100
AcDbLine
 10
1403.25970005952
 20
356.7442990584823
 30
0.0
 11
1507.464815345189
 21
296.5867082401055
 31
0.0
  0
LWPOLYLINE
  5
1B5
330
70
100
AcDbEntity
  8
Camada 1
 62
    18
420
        0
370
    70
100
AcDbPolyline
 90
        3
 70
     0
 43
0.0
 10
1507.464815345189
 20
298.2788730810862
 10
1508.697390850741
 20
297.3014667028747
 10
1509.757865196783
 20
295.915754107642
  0
LINE
  5
1B6
330
70
100
AcDbEntity
  8
Camada 1
 62
    18
420
        0
370
    70
100
AcDbLine
 10
1403.25970005952
 20
356.7442990584823
 30
0.0
 11
1403.25970005952
 21
358.436463899463
 31
0.0
  0
LWPOLYLINE
  5
1B7
330
70
100
AcDbEntity
  8
Camada 1
 62
    18
420
        0
370
    70
100
AcDbPolyline
 90
        3
 70
     0
 43
0.0
 10
1508.76015925087
 20
295.2446219087942
 10
1508.16060973813
 20
296.0323875887352
 10
1507.464815345189
 20
296.5867082401055
  0
LINE
  5
1B8
330
70
100
AcDbEntity
  8
Camada 1
 62
    18
420
        0
370
    70
100
AcDbLine
 10
1563.521982520961
 20
204.6727586149973
 30
0.0
 11
1564.519688466873
 21
205.3292893704111
 31
0.0
  0
LWPOLYLINE
  5
1B9
330
70
100
AcDbEntity
  8
Camada 1
 62
    18
420
        0
370
    70
100
AcDbPolyline
 90
        6
 70
     0
 43
0.0
 10
1509.431113383336
 20
173.4415175727645
 10
1510.655052669295
 20
170.7283200896509
 10
1511.165568990362
 20
167.8984891254458
 10
1510.920460613679
 20
165.1706901988982
 10
1509.938780642269
 20
162.79296978202
 10
1508.305021575028
 20
160.9403671296404
  0
LWPOLYLINE
  5
1BA
330
70
100
AcDbEntity
  8
Camada 1
 62
    18
420
        0
370
    70
100
AcDbPolyline
 90
        3
 70
     0
 43
0.0
 10
1441.047835019273
 20
256.2384683703276
 10
1439.985891625567
 20
257.6243590319427
 10
1438.75327160342
 20
258.60158734377
  0
LINE
  5
1BB
330
70
100
AcDbEntity
  8
Camada 1
 62
    18
420
        0
370
    70
100
AcDbLine
 10
1481.715481464189
 20
279.6363911425851
 30
0.0
 11
1536.477260217681
 21
189.0499264053542
 31
0.0
  0
LINE
  5
1BC
330
70
100
AcDbEntity
  8
Camada 1
 62
    18
420
        0
370
    70
100
AcDbLine
 10
1376.215022272838
 20
341.136068292275
 30
0.0
 11
1480.418668510843
 21
280.9784774738982
 31
0.0
  0
LWPOLYLINE
  5
1BD
330
70
100
AcDbEntity
  8
Camada 1
 62
    18
420
        0
370
    70
100
AcDbPolyline
 90
        3
 70
     0
 43
0.0
 10
1480.418668510843
 20
282.6558628050607
 10
1481.65128853299
 20
281.6786344932316
 10
1482.711762879034
 20
280.2927438316165
  0
LINE
  5
1BE
330
70
100
AcDbEntity
  8
Camada 1
 62
    18
420
        0
370
    70
100
AcDbLine
 10
1376.215022272838
 20
341.136068292275
 30
0.0
 11
1376.215022272838
 21
342.8280550668715
 31
0.0
  0
LWPOLYLINE
  5
1BF
330
70
100
AcDbEntity
  8
Camada 1
 62
    18
420
        0
370
    70
100
AcDbPolyline
 90
        3
 70
     0
 43
0.0
 10
1481.715481464189
 20
279.6363911425851
 10
1481.115931951448
 20
280.4241568225298
 10
1480.418668510843
 20
280.9784774738982
  0
LINE
  5
1C0
330
70
100
AcDbEntity
  8
Camada 1
 62
    18
420
        0
370
    70
100
AcDbLine
 10
1536.477260217681
 20
189.0499264053542
 30
0.0
 11
1537.473541632527
 21
189.7062790943855
 31
0.0
  0
LWPOLYLINE
  5
1C1
330
70
100
AcDbEntity
  8
Camada 1
 62
    18
420
        0
370
    70
100
AcDbPolyline
 90
        3
 70
     0
 43
0.0
 10
1746.220762834353
 20
254.5464815957294
 10
1744.988187328801
 20
254.9839906996222
 10
1743.927623949565
 20
254.8235528882233
  0
LWPOLYLINE
  5
1C2
330
70
100
AcDbEntity
  8
Camada 1
 62
    18
420
        0
370
    70
100
AcDbPolyline
 90
        3
 70
     0
 43
0.0
 10
1481.258874740682
 20
145.3321363634313
 10
1481.753409603843
 20
145.7550440238901
 10
1482.207078232024
 20
146.2365355244692
  0
LWPOLYLINE
  5
1C3
330
70
100
AcDbEntity
  8
Camada 1
 62
    18
420
        0
370
    70
100
AcDbPolyline
 90
        4
 70
     0
 43
0.0
 10
1366.470784609939
 20
235.7727647326992
 10
1365.080620355122
 20
236.2394767234619
 10
1363.474550610492
 20
236.2394767234619
 10
1362.084386355673
 20
235.7727647326992
  0
LINE
  5
1C4
330
70
100
AcDbEntity
  8
Camada 1
 62
    18
420
        0
370
    70
100
AcDbLine
 10
1454.669334629843
 20
264.0281603763797
 30
0.0
 11
1509.431113383336
 21
173.4415175727645
 31
0.0
  0
LINE
  5
1C5
330
70
100
AcDbEntity
  8
Camada 1
 62
    18
420
        0
370
    70
100
AcDbLine
 10
1349.168919955089
 20
325.5276594596835
 30
0.0
 11
1453.372566193093
 21
265.3554671978745
 31
0.0
  0
LWPOLYLINE
  5
1C6
330
70
100
AcDbEntity
  8
Camada 1
 62
    18
420
        0
370
    70
100
AcDbPolyline
 90
        3
 70
     0
 43
0.0
 10
1453.372566193093
 20
267.0476320388534
 10
1454.605186215242
 20
266.0702256606419
 10
1455.667129608948
 20
264.6845130654092
  0
LINE
  5
1C7
330
70
100
AcDbEntity
  8
Camada 1
 62
    18
420
        0
370
    70
100
AcDbLine
 10
1349.168919955089
 20
325.5276594596835
 30
0.0
 11
1349.168919955089
 21
327.2052228572284
 31
0.0
  0
LWPOLYLINE
  5
1C8
330
70
100
AcDbEntity
  8
Camada 1
 62
    18
420
        0
370
    70
100
AcDbPolyline
 90
        3
 70
     0
 43
0.0
 10
1454.669334629843
 20
264.0281603763797
 10
1454.0698296337
 20
264.8011465465024
 10
1453.372566193093
 20
265.3554671978745
  0
LINE
  5
1C9
330
70
100
AcDbEntity
  8
Camada 1
 62
    18
420
        0
370
    70
100
AcDbLine
 10
1509.431113383336
 20
173.4415175727645
 30
0.0
 11
1510.427483831374
 21
174.0980483281783
 31
0.0
  0
LINE
  5
1CA
330
70
100
AcDbEntity
  8
Camada 1
 62
    18
420
        0
370
    70
100
AcDbLine
 10
1362.084386355673
 20
235.7727647326992
 30
0.0
 11
1358.722047872057
 21
233.8325534197138
 31
0.0
  0
LINE
  5
1CB
330
70
100
AcDbEntity
  8
Camada 1
 62
    18
420
        0
370
    70
100
AcDbLine
 10
1362.084386355673
 20
235.7727647326992
 30
0.0
 11
1362.084386355673
 21
237.4647515072975
 31
0.0
  0
LWPOLYLINE
  5
1CC
330
70
100
AcDbEntity
  8
Camada 1
 62
    18
420
        0
370
    70
100
AcDbPolyline
 90
        3
 70
     0
 43
0.0
 10
1414.00168818493
 20
240.6302376041185
 10
1412.941213838883
 20
242.015950199353
 10
1411.708593816736
 20
242.9933565775646
  0
LWPOLYLINE
  5
1CD
330
70
100
AcDbEntity
  8
Camada 1
 62
    18
420
        0
370
    70
100
AcDbPolyline
 90
        3
 70
     0
 43
0.0
 10
1701.896122557973
 20
230.5504338417959
 10
1702.958021435082
 20
230.7108716531948
 10
1704.189172409569
 20
230.2733625493019
  0
LWPOLYLINE
  5
1CE
330
70
100
AcDbEntity
  8
Camada 1
 62
    18
420
        0
370
    70
100
AcDbPolyline
 90
        3
 70
     0
 43
0.0
 10
1668.889648706927
 20
217.3491263793366
 10
1667.592880270176
 20
217.5095641907355
 10
1666.297536364493
 20
218.8368710122322
  0
LINE
  5
1CF
330
70
100
AcDbEntity
  8
Camada 1
 62
    18
420
        0
370
    70
100
AcDbLine
 10
1411.708593816736
 20
242.9933565775646
 30
0.0
 11
1307.503478531069
 21
303.1509473959395
 31
0.0
  0
LINE
  5
1D0
330
70
100
AcDbEntity
  8
Camada 1
 62
    18
420
        0
370
    70
100
AcDbLine
 10
1246.299970293488
 20
306.5060741910311
 30
0.0
 11
1248.200695385967
 21
305.3974328882905
 31
0.0
  0
LWPOLYLINE
  5
1D1
330
70
100
AcDbEntity
  8
Camada 1
 62
    18
420
        0
370
    70
100
AcDbPolyline
 90
        3
 70
     0
 43
0.0
 10
1246.299970293488
 20
306.5060741910311
 10
1244.838356902352
 20
306.8561527006987
 10
1243.376698994618
 20
306.5060741910311
  0
LINE
  5
1D2
330
70
100
AcDbEntity
  8
Camada 1
 62
    18
420
        0
370
    70
100
AcDbLine
 10
1238.113635418522
 20
303.4572215753033
 30
0.0
 11
1243.376698994618
 21
306.5060741910311
 31
0.0
  0
LINE
  5
1D3
330
70
100
AcDbEntity
  8
Camada 1
 62
    18
420
        0
370
    70
100
AcDbLine
 10
1362.084386355673
 20
237.4647515072975
 30
0.0
 11
1357.26043448092
 21
234.6787248733944
 31
0.0
  0
LWPOLYLINE
  5
1D4
330
70
100
AcDbEntity
  8
Camada 1
 62
    18
420
        0
370
    70
100
AcDbPolyline
 90
        4
 70
     0
 43
0.0
 10
1362.084386355673
 20
237.4647515072975
 10
1363.474550610492
 20
237.9170401210067
 10
1365.080620355122
 20
237.9170401210067
 10
1366.470784609939
 20
237.4647515072975
  0
LINE
  5
1D5
330
70
100
AcDbEntity
  8
Camada 1
 62
    18
420
        0
370
    70
100
AcDbLine
 10
1384.297811545885
 20
227.1662822262188
 30
0.0
 11
1411.708593816736
 21
242.9933565775646
 31
0.0
  0
LWPOLYLINE
  5
1D6
330
70
100
AcDbEntity
  8
Camada 1
 62
    18
420
        0
370
    70
100
AcDbPolyline
 90
       12
 70
     0
 43
0.0
 10
1307.503478531069
 20
303.1509473959395
 10
1305.741333601432
 20
304.5076351706884
 10
1304.712955720986
 20
306.1121913510579
 10
1304.502881905231
 20
307.8043561920385
 10
1305.128696209514
 20
309.467140079767
 10
1306.53782453416
 20
310.9550627790432
 10
1308.619420555527
 20
312.1513127423932
 10
1311.201338597513
 20
312.9681032428216
 10
1314.076487456283
 20
313.3327831959232
 10
1317.011422103262
 20
313.2015482713941
 10
1319.768379400084
 20
312.618024733154
 10
1322.122773120743
 20
311.5969920910211
  0
LINE
  5
1D7
330
70
100
AcDbEntity
  8
Camada 1
 62
    18
420
        0
370
    70
100
AcDbLine
 10
1426.327888406411
 20
251.4394012726461
 30
0.0
 11
1438.75327160342
 21
258.60158734377
 31
0.0
  0
LINE
  5
1D8
330
70
100
AcDbEntity
  8
Camada 1
 62
    18
420
        0
370
    70
100
AcDbLine
 10
1438.75327160342
 20
258.60158734377
 30
0.0
 11
1334.549625365414
 21
318.7737796055826
 31
0.0
  0
LWPOLYLINE
  5
1D9
330
70
100
AcDbEntity
  8
Camada 1
 62
    18
420
        0
370
    70
100
AcDbPolyline
 90
       12
 70
     0
 43
0.0
 10
1334.549625365414
 20
318.7737796055826
 10
1332.786011388114
 20
320.1304673803297
 10
1331.75763350767
 20
321.7204221172669
 10
1331.549028739573
 20
323.4125869582458
 10
1332.173373996198
 20
325.0755489123567
 10
1333.583926851908
 20
326.5634716116347
 10
1335.664053825614
 20
327.7741449520345
 10
1338.247485431859
 20
328.5765120754113
 10
1341.122589774033
 20
328.9411920285129
 10
1344.056099889945
 20
328.8243804810372
 10
1346.813057186766
 20
328.2264335657455
 10
1349.168919955089
 20
327.2052228572284
  0
LINE
  5
1DA
330
70
100
AcDbEntity
  8
Camada 1
 62
    18
420
        0
370
    70
100
AcDbLine
 10
1349.168919955089
 20
327.2052228572284
 30
0.0
 11
1453.372566193093
 21
267.0476320388534
 31
0.0
  0
LINE
  5
1DB
330
70
100
AcDbEntity
  8
Camada 1
 62
    18
420
        0
370
    70
100
AcDbLine
 10
1453.372566193093
 20
267.0476320388534
 30
0.0
 11
1465.799373921169
 21
274.2245976197955
 31
0.0
  0
LINE
  5
1DC
330
70
100
AcDbEntity
  8
Camada 1
 62
    18
420
        0
370
    70
100
AcDbLine
 10
1465.799373921169
 20
274.2245976197955
 30
0.0
 11
1361.595727683163
 21
334.3821884381723
 31
0.0
  0
LWPOLYLINE
  5
1DD
330
70
100
AcDbEntity
  8
Camada 1
 62
    18
420
        0
370
    70
100
AcDbPolyline
 90
       12
 70
     0
 43
0.0
 10
1361.595727683163
 20
334.3821884381723
 10
1359.83215822246
 20
335.738698146537
 10
1358.803735825419
 20
337.3288309498566
 10
1358.593706526257
 20
339.0354191678889
 10
1359.219476313947
 20
340.6837796785658
 10
1360.630073686254
 20
342.1863038212759
 10
1362.71020065996
 20
343.3823757182417
 10
1365.292118701946
 20
344.1993442850544
 10
1368.167267560715
 20
344.564024238156
 10
1371.102202207696
 20
344.4327893136269
 10
1373.859204021111
 20
343.8492657753868
 10
1376.215022272838
 20
342.8280550668715
  0
LINE
  5
1DE
330
70
100
AcDbEntity
  8
Camada 1
 62
    18
420
        0
370
    70
100
AcDbLine
 10
1376.215022272838
 20
342.8280550668715
 30
0.0
 11
1480.418668510843
 21
282.6558628050607
 31
0.0
  0
LINE
  5
1DF
330
70
100
AcDbEntity
  8
Camada 1
 62
    18
420
        0
370
    70
100
AcDbLine
 10
1480.418668510843
 20
282.6558628050607
 30
0.0
 11
1492.845476238917
 21
289.8328283860028
 31
0.0
  0
LINE
  5
1E0
330
70
100
AcDbEntity
  8
Camada 1
 62
    18
420
        0
370
    70
100
AcDbLine
 10
1492.845476238917
 20
289.8328283860028
 30
0.0
 11
1388.640405469847
 21
350.0050206478136
 31
0.0
  0
LWPOLYLINE
  5
1E1
330
70
100
AcDbEntity
  8
Camada 1
 62
    18
420
        0
370
    70
100
AcDbPolyline
 90
       12
 70
     0
 43
0.0
 10
1388.640405469847
 20
350.0050206478136
 10
1386.87826054021
 20
351.3617084225625
 10
1385.849882659764
 20
352.9516631594997
 10
1385.639808844005
 20
354.6438280004804
 10
1386.265623148292
 20
356.3067899545895
 10
1387.674706956341
 20
357.7945345874832
 10
1389.756302977708
 20
358.9907845508315
 10
1392.338265536291
 20
359.8075750512617
 10
1395.213369878464
 20
360.1722550043632
 10
1398.148349042039
 20
360.0556215232682
 10
1400.90530633886
 20
359.4574965415941
 10
1403.25970005952
 20
358.436463899463
  0
LINE
  5
1E2
330
70
100
AcDbEntity
  8
Camada 1
 62
    18
420
        0
370
    70
100
AcDbLine
 10
1403.25970005952
 20
358.436463899463
 30
0.0
 11
1507.464815345189
 21
298.2788730810862
 31
0.0
  0
LINE
  5
1E3
330
70
100
AcDbEntity
  8
Camada 1
 62
    18
420
        0
370
    70
100
AcDbLine
 10
1507.464815345189
 20
298.2788730810862
 30
0.0
 11
1519.891623073263
 21
305.4556605956459
 31
0.0
  0
LINE
  5
1E4
330
70
100
AcDbEntity
  8
Camada 1
 62
    18
420
        0
370
    70
100
AcDbLine
 10
1519.891623073263
 20
305.4556605956459
 30
0.0
 11
1415.686507787595
 21
365.6134294804051
 31
0.0
  0
LWPOLYLINE
  5
1E5
330
70
100
AcDbEntity
  8
Camada 1
 62
    18
420
        0
370
    70
100
AcDbPolyline
 90
       12
 70
     0
 43
0.0
 10
1415.686507787595
 20
365.6134294804051
 10
1413.922938326892
 20
366.9699391887698
 10
1412.894515929851
 20
368.559893925707
 10
1412.685955678351
 20
370.2666602101199
 10
1413.310256418379
 20
371.9150207207968
 10
1414.720853790686
 20
373.4175448635087
 10
1416.800980764392
 20
374.6136167604745
 10
1419.38436785404
 20
375.4305853272854
 10
1422.259516712809
 20
375.7806638369548
 10
1425.192982312126
 20
375.6638522894755
 10
1427.949984125542
 20
375.0659053741856
 10
1430.30580237727
 20
374.0592961091043
  0
LINE
  5
1E6
330
70
100
AcDbEntity
  8
Camada 1
 62
    18
420
        0
370
    70
100
AcDbLine
 10
1430.30580237727
 20
374.0592961091043
 30
0.0
 11
1534.509448615275
 21
313.8871038472935
 31
0.0
  0
LINE
  5
1E7
330
70
100
AcDbEntity
  8
Camada 1
 62
    18
420
        0
370
    70
100
AcDbLine
 10
1534.509448615275
 20
313.8871038472935
 30
0.0
 11
1546.936256343349
 21
321.0640694282374
 31
0.0
  0
LINE
  5
1E8
330
70
100
AcDbEntity
  8
Camada 1
 62
    18
420
        0
370
    70
100
AcDbLine
 10
1546.936256343349
 20
321.0640694282374
 30
0.0
 11
1442.732654621941
 21
381.2216602466124
 31
0.0
  0
LWPOLYLINE
  5
1E9
330
70
100
AcDbEntity
  8
Camada 1
 62
    18
420
        0
370
    70
100
AcDbPolyline
 90
       12
 70
     0
 43
0.0
 10
1442.732654621941
 20
381.2216602466124
 10
1440.96904064464
 20
382.5927713984111
 10
1439.940662764196
 20
384.1829042017325
 10
1439.730588948438
 20
385.874890976329
 10
1440.356403252725
 20
387.5378529304398
 10
1441.766956108435
 20
389.025775629716
 10
1443.847127598736
 20
390.2220255930661
 10
1446.429045640723
 20
391.0388160934945
 10
1449.304194499493
 20
391.403496046596
 10
1452.239129146472
 20
391.286862565501
 10
1454.996086443292
 20
390.6887375838269
 10
1457.351949211614
 20
389.667704941694
  0
LINE
  5
1EA
330
70
100
AcDbEntity
  8
Camada 1
 62
    18
420
        0
370
    70
100
AcDbLine
 10
1457.351949211614
 20
389.667704941694
 30
0.0
 11
1561.555595449621
 21
329.510114123319
 31
0.0
  0
LINE
  5
1EB
330
70
100
AcDbEntity
  8
Camada 1
 62
    18
420
        0
370
    70
100
AcDbLine
 10
1561.555595449621
 20
329.510114123319
 30
0.0
 11
1588.966422237066
 21
345.337188474663
 31
0.0
  0
LINE
  5
1EC
330
70
100
AcDbEntity
  8
Camada 1
 62
    18
420
        0
370
    70
100
AcDbLine
 10
1588.966422237066
 20
345.337188474663
 30
0.0
 11
1571.140819832188
 21
355.6210563123059
 31
0.0
  0
LWPOLYLINE
  5
1ED
330
70
100
AcDbEntity
  8
Camada 1
 62
    18
420
        0
370
    70
100
AcDbPolyline
 90
        4
 70
     0
 43
0.0
 10
1571.140819832188
 20
355.6210563123059
 10
1570.337117210934
 20
356.4234234356845
 10
1570.337117210934
 20
357.3570254835904
 10
1571.140819832188
 20
358.1592145405848
  0
LINE
  5
1EE
330
70
100
AcDbEntity
  8
Camada 1
 62
    18
420
        0
370
    70
100
AcDbLine
 10
1571.140819832188
 20
358.1592145405848
 30
0.0
 11
1579.18131833919
 21
362.7980218932498
 31
0.0
  0
LWPOLYLINE
  5
1EF
330
70
100
AcDbEntity
  8
Camada 1
 62
    18
420
        0
370
    70
100
AcDbPolyline
 90
        5
 70
     0
 43
0.0
 10
1579.18131833919
 20
362.7980218932498
 10
1580.524740168375
 20
363.9650689697301
 10
1580.997417382981
 20
365.3361801215287
 10
1580.524740168375
 20
366.7074693397117
 10
1579.18131833919
 20
367.8597369063719
  0
LINE
  5
1F0
330
70
100
AcDbEntity
  8
Camada 1
 62
    18
420
        0
370
    70
100
AcDbLine
 10
1579.18131833919
 20
367.8597369063719
 30
0.0
 11
1468.805802221062
 21
431.5912981049769
 31
0.0
  0
LWPOLYLINE
  5
1F1
330
70
100
AcDbEntity
  8
Camada 1
 62
    18
420
        0
370
    70
100
AcDbPolyline
 90
        5
 70
     0
 43
0.0
 10
1468.805802221062
 20
431.5912981049769
 10
1466.792761757284
 20
432.3642842751014
 10
1464.419448483393
 20
432.6415336339778
 10
1462.046090692905
 20
432.3642842751014
 10
1460.033050229127
 20
431.5912981049769
  0
LINE
  5
1F2
330
70
100
AcDbEntity
  8
Camada 1
 62
    18
420
        0
370
    70
100
AcDbLine
 10
1451.554998101639
 20
426.6900209032537
 30
0.0
 11
1460.033050229127
 21
431.5912981049769
 31
0.0
  0
LWPOLYLINE
  5
1F3
330
70
100
AcDbEntity
  8
Camada 1
 62
    18
420
        0
370
    70
100
AcDbPolyline
 90
        3
 70
     0
 43
0.0
 10
1451.554998101639
 20
426.6900209032537
 10
1450.949616914842
 20
425.8438494495712
 10
1451.554998101639
 20
424.997856062273
  0
LINE
  5
1F4
330
70
100
AcDbEntity
  8
Camada 1
 62
    18
420
        0
370
    70
100
AcDbLine
 10
1451.554998101639
 20
424.997856062273
 30
0.0
 11
1453.455678677523
 21
423.9038162029682
 31
0.0
  0
LINE
  5
1F5
330
70
100
AcDbEntity
  8
Camada 1
 62
    18
420
        0
370
    70
100
AcDbLine
 10
1453.455678677523
 20
423.9038162029682
 30
0.0
 11
1453.165430472662
 21
423.7433783915694
 31
0.0
  0
LINE
  5
1F6
330
70
100
AcDbEntity
  8
Camada 1
 62
    18
420
        0
370
    70
100
AcDbLine
 10
1248.492412638492
 20
305.5724721431252
 30
0.0
 11
1453.162492377336
 21
423.7433783915694
 31
0.0
  0
LINE
  5
1F7
330
70
100
AcDbEntity
  8
Camada 1
 62
    18
420
        0
370
    70
100
AcDbLine
 10
1248.200695385967
 20
305.3974328882905
 30
0.0
 11
1248.492412638492
 21
305.5724721431252
 31
0.0
  0
LINE
  5
1F8
330
70
100
AcDbEntity
  8
Camada 1
 62
    18
420
        0
370
    70
100
AcDbLine
 10
1472.147752103785
 20
174.7544010172078
 30
0.0
 11
1427.623232312095
 21
248.4051501003524
 31
0.0
  0
LWPOLYLINE
  5
1F9
330
70
100
AcDbEntity
  8
Camada 1
 62
    18
420
        0
370
    70
100
AcDbPolyline
 90
        3
 70
     0
 43
0.0
 10
1426.327888406411
 20
251.4394012726461
 10
1427.560508428558
 20
250.4473934510006
 10
1428.620982774604
 20
249.0616808557661
  0
LINE
  5
1FA
330
70
100
AcDbEntity
  8
Camada 1
 62
    18
420
        0
370
    70
100
AcDbLine
 10
1322.122773120743
 20
311.5969920910211
 30
0.0
 11
1426.327888406411
 21
251.4394012726461
 31
0.0
  0
LINE
  5
1FB
330
70
100
AcDbEntity
  8
Camada 1
 62
    18
420
        0
370
    70
100
AcDbLine
 10
1322.122773120743
 20
311.5969920910211
 30
0.0
 11
1322.122773120743
 21
309.9048272500422
 31
0.0
  0
LINE
  5
1FC
330
70
100
AcDbEntity
  8
Camada 1
 62
    18
420
        0
370
    70
100
AcDbLine
 10
1426.327888406411
 20
249.7472364316654
 30
0.0
 11
1322.122773120743
 21
309.9048272500422
 31
0.0
  0
LWPOLYLINE
  5
1FD
330
70
100
AcDbEntity
  8
Camada 1
 62
    18
420
        0
370
    70
100
AcDbPolyline
 90
        3
 70
     0
 43
0.0
 10
1426.327888406411
 20
249.7472364316654
 10
1427.023682799354
 20
249.1929157802951
 10
1427.623232312095
 20
248.4051501003524
  0
LWPOLYLINE
  5
1FE
330
70
100
AcDbEntity
  8
Camada 1
 62
    18
420
        0
370
    70
100
AcDbPolyline
 90
        3
 70
     0
 43
0.0
 10
1674.851400254694
 20
214.9422030755886
 10
1675.911963633931
 20
215.1026408869875
 10
1677.144539139483
 20
214.6649537167123
  0
LWPOLYLINE
  5
1FF
330
70
100
AcDbEntity
  8
Camada 1
 62
    18
420
        0
370
    70
100
AcDbPolyline
 90
        3
 70
     0
 43
0.0
 10
1647.805342453541
 20
199.3337942429971
 10
1648.865816799585
 20
199.4944101207802
 10
1650.098392305137
 20
199.0421215070691
  0
LWPOLYLINE
  5
200
330
70
100
AcDbEntity
  8
Camada 1
 62
    18
420
        0
370
    70
100
AcDbPolyline
 90
       12
 70
     0
 43
0.0
 10
1618.610468571305
 20
236.5603523462596
 10
1619.821230944897
 20
233.8909591934516
 10
1620.340561551939
 20
231.1047544931662
 10
1620.127594157451
 20
228.4207598969224
 10
1619.199779267002
 20
226.0430394800423
 10
1617.633151226286
 20
224.1904368276646
 10
1615.551555204918
 20
222.9797634872648
 10
1613.127181395599
 20
222.5420763169895
 10
1610.553944089801
 20
222.8921548266553
 10
1608.042050653068
 20
224.0007961293977
 10
1605.79414062965
 20
225.7949930080358
 10
1603.991218498226
 20
228.1144857175605
  0
LINE
  5
201
330
70
100
AcDbEntity
  8
Camada 1
 62
    18
420
        0
370
    70
100
AcDbLine
 10
1549.229395228138
 20
318.7009504547914
 30
0.0
 11
1603.991218498226
 21
228.1144857175605
 31
0.0
  0
LINE
  5
202
330
70
100
AcDbEntity
  8
Camada 1
 62
    18
420
        0
370
    70
100
AcDbLine
 10
1536.804012031129
 20
311.5239848738493
 30
0.0
 11
1549.229395228138
 21
318.7009504547914
 31
0.0
  0
LINE
  5
203
330
70
100
AcDbEntity
  8
Camada 1
 62
    18
420
        0
370
    70
100
AcDbLine
 10
1536.804012031129
 20
311.5239848738493
 30
0.0
 11
1591.564410770152
 21
220.9375201366165
 31
0.0
  0
LWPOLYLINE
  5
204
330
70
100
AcDbEntity
  8
Camada 1
 62
    18
420
        0
370
    70
100
AcDbPolyline
 90
       12
 70
     0
 43
0.0
 10
1591.564410770152
 20
220.9375201366165
 10
1592.775084110552
 20
218.2827284272444
 10
1593.294414717595
 20
215.4965237269589
 10
1593.082871854172
 20
212.7979276872811
 10
1592.155145996916
 20
210.4348087138369
 10
1590.58700439194
 20
208.5676046180233
 10
1588.506921934831
 20
207.3713546546733
 10
1586.081034561255
 20
206.9192441073483
 10
1583.509310819714
 20
207.269322617014
 10
1580.995903818722
 20
208.3925653631886
 10
1578.748082828497
 20
210.1867622418285
 10
1576.945071663882
 20
212.5060768849689
  0
LINE
  5
205
330
70
100
AcDbEntity
  8
Camada 1
 62
    18
420
        0
370
    70
100
AcDbLine
 10
1576.945071663882
 20
212.5060768849689
 30
0.0
 11
1522.184761958051
 21
303.0779401787659
 31
0.0
  0
LINE
  5
206
330
70
100
AcDbEntity
  8
Camada 1
 62
    18
420
        0
370
    70
100
AcDbLine
 10
1509.757865196783
 20
295.915754107642
 30
0.0
 11
1522.184761958051
 21
303.0779401787659
 31
0.0
  0
LINE
  5
207
330
70
100
AcDbEntity
  8
Camada 1
 62
    18
420
        0
370
    70
100
AcDbLine
 10
1509.757865196783
 20
295.915754107642
 30
0.0
 11
1564.519688466873
 21
205.3292893704111
 31
0.0
  0
LWPOLYLINE
  5
208
330
70
100
AcDbEntity
  8
Camada 1
 62
    18
420
        0
370
    70
100
AcDbPolyline
 90
       12
 70
     0
 43
0.0
 10
1564.519688466873
 20
205.3292893704111
 10
1565.729026309398
 20
202.6597181512189
 10
1566.249781447506
 20
199.8735134509334
 10
1566.036814053019
 20
197.1895188546914
 10
1565.108999162572
 20
194.8117984378114
 10
1563.540946590787
 20
192.9591957854318
 10
1561.460775100486
 20
191.748522445032
 10
1559.036401291169
 20
191.3108352747567
 10
1556.463163985369
 20
191.6610918508068
 10
1553.951270548636
 20
192.7695550871649
 10
1551.701935994151
 20
194.5639300321873
 10
1549.900438393794
 20
196.8832446753276
  0
LINE
  5
209
330
70
100
AcDbEntity
  8
Camada 1
 62
    18
420
        0
370
    70
100
AcDbLine
 10
1549.900438393794
 20
196.8832446753276
 30
0.0
 11
1495.138615123706
 21
287.4697094125604
 31
0.0
  0
LINE
  5
20A
330
70
100
AcDbEntity
  8
Camada 1
 62
    18
420
        0
370
    70
100
AcDbLine
 10
1482.711762879034
 20
280.2927438316165
 30
0.0
 11
1495.138615123706
 21
287.4697094125604
 31
0.0
  0
LINE
  5
20B
330
70
100
AcDbEntity
  8
Camada 1
 62
    18
420
        0
370
    70
100
AcDbLine
 10
1482.711762879034
 20
280.2927438316165
 30
0.0
 11
1537.473541632527
 21
189.7062790943855
 31
0.0
  0
LWPOLYLINE
  5
20C
330
70
100
AcDbEntity
  8
Camada 1
 62
    18
420
        0
370
    70
100
AcDbPolyline
 90
       12
 70
     0
 43
0.0
 10
1537.473541632527
 20
189.7062790943855
 10
1538.684304006119
 20
187.0514873850116
 10
1539.203634613163
 20
184.2652826847261
 10
1538.990667218673
 20
181.5666866450483
 10
1538.062941361419
 20
179.2035676716041
 10
1536.496224287508
 20
177.3363635757905
 10
1534.41462826614
 20
176.1402916788247
 10
1531.990254456823
 20
175.6880030651136
 10
1529.417106184217
 20
176.052683018217
 10
1526.90512371429
 20
177.1613243209558
 10
1524.657302724065
 20
178.9555211995957
 10
1522.85429155945
 20
181.2748358427379
  0
LINE
  5
20D
330
70
100
AcDbEntity
  8
Camada 1
 62
    18
420
        0
370
    70
100
AcDbLine
 10
1522.85429155945
 20
181.2748358427379
 30
0.0
 11
1468.09246828936
 21
271.8614786463513
 31
0.0
  0
LINE
  5
20E
330
70
100
AcDbEntity
  8
Camada 1
 62
    18
420
        0
370
    70
100
AcDbLine
 10
1455.667129608948
 20
264.6845130654092
 30
0.0
 11
1468.09246828936
 21
271.8614786463513
 31
0.0
  0
LINE
  5
20F
330
70
100
AcDbEntity
  8
Camada 1
 62
    18
420
        0
370
    70
100
AcDbLine
 10
1455.667129608948
 20
264.6845130654092
 30
0.0
 11
1510.427483831374
 21
174.0980483281783
 31
0.0
  0
LWPOLYLINE
  5
210
330
70
100
AcDbEntity
  8
Camada 1
 62
    18
420
        0
370
    70
100
AcDbPolyline
 90
       12
 70
     0
 43
0.0
 10
1510.427483831374
 20
174.0980483281783
 10
1511.638157171774
 20
171.428477108986
 10
1512.157487778817
 20
168.642450475083
 10
1511.945944915396
 20
165.9582778124586
 10
1511.01821905814
 20
163.580735461961
 10
1509.450077453162
 20
161.7281328095814
 10
1507.369994996054
 20
160.5172814027973
 10
1504.944107622477
 20
160.0797722989064
 10
1502.372383880938
 20
160.4298508085739
 10
1499.859065913137
 20
161.5530935547504
 10
1497.611155889719
 20
163.3326889899544
 10
1495.808144725104
 20
165.6520036330948
  0
LINE
  5
211
330
70
100
AcDbEntity
  8
Camada 1
 62
    18
420
        0
370
    70
100
AcDbLine
 10
1495.808144725104
 20
165.6520036330948
 30
0.0
 11
1441.047835019273
 21
256.2384683703276
 31
0.0
  0
LINE
  5
212
330
70
100
AcDbEntity
  8
Camada 1
 62
    18
420
        0
370
    70
100
AcDbLine
 10
1428.620982774604
 20
249.0616808557661
 30
0.0
 11
1441.047835019273
 21
256.2384683703276
 31
0.0
  0
LINE
  5
213
330
70
100
AcDbEntity
  8
Camada 1
 62
    18
420
        0
370
    70
100
AcDbLine
 10
1428.620982774604
 20
249.0616808557661
 30
0.0
 11
1474.290602961026
 21
173.5145247899381
 31
0.0
  0
LWPOLYLINE
  5
214
330
70
100
AcDbEntity
  8
Camada 1
 62
    18
420
        0
370
    70
100
AcDbPolyline
 90
        7
 70
     0
 43
0.0
 10
1482.415638483524
 20
146.1197239769917
 10
1480.335511509818
 20
144.9090506365919
 10
1477.909668652837
 20
144.4713634663167
 10
1475.333582284906
 20
144.8068405325484
 10
1472.818750752847
 20
145.930083278723
 10
1470.567947150699
 20
147.7242801573648
 10
1468.763511455017
 20
150.0437728668876
  0
LINE
  5
215
330
70
100
AcDbEntity
  8
Camada 1
 62
    18
420
        0
370
    70
100
AcDbLine
 10
1443.994433014363
 20
191.0191625388288
 30
0.0
 11
1414.00168818493
 21
240.6302376041185
 31
0.0
  0
LINE
  5
216
330
70
100
AcDbEntity
  8
Camada 1
 62
    18
420
        0
370
    70
100
AcDbLine
 10
1468.763511455017
 20
150.0437728668876
 30
0.0
 11
1465.086084506063
 21
156.1265205221425
 31
0.0
  0
LINE
  5
217
330
70
100
AcDbEntity
  8
Camada 1
 62
    18
420
        0
370
    70
100
AcDbLine
 10
1386.590905914077
 20
224.8031632527745
 30
0.0
 11
1414.00168818493
 21
240.6302376041185
 31
0.0
  0
LINE
  5
218
330
70
100
AcDbEntity
  8
Camada 1
 62
    18
420
        0
370
    70
100
AcDbLine
 10
1531.042050965481
 20
140.7517347845059
 30
0.0
 11
1666.297536364493
 21
218.8368710122322
 31
0.0
  0
LINE
  5
219
330
70
100
AcDbEntity
  8
Camada 1
 62
    18
420
        0
370
    70
100
AcDbLine
 10
1461.627456625649
 20
100.6805662072202
 30
0.0
 11
1511.378536384849
 21
129.4028519080439
 31
0.0
  0
LINE
  5
21A
330
70
100
AcDbEntity
  8
Camada 1
 62
    18
420
        0
370
    70
100
AcDbLine
 10
1666.297536364493
 20
218.8368710122322
 30
0.0
 11
1591.259472088663
 21
342.9594680577848
 31
0.0
  0
LINE
  5
21B
330
70
100
AcDbEntity
  8
Camada 1
 62
    18
420
        0
370
    70
100
AcDbLine
 10
1563.848734334408
 20
327.1323937064408
 30
0.0
 11
1591.259472088663
 21
342.9594680577848
 31
0.0
  0
LINE
  5
21C
330
70
100
AcDbEntity
  8
Camada 1
 62
    18
420
        0
370
    70
100
AcDbLine
 10
1618.610468571305
 20
236.5603523462596
 30
0.0
 11
1563.848734334408
 21
327.1323937064408
 31
0.0
  0
LWPOLYLINE
  5
21D
330
70
100
AcDbEntity
  8
Camada 1
 62
    18
420
        0
370
    70
100
AcDbPolyline
 90
        3
 70
     0
 43
0.0
 10
1897.437495604565
 20
180.9393587765043
 10
1896.964907423153
 20
179.5828490681415
 10
1895.619972029704
 20
178.4158019916613
  0
LINE
  5
21E
330
70
100
AcDbEntity
  8
Camada 1
 62
    18
420
        0
370
    70
100
AcDbLine
 10
1897.437495604565
 20
180.9393587765043
 30
0.0
 11
1897.437495604565
 21
182.6315236174851
 31
0.0
  0
LINE
  5
21F
330
70
100
AcDbEntity
  8
Camada 1
 62
    18
420
        0
370
    70
100
AcDbLine
 10
1718.808511515839
 20
237.0272424034047
 30
0.0
 11
1823.013582284909
 21
176.8696515850279
 31
0.0
  0
LINE
  5
220
330
70
100
AcDbEntity
  8
Camada 1
 62
    18
420
        0
370
    70
100
AcDbLine
 10
1703.941214970753
 20
230.404597473831
 30
0.0
 11
1717.513167610155
 21
237.1876802148035
 31
0.0
  0
LWPOLYLINE
  5
221
330
70
100
AcDbEntity
  8
Camada 1
 62
    18
420
        0
370
    70
100
AcDbPolyline
 90
        3
 70
     0
 43
0.0
 10
1718.808511515839
 20
237.0272424034047
 10
1718.112717122896
 20
237.2751108090288
 10
1717.513167610155
 20
237.1876802148035
  0
LWPOLYLINE
  5
222
330
70
100
AcDbEntity
  8
Camada 1
 62
    18
420
        0
370
    70
100
AcDbPolyline
 90
        3
 70
     0
 43
0.0
 10
1718.808511515839
 20
238.7192291780011
 10
1717.577360541354
 20
239.1569163482763
 10
1716.515372631051
 20
238.9964785368775
  0
LINE
  5
223
330
70
100
AcDbEntity
  8
Camada 1
 62
    18
420
        0
370
    70
100
AcDbLine
 10
1662.24661517646
 20
210.7556843366328
 30
0.0
 11
1661.753549360963
 21
211.6454820542367
 31
0.0
  0
LWPOLYLINE
  5
224
330
70
100
AcDbEntity
  8
Camada 1
 62
    18
420
        0
370
    70
100
AcDbPolyline
 90
        3
 70
     0
 43
0.0
 10
1620.759195619195
 20
183.7109620333558
 10
1621.821094496306
 20
183.8713998447547
 10
1623.052334503984
 20
183.4338907408637
  0
LINE
  5
225
330
70
100
AcDbEntity
  8
Camada 1
 62
    18
420
        0
370
    70
100
AcDbLine
 10
1882.316365430011
 20
175.950650980556
 30
0.0
 11
1882.316365430011
 21
176.3007294902236
 31
0.0
  0
LINE
  5
226
330
70
100
AcDbEntity
  8
Camada 1
 62
    18
420
        0
370
    70
100
AcDbLine
 10
1887.141875385619
 20
173.5145247899381
 30
0.0
 11
1895.619972029704
 21
178.4158019916613
 31
0.0
  0
LINE
  5
227
330
70
100
AcDbEntity
  8
Camada 1
 62
    18
420
        0
370
    70
100
AcDbLine
 10
1895.619972029704
 20
178.4158019916613
 30
0.0
 11
1895.619972029704
 21
180.1079668326401
 31
0.0
  0
LWPOLYLINE
  5
228
330
70
100
AcDbEntity
  8
Camada 1
 62
    18
420
        0
370
    70
100
AcDbPolyline
 90
        3
 70
     0
 43
0.0
 10
1887.141875385619
 20
173.5145247899381
 10
1885.891760341308
 20
173.1790477237046
 10
1884.54682494786
 20
173.3686884219733
  0
LINE
  5
229
330
70
100
AcDbEntity
  8
Camada 1
 62
    18
420
        0
370
    70
100
AcDbLine
 10
1887.141875385619
 20
175.206689630917
 30
0.0
 11
1887.141875385619
 21
173.5145247899381
 31
0.0
  0
LINE
  5
22A
330
70
100
AcDbEntity
  8
Camada 1
 62
    18
420
        0
370
    70
100
AcDbLine
 10
1884.217135039089
 20
173.9230090733435
 30
0.0
 11
1884.217135039089
 21
175.206689630917
 31
0.0
  0
LWPOLYLINE
  5
22B
330
70
100
AcDbEntity
  8
Camada 1
 62
    18
420
        0
370
    70
100
AcDbPolyline
 90
        3
 70
     0
 43
0.0
 10
1823.013582284909
 20
176.8696515850279
 10
1824.949341938314
 20
175.308721668578
 10
1825.936898100375
 20
173.4853219030683
  0
LINE
  5
22C
330
70
100
AcDbEntity
  8
Camada 1
 62
    18
420
        0
370
    70
100
AcDbLine
 10
1823.013582284909
 20
176.8696515850279
 30
0.0
 11
1823.013582284909
 21
178.5470369161903
 31
0.0
  0
LINE
  5
22D
330
70
100
AcDbEntity
  8
Camada 1
 62
    18
420
        0
370
    70
100
AcDbLine
 10
1691.763878245752
 20
221.4188335708132
 30
0.0
 11
1795.967524483756
 21
161.2466413090023
 31
0.0
  0
LINE
  5
22E
330
70
100
AcDbEntity
  8
Camada 1
 62
    18
420
        0
370
    70
100
AcDbLine
 10
1676.895068136408
 20
214.7963667076256
 30
0.0
 11
1690.46702077581
 21
221.5648480051604
 31
0.0
  0
LWPOLYLINE
  5
22F
330
70
100
AcDbEntity
  8
Camada 1
 62
    18
420
        0
370
    70
100
AcDbPolyline
 90
        3
 70
     0
 43
0.0
 10
1691.763878245752
 20
221.4188335708132
 10
1691.066570288553
 20
221.6668800428215
 10
1690.46702077581
 20
221.5648480051604
  0
LWPOLYLINE
  5
230
330
70
100
AcDbEntity
  8
Camada 1
 62
    18
420
        0
370
    70
100
AcDbPolyline
 90
        3
 70
     0
 43
0.0
 10
1691.763878245752
 20
223.0963969683598
 10
1690.531213707008
 20
223.5486855820691
 10
1689.470739360964
 20
223.388247770672
  0
LINE
  5
231
330
70
100
AcDbEntity
  8
Camada 1
 62
    18
420
        0
370
    70
100
AcDbLine
 10
1635.200557375307
 20
195.1326740606091
 30
0.0
 11
1634.708916090876
 21
196.0372512880294
 31
0.0
  0
LWPOLYLINE
  5
232
330
70
100
AcDbEntity
  8
Camada 1
 62
    18
420
        0
370
    70
100
AcDbPolyline
 90
        3
 70
     0
 43
0.0
 10
1593.714562349109
 20
168.1027312671485
 10
1594.775036695153
 20
168.2631690785474
 10
1596.007612200705
 20
167.8108804648364
  0
LWPOLYLINE
  5
233
330
70
100
AcDbEntity
  8
Camada 1
 62
    18
420
        0
370
    70
100
AcDbPolyline
 90
        3
 70
     0
 43
0.0
 10
1795.967524483756
 20
161.2466413090023
 10
1797.904619635035
 20
159.7004909023708
 10
1798.892175797098
 20
157.877091136861
  0
LINE
  5
234
330
70
100
AcDbEntity
  8
Camada 1
 62
    18
420
        0
370
    70
100
AcDbLine
 10
1795.967524483756
 20
161.2466413090023
 30
0.0
 11
1795.967524483756
 21
162.9388061499812
 31
0.0
  0
LINE
  5
235
330
70
100
AcDbEntity
  8
Camada 1
 62
    18
420
        0
370
    70
100
AcDbLine
 10
1664.717731411407
 20
205.7960013611719
 30
0.0
 11
1768.921377649411
 21
145.6384105427951
 31
0.0
  0
LINE
  5
236
330
70
100
AcDbEntity
  8
Camada 1
 62
    18
420
        0
370
    70
100
AcDbLine
 10
1649.849010335254
 20
199.1733564316
 30
0.0
 11
1663.422387505725
 21
205.9564391725707
 31
0.0
  0
LWPOLYLINE
  5
237
330
70
100
AcDbEntity
  8
Camada 1
 62
    18
420
        0
370
    70
100
AcDbPolyline
 90
        3
 70
     0
 43
0.0
 10
1664.717731411407
 20
205.7960013611719
 10
1664.021937018464
 20
206.0440478331802
 10
1663.422387505725
 20
205.9564391725707
  0
LWPOLYLINE
  5
238
330
70
100
AcDbEntity
  8
Camada 1
 62
    18
420
        0
370
    70
100
AcDbPolyline
 90
        3
 70
     0
 43
0.0
 10
1664.717731411407
 20
207.4881662021526
 10
1663.485066872663
 20
207.9256753060436
 10
1662.424592526619
 20
207.7652374946447
  0
LINE
  5
239
330
70
100
AcDbEntity
  8
Camada 1
 62
    18
420
        0
370
    70
100
AcDbLine
 10
1608.155835072028
 20
179.5244432944018
 30
0.0
 11
1607.662769256531
 21
180.4142410120039
 31
0.0
  0
LINE
  5
23A
330
70
100
AcDbEntity
  8
Camada 1
 62
    18
420
        0
370
    70
100
AcDbLine
 10
1536.675626168733
 20
137.4988180934597
 30
0.0
 11
1566.668415514763
 21
152.479720991123
 31
0.0
  0
LINE
  5
23B
330
70
100
AcDbEntity
  8
Camada 1
 62
    18
420
        0
370
    70
100
AcDbLine
 10
1511.906592244675
 20
125.1287245084804
 30
0.0
 11
1515.584019193629
 21
126.966725717426
 31
0.0
  0
LINE
  5
23C
330
70
100
AcDbEntity
  8
Camada 1
 62
    18
420
        0
370
    70
100
AcDbLine
 10
1538.952739079021
 20
140.7517347845059
 30
0.0
 11
1593.714562349109
 21
168.1027312671485
 31
0.0
  0
LINE
  5
23D
330
70
100
AcDbEntity
  8
Camada 1
 62
    18
420
        0
370
    70
100
AcDbLine
 10
1565.997372349107
 20
156.359965550715
 30
0.0
 11
1620.759195619195
 21
183.7109620333558
 31
0.0
  0
LWPOLYLINE
  5
23E
330
70
100
AcDbEntity
  8
Camada 1
 62
    18
420
        0
370
    70
100
AcDbPolyline
 90
       12
 70
     0
 43
0.0
 10
1553.5719891521
 20
149.1829999697711
 10
1551.769067020676
 20
148.2641774316816
 10
1549.521156997258
 20
147.0679274683334
 10
1547.009263560523
 20
145.7114177599706
 10
1544.436026254725
 20
144.296324211482
 10
1542.010227914341
 20
142.9252130596833
 10
1539.93005642404
 20
141.728963096335
 10
1538.363428383323
 20
140.7809376713758
 10
1537.435613492875
 20
140.1828126897016
 10
1537.222646098387
 20
139.978570547999
 10
1537.741976705429
 20
140.1682112462658
 10
1538.952739079021
 20
140.7517347845059
  0
LINE
  5
23F
330
70
100
AcDbEntity
  8
Camada 1
 62
    18
420
        0
370
    70
100
AcDbLine
 10
1608.333812422188
 20
176.5339964524119
 30
0.0
 11
1620.759195619195
 21
183.7109620333558
 31
0.0
  0
LWPOLYLINE
  5
240
330
70
100
AcDbEntity
  8
Camada 1
 62
    18
420
        0
370
    70
100
AcDbPolyline
 90
       12
 70
     0
 43
0.0
 10
1580.616711455377
 20
164.8060102457966
 10
1578.815124821829
 20
163.8870096413247
 10
1576.567303831603
 20
162.6907596779765
 10
1574.05389683061
 20
161.3342499696118
 10
1571.482173089071
 20
159.9047330440735
 10
1569.056285715494
 20
158.5480452693246
 10
1566.976203258384
 20
157.3373719289266
 10
1565.408061653408
 20
156.403769881017
 10
1564.480335796152
 20
155.8056448993447
 10
1564.268792932733
 20
155.5868013142062
 10
1564.788123539774
 20
155.7764420124749
 10
1565.997372349107
 20
156.359965550715
  0
LINE
  5
241
330
70
100
AcDbEntity
  8
Camada 1
 62
    18
420
        0
370
    70
100
AcDbLine
 10
1635.378445692273
 20
192.1570067284392
 30
0.0
 11
1647.805342453541
 21
199.3337942429971
 31
0.0
  0
LINE
  5
242
330
70
100
AcDbEntity
  8
Camada 1
 62
    18
420
        0
370
    70
100
AcDbLine
 10
1593.043519183451
 20
171.9827977603563
 30
0.0
 11
1647.805342453541
 21
199.3337942429971
 31
0.0
  0
LWPOLYLINE
  5
243
330
70
100
AcDbEntity
  8
Camada 1
 62
    18
420
        0
370
    70
100
AcDbPolyline
 90
       12
 70
     0
 43
0.0
 10
1607.662769256531
 20
180.4142410120039
 10
1605.861271656173
 20
179.495240407532
 10
1603.611937101688
 20
178.2991685105662
 10
1601.100043664956
 20
176.9424807358191
 10
1598.526806359157
 20
175.5275652537148
 10
1596.10243254984
 20
174.1564541019161
 10
1594.022350092729
 20
172.960204138566
 10
1592.454208487754
 20
172.0120006472243
 10
1591.526482630497
 20
171.4140537319345
 10
1591.313426202818
 20
171.2098115902317
 10
1591.834270374118
 20
171.3994522885004
 10
1593.043519183451
 20
171.9827977603563
  0
LINE
  5
244
330
70
100
AcDbEntity
  8
Camada 1
 62
    18
420
        0
370
    70
100
AcDbLine
 10
1662.424592526619
 20
207.7652374946447
 30
0.0
 11
1607.662769256531
 21
180.4142410120039
 31
0.0
  0
LINE
  5
245
330
70
100
AcDbEntity
  8
Camada 1
 62
    18
420
        0
370
    70
100
AcDbLine
 10
1662.424592526619
 20
207.7652374946447
 30
0.0
 11
1674.851400254694
 21
214.9422030755886
 31
0.0
  0
LINE
  5
246
330
70
100
AcDbEntity
  8
Camada 1
 62
    18
420
        0
370
    70
100
AcDbLine
 10
1620.089666017797
 20
187.5912065929478
 30
0.0
 11
1674.851400254694
 21
214.9422030755886
 31
0.0
  0
LWPOLYLINE
  5
247
330
70
100
AcDbEntity
  8
Camada 1
 62
    18
420
        0
370
    70
100
AcDbPolyline
 90
       12
 70
     0
 43
0.0
 10
1634.708916090876
 20
196.0372512880294
 10
1632.90590492626
 20
195.1036492401235
 10
1630.658083936034
 20
193.9220007202093
 10
1628.146101466109
 20
192.5654910118446
 10
1625.572953193503
 20
191.1357960199238
 10
1623.147154853119
 20
189.7646848681233
 10
1621.066983362818
 20
188.5684349047751
 10
1619.500355322099
 20
187.6350109232516
 10
1618.572540431651
 20
187.0368859415775
 10
1618.359573037163
 20
186.818042356439
 10
1618.878903644205
 20
187.0076830547077
 10
1620.089666017797
 20
187.5912065929478
  0
LINE
  5
248
330
70
100
AcDbEntity
  8
Camada 1
 62
    18
420
        0
370
    70
100
AcDbLine
 10
1689.470739360964
 20
223.388247770672
 30
0.0
 11
1634.708916090876
 21
196.0372512880294
 31
0.0
  0
LINE
  5
249
330
70
100
AcDbEntity
  8
Camada 1
 62
    18
420
        0
370
    70
100
AcDbLine
 10
1689.470739360964
 20
223.388247770672
 30
0.0
 11
1701.896122557973
 21
230.5504338417959
 31
0.0
  0
LINE
  5
24A
330
70
100
AcDbEntity
  8
Camada 1
 62
    18
420
        0
370
    70
100
AcDbLine
 10
1647.135723818952
 20
203.2140388025891
 30
0.0
 11
1701.896122557973
 21
230.5504338417959
 31
0.0
  0
LWPOLYLINE
  5
24B
330
70
100
AcDbEntity
  8
Camada 1
 62
    18
420
        0
370
    70
100
AcDbPolyline
 90
       12
 70
     0
 43
0.0
 10
1661.753549360963
 20
211.6454820542367
 10
1659.952051760605
 20
210.7264814497648
 10
1657.704141737189
 20
209.530409552799
 10
1655.190823769388
 20
208.1737217780519
 10
1652.619100027847
 20
206.7588062959476
 10
1650.19321265427
 20
205.3875170777665
 10
1648.113130197162
 20
204.1914451808007
 10
1646.544988592184
 20
203.2432416894589
 10
1645.617262734929
 20
202.645116707783
 10
1645.405719871509
 20
202.4408745660803
 10
1645.92505047855
 20
202.630515264349
 10
1647.135723818952
 20
203.2140388025891
  0
LINE
  5
24C
330
70
100
AcDbEntity
  8
Camada 1
 62
    18
420
        0
370
    70
100
AcDbLine
 10
1716.515372631051
 20
238.9964785368775
 30
0.0
 11
1661.753549360963
 21
211.6454820542367
 31
0.0
  0
LINE
  5
24D
330
70
100
AcDbEntity
  8
Camada 1
 62
    18
420
        0
370
    70
100
AcDbLine
 10
1716.515372631051
 20
238.9964785368775
 30
0.0
 11
1743.927623949565
 21
254.8235528882233
 31
0.0
  0
LINE
  5
24E
330
70
100
AcDbEntity
  8
Camada 1
 62
    18
420
        0
370
    70
100
AcDbLine
 10
1743.927623949565
 20
254.8235528882233
 30
0.0
 11
1668.889648706927
 21
217.3491263793366
 31
0.0
  0
LINE
  5
24F
330
70
100
AcDbEntity
  8
Camada 1
 62
    18
420
        0
370
    70
100
AcDbLine
 10
1533.634252341107
 20
139.263812085228
 30
0.0
 11
1668.889648706927
 21
217.3491263793366
 31
0.0
  0
LINE
  5
250
330
70
100
AcDbEntity
  8
Camada 1
 62
    18
420
        0
370
    70
100
AcDbLine
 10
1464.219568968083
 20
99.17822013089244
 30
0.0
 11
1513.970648727281
 21
127.9003277653319
 31
0.0
  0
LWPOLYLINE
  5
251
330
70
100
AcDbEntity
  8
Camada 1
 62
    18
420
        0
370
    70
100
AcDbPolyline
 90
        7
 70
     0
 43
0.0
 10
1514.978682523431
 20
127.3168042270917
 10
1512.894148406736
 20
126.1207323301278
 10
1511.321644175368
 20
125.1725288387861
 10
1510.390980222788
 20
124.574403857112
 10
1510.176588297234
 20
124.3557383383558
 10
1510.695829871083
 20
124.5453790366264
 10
1511.906592244675
 20
125.1287245084804
  0
LINE
  5
252
330
70
100
AcDbEntity
  8
Camada 1
 62
    18
420
        0
370
    70
100
AcDbLine
 10
1581.287665587842
 20
160.9257656862046
 30
0.0
 11
1593.714562349109
 21
168.1027312671485
 31
0.0
  0
LWPOLYLINE
  5
253
330
70
100
AcDbEntity
  8
Camada 1
 62
    18
420
        0
370
    70
100
AcDbPolyline
 90
        3
 70
     0
 43
0.0
 10
1566.668415514763
 20
152.479720991123
 10
1567.728889860807
 20
152.6403368689061
 10
1568.961465366359
 20
152.2026496986291
  0
LINE
  5
254
330
70
100
AcDbEntity
  8
Camada 1
 62
    18
420
        0
370
    70
100
AcDbLine
 10
1539.257588727316
 20
136.6526466397772
 30
0.0
 11
1566.668415514763
 21
152.479720991123
 31
0.0
  0
LWPOLYLINE
  5
255
330
70
100
AcDbEntity
  8
Camada 1
 62
    18
420
        0
370
    70
100
AcDbPolyline
 90
        3
 70
     0
 43
0.0
 10
1768.921377649411
 20
145.6384105427951
 10
1770.858561833882
 20
144.0920820697793
 10
1771.846117995945
 20
142.2540808608355
  0
LINE
  5
256
330
70
100
AcDbEntity
  8
Camada 1
 62
    18
420
        0
370
    70
100
AcDbLine
 10
1768.921377649411
 20
145.6384105427951
 30
0.0
 11
1768.921377649411
 21
147.3305753837758
 31
0.0
  0
LINE
  5
257
330
70
100
AcDbEntity
  8
Camada 1
 62
    18
420
        0
370
    70
100
AcDbLine
 10
1637.671584577061
 20
190.1877705949646
 30
0.0
 11
1741.876655346134
 21
130.0155783331538
 31
0.0
  0
LINE
  5
258
330
70
100
AcDbEntity
  8
Camada 1
 62
    18
420
        0
370
    70
100
AcDbLine
 10
1622.804288031977
 20
183.5651256653909
 30
0.0
 11
1636.376240671379
 21
190.3482084063634
 31
0.0
  0
LWPOLYLINE
  5
259
330
70
100
AcDbEntity
  8
Camada 1
 62
    18
420
        0
370
    70
100
AcDbPolyline
 90
        3
 70
     0
 43
0.0
 10
1637.671584577061
 20
190.1877705949646
 10
1636.975790184118
 20
190.4356390005887
 10
1636.376240671379
 20
190.3482084063634
  0
LWPOLYLINE
  5
25A
330
70
100
AcDbEntity
  8
Camada 1
 62
    18
420
        0
370
    70
100
AcDbPolyline
 90
        3
 70
     0
 43
0.0
 10
1637.671584577061
 20
191.865155926127
 10
1636.440433602576
 20
192.3174445398363
 10
1635.378445692273
 20
192.1570067284392
  0
LINE
  5
25B
330
70
100
AcDbEntity
  8
Camada 1
 62
    18
420
        0
370
    70
100
AcDbLine
 10
1635.378445692273
 20
192.1570067284392
 30
0.0
 11
1580.616711455377
 21
164.8060102457966
 31
0.0
  0
LINE
  5
25C
330
70
100
AcDbEntity
  8
Camada 1
 62
    18
420
        0
370
    70
100
AcDbLine
 10
1581.109688237684
 20
163.9162125281946
 30
0.0
 11
1580.616711455377
 21
164.8060102457966
 31
0.0
  0
LINE
  5
25D
330
70
100
AcDbEntity
  8
Camada 1
 62
    18
420
        0
370
    70
100
AcDbLine
 10
1559.377754548052
 20
124.3993646022772
 30
0.0
 11
1541.550727612106
 21
134.6834105063044
 31
0.0
  0
LINE
  5
25E
330
70
100
AcDbEntity
  8
Camada 1
 62
    18
420
        0
370
    70
100
AcDbLine
 10
1384.297811545885
 20
227.1662822262188
 30
0.0
 11
1366.470784609939
 21
237.4647515072975
 31
0.0
  0
LINE
  5
25F
330
70
100
AcDbEntity
  8
Camada 1
 62
    18
420
        0
370
    70
100
AcDbLine
 10
1366.470784609939
 20
237.4647515072975
 30
0.0
 11
1366.470784609939
 21
235.7727647326992
 31
0.0
  0
LINE
  5
260
330
70
100
AcDbEntity
  8
Camada 1
 62
    18
420
        0
370
    70
100
AcDbLine
 10
1384.297811545885
 20
225.4741173852381
 30
0.0
 11
1366.470784609939
 21
235.7727647326992
 31
0.0
  0
LINE
  5
261
330
70
100
AcDbEntity
  8
Camada 1
 62
    18
420
        0
370
    70
100
AcDbLine
 10
1460.631130694208
 20
100.0242135181906
 30
0.0
 11
1406.136273449358
 21
190.1585677080948
 31
0.0
  0
LWPOLYLINE
  5
262
330
70
100
AcDbEntity
  8
Camada 1
 62
    18
420
        0
370
    70
100
AcDbPolyline
 90
        4
 70
     0
 43
0.0
 10
1465.217363947187
 20
97.36942180881669
 10
1463.755706039455
 20
97.29641459164305
 10
1462.091319554278
 20
98.25921952641875
 10
1460.631130694208
 20
100.0242135181906
  0
LINE
  5
263
330
70
100
AcDbEntity
  8
Camada 1
 62
    18
420
        0
370
    70
100
AcDbLine
 10
1519.712221192038
 20
124.5890053005459
 30
0.0
 11
1465.217363947187
 21
97.36942180881669
 31
0.0
  0
LWPOLYLINE
  5
264
330
70
100
AcDbEntity
  8
Camada 1
 62
    18
420
        0
370
    70
100
AcDbPolyline
 90
        3
 70
     0
 43
0.0
 10
1541.550727612106
 20
136.3755753472851
 10
1540.31806307336
 20
136.8130844511761
 10
1539.257588727316
 20
136.6526466397772
  0
LINE
  5
265
330
70
100
AcDbEntity
  8
Camada 1
 62
    18
420
        0
370
    70
100
AcDbLine
 10
1517.567856770538
 20
125.8290595941998
 30
0.0
 11
1464.219568968083
 21
99.17822013089244
 31
0.0
  0
LINE
  5
266
330
70
100
AcDbEntity
  8
Camada 1
 62
    18
420
        0
370
    70
100
AcDbLine
 10
1539.257588727316
 20
136.6526466397772
 30
0.0
 11
1538.658039214575
 21
136.3609739038493
 31
0.0
  0
LWPOLYLINE
  5
267
330
70
100
AcDbEntity
  8
Camada 1
 62
    18
420
        0
370
    70
100
AcDbPolyline
 90
        3
 70
     0
 43
0.0
 10
1464.219568968083
 20
99.17822013089244
 10
1462.924225062399
 20
99.33865794229133
 10
1461.627456625649
 20
100.6805662072202
  0
LINE
  5
268
330
70
100
AcDbEntity
  8
Camada 1
 62
    18
420
        0
370
    70
100
AcDbLine
 10
1387.188986379156
 20
223.8111554311272
 30
0.0
 11
1386.590905914077
 21
224.8031632527745
 31
0.0
  0
LINE
  5
269
330
70
100
AcDbEntity
  8
Camada 1
 62
    18
420
        0
370
    70
100
AcDbLine
 10
1461.627456625649
 20
100.6805662072202
 30
0.0
 11
1408.279124306598
 21
188.9186914808251
 31
0.0
  0
LWPOLYLINE
  5
26A
330
70
100
AcDbEntity
  8
Camada 1
 62
    18
420
        0
370
    70
100
AcDbPolyline
 90
        3
 70
     0
 43
0.0
 10
1386.590905914077
 20
224.8031632527745
 10
1385.528962520369
 20
226.1888758480072
 10
1384.297811545885
 20
227.1662822262188
  0
LWPOLYLINE
  5
26B
330
70
100
AcDbEntity
  8
Camada 1
 62
    18
420
        0
370
    70
100
AcDbPolyline
 90
        3
 70
     0
 43
0.0
 10
1559.918898287054
 20
123.9764569418203
 10
1559.675303474629
 20
124.1953005269588
 10
1559.377754548052
 20
124.3993646022772
  0
LINE
  5
26C
330
70
100
AcDbEntity
  8
Camada 1
 62
    18
420
        0
370
    70
100
AcDbLine
 10
1559.377754548052
 20
124.3993646022772
 30
0.0
 11
1559.377754548052
 21
126.0769279998239
 31
0.0
  0
LWPOLYLINE
  5
26D
330
70
100
AcDbEntity
  8
Camada 1
 62
    18
420
        0
370
    70
100
AcDbPolyline
 90
        3
 70
     0
 43
0.0
 10
1741.876655346134
 20
130.0155783331538
 10
1743.812414999538
 20
128.4692498601362
 10
1744.799971161599
 20
126.6458500946282
  0
LINE
  5
26E
330
70
100
AcDbEntity
  8
Camada 1
 62
    18
420
        0
370
    70
100
AcDbLine
 10
1741.876655346134
 20
130.0155783331538
 30
0.0
 11
1741.876655346134
 21
131.7075651077503
 31
0.0
  0
LINE
  5
26F
330
70
100
AcDbEntity
  8
Camada 1
 62
    18
420
        0
370
    70
100
AcDbLine
 10
1610.626951306975
 20
174.5647603189391
 30
0.0
 11
1714.83059754498
 21
114.4071695005623
 31
0.0
  0
LINE
  5
270
330
70
100
AcDbEntity
  8
Camada 1
 62
    18
420
        0
370
    70
100
AcDbLine
 10
1595.758230230822
 20
167.9422934557497
 30
0.0
 11
1609.330093837034
 21
174.7251981303379
 31
0.0
  0
LWPOLYLINE
  5
271
330
70
100
AcDbEntity
  8
Camada 1
 62
    18
420
        0
370
    70
100
AcDbPolyline
 90
        3
 70
     0
 43
0.0
 10
1610.626951306975
 20
174.5647603189391
 10
1609.929643349775
 20
174.8128067909456
 10
1609.330093837034
 20
174.7251981303379
  0
LWPOLYLINE
  5
272
330
70
100
AcDbEntity
  8
Camada 1
 62
    18
420
        0
370
    70
100
AcDbPolyline
 90
        3
 70
     0
 43
0.0
 10
1610.626951306975
 20
176.2569251599197
 10
1609.394286768231
 20
176.694612330195
 10
1608.333812422188
 20
176.5339964524119
  0
LINE
  5
273
330
70
100
AcDbEntity
  8
Camada 1
 62
    18
420
        0
370
    70
100
AcDbLine
 10
1608.333812422188
 20
176.5339964524119
 30
0.0
 11
1553.5719891521
 21
149.1829999697711
 31
0.0
  0
LINE
  5
274
330
70
100
AcDbEntity
  8
Camada 1
 62
    18
420
        0
370
    70
100
AcDbLine
 10
1554.06363043653
 20
148.293202252169
 30
0.0
 11
1553.5719891521
 21
149.1829999697711
 31
0.0
  0
LWPOLYLINE
  5
275
330
70
100
AcDbEntity
  8
Camada 1
 62
    18
420
        0
370
    70
100
AcDbPolyline
 90
        3
 70
     0
 43
0.0
 10
1714.83059754498
 20
114.4071695005623
 10
1716.76778172945
 20
112.8610190939307
 10
1717.755337891513
 20
111.023017884987
  0
LINE
  5
276
330
70
100
AcDbEntity
  8
Camada 1
 62
    18
420
        0
370
    70
100
AcDbLine
 10
1714.83059754498
 20
114.4071695005623
 30
0.0
 11
1714.83059754498
 21
116.099334341543
 31
0.0
  0
LINE
  5
277
330
70
100
AcDbEntity
  8
Camada 1
 62
    18
420
        0
370
    70
100
AcDbLine
 10
1583.580804472629
 20
158.9565295527318
 30
0.0
 11
1687.784450710636
 21
98.79893873435504
 31
0.0
  0
LINE
  5
278
330
70
100
AcDbEntity
  8
Camada 1
 62
    18
420
        0
370
    70
100
AcDbLine
 10
1568.712083396476
 20
152.3338846231581
 30
0.0
 11
1582.284036035878
 21
159.1169673641307
 31
0.0
  0
LWPOLYLINE
  5
279
330
70
100
AcDbEntity
  8
Camada 1
 62
    18
420
        0
370
    70
100
AcDbPolyline
 90
        3
 70
     0
 43
0.0
 10
1583.580804472629
 20
158.9565295527318
 10
1582.885010079688
 20
159.2045760247383
 10
1582.284036035878
 20
159.1169673641307
  0
LWPOLYLINE
  5
27A
330
70
100
AcDbEntity
  8
Camada 1
 62
    18
420
        0
370
    70
100
AcDbPolyline
 90
        3
 70
     0
 43
0.0
 10
1583.580804472629
 20
160.6486943937125
 10
1582.348139933887
 20
161.0862034976035
 10
1581.287665587842
 20
160.9257656862046
  0
LINE
  5
27B
330
70
100
AcDbEntity
  8
Camada 1
 62
    18
420
        0
370
    70
100
AcDbLine
 10
1581.287665587842
 20
160.9257656862046
 30
0.0
 11
1535.618089918014
 21
138.1113664521854
 31
0.0
  0
LWPOLYLINE
  5
27C
330
70
100
AcDbEntity
  8
Camada 1
 62
    18
420
        0
370
    70
100
AcDbPolyline
 90
        3
 70
     0
 43
0.0
 10
1687.784450710636
 20
98.79893873435504
 10
1689.721634895106
 20
97.23800881790522
 10
1690.709191057167
 20
95.41460905239729
  0
LINE
  5
27D
330
70
100
AcDbEntity
  8
Camada 1
 62
    18
420
        0
370
    70
100
AcDbLine
 10
1687.784450710636
 20
100.4765021318999
 30
0.0
 11
1687.784450710636
 21
98.79893873435504
 31
0.0
  0
LWPOLYLINE
  5
27E
330
70
100
AcDbEntity
  8
Camada 1
 62
    18
420
        0
370
    70
100
AcDbPolyline
 90
        3
 70
     0
 43
0.0
 10
1882.024692694085
 20
176.1402916788247
 10
1883.779536902004
 20
174.5501588755032
 10
1885.017988598207
 20
172.2892500061025
  0
LWPOLYLINE
  5
27F
330
70
100
AcDbEntity
  8
Camada 1
 62
    18
420
        0
370
    70
100
AcDbPolyline
 90
        3
 70
     0
 43
0.0
 10
1677.354568438644
 20
57.9693854303805
 10
1678.056239022237
 20
57.47329248636379
 10
1678.725768623635
 20
56.8461426842041
  0
LINE
  5
280
330
70
100
AcDbEntity
  8
Camada 1
 62
    18
420
        0
370
    70
100
AcDbLine
 10
1677.354568438644
 20
57.63390836414692
 30
0.0
 11
1677.354568438644
 21
57.9693854303805
 31
0.0
  0
LWPOLYLINE
  5
281
330
70
100
AcDbEntity
  8
Camada 1
 62
    18
420
        0
370
    70
100
AcDbPolyline
 90
        3
 70
     0
 43
0.0
 10
1679.5689129488
 20
54.17674953139613
 10
1679.411413232727
 20
53.70985947425106
 10
1678.962151747533
 20
53.33057807771547
  0
LINE
  5
282
330
70
100
AcDbEntity
  8
Camada 1
 62
    18
420
        0
370
    70
100
AcDbLine
 10
1679.5689129488
 20
54.17674953139613
 30
0.0
 11
1679.5689129488
 21
55.85413486255856
 31
0.0
  0
LINE
  5
283
330
70
100
AcDbEntity
  8
Camada 1
 62
    18
420
        0
370
    70
100
AcDbLine
 10
1670.484055103448
 20
48.42930087599234
 30
0.0
 11
1678.962151747533
 21
53.33057807771547
 31
0.0
  0
LINE
  5
284
330
70
100
AcDbEntity
  8
Camada 1
 62
    18
420
        0
370
    70
100
AcDbLine
 10
1678.962151747533
 20
53.33057807771547
 30
0.0
 11
1678.962151747533
 21
55.00814147526035
 31
0.0
  0
LINE
  5
285
330
70
100
AcDbEntity
  8
Camada 1
 62
    18
420
        0
370
    70
100
AcDbLine
 10
1656.15505323523
 20
51.63841323673477
 30
0.0
 11
1661.712772159175
 21
48.42930087599234
 31
0.0
  0
LWPOLYLINE
  5
286
330
70
100
AcDbEntity
  8
Camada 1
 62
    18
420
        0
370
    70
100
AcDbPolyline
 90
        5
 70
     0
 43
0.0
 10
1670.484055103448
 20
48.42930087599234
 10
1668.471014639668
 20
47.6561366394817
 10
1666.097656849182
 20
47.37906534698959
 10
1663.724299058695
 20
47.6561366394817
 10
1661.712772159175
 20
48.42930087599234
  0
LINE
  5
287
330
70
100
AcDbEntity
  8
Camada 1
 62
    18
420
        0
370
    70
100
AcDbLine
 10
1670.484055103448
 20
50.12146571697122
 30
0.0
 11
1670.484055103448
 21
48.42930087599234
 31
0.0
  0
LINE
  5
288
330
70
100
AcDbEntity
  8
Camada 1
 62
    18
420
        0
370
    70
100
AcDbLine
 10
1661.712772159175
 20
48.42930087599234
 30
0.0
 11
1661.712772159175
 21
50.12146571697122
 31
0.0
  0
LINE
  5
289
330
70
100
AcDbEntity
  8
Camada 1
 62
    18
420
        0
370
    70
100
AcDbLine
 10
1884.217135039089
 20
175.206689630917
 30
0.0
 11
1882.316365430011
 21
176.3007294902236
 31
0.0
  0
LWPOLYLINE
  5
28A
330
70
100
AcDbEntity
  8
Camada 1
 62
    18
420
        0
370
    70
100
AcDbPolyline
 90
        3
 70
     0
 43
0.0
 10
1884.217135039089
 20
175.206689630917
 10
1885.678792946821
 20
174.8566111212494
 10
1887.141875385619
 20
175.206689630917
  0
LINE
  5
28B
330
70
100
AcDbEntity
  8
Camada 1
 62
    18
420
        0
370
    70
100
AcDbLine
 10
1887.141875385619
 20
175.206689630917
 30
0.0
 11
1895.619972029704
 21
180.1079668326401
 31
0.0
  0
LWPOLYLINE
  5
28C
330
70
100
AcDbEntity
  8
Camada 1
 62
    18
420
        0
370
    70
100
AcDbPolyline
 90
        5
 70
     0
 43
0.0
 10
1895.619972029704
 20
180.1079668326401
 10
1896.964907423153
 20
181.2604124656864
 10
1897.437495604565
 20
182.6315236174851
 10
1896.964907423153
 20
184.002812835668
 10
1895.619972029704
 20
185.169681845764
  0
LINE
  5
28D
330
70
100
AcDbEntity
  8
Camada 1
 62
    18
420
        0
370
    70
100
AcDbLine
 10
1785.244455911579
 20
248.8866416009332
 30
0.0
 11
1895.619972029704
 21
185.169681845764
 31
0.0
  0
LWPOLYLINE
  5
28E
330
70
100
AcDbEntity
  8
Camada 1
 62
    18
420
        0
370
    70
100
AcDbPolyline
 90
        5
 70
     0
 43
0.0
 10
1785.244455911579
 20
248.8866416009332
 10
1783.232839978869
 20
249.6742292144918
 10
1780.859482188381
 20
249.9368771299341
 10
1778.486213431086
 20
249.6742292144918
 10
1776.473172967308
 20
248.8866416009332
  0
LINE
  5
28F
330
70
100
AcDbEntity
  8
Camada 1
 62
    18
420
        0
370
    70
100
AcDbLine
 10
1768.432674460306
 20
244.2478342482682
 30
0.0
 11
1776.473172967308
 21
248.8866416009332
 31
0.0
  0
LWPOLYLINE
  5
290
330
70
100
AcDbEntity
  8
Camada 1
 62
    18
420
        0
370
    70
100
AcDbPolyline
 90
        4
 70
     0
 43
0.0
 10
1768.432674460306
 20
244.2478342482682
 10
1767.042510205489
 20
243.7811222575074
 10
1765.437954025117
 20
243.7811222575074
 10
1764.046276206041
 20
244.2478342482682
  0
LINE
  5
291
330
70
100
AcDbEntity
  8
Camada 1
 62
    18
420
        0
370
    70
100
AcDbLine
 10
1764.046276206041
 20
244.2478342482682
 30
0.0
 11
1746.220762834353
 21
254.5464815957294
 31
0.0
  0
LINE
  5
292
330
70
100
AcDbEntity
  8
Camada 1
 62
    18
420
        0
370
    70
100
AcDbLine
 10
1718.808511515839
 20
238.7192291780011
 30
0.0
 11
1746.220762834353
 21
254.5464815957294
 31
0.0
  0
LINE
  5
293
330
70
100
AcDbEntity
  8
Camada 1
 62
    18
420
        0
370
    70
100
AcDbLine
 10
1823.013582284909
 20
178.5470369161903
 30
0.0
 11
1718.808511515839
 21
238.7192291780011
 31
0.0
  0
LWPOLYLINE
  5
294
330
70
100
AcDbEntity
  8
Camada 1
 62
    18
420
        0
370
    70
100
AcDbPolyline
 90
       12
 70
     0
 43
0.0
 10
1808.394332211832
 20
170.1157717309252
 10
1810.750150463558
 20
169.0945610224098
 10
1813.505638712717
 20
168.49661410712
 10
1816.440617876293
 20
168.3798025596425
 10
1819.31576673506
 20
168.7444825127422
 10
1821.89915382471
 20
169.5614510795567
 10
1823.979236281821
 20
170.7575229765207
 10
1825.389878170723
 20
172.2454456757987
 10
1826.014178910751
 20
173.9084076299077
 10
1825.804149611587
 20
175.6005724708884
 10
1824.777240778805
 20
177.1905272078256
 10
1823.013582284909
 20
178.5470369161903
  0
LINE
  5
295
330
70
100
AcDbEntity
  8
Camada 1
 62
    18
420
        0
370
    70
100
AcDbLine
 10
1704.189172409569
 20
230.2733625493019
 30
0.0
 11
1808.394332211832
 21
170.1157717309252
 31
0.0
  0
LINE
  5
296
330
70
100
AcDbEntity
  8
Camada 1
 62
    18
420
        0
370
    70
100
AcDbLine
 10
1691.763878245752
 20
223.0963969683598
 30
0.0
 11
1704.189172409569
 21
230.2733625493019
 31
0.0
  0
LINE
  5
297
330
70
100
AcDbEntity
  8
Camada 1
 62
    18
420
        0
370
    70
100
AcDbLine
 10
1795.967524483756
 20
162.9388061499812
 30
0.0
 11
1691.763878245752
 21
223.0963969683598
 31
0.0
  0
LWPOLYLINE
  5
298
330
70
100
AcDbEntity
  8
Camada 1
 62
    18
420
        0
370
    70
100
AcDbPolyline
 90
       12
 70
     0
 43
0.0
 10
1781.348185377487
 20
154.4927614549015
 10
1783.704003629215
 20
153.4863302562044
 10
1786.46100544263
 20
152.8882052745284
 10
1789.395984606206
 20
152.7715717934352
 10
1792.271044431783
 20
153.1216503031028
 10
1794.853006990366
 20
153.9384408035294
 10
1796.933178480667
 20
155.1492922103134
 10
1798.343731336379
 20
156.6372149095914
 10
1798.969545640664
 20
158.299998797318
 10
1798.759516341501
 20
159.9921636382987
 10
1797.731093944461
 20
161.5821183752359
 10
1795.967524483756
 20
162.9388061499812
  0
LINE
  5
299
330
70
100
AcDbEntity
  8
Camada 1
 62
    18
420
        0
370
    70
100
AcDbLine
 10
1677.144539139483
 20
214.6649537167123
 30
0.0
 11
1781.348185377487
 21
154.4927614549015
 31
0.0
  0
LINE
  5
29A
330
70
100
AcDbEntity
  8
Camada 1
 62
    18
420
        0
370
    70
100
AcDbLine
 10
1664.717731411407
 20
207.4881662021526
 30
0.0
 11
1677.144539139483
 21
214.6649537167123
 31
0.0
  0
LINE
  5
29B
330
70
100
AcDbEntity
  8
Camada 1
 62
    18
420
        0
370
    70
100
AcDbLine
 10
1768.921377649411
 20
147.3305753837758
 30
0.0
 11
1664.717731411407
 21
207.4881662021526
 31
0.0
  0
LWPOLYLINE
  5
29C
330
70
100
AcDbEntity
  8
Camada 1
 62
    18
420
        0
370
    70
100
AcDbPolyline
 90
       12
 70
     0
 43
0.0
 10
1754.302038543141
 20
138.8845306886924
 10
1756.657945828061
 20
137.8634980465613
 10
1759.414858608285
 20
137.2653730648871
 10
1762.349837771861
 20
137.1485615174097
 10
1765.22498663063
 20
137.5132414705112
 10
1767.806860156021
 20
138.3302100373221
 10
1769.888456177388
 20
139.5262819342879
 10
1771.297584502034
 20
141.0142046335659
 10
1771.923398806318
 20
142.6771665876767
 10
1771.713369507157
 20
144.3693314286556
 10
1770.684947110115
 20
145.9592861655928
 10
1768.921377649411
 20
147.3305753837758
  0
LINE
  5
29D
330
70
100
AcDbEntity
  8
Camada 1
 62
    18
420
        0
370
    70
100
AcDbLine
 10
1650.098392305137
 20
199.0421215070691
 30
0.0
 11
1754.302038543141
 21
138.8845306886924
 31
0.0
  0
LINE
  5
29E
330
70
100
AcDbEntity
  8
Camada 1
 62
    18
420
        0
370
    70
100
AcDbLine
 10
1637.671584577061
 20
191.865155926127
 30
0.0
 11
1650.098392305137
 21
199.0421215070691
 31
0.0
  0
LINE
  5
29F
330
70
100
AcDbEntity
  8
Camada 1
 62
    18
420
        0
370
    70
100
AcDbLine
 10
1741.876655346134
 20
131.7075651077503
 30
0.0
 11
1637.671584577061
 21
191.865155926127
 31
0.0
  0
LWPOLYLINE
  5
2A0
330
70
100
AcDbEntity
  8
Camada 1
 62
    18
420
        0
370
    70
100
AcDbPolyline
 90
       12
 70
     0
 43
0.0
 10
1727.257405273056
 20
123.2616984790511
 10
1729.613223524782
 20
122.2550892139716
 10
1732.368800807133
 20
121.6569642322975
 10
1735.303690937515
 20
121.5403307512024
 10
1738.178839796284
 20
121.8904092608682
 10
1740.762226885934
 20
122.7073778276808
 10
1742.842398376235
 20
123.9180511680806
 10
1744.252951231945
 20
125.4059738673568
 10
1744.877251971973
 20
127.0689358214695
 10
1744.667222672811
 20
128.7609225960659
 10
1743.640313840029
 20
130.3510553993856
 10
1741.876655346134
 20
131.7075651077503
  0
LINE
  5
2A1
330
70
100
AcDbEntity
  8
Camada 1
 62
    18
420
        0
370
    70
100
AcDbLine
 10
1623.052334503984
 20
183.4338907408637
 30
0.0
 11
1727.257405273056
 21
123.2616984790511
 31
0.0
  0
LINE
  5
2A2
330
70
100
AcDbEntity
  8
Camada 1
 62
    18
420
        0
370
    70
100
AcDbLine
 10
1610.626951306975
 20
176.2569251599197
 30
0.0
 11
1623.052334503984
 21
183.4338907408637
 31
0.0
  0
LINE
  5
2A3
330
70
100
AcDbEntity
  8
Camada 1
 62
    18
420
        0
370
    70
100
AcDbLine
 10
1714.83059754498
 20
116.099334341543
 30
0.0
 11
1610.626951306975
 21
176.2569251599197
 31
0.0
  0
LWPOLYLINE
  5
2A4
330
70
100
AcDbEntity
  8
Camada 1
 62
    18
420
        0
370
    70
100
AcDbPolyline
 90
       12
 70
     0
 43
0.0
 10
1700.21125843871
 20
107.6532896464614
 10
1702.567076690437
 20
106.6322570043285
 10
1705.324078503854
 20
106.0487334660902
 10
1708.259057667428
 20
105.9174985415593
 10
1711.134206526198
 20
106.2821784946609
 10
1713.716080051588
 20
107.0989689950911
 10
1715.796251541891
 20
108.2952189584393
 10
1717.206804397601
 20
109.7831416577173
 10
1717.832618701886
 20
111.4459255454439
 10
1717.622589402725
 20
113.1380903864246
 10
1716.594167005683
 20
114.72804512336
 10
1714.83059754498
 20
116.099334341543
  0
LINE
  5
2A5
330
70
100
AcDbEntity
  8
Camada 1
 62
    18
420
        0
370
    70
100
AcDbLine
 10
1596.007612200705
 20
167.8108804648364
 30
0.0
 11
1700.21125843871
 21
107.6532896464614
 31
0.0
  0
LINE
  5
2A6
330
70
100
AcDbEntity
  8
Camada 1
 62
    18
420
        0
370
    70
100
AcDbLine
 10
1583.580804472629
 20
160.6486943937125
 30
0.0
 11
1596.007612200705
 21
167.8108804648364
 31
0.0
  0
LINE
  5
2A7
330
70
100
AcDbEntity
  8
Camada 1
 62
    18
420
        0
370
    70
100
AcDbLine
 10
1687.784450710636
 20
100.4765021318999
 30
0.0
 11
1583.580804472629
 21
160.6486943937125
 31
0.0
  0
LWPOLYLINE
  5
2A8
330
70
100
AcDbEntity
  8
Camada 1
 62
    18
420
        0
370
    70
100
AcDbPolyline
 90
       12
 70
     0
 43
0.0
 10
1673.165200637555
 20
92.04505888025414
 10
1675.521018889283
 20
91.02384817173879
 10
1678.277931669509
 20
90.42590125644711
 10
1681.212910833083
 20
90.3090897089678
 10
1684.088059691852
 20
90.6737696620712
 10
1686.670022250435
 20
91.47613678544804
 10
1688.751618271802
 20
92.68681012584966
 10
1690.160657563256
 20
94.17473282512583
 10
1690.786471867541
 20
95.8376947792367
 10
1690.576442568379
 20
97.52985962021558
 10
1689.548020171338
 20
99.11981435715279
 10
1687.784450710636
 20
100.4765021318999
  0
LINE
  5
2A9
330
70
100
AcDbEntity
  8
Camada 1
 62
    18
420
        0
370
    70
100
AcDbLine
 10
1568.961465366359
 20
152.2026496986291
 30
0.0
 11
1673.165200637555
 21
92.04505888025414
 31
0.0
  0
LINE
  5
2AA
330
70
100
AcDbEntity
  8
Camada 1
 62
    18
420
        0
370
    70
100
AcDbLine
 10
1541.550727612106
 20
136.3755753472851
 30
0.0
 11
1568.961465366359
 21
152.2026496986291
 31
0.0
  0
LINE
  5
2AB
330
70
100
AcDbEntity
  8
Camada 1
 62
    18
420
        0
370
    70
100
AcDbLine
 10
1559.377754548052
 20
126.0769279998239
 30
0.0
 11
1541.550727612106
 21
136.3755753472851
 31
0.0
  0
LWPOLYLINE
  5
2AC
330
70
100
AcDbEntity
  8
Camada 1
 62
    18
420
        0
370
    70
100
AcDbPolyline
 90
        4
 70
     0
 43
0.0
 10
1559.377754548052
 20
126.0769279998239
 10
1560.180032638236
 20
125.2747389428295
 10
1560.180032638236
 20
124.3557383383558
 10
1559.377754548052
 20
123.5533712149808
  0
LINE
  5
2AD
330
70
100
AcDbEntity
  8
Camada 1
 62
    18
420
        0
370
    70
100
AcDbLine
 10
1559.377754548052
 20
123.5533712149808
 30
0.0
 11
1554.552244592443
 21
120.7671665146918
 31
0.0
  0
LINE
  5
2AE
330
70
100
AcDbEntity
  8
Camada 1
 62
    18
420
        0
370
    70
100
AcDbLine
 10
1656.077683391664
 20
53.3743824080193
 30
0.0
 11
1661.712772159175
 21
50.12146571697122
 31
0.0
  0
LWPOLYLINE
  5
2AF
330
70
100
AcDbEntity
  8
Camada 1
 62
    18
420
        0
370
    70
100
AcDbPolyline
 90
        5
 70
     0
 43
0.0
 10
1661.712772159175
 20
50.12146571697122
 10
1663.724299058695
 20
49.34830148046239
 10
1666.097656849182
 20
49.07123018797029
 10
1668.471014639668
 20
49.34830148046239
 10
1670.484055103448
 20
50.12146571697122
  0
LINE
  5
2B0
330
70
100
AcDbEntity
  8
Camada 1
 62
    18
420
        0
370
    70
100
AcDbLine
 10
1670.484055103448
 20
50.12146571697122
 30
0.0
 11
1678.962151747533
 21
55.00814147526035
 31
0.0
  0
LWPOLYLINE
  5
2B1
330
70
100
AcDbEntity
  8
Camada 1
 62
    18
420
        0
370
    70
100
AcDbPolyline
 90
        3
 70
     0
 43
0.0
 10
1678.962151747533
 20
55.00814147526035
 10
1679.5689129488
 20
55.85413486255856
 10
1678.962151747533
 20
56.70030631623922
  0
LINE
  5
2B2
330
70
100
AcDbEntity
  8
Camada 1
 62
    18
420
        0
370
    70
100
AcDbLine
 10
1678.962151747533
 20
56.70030631623922
 30
0.0
 11
1677.062895702716
 21
57.7943461755458
 31
0.0
  0
LINE
  5
2B3
330
70
100
AcDbEntity
  8
Camada 1
 62
    18
420
        0
370
    70
100
AcDbLine
 10
1677.354568438644
 20
57.9693854303805
 30
0.0
 11
1677.062895702716
 21
57.7943461755458
 31
0.0
  0
LINE
  5
2B4
330
70
100
AcDbEntity
  8
Camada 1
 62
    18
420
        0
370
    70
100
AcDbLine
 10
1677.354568438644
 20
57.9693854303805
 30
0.0
 11
1882.024692694085
 21
176.1402916788247
 31
0.0
  0
LINE
  5
2B5
330
70
100
AcDbEntity
  8
Camada 1
 62
    18
420
        0
370
    70
100
AcDbLine
 10
1882.316365430011
 20
176.3007294902236
 30
0.0
 11
1882.024692694085
 21
176.1402916788247
 31
0.0
  0
LWPOLYLINE
  5
2B6
330
70
100
AcDbEntity
  8
Camada 1
 62
    18
420
        0
370
    70
100
AcDbPolyline
 90
        7
 70
     0
 43
0.0
 10
1788.172924523012
 20
896.9083613361418
 10
1788.683440844077
 20
900.2779115082848
 10
1790.18008879614
 20
903.560031086201
 10
1792.559233744087
 20
906.5504779281891
 10
1795.661951440777
 20
909.0448318261643
 10
1799.273760927468
 20
910.8682315916739
 10
1803.151067391734
 20
911.8894423001874
  0
LINE
  5
2B7
330
70
100
AcDbEntity
  8
Camada 1
 62
    18
420
        0
370
    70
100
AcDbLine
 10
1788.708281104556
 20
895.7559157030972
 30
0.0
 11
1788.172924523012
 21
896.9083613361418
 31
0.0
  0
LWPOLYLINE
  5
2B8
330
70
100
AcDbEntity
  8
Camada 1
 62
    18
420
        0
370
    70
100
AcDbPolyline
 90
        7
 70
     0
 43
0.0
 10
1803.686334940086
 20
910.7369966671448
 10
1799.80911750901
 20
909.715964025012
 10
1796.19730802232
 20
907.8925642595022
 10
1793.094590325629
 20
905.3980322951447
 10
1790.715445377684
 20
902.4077635195389
 10
1789.218797425621
 20
899.1110424981888
 10
1788.708281104556
 20
895.7559157030972
  0
LINE
  5
2B9
330
70
100
AcDbEntity
  8
Camada 1
 62
    18
420
        0
370
    70
100
AcDbLine
 10
1788.708281104556
 20
818.1082885792656
 30
0.0
 11
1788.708281104556
 21
895.7559157030972
 31
0.0
  0
LINE
  5
2BA
330
70
100
AcDbEntity
  8
Camada 1
 62
    18
420
        0
370
    70
100
AcDbLine
 10
1880.594452373862
 20
778.3143693608544
 30
0.0
 11
1880.594452373862
 21
870.6076003825002
 31
0.0
  0
LINE
  5
2BB
330
70
100
AcDbEntity
  8
Camada 1
 62
    18
420
        0
370
    70
100
AcDbLine
 10
1963.408942710184
 20
822.251002987914
 30
0.0
 11
1963.408942710184
 21
746.0328927896226
 31
0.0
  0
LINE
  5
2BC
330
70
100
AcDbEntity
  8
Camada 1
 62
    18
420
        0
370
    70
100
AcDbLine
 10
1717.073421547322
 20
776.7536175107888
 30
0.0
 11
1877.739781149179
 21
869.5135605231971
 31
0.0
  0
LWPOLYLINE
  5
2BD
330
70
100
AcDbEntity
  8
Camada 1
 62
    18
420
        0
370
    70
100
AcDbPolyline
 90
        3
 70
     0
 43
0.0
 10
1880.594452373862
 20
870.6076003825002
 10
1880.232710516085
 20
869.557364853501
 10
1879.201350023721
 20
868.6675671358971
  0
LINE
  5
2BE
330
70
100
AcDbEntity
  8
Camada 1
 62
    18
420
        0
370
    70
100
AcDbLine
 10
1879.201350023721
 20
872.5476336291048
 30
0.0
 11
1811.328587980722
 21
911.743427865842
 31
0.0
  0
LWPOLYLINE
  5
2BF
330
70
100
AcDbEntity
  8
Camada 1
 62
    18
420
        0
370
    70
100
AcDbPolyline
 90
        3
 70
     0
 43
0.0
 10
1806.736523053689
 20
912.4437629515577
 10
1809.197400471592
 20
912.4437629515577
 10
1811.328587980722
 20
911.743427865842
  0
LINE
  5
2C0
330
70
100
AcDbEntity
  8
Camada 1
 62
    18
420
        0
370
    70
100
AcDbLine
 10
1806.736523053689
 20
912.4437629515577
 30
0.0
 11
1803.151067391734
 21
911.8894423001874
 31
0.0
  0
LINE
  5
2C1
330
70
100
AcDbEntity
  8
Camada 1
 62
    18
420
        0
370
    70
100
AcDbLine
 10
1803.151067391734
 20
911.8894423001874
 30
0.0
 11
1803.686334940086
 21
910.7369966671448
 31
0.0
  0
LINE
  5
2C2
330
70
100
AcDbEntity
  8
Camada 1
 62
    18
420
        0
370
    70
100
AcDbLine
 10
1807.271879635231
 20
911.2913173185134
 30
0.0
 11
1803.686334940086
 21
910.7369966671448
 31
0.0
  0
LWPOLYLINE
  5
2C3
330
70
100
AcDbEntity
  8
Camada 1
 62
    18
420
        0
370
    70
100
AcDbPolyline
 90
        3
 70
     0
 43
0.0
 10
1715.960417618187
 20
776.0388590480197
 10
1716.516162800626
 20
776.4181404445553
 10
1717.073421547322
 20
776.7536175107888
  0
LINE
  5
2C4
330
70
100
AcDbEntity
  8
Camada 1
 62
    18
420
        0
370
    70
100
AcDbLine
 10
1717.073421547322
 20
776.7536175107888
 30
0.0
 11
1718.535079455054
 21
775.9074460571064
 31
0.0
  0
LINE
  5
2C5
330
70
100
AcDbEntity
  8
Camada 1
 62
    18
420
        0
370
    70
100
AcDbLine
 10
1879.201350023721
 20
868.6675671358971
 30
0.0
 11
1879.201350023721
 21
777.5121803038619
 31
0.0
  0
LINE
  5
2C6
330
70
100
AcDbEntity
  8
Camada 1
 62
    18
420
        0
370
    70
100
AcDbLine
 10
1718.535079455054
 20
775.9074460571064
 30
0.0
 11
1879.201350023721
 21
868.6675671358971
 31
0.0
  0
LWPOLYLINE
  5
2C7
330
70
100
AcDbEntity
  8
Camada 1
 62
    18
420
        0
370
    70
100
AcDbPolyline
 90
        3
 70
     0
 43
0.0
 10
1718.535079455054
 20
775.9074460571064
 10
1717.977820708358
 20
775.5719689908747
 10
1717.422075525921
 20
775.1926875943373
  0
LWPOLYLINE
  5
2C8
330
70
100
AcDbEntity
  8
Camada 1
 62
    18
420
        0
370
    70
100
AcDbPolyline
 90
        3
 70
     0
 43
0.0
 10
1796.366560119695
 20
729.6222949000366
 10
1796.922305302132
 20
729.9869748531382
 10
1797.479564048828
 20
730.3224519193718
  0
LINE
  5
2C9
330
70
100
AcDbEntity
  8
Camada 1
 62
    18
420
        0
370
    70
100
AcDbLine
 10
1865.607584252357
 20
590.7230370985234
 30
0.0
 11
1860.637751493043
 21
587.8494018040128
 31
0.0
  0
LINE
  5
2CA
330
70
100
AcDbEntity
  8
Camada 1
 62
    18
420
        0
370
    70
100
AcDbLine
 10
1959.607492525227
 20
822.251002987914
 30
0.0
 11
1959.607492525227
 21
743.8448130710094
 31
0.0
  0
LWPOLYLINE
  5
2CB
330
70
100
AcDbEntity
  8
Camada 1
 62
    18
420
        0
370
    70
100
AcDbPolyline
 90
        3
 70
     0
 43
0.0
 10
1798.94113292337
 20
729.4910599755076
 10
1798.383963209866
 20
729.14098146584
 10
1797.828128994237
 20
728.7763015127384
  0
LINE
  5
2CC
330
70
100
AcDbEntity
  8
Camada 1
 62
    18
420
        0
370
    70
100
AcDbLine
 10
1958.145834617493
 20
823.0971744415983
 30
0.0
 11
1797.479564048828
 21
730.3224519193718
 31
0.0
  0
LINE
  5
2CD
330
70
100
AcDbEntity
  8
Camada 1
 62
    18
420
        0
370
    70
100
AcDbLine
 10
1797.479564048828
 20
730.3224519193718
 30
0.0
 11
1798.94113292337
 21
729.4910599755076
 31
0.0
  0
LINE
  5
2CE
330
70
100
AcDbEntity
  8
Camada 1
 62
    18
420
        0
370
    70
100
AcDbLine
 10
1959.607492525227
 20
822.251002987914
 30
0.0
 11
1798.94113292337
 21
729.4910599755076
 31
0.0
  0
LWPOLYLINE
  5
2CF
330
70
100
AcDbEntity
  8
Camada 1
 62
    18
420
        0
370
    70
100
AcDbPolyline
 90
        3
 70
     0
 43
0.0
 10
1959.607492525227
 20
822.251002987914
 10
1961.508173101108
 20
822.703291601625
 10
1963.408942710184
 20
822.251002987914
  0
LINE
  5
2D0
330
70
100
AcDbEntity
  8
Camada 1
 62
    18
420
        0
370
    70
100
AcDbLine
 10
2029.410138030975
 20
784.1346471670513
 30
0.0
 11
1963.408942710184
 21
822.251002987914
 31
0.0
  0
LINE
  5
2D1
330
70
100
AcDbEntity
  8
Camada 1
 62
    18
420
        0
370
    70
100
AcDbLine
 10
2030.871795938709
 20
784.980818620732
 30
0.0
 11
1964.870511584726
 21
823.0971744415983
 31
0.0
  0
LWPOLYLINE
  5
2D2
330
70
100
AcDbEntity
  8
Camada 1
 62
    18
420
        0
370
    70
100
AcDbPolyline
 90
        4
 70
     0
 43
0.0
 10
1958.145834617493
 20
823.0971744415983
 10
1960.277022126623
 20
823.7973314609316
 10
1962.739324075595
 20
823.7973314609316
 10
1964.870511584726
 20
823.0971744415983
  0
LWPOLYLINE
  5
2D3
330
70
100
AcDbEntity
  8
Camada 1
 62
    18
420
        0
370
    70
100
AcDbPolyline
 90
        4
 70
     0
 43
0.0
 10
1846.683579361779
 20
960.6105415814926
 10
1848.50119196983
 20
961.1648622328647
 10
1850.616353504458
 20
960.9607981575445
 10
1852.886076659837
 20
959.997993222767
  0
LINE
  5
2D4
330
70
100
AcDbEntity
  8
Camada 1
 62
    18
420
        0
370
    70
100
AcDbLine
 10
1846.683579361779
 20
960.6105415814926
 30
0.0
 11
1845.221921454047
 21
959.7645481941963
 31
0.0
  0
LWPOLYLINE
  5
2D5
330
70
100
AcDbEntity
  8
Camada 1
 62
    18
420
        0
370
    70
100
AcDbPolyline
 90
        4
 70
     0
 43
0.0
 10
1810.783081615329
 20
932.3115196738926
 10
1808.929054431883
 20
932.9240680326202
 10
1806.789052636777
 20
932.9240680326202
 10
1804.935025453331
 20
932.3115196738926
  0
LWPOLYLINE
  5
2D6
330
70
100
AcDbEntity
  8
Camada 1
 62
    18
420
        0
370
    70
100
AcDbPolyline
 90
        3
 70
     0
 43
0.0
 10
1801.718523337678
 20
953.5795904348979
 10
1800.375101508491
 20
954.9945059170005
 10
1799.819267292862
 20
956.8763114562498
  0
LINE
  5
2D7
330
70
100
AcDbEntity
  8
Camada 1
 62
    18
420
        0
370
    70
100
AcDbLine
 10
1804.935025453331
 20
932.3115196738926
 30
0.0
 11
1623.657036812692
 21
827.6483731336538
 31
0.0
  0
LINE
  5
2D8
330
70
100
AcDbEntity
  8
Camada 1
 62
    18
420
        0
370
    70
100
AcDbLine
 10
1804.935025453331
 20
932.3115196738926
 30
0.0
 11
1804.935025453331
 21
934.003506448491
 31
0.0
  0
LWPOLYLINE
  5
2D9
330
70
100
AcDbEntity
  8
Camada 1
 62
    18
420
        0
370
    70
100
AcDbPolyline
 90
        4
 70
     0
 43
0.0
 10
1576.143583743269
 20
860.9946866773244
 10
1574.172834045537
 20
862.4680079331666
 10
1572.932957818268
 20
864.2037990380668
 10
1572.509961124619
 20
866.0564016904444
  0
LINE
  5
2DA
330
70
100
AcDbEntity
  8
Camada 1
 62
    18
420
        0
370
    70
100
AcDbLine
 10
1572.509961124619
 20
867.7339650879913
 30
0.0
 11
1572.509961124619
 21
866.0564016904444
 31
0.0
  0
LWPOLYLINE
  5
2DB
330
70
100
AcDbEntity
  8
Camada 1
 62
    18
420
        0
370
    70
100
AcDbPolyline
 90
        3
 70
     0
 43
0.0
 10
1623.657036812692
 20
827.6483731336538
 10
1623.107078787714
 20
827.2544902936825
 10
1622.713195947743
 20
826.8022016799713
  0
LINE
  5
2DC
330
70
100
AcDbEntity
  8
Camada 1
 62
    18
420
        0
370
    70
100
AcDbLine
 10
1623.657036812692
 20
829.3403599082504
 30
0.0
 11
1623.657036812692
 21
827.6483731336538
 31
0.0
  0
LINE
  5
2DD
330
70
100
AcDbEntity
  8
Camada 1
 62
    18
420
        0
370
    70
100
AcDbLine
 10
1576.143583743269
 20
872.8102815445472
 30
0.0
 11
1770.580767146704
 21
985.0586998827548
 31
0.0
  0
LWPOLYLINE
  5
2DE
330
70
100
AcDbEntity
  8
Camada 1
 62
    18
420
        0
370
    70
100
AcDbPolyline
 90
        7
 70
     0
 43
0.0
 10
1576.143583743269
 20
872.8102815445472
 10
1574.172834045537
 20
871.3223588452711
 10
1572.932957818268
 20
869.5865677403689
 10
1572.509961124619
 20
867.7339650879913
 10
1572.932957818268
 20
865.8813624356135
 10
1574.172834045537
 20
864.1599947077629
 10
1576.143583743269
 20
862.6722500748693
  0
LINE
  5
2DF
330
70
100
AcDbEntity
  8
Camada 1
 62
    18
420
        0
370
    70
100
AcDbLine
 10
1796.456928809246
 20
980.2450313416393
 30
0.0
 11
1788.123333035249
 21
985.0586998827548
 31
0.0
  0
LWPOLYLINE
  5
2E0
330
70
100
AcDbEntity
  8
Camada 1
 62
    18
420
        0
370
    70
100
AcDbPolyline
 90
        7
 70
     0
 43
0.0
 10
1788.123333035249
 20
985.0586998827548
 10
1785.554458355844
 20
986.1965440723652
 10
1782.562676015979
 20
986.9113025351344
 10
1779.352050090978
 20
987.1593490071409
 10
1776.141335132783
 20
986.9113025351344
 10
1773.14955279292
 20
986.1965440723652
 10
1770.580767146704
 20
985.0586998827548
  0
LINE
  5
2E1
330
70
100
AcDbEntity
  8
Camada 1
 62
    18
420
        0
370
    70
100
AcDbLine
 10
1799.819267292862
 20
956.8763114562498
 30
0.0
 11
1587.839607034075
 21
834.4896835819799
 31
0.0
  0
LINE
  5
2E2
330
70
100
AcDbEntity
  8
Camada 1
 62
    18
420
        0
370
    70
100
AcDbLine
 10
1799.819267292862
 20
956.8763114562498
 30
0.0
 11
1799.819267292862
 21
974.4247535354443
 31
0.0
  0
LWPOLYLINE
  5
2E3
330
70
100
AcDbEntity
  8
Camada 1
 62
    18
420
        0
370
    70
100
AcDbPolyline
 90
        4
 70
     0
 43
0.0
 10
1799.819267292862
 20
974.4247535354443
 10
1799.368581276602
 20
976.6274346974896
 10
1798.137430302116
 20
978.7571086423632
 10
1796.456928809246
 20
980.2450313416393
  0
LINE
  5
2E4
330
70
100
AcDbEntity
  8
Camada 1
 62
    18
420
        0
370
    70
100
AcDbLine
 10
1584.477268550458
 20
857.8584034673713
 30
0.0
 11
1796.456928809246
 21
980.2450313416393
 31
0.0
  0
LINE
  5
2E5
330
70
100
AcDbEntity
  8
Camada 1
 62
    18
420
        0
370
    70
100
AcDbLine
 10
1799.819267292862
 20
974.4247535354443
 30
0.0
 11
1587.839607034075
 21
852.0381256611745
 31
0.0
  0
LINE
  5
2E6
330
70
100
AcDbEntity
  8
Camada 1
 62
    18
420
        0
370
    70
100
AcDbLine
 10
1584.477268550458
 20
857.8584034673713
 30
0.0
 11
1576.143583743269
 21
862.6722500748693
 31
0.0
  0
LINE
  5
2E7
330
70
100
AcDbEntity
  8
Camada 1
 62
    18
420
        0
370
    70
100
AcDbLine
 10
1576.143583743269
 20
862.6722500748693
 30
0.0
 11
1576.143583743269
 21
860.9946866773244
 31
0.0
  0
LINE
  5
2E8
330
70
100
AcDbEntity
  8
Camada 1
 62
    18
420
        0
370
    70
100
AcDbLine
 10
1584.477268550458
 20
856.1808400698264
 30
0.0
 11
1576.143583743269
 21
860.9946866773244
 31
0.0
  0
LWPOLYLINE
  5
2E9
330
70
100
AcDbEntity
  8
Camada 1
 62
    18
420
        0
370
    70
100
AcDbPolyline
 90
        3
 70
     0
 43
0.0
 10
1586.377949126341
 20
852.8841190484746
 10
1585.820779412837
 20
854.7513231442863
 10
1584.477268550458
 20
856.1808400698264
  0
LINE
  5
2EA
330
70
100
AcDbEntity
  8
Camada 1
 62
    18
420
        0
370
    70
100
AcDbLine
 10
1586.377949126341
 20
835.3358550356624
 30
0.0
 11
1586.377949126341
 21
852.8841190484746
 31
0.0
  0
LWPOLYLINE
  5
2EB
330
70
100
AcDbEntity
  8
Camada 1
 62
    18
420
        0
370
    70
100
AcDbPolyline
 90
        3
 70
     0
 43
0.0
 10
1588.548578339385
 20
830.4490012109909
 10
1586.973136012692
 20
832.7830953639494
 10
1586.377949126341
 20
835.3358550356624
  0
LWPOLYLINE
  5
2EC
330
70
100
AcDbEntity
  8
Camada 1
 62
    18
420
        0
370
    70
100
AcDbPolyline
 90
        3
 70
     0
 43
0.0
 10
1589.740287609959
 20
831.192962560628
 10
1588.395352216512
 20
832.6078780427323
 10
1587.839607034075
 20
834.4896835819799
  0
LINE
  5
2ED
330
70
100
AcDbEntity
  8
Camada 1
 62
    18
420
        0
370
    70
100
AcDbLine
 10
1587.839607034075
 20
834.4896835819799
 30
0.0
 11
1587.839607034075
 21
852.0381256611745
 31
0.0
  0
LWPOLYLINE
  5
2EE
330
70
100
AcDbEntity
  8
Camada 1
 62
    18
420
        0
370
    70
100
AcDbPolyline
 90
        4
 70
     0
 43
0.0
 10
1587.839607034075
 20
852.0381256611745
 10
1587.388831984623
 20
854.2408068232216
 10
1586.157681010138
 20
856.3704807680933
 10
1584.477268550458
 20
857.8584034673713
  0
LWPOLYLINE
  5
2EF
330
70
100
AcDbEntity
  8
Camada 1
 62
    18
420
        0
370
    70
100
AcDbPolyline
 90
        4
 70
     0
 43
0.0
 10
1589.740287609959
 20
812.6234878393024
 10
1586.45380540565
 20
815.0888169167901
 10
1584.388235358783
 20
817.9770536547366
 10
1583.683715713057
 20
821.069532534384
  0
LINE
  5
2F0
330
70
100
AcDbEntity
  8
Camada 1
 62
    18
420
        0
370
    70
100
AcDbLine
 10
1583.683715713057
 20
822.7470959319306
 30
0.0
 11
1583.683715713057
 21
821.069532534384
 31
0.0
  0
LINE
  5
2F1
330
70
100
AcDbEntity
  8
Camada 1
 62
    18
420
        0
370
    70
100
AcDbLine
 10
1589.740287609959
 20
812.6234878393024
 30
0.0
 11
1596.171778277005
 21
808.9036810911093
 31
0.0
  0
LINE
  5
2F2
330
70
100
AcDbEntity
  8
Camada 1
 62
    18
420
        0
370
    70
100
AcDbLine
 10
1589.740287609959
 20
814.3156526802831
 30
0.0
 11
1589.740287609959
 21
812.6234878393024
 31
0.0
  0
LINE
  5
2F3
330
70
100
AcDbEntity
  8
Camada 1
 62
    18
420
        0
370
    70
100
AcDbLine
 10
1810.783081615329
 20
932.3115196738926
 30
0.0
 11
2052.001331053465
 21
793.0474038528955
 31
0.0
  0
LINE
  5
2F4
330
70
100
AcDbEntity
  8
Camada 1
 62
    18
420
        0
370
    70
100
AcDbLine
 10
1810.783081615329
 20
934.003506448491
 30
0.0
 11
1810.783081615329
 21
932.3115196738926
 31
0.0
  0
LWPOLYLINE
  5
2F5
330
70
100
AcDbEntity
  8
Camada 1
 62
    18
420
        0
370
    70
100
AcDbPolyline
 90
        4
 70
     0
 43
0.0
 10
1600.203735395209
 20
818.2979292775325
 10
1602.019834439001
 20
818.8668513723387
 10
1604.134995973631
 20
818.6480077872001
 10
1606.406232693267
 20
817.6852028524244
  0
LINE
  5
2F6
330
70
100
AcDbEntity
  8
Camada 1
 62
    18
420
        0
370
    70
100
AcDbLine
 10
1600.203735395209
 20
818.2979292775325
 30
0.0
 11
1598.742077487479
 21
817.4519358902362
 31
0.0
  0
LWPOLYLINE
  5
2F7
330
70
100
AcDbEntity
  8
Camada 1
 62
    18
420
        0
370
    70
100
AcDbPolyline
 90
        3
 70
     0
 43
0.0
 10
2052.945082885224
 20
792.2014104655972
 10
2052.551289078445
 20
792.6536990793065
 10
2052.001331053465
 20
793.0474038528955
  0
LINE
  5
2F8
330
70
100
AcDbEntity
  8
Camada 1
 62
    18
420
        0
370
    70
100
AcDbLine
 10
2052.001331053465
 20
793.0474038528955
 30
0.0
 11
2052.001331053465
 21
794.7249672504404
 31
0.0
  0
LINE
  5
2F9
330
70
100
AcDbEntity
  8
Camada 1
 62
    18
420
        0
370
    70
100
AcDbLine
 10
2082.555652739391
 20
768.643049881939
 30
0.0
 11
2082.847414508509
 21
768.4826120705402
 31
0.0
  0
LWPOLYLINE
  5
2FA
330
70
100
AcDbEntity
  8
Camada 1
 62
    18
420
        0
370
    70
100
AcDbPolyline
 90
        4
 70
     0
 43
0.0
 10
2075.537789471971
 20
768.643049881939
 10
2077.762283765979
 20
769.3870112315762
 10
2080.331158445384
 20
769.3870112315762
 10
2082.555652739391
 20
768.643049881939
  0
LINE
  5
2FB
330
70
100
AcDbEntity
  8
Camada 1
 62
    18
420
        0
370
    70
100
AcDbLine
 10
2082.555652739391
 20
770.3352147229179
 30
0.0
 11
2082.555652739391
 21
768.643049881939
 31
0.0
  0
LWPOLYLINE
  5
2FC
330
70
100
AcDbEntity
  8
Camada 1
 62
    18
420
        0
370
    70
100
AcDbPolyline
 90
        3
 70
     0
 43
0.0
 10
2082.847414508509
 20
768.4826120705402
 10
2083.589951327084
 20
767.9282914191698
 10
2084.081503578322
 20
767.3011416170083
  0
LINE
  5
2FD
330
70
100
AcDbEntity
  8
Camada 1
 62
    18
420
        0
370
    70
100
AcDbLine
 10
2082.847414508509
 20
770.1747769115191
 30
0.0
 11
2082.847414508509
 21
768.4826120705402
 31
0.0
  0
LINE
  5
2FE
330
70
100
AcDbEntity
  8
Camada 1
 62
    18
420
        0
370
    70
100
AcDbLine
 10
2130.798465715017
 20
740.7961385216658
 30
0.0
 11
2131.091652015204
 21
740.6210992668311
 31
0.0
  0
LWPOLYLINE
  5
2FF
330
70
100
AcDbEntity
  8
Camada 1
 62
    18
420
        0
370
    70
100
AcDbPolyline
 90
        4
 70
     0
 43
0.0
 10
2123.782026978664
 20
740.7961385216658
 10
2126.006521272669
 20
741.5400998713048
 10
2128.575395952077
 20
741.5400998713048
 10
2130.798465715017
 20
740.7961385216658
  0
LINE
  5
300
330
70
100
AcDbEntity
  8
Camada 1
 62
    18
420
        0
370
    70
100
AcDbLine
 10
2130.798465715017
 20
742.4883033626465
 30
0.0
 11
2130.798465715017
 21
740.7961385216658
 31
0.0
  0
LWPOLYLINE
  5
301
330
70
100
AcDbEntity
  8
Camada 1
 62
    18
420
        0
370
    70
100
AcDbPolyline
 90
        3
 70
     0
 43
0.0
 10
2131.091652015204
 20
740.6210992668311
 10
2131.832675269516
 20
740.0813800588966
 10
2132.324316553946
 20
739.4394507469187
  0
LINE
  5
302
330
70
100
AcDbEntity
  8
Camada 1
 62
    18
420
        0
370
    70
100
AcDbLine
 10
2131.091652015204
 20
742.3132641078118
 30
0.0
 11
2131.091652015204
 21
740.6210992668311
 31
0.0
  0
LINE
  5
303
330
70
100
AcDbEntity
  8
Camada 1
 62
    18
420
        0
370
    70
100
AcDbLine
 10
2179.042703221709
 20
712.9492271613926
 30
0.0
 11
2179.334464990828
 21
712.7741879065597
 31
0.0
  0
LWPOLYLINE
  5
304
330
70
100
AcDbEntity
  8
Camada 1
 62
    18
420
        0
370
    70
100
AcDbPolyline
 90
        4
 70
     0
 43
0.0
 10
2172.024839954289
 20
712.9492271613926
 10
2174.249334248296
 20
713.6785870675976
 10
2176.818119894511
 20
713.6785870675976
 10
2179.042703221709
 20
712.9492271613926
  0
LINE
  5
305
330
70
100
AcDbEntity
  8
Camada 1
 62
    18
420
        0
370
    70
100
AcDbLine
 10
2179.042703221709
 20
714.6267905589374
 30
0.0
 11
2179.042703221709
 21
712.9492271613926
 31
0.0
  0
LWPOLYLINE
  5
306
330
70
100
AcDbEntity
  8
Camada 1
 62
    18
420
        0
370
    70
100
AcDbPolyline
 90
        3
 70
     0
 43
0.0
 10
2179.334464990828
 20
712.7741879065597
 10
2180.076912776209
 20
712.2198672551895
 10
2180.568554060639
 20
711.5925393866454
  0
LINE
  5
307
330
70
100
AcDbEntity
  8
Camada 1
 62
    18
420
        0
370
    70
100
AcDbLine
 10
2179.334464990828
 20
714.4661746811562
 30
0.0
 11
2179.334464990828
 21
712.7741879065597
 31
0.0
  0
LINE
  5
308
330
70
100
AcDbEntity
  8
Camada 1
 62
    18
420
        0
370
    70
100
AcDbLine
 10
2227.286940728402
 20
685.0877143576854
 30
0.0
 11
2227.578702497522
 21
684.9270984799041
 31
0.0
  0
LWPOLYLINE
  5
309
330
70
100
AcDbEntity
  8
Camada 1
 62
    18
420
        0
370
    70
100
AcDbPolyline
 90
        4
 70
     0
 43
0.0
 10
2220.269077460982
 20
685.0877143576854
 10
2222.493571754989
 20
685.831497640942
 10
2225.062357401203
 20
685.831497640942
 10
2227.286940728402
 20
685.0877143576854
  0
LINE
  5
30A
330
70
100
AcDbEntity
  8
Camada 1
 62
    18
420
        0
370
    70
100
AcDbLine
 10
2227.286940728402
 20
686.7797011322836
 30
0.0
 11
2227.286940728402
 21
685.0877143576854
 31
0.0
  0
LWPOLYLINE
  5
30B
330
70
100
AcDbEntity
  8
Camada 1
 62
    18
420
        0
370
    70
100
AcDbPolyline
 90
        3
 70
     0
 43
0.0
 10
2227.578702497522
 20
684.9270984799041
 10
2228.319725751833
 20
684.3727778285337
 10
2228.811278003073
 20
683.7456280263722
  0
LINE
  5
30C
330
70
100
AcDbEntity
  8
Camada 1
 62
    18
420
        0
370
    70
100
AcDbLine
 10
2227.578702497522
 20
686.604661877449
 30
0.0
 11
2227.578702497522
 21
684.9270984799041
 31
0.0
  0
LINE
  5
30D
330
70
100
AcDbEntity
  8
Camada 1
 62
    18
420
        0
370
    70
100
AcDbLine
 10
1907.124206696491
 20
671.4193387716987
 30
0.0
 11
2075.537789471971
 21
768.643049881939
 31
0.0
  0
LINE
  5
30E
330
70
100
AcDbEntity
  8
Camada 1
 62
    18
420
        0
370
    70
100
AcDbLine
 10
2075.537789471971
 20
770.3352147229179
 30
0.0
 11
2075.537789471971
 21
768.643049881939
 31
0.0
  0
LWPOLYLINE
  5
30F
330
70
100
AcDbEntity
  8
Camada 1
 62
    18
420
        0
370
    70
100
AcDbPolyline
 90
        3
 70
     0
 43
0.0
 10
1905.891542157748
 20
670.2378683181686
 10
1906.383183442178
 20
670.8651961867126
 10
1907.124206696491
 20
671.4193387716987
  0
LINE
  5
310
330
70
100
AcDbEntity
  8
Camada 1
 62
    18
420
        0
370
    70
100
AcDbLine
 10
1907.124206696491
 20
673.0969021692454
 30
0.0
 11
1907.124206696491
 21
671.4193387716987
 31
0.0
  0
LINE
  5
311
330
70
100
AcDbEntity
  8
Camada 1
 62
    18
420
        0
370
    70
100
AcDbLine
 10
2275.52672657551
 20
657.2406249310297
 30
0.0
 11
2275.818577377821
 21
657.0655856761968
 31
0.0
  0
LWPOLYLINE
  5
312
330
70
100
AcDbEntity
  8
Camada 1
 62
    18
420
        0
370
    70
100
AcDbPolyline
 90
        4
 70
     0
 43
0.0
 10
2268.510376872348
 20
657.2406249310297
 10
2270.742260921265
 20
657.9699848372347
 10
2273.309622036413
 20
657.9699848372347
 10
2275.52672657551
 20
657.2406249310297
  0
LINE
  5
313
330
70
100
AcDbEntity
  8
Camada 1
 62
    18
420
        0
370
    70
100
AcDbLine
 10
2275.52672657551
 20
658.9181883285764
 30
0.0
 11
2275.52672657551
 21
657.2406249310297
 31
0.0
  0
LWPOLYLINE
  5
314
330
70
100
AcDbEntity
  8
Camada 1
 62
    18
420
        0
370
    70
100
AcDbPolyline
 90
        3
 70
     0
 43
0.0
 10
2275.818577377821
 20
657.0655856761968
 10
2276.56253872746
 20
656.5258664682623
 10
2277.058453605092
 20
655.884115222665
  0
LINE
  5
315
330
70
100
AcDbEntity
  8
Camada 1
 62
    18
420
        0
370
    70
100
AcDbLine
 10
2275.818577377821
 20
658.7577505171775
 30
0.0
 11
2275.818577377821
 21
657.0655856761968
 31
0.0
  0
LINE
  5
316
330
70
100
AcDbEntity
  8
Camada 1
 62
    18
420
        0
370
    70
100
AcDbLine
 10
1955.368444203184
 20
643.5578259679914
 30
0.0
 11
2123.782026978664
 21
740.7961385216658
 31
0.0
  0
LINE
  5
317
330
70
100
AcDbEntity
  8
Camada 1
 62
    18
420
        0
370
    70
100
AcDbLine
 10
2123.782026978664
 20
742.4883033626465
 30
0.0
 11
2123.782026978664
 21
740.7961385216658
 31
0.0
  0
LWPOLYLINE
  5
318
330
70
100
AcDbEntity
  8
Camada 1
 62
    18
420
        0
370
    70
100
AcDbPolyline
 90
        3
 70
     0
 43
0.0
 10
1840.752455231948
 20
947.9197504401017
 10
1842.095966094328
 20
949.3492673656401
 10
1842.653135807832
 20
951.2164714614536
  0
LINE
  5
319
330
70
100
AcDbEntity
  8
Camada 1
 62
    18
420
        0
370
    70
100
AcDbLine
 10
2361.634999837859
 20
666.2701931643514
 30
0.0
 11
1852.886076659837
 21
959.997993222767
 31
0.0
  0
LINE
  5
31A
330
70
100
AcDbEntity
  8
Camada 1
 62
    18
420
        0
370
    70
100
AcDbLine
 10
1852.886076659837
 20
959.997993222767
 30
0.0
 11
1851.424418752104
 21
959.1518217690863
 31
0.0
  0
LINE
  5
31B
330
70
100
AcDbEntity
  8
Camada 1
 62
    18
420
        0
370
    70
100
AcDbLine
 10
2370.401920155739
 20
648.2112347640923
 30
0.0
 11
2370.401920155739
 21
651.0702686151671
 31
0.0
  0
LWPOLYLINE
  5
31C
330
70
100
AcDbEntity
  8
Camada 1
 62
    18
420
        0
370
    70
100
AcDbPolyline
 90
        3
 70
     0
 43
0.0
 10
2367.046971427031
 20
644.0683422890579
 10
2368.38887969196
 20
645.4834358375446
 10
2368.943200343331
 20
647.3650633104098
  0
LWPOLYLINE
  5
31D
330
70
100
AcDbEntity
  8
Camada 1
 62
    18
420
        0
370
    70
100
AcDbPolyline
 90
        3
 70
     0
 43
0.0
 10
2368.272246210867
 20
643.3535838262887
 10
2369.8183966175
 20
645.6730765358133
 10
2370.401920155739
 20
648.2112347640923
  0
LWPOLYLINE
  5
31E
330
70
100
AcDbEntity
  8
Camada 1
 62
    18
420
        0
370
    70
100
AcDbPolyline
 90
        3
 70
     0
 43
0.0
 10
1954.134355133372
 20
642.3763555144614
 10
1954.625907384612
 20
643.0181067600569
 10
1955.368444203184
 20
643.5578259679914
  0
LINE
  5
31F
330
70
100
AcDbEntity
  8
Camada 1
 62
    18
420
        0
370
    70
100
AcDbLine
 10
1955.368444203184
 20
645.2499908089721
 30
0.0
 11
1955.368444203184
 21
643.5578259679914
 31
0.0
  0
LINE
  5
320
330
70
100
AcDbEntity
  8
Camada 1
 62
    18
420
        0
370
    70
100
AcDbLine
 10
2368.943200343331
 20
647.3650633104098
 30
0.0
 11
2368.943200343331
 21
650.2242752278689
 31
0.0
  0
LINE
  5
321
330
70
100
AcDbEntity
  8
Camada 1
 62
    18
420
        0
370
    70
100
AcDbLine
 10
2360.176280025451
 20
665.4240217106708
 30
0.0
 11
1851.424418752104
 21
959.1518217690863
 31
0.0
  0
LWPOLYLINE
  5
322
330
70
100
AcDbEntity
  8
Camada 1
 62
    18
420
        0
370
    70
100
AcDbPolyline
 90
        7
 70
     0
 43
0.0
 10
1851.424418752104
 20
959.1518217690863
 10
1849.154695596726
 20
960.114626703862
 10
1847.039534062096
 20
960.3188688455647
 10
1845.221921454047
 20
959.7645481941963
 10
1843.828908137095
 20
958.466266193187
 10
1842.952198298668
 20
956.5408343900163
 10
1842.653135807832
 20
954.0901067559643
  0
LINE
  5
323
330
70
100
AcDbEntity
  8
Camada 1
 62
    18
420
        0
370
    70
100
AcDbLine
 10
1842.653135807832
 20
951.2164714614536
 30
0.0
 11
1842.653135807832
 21
954.0901067559643
 31
0.0
  0
LINE
  5
324
330
70
100
AcDbEntity
  8
Camada 1
 62
    18
420
        0
370
    70
100
AcDbLine
 10
2368.943200343331
 20
647.3650633104098
 30
0.0
 11
1842.653135807832
 21
951.2164714614536
 31
0.0
  0
LWPOLYLINE
  5
325
330
70
100
AcDbEntity
  8
Camada 1
 62
    18
420
        0
370
    70
100
AcDbPolyline
 90
        7
 70
     0
 43
0.0
 10
2361.634999837859
 20
666.2701931643514
 10
2363.910688217078
 20
664.6072312102405
 10
2366.025760718516
 20
662.3753471613272
 10
2367.83455904059
 20
659.7205554519533
 10
2369.235051145643
 20
656.8177172705727
 10
2370.110247419811
 20
653.8710747588884
 10
2370.401920155739
 20
651.0702686151671
  0
LINE
  5
326
330
70
100
AcDbEntity
  8
Camada 1
 62
    18
420
        0
370
    70
100
AcDbLine
 10
2360.176280025451
 20
665.4240217106708
 30
0.0
 11
2361.634999837859
 21
666.2701931643514
 31
0.0
  0
LWPOLYLINE
  5
327
330
70
100
AcDbEntity
  8
Camada 1
 62
    18
420
        0
370
    70
100
AcDbPolyline
 90
        7
 70
     0
 43
0.0
 10
2368.943200343331
 20
650.2242752278689
 10
2368.651527607402
 20
653.0249033052059
 10
2367.776331333235
 20
655.9715458168902
 10
2366.375839228183
 20
658.8743839982708
 10
2364.567040906109
 20
661.5293537740272
 10
2362.451968404672
 20
663.7610597565599
 10
2360.176280025451
 20
665.4240217106708
  0
LINE
  5
328
330
70
100
AcDbEntity
  8
Camada 1
 62
    18
420
        0
370
    70
100
AcDbLine
 10
2370.401920155739
 20
651.0702686151671
 30
0.0
 11
2368.943200343331
 21
650.2242752278689
 31
0.0
  0
LINE
  5
329
330
70
100
AcDbEntity
  8
Camada 1
 62
    18
420
        0
370
    70
100
AcDbLine
 10
2323.766690489001
 20
629.3791121273224
 30
0.0
 11
2324.072964668365
 21
629.2186743159236
 31
0.0
  0
LWPOLYLINE
  5
32A
330
70
100
AcDbEntity
  8
Camada 1
 62
    18
420
        0
370
    70
100
AcDbPolyline
 90
        4
 70
     0
 43
0.0
 10
2316.750162719458
 20
629.3791121273224
 10
2318.982046768373
 20
630.1230734769615
 10
2321.549407883522
 20
630.1230734769615
 10
2323.766690489001
 20
629.3791121273224
  0
LINE
  5
32B
330
70
100
AcDbEntity
  8
Camada 1
 62
    18
420
        0
370
    70
100
AcDbLine
 10
2323.766690489001
 20
631.0712769683032
 30
0.0
 11
2323.766690489001
 21
629.3791121273224
 31
0.0
  0
LWPOLYLINE
  5
32C
330
70
100
AcDbEntity
  8
Camada 1
 62
    18
420
        0
370
    70
100
AcDbPolyline
 90
        3
 70
     0
 43
0.0
 10
2324.072964668365
 20
629.2186743159236
 10
2324.802324574568
 20
628.6643536645533
 10
2325.2982394522
 20
628.0370257960093
  0
LINE
  5
32D
330
70
100
AcDbEntity
  8
Camada 1
 62
    18
420
        0
370
    70
100
AcDbLine
 10
2324.072964668365
 20
630.8962377134703
 30
0.0
 11
2324.072964668365
 21
629.2186743159236
 31
0.0
  0
LINE
  5
32E
330
70
100
AcDbEntity
  8
Camada 1
 62
    18
420
        0
370
    70
100
AcDbLine
 10
2003.611257178809
 20
615.71091460772
 30
0.0
 11
2172.024839954289
 21
712.9492271613926
 31
0.0
  0
LINE
  5
32F
330
70
100
AcDbEntity
  8
Camada 1
 62
    18
420
        0
370
    70
100
AcDbLine
 10
2172.024839954289
 20
714.6267905589374
 30
0.0
 11
2172.024839954289
 21
712.9492271613926
 31
0.0
  0
LWPOLYLINE
  5
330
330
70
100
AcDbEntity
  8
Camada 1
 62
    18
420
        0
370
    70
100
AcDbPolyline
 90
        3
 70
     0
 43
0.0
 10
2002.378592640065
 20
614.5292660878058
 10
2002.870233924495
 20
615.1565939563497
 10
2003.611257178809
 20
615.71091460772
  0
LINE
  5
331
330
70
100
AcDbEntity
  8
Camada 1
 62
    18
420
        0
370
    70
100
AcDbLine
 10
2003.611257178809
 20
617.4030794487007
 30
0.0
 11
2003.611257178809
 21
615.71091460772
 31
0.0
  0
LWPOLYLINE
  5
332
330
70
100
AcDbEntity
  8
Camada 1
 62
    18
420
        0
370
    70
100
AcDbPolyline
 90
        4
 70
     0
 43
0.0
 10
2394.076914220492
 20
630.5607606472385
 10
2393.654006560035
 20
628.7081579948571
 10
2392.413952266381
 20
626.9867902670084
 10
2390.430114689474
 20
625.4988675677305
  0
LINE
  5
333
330
70
100
AcDbEntity
  8
Camada 1
 62
    18
420
        0
370
    70
100
AcDbLine
 10
2394.076914220492
 20
630.5607606472385
 30
0.0
 11
2394.076914220492
 21
632.2527474218332
 31
0.0
  0
LINE
  5
334
330
70
100
AcDbEntity
  8
Camada 1
 62
    18
420
        0
370
    70
100
AcDbLine
 10
2051.855494685502
 20
587.8494018040128
 30
0.0
 11
2220.269077460982
 21
685.0877143576854
 31
0.0
  0
LINE
  5
335
330
70
100
AcDbEntity
  8
Camada 1
 62
    18
420
        0
370
    70
100
AcDbLine
 10
2220.269077460982
 20
686.7797011322836
 30
0.0
 11
2220.269077460982
 21
685.0877143576854
 31
0.0
  0
LWPOLYLINE
  5
336
330
70
100
AcDbEntity
  8
Camada 1
 62
    18
420
        0
370
    70
100
AcDbPolyline
 90
        3
 70
     0
 43
0.0
 10
2050.621405615691
 20
586.6677532840985
 10
2051.112957866928
 20
587.3096825960764
 10
2051.855494685502
 20
587.8494018040128
  0
LINE
  5
337
330
70
100
AcDbEntity
  8
Camada 1
 62
    18
420
        0
370
    70
100
AcDbLine
 10
2051.855494685502
 20
589.5415666449917
 30
0.0
 11
2051.855494685502
 21
587.8494018040128
 31
0.0
  0
LINE
  5
338
330
70
100
AcDbEntity
  8
Camada 1
 62
    18
420
        0
370
    70
100
AcDbLine
 10
2100.098218627934
 20
560.0024904437396
 30
0.0
 11
2268.510376872348
 21
657.2406249310297
 31
0.0
  0
LINE
  5
339
330
70
100
AcDbEntity
  8
Camada 1
 62
    18
420
        0
370
    70
100
AcDbLine
 10
2268.510376872348
 20
658.9181883285764
 30
0.0
 11
2268.510376872348
 21
657.2406249310297
 31
0.0
  0
LWPOLYLINE
  5
33A
330
70
100
AcDbEntity
  8
Camada 1
 62
    18
420
        0
370
    70
100
AcDbPolyline
 90
        3
 70
     0
 43
0.0
 10
2098.865643122383
 20
558.8208419238253
 10
2099.357195373623
 20
559.4481697923693
 10
2100.098218627934
 20
560.0024904437396
  0
LINE
  5
33B
330
70
100
AcDbEntity
  8
Camada 1
 62
    18
420
        0
370
    70
100
AcDbLine
 10
2100.098218627934
 20
561.6944772183378
 30
0.0
 11
2100.098218627934
 21
560.0024904437396
 31
0.0
  0
LINE
  5
33C
330
70
100
AcDbEntity
  8
Camada 1
 62
    18
420
        0
370
    70
100
AcDbLine
 10
2148.342456134628
 20
532.1407995736481
 30
0.0
 11
2316.750162719458
 21
629.3791121273224
 31
0.0
  0
LINE
  5
33D
330
70
100
AcDbEntity
  8
Camada 1
 62
    18
420
        0
370
    70
100
AcDbLine
 10
2316.750162719458
 20
631.0712769683032
 30
0.0
 11
2316.750162719458
 21
629.3791121273224
 31
0.0
  0
LWPOLYLINE
  5
33E
330
70
100
AcDbEntity
  8
Camada 1
 62
    18
420
        0
370
    70
100
AcDbPolyline
 90
        3
 70
     0
 43
0.0
 10
2147.108367064817
 20
530.959329120118
 10
2147.600008349249
 20
531.6010803657136
 10
2148.342456134628
 20
532.1407995736481
  0
LINE
  5
33F
330
70
100
AcDbEntity
  8
Camada 1
 62
    18
420
        0
370
    70
100
AcDbLine
 10
2148.342456134628
 20
533.8329644146288
 30
0.0
 11
2148.342456134628
 21
532.1407995736481
 31
0.0
  0
LWPOLYLINE
  5
340
330
70
100
AcDbEntity
  8
Camada 1
 62
    18
420
        0
370
    70
100
AcDbPolyline
 90
        3
 70
     0
 43
0.0
 10
1597.157909907999
 20
806.7302028159319
 10
1596.428550001796
 20
807.5763742696144
 10
1596.171778277005
 20
808.9036810911093
  0
LINE
  5
341
330
70
100
AcDbEntity
  8
Camada 1
 62
    18
420
        0
370
    70
100
AcDbLine
 10
1597.157909907999
 20
806.7302028159319
 30
0.0
 11
2123.450912538825
 21
502.8789727312723
 31
0.0
  0
LINE
  5
342
330
70
100
AcDbEntity
  8
Camada 1
 62
    18
420
        0
370
    70
100
AcDbLine
 10
1606.406232693267
 20
817.6852028524244
 30
0.0
 11
2115.156580402356
 21
523.9574027940107
 31
0.0
  0
LINE
  5
343
330
70
100
AcDbEntity
  8
Camada 1
 62
    18
420
        0
370
    70
100
AcDbLine
 10
1606.406232693267
 20
817.6852028524244
 30
0.0
 11
1604.944574785535
 21
816.8392094651263
 31
0.0
  0
LINE
  5
344
330
70
100
AcDbEntity
  8
Camada 1
 62
    18
420
        0
370
    70
100
AcDbLine
 10
2123.927863346629
 20
505.8984443937479
 30
0.0
 11
2123.927863346629
 21
508.7720796882585
 31
0.0
  0
LWPOLYLINE
  5
345
330
70
100
AcDbEntity
  8
Camada 1
 62
    18
420
        0
370
    70
100
AcDbPolyline
 90
        4
 70
     0
 43
0.0
 10
2125.828632955703
 20
503.1124177598467
 10
2124.146706931766
 20
502.6601291461356
 10
2122.916980488348
 20
503.3748876089048
 10
2122.466294472088
 20
505.0524510064497
  0
LWPOLYLINE
  5
346
330
70
100
AcDbEntity
  8
Camada 1
 62
    18
420
        0
370
    70
100
AcDbPolyline
 90
        3
 70
     0
 43
0.0
 10
2125.828632955703
 20
504.8044045344432
 10
2124.485122093323
 20
504.6731696099122
 10
2123.927863346629
 20
505.8984443937479
  0
LINE
  5
347
330
70
100
AcDbEntity
  8
Camada 1
 62
    18
420
        0
370
    70
100
AcDbLine
 10
2125.828632955703
 20
503.1124177598467
 30
0.0
 11
2135.623886637433
 21
497.4525777650487
 31
0.0
  0
LINE
  5
348
330
70
100
AcDbEntity
  8
Camada 1
 62
    18
420
        0
370
    70
100
AcDbLine
 10
2125.828632955703
 20
503.1124177598467
 30
0.0
 11
2125.828632955703
 21
504.8044045344432
 31
0.0
  0
LINE
  5
349
330
70
100
AcDbEntity
  8
Camada 1
 62
    18
420
        0
370
    70
100
AcDbLine
 10
2167.240196233661
 20
497.2191327364762
 30
0.0
 11
2192.554825556304
 21
511.8355337474204
 31
0.0
  0
LINE
  5
34A
330
70
100
AcDbEntity
  8
Camada 1
 62
    18
420
        0
370
    70
100
AcDbLine
 10
2123.927863346629
 20
508.7720796882585
 30
0.0
 11
2122.466294472088
 21
507.9260863009621
 31
0.0
  0
LWPOLYLINE
  5
34B
330
70
100
AcDbEntity
  8
Camada 1
 62
    18
420
        0
370
    70
100
AcDbPolyline
 90
        7
 70
     0
 43
0.0
 10
2115.156580402356
 20
523.9574027940107
 10
2117.426392590926
 20
522.3090422833338
 10
2119.541554125554
 20
520.0771582344186
 10
2121.359077700414
 20
517.4077650816107
 10
2122.752180050557
 20
514.5049269002283
 10
2123.628889888982
 20
511.5582843885459
 10
2123.927863346629
 20
508.7720796882585
  0
LINE
  5
34C
330
70
100
AcDbEntity
  8
Camada 1
 62
    18
420
        0
370
    70
100
AcDbLine
 10
2113.695011527816
 20
523.1114094067106
 30
0.0
 11
2115.156580402356
 21
523.9574027940107
 31
0.0
  0
LINE
  5
34D
330
70
100
AcDbEntity
  8
Camada 1
 62
    18
420
        0
370
    70
100
AcDbLine
 10
1604.944574785535
 20
816.8392094651263
 30
0.0
 11
2113.695011527816
 21
523.1114094067106
 31
0.0
  0
LWPOLYLINE
  5
34E
330
70
100
AcDbEntity
  8
Camada 1
 62
    18
420
        0
370
    70
100
AcDbPolyline
 90
        7
 70
     0
 43
0.0
 10
1604.944574785535
 20
816.8392094651263
 10
1602.673338065899
 20
817.8166158433377
 10
1600.558176531269
 20
818.0206799186562
 10
1598.742077487479
 20
817.4519358902362
 10
1597.347550606268
 20
816.168255332661
 10
1596.470840767843
 20
814.2280440196737
 10
1596.171778277005
 20
811.7774944520043
  0
LINE
  5
34F
330
70
100
AcDbEntity
  8
Camada 1
 62
    18
420
        0
370
    70
100
AcDbLine
 10
1596.171778277005
 20
808.9036810911093
 30
0.0
 11
1596.171778277005
 21
811.7774944520043
 31
0.0
  0
LINE
  5
350
330
70
100
AcDbEntity
  8
Camada 1
 62
    18
420
        0
370
    70
100
AcDbLine
 10
1596.171778277005
 20
808.9036810911093
 30
0.0
 11
2122.466294472088
 21
505.0524510064497
 31
0.0
  0
LINE
  5
351
330
70
100
AcDbEntity
  8
Camada 1
 62
    18
420
        0
370
    70
100
AcDbLine
 10
2122.466294472088
 20
505.0524510064497
 30
0.0
 11
2122.466294472088
 21
507.9260863009621
 31
0.0
  0
LWPOLYLINE
  5
352
330
70
100
AcDbEntity
  8
Camada 1
 62
    18
420
        0
370
    70
100
AcDbPolyline
 90
        7
 70
     0
 43
0.0
 10
2122.466294472088
 20
507.9260863009621
 10
2122.16723198125
 20
510.7122910012458
 10
2121.290522142823
 20
513.6735349563659
 10
2119.89741979268
 20
516.5763731377465
 10
2118.079896217822
 20
519.2311648471186
 10
2115.964734683192
 20
521.4630488960337
 10
2113.695011527816
 20
523.1114094067106
  0
LINE
  5
353
330
70
100
AcDbEntity
  8
Camada 1
 62
    18
420
        0
370
    70
100
AcDbLine
 10
2135.623886637433
 20
497.4525777650487
 30
0.0
 11
2135.623886637433
 21
499.1445645396452
 31
0.0
  0
LWPOLYLINE
  5
354
330
70
100
AcDbEntity
  8
Camada 1
 62
    18
420
        0
370
    70
100
AcDbPolyline
 90
        8
 70
     0
 43
0.0
 10
2164.862475816783
 20
497.4525777650487
 10
2161.241941077305
 20
495.7896158109397
 10
2157.071448312854
 20
494.6371701778935
 10
2152.558177760449
 20
494.0390451962193
 10
2147.928184693763
 20
494.0390451962193
 10
2143.41491414136
 20
494.6371701778935
 10
2139.24299684584
 20
495.7896158109397
 10
2135.623886637433
 20
497.4525777650487
  0
LINE
  5
355
330
70
100
AcDbEntity
  8
Camada 1
 62
    18
420
        0
370
    70
100
AcDbLine
 10
2148.342456134628
 20
533.8329644146288
 30
0.0
 11
2316.750162719458
 21
631.0712769683032
 31
0.0
  0
LWPOLYLINE
  5
356
330
70
100
AcDbEntity
  8
Camada 1
 62
    18
420
        0
370
    70
100
AcDbPolyline
 90
        4
 70
     0
 43
0.0
 10
2316.750162719458
 20
631.0712769683032
 10
2318.982046768373
 20
631.8152383179421
 10
2321.549407883522
 20
631.8152383179421
 10
2323.766690489001
 20
631.0712769683032
  0
LINE
  5
357
330
70
100
AcDbEntity
  8
Camada 1
 62
    18
420
        0
370
    70
100
AcDbLine
 10
2323.766690489001
 20
631.0712769683032
 30
0.0
 11
2324.072964668365
 21
630.8962377134703
 31
0.0
  0
LWPOLYLINE
  5
358
330
70
100
AcDbEntity
  8
Camada 1
 62
    18
420
        0
370
    70
100
AcDbPolyline
 90
        4
 70
     0
 43
0.0
 10
2324.072964668365
 20
630.8962377134703
 10
2325.356645225939
 20
629.612557155895
 10
2325.356645225939
 20
628.1392359000529
 10
2324.072964668365
 20
626.8555553424794
  0
LINE
  5
359
330
70
100
AcDbEntity
  8
Camada 1
 62
    18
420
        0
370
    70
100
AcDbLine
 10
2324.072964668365
 20
626.8555553424794
 30
0.0
 11
2155.652170204358
 21
529.617242788805
 31
0.0
  0
LWPOLYLINE
  5
35A
330
70
100
AcDbEntity
  8
Camada 1
 62
    18
420
        0
370
    70
100
AcDbPolyline
 90
        4
 70
     0
 43
0.0
 10
2155.652170204358
 20
529.617242788805
 10
2153.42758687716
 20
528.873281439166
 10
2150.858801230947
 20
528.873281439166
 10
2148.634217903747
 20
529.617242788805
  0
LINE
  5
35B
330
70
100
AcDbEntity
  8
Camada 1
 62
    18
420
        0
370
    70
100
AcDbLine
 10
2148.634217903747
 20
529.617242788805
 30
0.0
 11
2148.342456134628
 21
529.7776806002039
 31
0.0
  0
LWPOLYLINE
  5
35C
330
70
100
AcDbEntity
  8
Camada 1
 62
    18
420
        0
370
    70
100
AcDbPolyline
 90
        4
 70
     0
 43
0.0
 10
2148.342456134628
 20
529.7776806002039
 10
2147.057351045987
 20
531.0759626012131
 10
2147.057351045987
 20
532.5492838570553
 10
2148.342456134628
 20
533.8329644146288
  0
LINE
  5
35D
330
70
100
AcDbEntity
  8
Camada 1
 62
    18
420
        0
370
    70
100
AcDbLine
 10
2100.098218627934
 20
561.6944772183378
 30
0.0
 11
2268.510376872348
 21
658.9181883285764
 31
0.0
  0
LWPOLYLINE
  5
35E
330
70
100
AcDbEntity
  8
Camada 1
 62
    18
420
        0
370
    70
100
AcDbPolyline
 90
        4
 70
     0
 43
0.0
 10
2268.510376872348
 20
658.9181883285764
 10
2270.742260921265
 20
659.6621496782136
 10
2273.309622036413
 20
659.6621496782136
 10
2275.52672657551
 20
658.9181883285764
  0
LINE
  5
35F
330
70
100
AcDbEntity
  8
Camada 1
 62
    18
420
        0
370
    70
100
AcDbLine
 10
2275.52672657551
 20
658.9181883285764
 30
0.0
 11
2275.818577377821
 21
658.7577505171775
 31
0.0
  0
LWPOLYLINE
  5
360
330
70
100
AcDbEntity
  8
Camada 1
 62
    18
420
        0
370
    70
100
AcDbPolyline
 90
        4
 70
     0
 43
0.0
 10
2275.818577377821
 20
658.7577505171775
 10
2277.102257935396
 20
657.474069959604
 10
2277.102257935396
 20
655.9861472603261
 10
2275.818577377821
 20
654.7024667027526
  0
LINE
  5
361
330
70
100
AcDbEntity
  8
Camada 1
 62
    18
420
        0
370
    70
100
AcDbLine
 10
2275.818577377821
 20
654.7024667027526
 30
0.0
 11
2107.407843664474
 21
557.4641541490782
 31
0.0
  0
LWPOLYLINE
  5
362
330
70
100
AcDbEntity
  8
Camada 1
 62
    18
420
        0
370
    70
100
AcDbPolyline
 90
        4
 70
     0
 43
0.0
 10
2107.407843664474
 20
557.4641541490782
 10
2105.183349370467
 20
556.734794242875
 10
2102.61598825532
 20
556.734794242875
 10
2100.391404928121
 20
557.4641541490782
  0
LINE
  5
363
330
70
100
AcDbEntity
  8
Camada 1
 62
    18
420
        0
370
    70
100
AcDbLine
 10
2100.391404928121
 20
557.4641541490782
 30
0.0
 11
2100.098218627934
 21
557.6391934039129
 31
0.0
  0
LWPOLYLINE
  5
364
330
70
100
AcDbEntity
  8
Camada 1
 62
    18
420
        0
370
    70
100
AcDbPolyline
 90
        4
 70
     0
 43
0.0
 10
2100.098218627934
 20
557.6391934039129
 10
2098.814538070361
 20
558.9228739614846
 10
2098.814538070361
 20
560.4107966607625
 10
2100.098218627934
 20
561.6944772183378
  0
LINE
  5
365
330
70
100
AcDbEntity
  8
Camada 1
 62
    18
420
        0
370
    70
100
AcDbLine
 10
2051.855494685502
 20
589.5415666449917
 30
0.0
 11
2220.269077460982
 21
686.7797011322836
 31
0.0
  0
LWPOLYLINE
  5
366
330
70
100
AcDbEntity
  8
Camada 1
 62
    18
420
        0
370
    70
100
AcDbPolyline
 90
        4
 70
     0
 43
0.0
 10
2220.269077460982
 20
686.7797011322836
 10
2222.493571754989
 20
687.5236624819208
 10
2225.062357401203
 20
687.5236624819208
 10
2227.286940728402
 20
686.7797011322836
  0
LINE
  5
367
330
70
100
AcDbEntity
  8
Camada 1
 62
    18
420
        0
370
    70
100
AcDbLine
 10
2227.286940728402
 20
686.7797011322836
 30
0.0
 11
2227.578702497522
 21
686.604661877449
 31
0.0
  0
LWPOLYLINE
  5
368
330
70
100
AcDbEntity
  8
Camada 1
 62
    18
420
        0
370
    70
100
AcDbPolyline
 90
        4
 70
     0
 43
0.0
 10
2227.578702497522
 20
686.604661877449
 10
2228.862383055095
 20
685.3209813198755
 10
2228.862383055095
 20
683.8476600640333
 10
2227.578702497522
 20
682.5639795064598
  0
LINE
  5
369
330
70
100
AcDbEntity
  8
Camada 1
 62
    18
420
        0
370
    70
100
AcDbLine
 10
2227.578702497522
 20
682.5639795064598
 30
0.0
 11
2059.16511972204
 21
585.3258450191678
 31
0.0
  0
LWPOLYLINE
  5
36A
330
70
100
AcDbEntity
  8
Camada 1
 62
    18
420
        0
370
    70
100
AcDbPolyline
 90
        4
 70
     0
 43
0.0
 10
2059.16511972204
 20
585.3258450191678
 10
2056.940536394843
 20
584.5818836695307
 10
2054.371750748627
 20
584.5818836695307
 10
2052.14716742143
 20
585.3258450191678
  0
LINE
  5
36B
330
70
100
AcDbEntity
  8
Camada 1
 62
    18
420
        0
370
    70
100
AcDbLine
 10
2052.14716742143
 20
585.3258450191678
 30
0.0
 11
2051.855494685502
 21
585.4862828305686
 31
0.0
  0
LWPOLYLINE
  5
36C
330
70
100
AcDbEntity
  8
Camada 1
 62
    18
420
        0
370
    70
100
AcDbPolyline
 90
        4
 70
     0
 43
0.0
 10
2051.855494685502
 20
585.4862828305686
 10
2050.57030056367
 20
586.7699633881421
 10
2050.57030056367
 20
588.2578860874182
 10
2051.855494685502
 20
589.5415666449917
  0
LINE
  5
36D
330
70
100
AcDbEntity
  8
Camada 1
 62
    18
420
        0
370
    70
100
AcDbLine
 10
2003.611257178809
 20
617.4030794487007
 30
0.0
 11
2172.024839954289
 21
714.6267905589374
 31
0.0
  0
LWPOLYLINE
  5
36E
330
70
100
AcDbEntity
  8
Camada 1
 62
    18
420
        0
370
    70
100
AcDbPolyline
 90
        4
 70
     0
 43
0.0
 10
2172.024839954289
 20
714.6267905589374
 10
2174.249334248296
 20
715.370573842194
 10
2176.818119894511
 20
715.370573842194
 10
2179.042703221709
 20
714.6267905589374
  0
LINE
  5
36F
330
70
100
AcDbEntity
  8
Camada 1
 62
    18
420
        0
370
    70
100
AcDbLine
 10
2179.042703221709
 20
714.6267905589374
 30
0.0
 11
2179.334464990828
 21
714.4661746811562
 31
0.0
  0
LWPOLYLINE
  5
370
330
70
100
AcDbEntity
  8
Camada 1
 62
    18
420
        0
370
    70
100
AcDbPolyline
 90
        4
 70
     0
 43
0.0
 10
2179.334464990828
 20
714.4661746811562
 10
2180.619570079469
 20
713.1824941235826
 10
2180.619570079469
 20
711.694749490689
 10
2179.334464990828
 20
710.4110689331155
  0
LINE
  5
371
330
70
100
AcDbEntity
  8
Camada 1
 62
    18
420
        0
370
    70
100
AcDbLine
 10
2179.334464990828
 20
710.4110689331155
 30
0.0
 11
2010.920882215349
 21
613.1727563794411
 31
0.0
  0
LWPOLYLINE
  5
372
330
70
100
AcDbEntity
  8
Camada 1
 62
    18
420
        0
370
    70
100
AcDbPolyline
 90
        4
 70
     0
 43
0.0
 10
2010.920882215349
 20
613.1727563794411
 10
2008.69629888815
 20
612.4287950298021
 10
2006.127513241936
 20
612.4287950298021
 10
2003.904443478996
 20
613.1727563794411
  0
LINE
  5
373
330
70
100
AcDbEntity
  8
Camada 1
 62
    18
420
        0
370
    70
100
AcDbLine
 10
2003.904443478996
 20
613.1727563794411
 30
0.0
 11
2003.611257178809
 21
613.347795634274
 31
0.0
  0
LWPOLYLINE
  5
374
330
70
100
AcDbEntity
  8
Camada 1
 62
    18
420
        0
370
    70
100
AcDbPolyline
 90
        4
 70
     0
 43
0.0
 10
2003.611257178809
 20
613.347795634274
 10
2002.327576621234
 20
614.6314761918493
 10
2002.327576621234
 20
616.1193988911255
 10
2003.611257178809
 20
617.4030794487007
  0
LINE
  5
375
330
70
100
AcDbEntity
  8
Camada 1
 62
    18
420
        0
370
    70
100
AcDbLine
 10
1955.368444203184
 20
645.2499908089721
 30
0.0
 11
2123.782026978664
 21
742.4883033626465
 31
0.0
  0
LWPOLYLINE
  5
376
330
70
100
AcDbEntity
  8
Camada 1
 62
    18
420
        0
370
    70
100
AcDbPolyline
 90
        4
 70
     0
 43
0.0
 10
2123.782026978664
 20
742.4883033626465
 10
2126.006521272669
 20
743.2322647122855
 10
2128.575395952077
 20
743.2322647122855
 10
2130.798465715017
 20
742.4883033626465
  0
LINE
  5
377
330
70
100
AcDbEntity
  8
Camada 1
 62
    18
420
        0
370
    70
100
AcDbLine
 10
2130.798465715017
 20
742.4883033626465
 30
0.0
 11
2131.091652015204
 21
742.3132641078118
 31
0.0
  0
LWPOLYLINE
  5
378
330
70
100
AcDbEntity
  8
Camada 1
 62
    18
420
        0
370
    70
100
AcDbPolyline
 90
        4
 70
     0
 43
0.0
 10
2131.091652015204
 20
742.3132641078118
 10
2132.375332572777
 20
741.0295835502384
 10
2132.375332572777
 20
739.5416608509604
 10
2131.091652015204
 20
738.2579802933869
  0
LINE
  5
379
330
70
100
AcDbEntity
  8
Camada 1
 62
    18
420
        0
370
    70
100
AcDbLine
 10
2131.091652015204
 20
738.2579802933869
 30
0.0
 11
1962.678069239722
 21
641.0342691831483
 31
0.0
  0
LWPOLYLINE
  5
37A
330
70
100
AcDbEntity
  8
Camada 1
 62
    18
420
        0
370
    70
100
AcDbPolyline
 90
        4
 70
     0
 43
0.0
 10
1962.678069239722
 20
641.0342691831483
 10
1960.453574945717
 20
640.2903078335093
 10
1957.884700266309
 20
640.2903078335093
 10
1955.660205972302
 20
641.0342691831483
  0
LINE
  5
37B
330
70
100
AcDbEntity
  8
Camada 1
 62
    18
420
        0
370
    70
100
AcDbLine
 10
1955.660205972302
 20
641.0342691831483
 30
0.0
 11
1955.368444203184
 21
641.1947069945472
 31
0.0
  0
LWPOLYLINE
  5
37C
330
70
100
AcDbEntity
  8
Camada 1
 62
    18
420
        0
370
    70
100
AcDbPolyline
 90
        4
 70
     0
 43
0.0
 10
1955.368444203184
 20
641.1947069945472
 10
1954.083339114542
 20
642.4783875521207
 10
1954.083339114542
 20
643.9663102513986
 10
1955.368444203184
 20
645.2499908089721
  0
LINE
  5
37D
330
70
100
AcDbEntity
  8
Camada 1
 62
    18
420
        0
370
    70
100
AcDbLine
 10
1907.124206696491
 20
673.0969021692454
 30
0.0
 11
2075.537789471971
 21
770.3352147229179
 31
0.0
  0
LWPOLYLINE
  5
37E
330
70
100
AcDbEntity
  8
Camada 1
 62
    18
420
        0
370
    70
100
AcDbPolyline
 90
        4
 70
     0
 43
0.0
 10
2075.537789471971
 20
770.3352147229179
 10
2077.762283765979
 20
771.0791760725551
 10
2080.331158445384
 20
771.0791760725551
 10
2082.555652739391
 20
770.3352147229179
  0
LINE
  5
37F
330
70
100
AcDbEntity
  8
Camada 1
 62
    18
420
        0
370
    70
100
AcDbLine
 10
2082.555652739391
 20
770.3352147229179
 30
0.0
 11
2082.847414508509
 21
770.1747769115191
 31
0.0
  0
LWPOLYLINE
  5
380
330
70
100
AcDbEntity
  8
Camada 1
 62
    18
420
        0
370
    70
100
AcDbPolyline
 90
        4
 70
     0
 43
0.0
 10
2082.847414508509
 20
770.1747769115191
 10
2084.132519597151
 20
768.8910963539456
 10
2084.132519597151
 20
767.4031736546695
 10
2082.847414508509
 20
766.1194930970959
  0
LINE
  5
381
330
70
100
AcDbEntity
  8
Camada 1
 62
    18
420
        0
370
    70
100
AcDbLine
 10
2082.847414508509
 20
766.1194930970959
 30
0.0
 11
1914.433831733031
 21
668.8811805434197
 31
0.0
  0
LWPOLYLINE
  5
382
330
70
100
AcDbEntity
  8
Camada 1
 62
    18
420
        0
370
    70
100
AcDbPolyline
 90
        4
 70
     0
 43
0.0
 10
1914.433831733031
 20
668.8811805434197
 10
1912.209337439024
 20
668.1372191937826
 10
1909.640462759617
 20
668.1372191937826
 10
1907.415968465612
 20
668.8811805434197
  0
LINE
  5
383
330
70
100
AcDbEntity
  8
Camada 1
 62
    18
420
        0
370
    70
100
AcDbLine
 10
1907.415968465612
 20
668.8811805434197
 30
0.0
 11
1907.124206696491
 21
669.0562197982544
 31
0.0
  0
LWPOLYLINE
  5
384
330
70
100
AcDbEntity
  8
Camada 1
 62
    18
420
        0
370
    70
100
AcDbPolyline
 90
        4
 70
     0
 43
0.0
 10
1907.124206696491
 20
669.0562197982544
 10
1905.840526138916
 20
670.3399003558297
 10
1905.840526138916
 20
671.8132216116701
 10
1907.124206696491
 20
673.0969021692454
  0
LINE
  5
385
330
70
100
AcDbEntity
  8
Camada 1
 62
    18
420
        0
370
    70
100
AcDbLine
 10
1840.752455231948
 20
947.9197504401017
 30
0.0
 11
1830.957112517028
 21
953.5795904348979
 31
0.0
  0
LWPOLYLINE
  5
386
330
70
100
AcDbEntity
  8
Camada 1
 62
    18
420
        0
370
    70
100
AcDbPolyline
 90
        8
 70
     0
 43
0.0
 10
1830.957112517028
 20
953.5795904348979
 10
1827.338091341811
 20
955.2425523890088
 10
1823.167598577358
 20
956.409599465489
 10
1818.652814460698
 20
956.9929449373448
 10
1814.024334958267
 20
956.9929449373448
 10
1809.509550841607
 20
956.409599465489
 10
1805.339147110346
 20
955.2425523890088
 10
1801.718523337678
 20
953.5795904348979
  0
LINE
  5
387
330
70
100
AcDbEntity
  8
Camada 1
 62
    18
420
        0
370
    70
100
AcDbLine
 10
1801.718523337678
 20
953.5795904348979
 30
0.0
 11
1589.740287609959
 21
831.192962560628
 31
0.0
  0
LWPOLYLINE
  5
388
330
70
100
AcDbEntity
  8
Camada 1
 62
    18
420
        0
370
    70
100
AcDbPolyline
 90
        8
 70
     0
 43
0.0
 10
1589.740287609959
 20
831.192962560628
 10
1586.853475403079
 20
829.1070929460602
 10
1584.844886598885
 20
826.7001696423122
 10
1583.815039670779
 20
824.0890041968595
 10
1583.815039670779
 20
821.4196110440516
 10
1584.844886598885
 20
818.808445598599
 10
1586.853475403079
 20
816.4015222948492
 10
1589.740287609959
 20
814.3156526802831
  0
LINE
  5
389
330
70
100
AcDbEntity
  8
Camada 1
 62
    18
420
        0
370
    70
100
AcDbLine
 10
1589.740287609959
 20
814.3156526802831
 30
0.0
 11
1596.171778277005
 21
810.59584593209
 31
0.0
  0
LINE
  5
38A
330
70
100
AcDbEntity
  8
Camada 1
 62
    18
420
        0
370
    70
100
AcDbLine
 10
2123.92056262491
 20
505.8984443937479
 30
0.0
 11
2125.828632955703
 21
504.8044045344432
 31
0.0
  0
LINE
  5
38B
330
70
100
AcDbEntity
  8
Camada 1
 62
    18
420
        0
370
    70
100
AcDbLine
 10
2125.828632955703
 20
504.8044045344432
 30
0.0
 11
2135.623886637433
 21
499.1445645396452
 31
0.0
  0
LWPOLYLINE
  5
38C
330
70
100
AcDbEntity
  8
Camada 1
 62
    18
420
        0
370
    70
100
AcDbPolyline
 90
        8
 70
     0
 43
0.0
 10
2135.623886637433
 20
499.1445645396452
 10
2139.24299684584
 20
497.4816025855361
 10
2143.41491414136
 20
496.3147335754402
 10
2147.928184693763
 20
495.7312100372
 10
2152.558177760449
 20
495.7312100372
 10
2157.071448312854
 20
496.3147335754402
 10
2161.241941077305
 20
497.4816025855361
 10
2164.862475816783
 20
499.1445645396452
  0
LINE
  5
38D
330
70
100
AcDbEntity
  8
Camada 1
 62
    18
420
        0
370
    70
100
AcDbLine
 10
2164.862475816783
 20
499.1445645396452
 30
0.0
 11
2166.763156392665
 21
500.2386043989518
 31
0.0
  0
LINE
  5
38E
330
70
100
AcDbEntity
  8
Camada 1
 62
    18
420
        0
370
    70
100
AcDbLine
 10
2374.865688253569
 20
639.5609479273062
 30
0.0
 11
2367.046971427031
 21
644.0683422890579
 31
0.0
  0
LINE
  5
38F
330
70
100
AcDbEntity
  8
Camada 1
 62
    18
420
        0
370
    70
100
AcDbLine
 10
2367.046971427031
 20
644.0683422890579
 30
0.0
 11
1840.752455231948
 21
947.9197504401017
 31
0.0
  0
LINE
  5
390
330
70
100
AcDbEntity
  8
Camada 1
 62
    18
420
        0
370
    70
100
AcDbLine
 10
1804.935025453331
 20
934.003506448491
 30
0.0
 11
1623.657036812692
 21
829.3403599082504
 31
0.0
  0
LWPOLYLINE
  5
391
330
70
100
AcDbEntity
  8
Camada 1
 62
    18
420
        0
370
    70
100
AcDbPolyline
 90
        4
 70
     0
 43
0.0
 10
1804.935025453331
 20
934.003506448491
 10
1806.789052636777
 20
934.616232873599
 10
1808.929054431883
 20
934.616232873599
 10
1810.783081615329
 20
934.003506448491
  0
LINE
  5
392
330
70
100
AcDbEntity
  8
Camada 1
 62
    18
420
        0
370
    70
100
AcDbLine
 10
1810.783081615329
 20
934.003506448491
 30
0.0
 11
2052.001331053465
 21
794.7249672504404
 31
0.0
  0
LWPOLYLINE
  5
393
330
70
100
AcDbEntity
  8
Camada 1
 62
    18
420
        0
370
    70
100
AcDbPolyline
 90
        4
 70
     0
 43
0.0
 10
2052.001331053465
 20
794.7249672504404
 10
2053.072044216551
 20
793.6601302780036
 10
2053.072044216551
 20
792.4202540507358
 10
2052.001331053465
 20
791.355417078299
  0
LINE
  5
394
330
70
100
AcDbEntity
  8
Camada 1
 62
    18
420
        0
370
    70
100
AcDbLine
 10
2049.321699083615
 20
789.8090886052832
 30
0.0
 11
2052.001331053465
 21
791.355417078299
 31
0.0
  0
LINE
  5
395
330
70
100
AcDbEntity
  8
Camada 1
 62
    18
420
        0
370
    70
100
AcDbLine
 10
1870.721828848567
 20
686.6922705380584
 30
0.0
 11
1871.178391055478
 21
686.9547403871165
 31
0.0
  0
LWPOLYLINE
  5
396
330
70
100
AcDbEntity
  8
Camada 1
 62
    18
420
        0
370
    70
100
AcDbPolyline
 90
        4
 70
     0
 43
0.0
 10
1870.721828848567
 20
686.6922705380584
 10
1868.86931522938
 20
686.0795441129485
 10
1866.727888903207
 20
686.0795441129485
 10
1864.873861719761
 20
686.6922705380584
  0
LINE
  5
397
330
70
100
AcDbEntity
  8
Camada 1
 62
    18
420
        0
370
    70
100
AcDbLine
 10
1864.873861719761
 20
686.6922705380584
 30
0.0
 11
1623.657036812692
 21
825.9562082926731
 31
0.0
  0
LWPOLYLINE
  5
398
330
70
100
AcDbEntity
  8
Camada 1
 62
    18
420
        0
370
    70
100
AcDbPolyline
 90
        4
 70
     0
 43
0.0
 10
1623.657036812692
 20
825.9562082926731
 10
1622.586323649604
 20
827.035646708544
 10
1622.586323649604
 20
828.2609214923795
 10
1623.657036812692
 20
829.3403599082504
  0
LINE
  5
399
330
70
100
AcDbEntity
  8
Camada 1
 62
    18
420
        0
370
    70
100
AcDbLine
 10
2168.224814300396
 20
499.3926110116517
 30
0.0
 11
2188.651254300495
 21
511.1936044354425
 31
0.0
  0
LINE
  5
39A
330
70
100
AcDbEntity
  8
Camada 1
 62
    18
420
        0
370
    70
100
AcDbLine
 10
2168.224814300396
 20
516.955654534282
 30
0.0
 11
2170.125583909472
 21
518.0496943935886
 31
0.0
  0
LWPOLYLINE
  5
39B
330
70
100
AcDbEntity
  8
Camada 1
 62
    18
420
        0
370
    70
100
AcDbPolyline
 90
        3
 70
     0
 43
0.0
 10
2379.72316112499
 20
642.3617540710256
 10
2380.817200984295
 20
642.5805976561641
 10
2382.100881541868
 20
642.128309042453
  0
LINE
  5
39C
330
70
100
AcDbEntity
  8
Camada 1
 62
    18
420
        0
370
    70
100
AcDbLine
 10
2379.72316112499
 20
642.3617540710256
 30
0.0
 11
2167.747863492594
 21
519.9751261967576
 31
0.0
  0
LINE
  5
39D
330
70
100
AcDbEntity
  8
Camada 1
 62
    18
420
        0
370
    70
100
AcDbLine
 10
2170.125583909472
 20
518.0496943935886
 30
0.0
 11
2178.457755152402
 21
513.2358477860907
 31
0.0
  0
LWPOLYLINE
  5
39E
330
70
100
AcDbEntity
  8
Camada 1
 62
    18
420
        0
370
    70
100
AcDbPolyline
 90
        4
 70
     0
 43
0.0
 10
2166.763156392665
 20
517.8016479215821
 10
2167.21250691105
 20
519.479211319127
 10
2168.443657885535
 20
520.1939697818962
 10
2170.125583909472
 20
519.7416811681851
  0
LINE
  5
39F
330
70
100
AcDbEntity
  8
Camada 1
 62
    18
420
        0
370
    70
100
AcDbLine
 10
2166.763156392665
 20
500.2386043989518
 30
0.0
 11
2166.763156392665
 21
517.8016479215821
 31
0.0
  0
LWPOLYLINE
  5
3A0
330
70
100
AcDbEntity
  8
Camada 1
 62
    18
420
        0
370
    70
100
AcDbPolyline
 90
        3
 70
     0
 43
0.0
 10
2164.862475816783
 20
499.1445645396452
 10
2166.205986679161
 20
499.013329615118
 10
2166.763156392665
 20
500.2386043989518
  0
LINE
  5
3A1
330
70
100
AcDbEntity
  8
Camada 1
 62
    18
420
        0
370
    70
100
AcDbLine
 10
2164.862475816783
 20
497.4525777650487
 30
0.0
 11
2164.862475816783
 21
499.1445645396452
 31
0.0
  0
LWPOLYLINE
  5
3A2
330
70
100
AcDbEntity
  8
Camada 1
 62
    18
420
        0
370
    70
100
AcDbPolyline
 90
        4
 70
     0
 43
0.0
 10
2164.862475816783
 20
497.4525777650487
 10
2166.542888276459
 20
497.0002891513395
 10
2167.774128284136
 20
497.7150476141068
 10
2168.224814300396
 20
499.3926110116517
  0
LINE
  5
3A3
330
70
100
AcDbEntity
  8
Camada 1
 62
    18
420
        0
370
    70
100
AcDbLine
 10
2168.224814300396
 20
499.3926110116517
 30
0.0
 11
2168.224814300396
 21
516.955654534282
 31
0.0
  0
LWPOLYLINE
  5
3A4
330
70
100
AcDbEntity
  8
Camada 1
 62
    18
420
        0
370
    70
100
AcDbPolyline
 90
        3
 70
     0
 43
0.0
 10
2168.224814300396
 20
516.955654534282
 10
2168.780648516026
 20
518.1809293181177
 10
2170.125583909472
 20
518.0496943935886
  0
LINE
  5
3A5
330
70
100
AcDbEntity
  8
Camada 1
 62
    18
420
        0
370
    70
100
AcDbLine
 10
2390.430114689474
 20
625.4988675677305
 30
0.0
 11
2196.000321040947
 21
513.2358477860907
 31
0.0
  0
LINE
  5
3A6
330
70
100
AcDbEntity
  8
Camada 1
 62
    18
420
        0
370
    70
100
AcDbLine
 10
2390.430114689474
 20
625.4988675677305
 30
0.0
 11
2390.430114689474
 21
627.1910324087111
 31
0.0
  0
LINE
  5
3A7
330
70
100
AcDbEntity
  8
Camada 1
 62
    18
420
        0
370
    70
100
AcDbLine
 10
2178.457755152402
 20
513.2358477860907
 30
0.0
 11
2178.457755152402
 21
514.9280126270696
 31
0.0
  0
LWPOLYLINE
  5
3A8
330
70
100
AcDbEntity
  8
Camada 1
 62
    18
420
        0
370
    70
100
AcDbPolyline
 90
        7
 70
     0
 43
0.0
 10
2196.000321040947
 20
513.2358477860907
 10
2193.431535394731
 20
512.0980035964803
 10
2190.439664021676
 20
511.3832451337112
 10
2187.229038096674
 20
511.1498001051386
 10
2184.018412171672
 20
511.3832451337112
 10
2181.026540798617
 20
512.0980035964803
 10
2178.457755152402
 20
513.2358477860907
  0
LINE
  5
3A9
330
70
100
AcDbEntity
  8
Camada 1
 62
    18
420
        0
370
    70
100
AcDbLine
 10
2196.000321040947
 20
514.9280126270696
 30
0.0
 11
2196.000321040947
 21
513.2358477860907
 31
0.0
  0
LINE
  5
3AA
330
70
100
AcDbEntity
  8
Camada 1
 62
    18
420
        0
370
    70
100
AcDbLine
 10
2390.430114689474
 20
627.1910324087111
 30
0.0
 11
2196.000321040947
 21
514.9280126270696
 31
0.0
  0
LWPOLYLINE
  5
3AB
330
70
100
AcDbEntity
  8
Camada 1
 62
    18
420
        0
370
    70
100
AcDbPolyline
 90
        7
 70
     0
 43
0.0
 10
2390.430114689474
 20
627.1910324087111
 10
2392.413952266381
 20
628.6643536645533
 10
2393.654006560035
 20
630.4001447694554
 10
2394.076914220492
 20
632.2527474218332
 10
2393.654006560035
 20
634.1053500742127
 10
2392.413952266381
 20
635.8267178020632
 10
2390.430114689474
 20
637.3146405013394
  0
LINE
  5
3AC
330
70
100
AcDbEntity
  8
Camada 1
 62
    18
420
        0
370
    70
100
AcDbLine
 10
2382.100881541868
 20
642.128309042453
 30
0.0
 11
2390.430114689474
 21
637.3146405013394
 31
0.0
  0
LINE
  5
3AD
330
70
100
AcDbEntity
  8
Camada 1
 62
    18
420
        0
370
    70
100
AcDbLine
 10
2382.100881541868
 20
642.128309042453
 30
0.0
 11
2170.125583909472
 21
519.7416811681851
 31
0.0
  0
LINE
  5
3AE
330
70
100
AcDbEntity
  8
Camada 1
 62
    18
420
        0
370
    70
100
AcDbLine
 10
2170.125583909472
 20
519.7416811681851
 30
0.0
 11
2178.457755152402
 21
514.9280126270696
 31
0.0
  0
LWPOLYLINE
  5
3AF
330
70
100
AcDbEntity
  8
Camada 1
 62
    18
420
        0
370
    70
100
AcDbPolyline
 90
        7
 70
     0
 43
0.0
 10
2178.457755152402
 20
514.9280126270696
 10
2181.026540798617
 20
513.7901684374591
 10
2184.018412171672
 20
513.0754099746918
 10
2187.229038096674
 20
512.8273635026835
 10
2190.439664021676
 20
513.0754099746918
 10
2193.431535394731
 20
513.7901684374591
 10
2196.000321040947
 20
514.9280126270696
  0
LWPOLYLINE
  5
3B0
330
70
100
AcDbEntity
  8
Camada 1
 62
    18
420
        0
370
    70
100
AcDbPolyline
 90
        3
 70
     0
 43
0.0
 10
1625.264531088389
 20
637.4166725390004
 10
1624.400998162331
 20
639.2400723045084
 10
1624.094634949775
 20
641.0342691831483
  0
LINE
  5
3B1
330
70
100
AcDbEntity
  8
Camada 1
 62
    18
420
        0
370
    70
100
AcDbLine
 10
1862.535493973602
 20
501.1722064468594
 30
0.0
 11
1860.634813397719
 21
502.2662463061642
 31
0.0
  0
LINE
  5
3B2
330
70
100
AcDbEntity
  8
Camada 1
 62
    18
420
        0
370
    70
100
AcDbLine
 10
1865.60615972129
 20
501.5952921736989
 30
0.0
 11
1863.705390112214
 21
500.5012523143941
 31
0.0
  0
LWPOLYLINE
  5
3B3
330
70
100
AcDbEntity
  8
Camada 1
 62
    18
420
        0
370
    70
100
AcDbPolyline
 90
        3
 70
     0
 43
0.0
 10
1626.249149155124
 20
634.2949907724796
 10
1625.521213779988
 20
635.1409841597797
 10
1625.264531088389
 20
636.4684690476569
  0
LINE
  5
3B4
330
70
100
AcDbEntity
  8
Camada 1
 62
    18
420
        0
370
    70
100
AcDbLine
 10
1626.249149155124
 20
634.2949907724796
 30
0.0
 11
1860.157773556722
 21
499.2467746436886
 31
0.0
  0
LWPOLYLINE
  5
3B5
330
70
100
AcDbEntity
  8
Camada 1
 62
    18
420
        0
370
    70
100
AcDbPolyline
 90
        4
 70
     0
 43
0.0
 10
1862.535493973602
 20
499.4800416058787
 10
1860.853567949665
 20
499.027931058552
 10
1859.623930539437
 20
499.7426895213211
 10
1859.173155489985
 20
501.420252918866
  0
LWPOLYLINE
  5
3B6
330
70
100
AcDbEntity
  8
Camada 1
 62
    18
420
        0
370
    70
100
AcDbPolyline
 90
        3
 70
     0
 43
0.0
 10
1862.535493973602
 20
501.1722064468594
 10
1861.192072144413
 20
501.0409715223286
 10
1860.634813397719
 20
502.2662463061642
  0
LINE
  5
3B7
330
70
100
AcDbEntity
  8
Camada 1
 62
    18
420
        0
370
    70
100
AcDbLine
 10
1625.264531088389
 20
636.4684690476569
 30
0.0
 11
1859.173155489985
 21
501.420252918866
 31
0.0
  0
LWPOLYLINE
  5
3B8
330
70
100
AcDbEntity
  8
Camada 1
 62
    18
420
        0
370
    70
100
AcDbPolyline
 90
        3
 70
     0
 43
0.0
 10
1863.705390112214
 20
500.5012523143941
 10
1865.048900974594
 20
500.3700173898632
 10
1865.60615972129
 20
501.5952921736989
  0
LINE
  5
3B9
330
70
100
AcDbEntity
  8
Camada 1
 62
    18
420
        0
370
    70
100
AcDbLine
 10
1863.705390112214
 20
500.5012523143941
 30
0.0
 11
1862.535493973602
 21
501.1722064468594
 31
0.0
  0
LINE
  5
3BA
330
70
100
AcDbEntity
  8
Camada 1
 62
    18
420
        0
370
    70
100
AcDbLine
 10
1862.535493973602
 20
499.4800416058787
 30
0.0
 11
1862.535493973602
 21
501.1722064468594
 31
0.0
  0
LINE
  5
3BB
330
70
100
AcDbEntity
  8
Camada 1
 62
    18
420
        0
370
    70
100
AcDbLine
 10
1863.705390112214
 20
498.8090874734134
 30
0.0
 11
1862.535493973602
 21
499.4800416058787
 31
0.0
  0
LWPOLYLINE
  5
3BC
330
70
100
AcDbEntity
  8
Camada 1
 62
    18
420
        0
370
    70
100
AcDbPolyline
 90
        4
 70
     0
 43
0.0
 10
1863.705390112214
 20
498.8090874734134
 10
1865.385891605085
 20
498.3569769260866
 10
1866.617042579571
 20
499.0717353888558
 10
1867.067728595832
 20
500.7491207200182
  0
LWPOLYLINE
  5
3BD
330
70
100
AcDbEntity
  8
Camada 1
 62
    18
420
        0
370
    70
100
AcDbPolyline
 90
        4
 70
     0
 43
0.0
 10
1812.094451495514
 20
927.1621960001629
 10
1814.36568821515
 20
927.8769544629321
 10
1817.008905609606
 20
927.6143065474897
 10
1819.847550859788
 20
926.4036332070899
  0
LINE
  5
3BE
330
70
100
AcDbEntity
  8
Camada 1
 62
    18
420
        0
370
    70
100
AcDbLine
 10
1812.094451495514
 20
927.1621960001629
 30
0.0
 11
1810.632793587782
 21
926.3306259899163
 31
0.0
  0
LWPOLYLINE
  5
3BF
330
70
100
AcDbEntity
  8
Camada 1
 62
    18
420
        0
370
    70
100
AcDbPolyline
 90
        4
 70
     0
 43
0.0
 10
1620.586371065003
 20
831.6160482874693
 10
1618.122644584966
 20
833.4686509398489
 10
1616.573467049815
 20
835.6275277715903
 10
1616.045411189989
 20
837.9468424147308
  0
LINE
  5
3C0
330
70
100
AcDbEntity
  8
Camada 1
 62
    18
420
        0
370
    70
100
AcDbLine
 10
1616.045411189989
 20
839.6390072557114
 30
0.0
 11
1616.045411189989
 21
837.9468424147308
 31
0.0
  0
LINE
  5
3C1
330
70
100
AcDbEntity
  8
Camada 1
 62
    18
420
        0
370
    70
100
AcDbLine
 10
1620.586371065003
 20
845.9698013829729
 30
0.0
 11
1775.550599906019
 21
935.4332014404118
 31
0.0
  0
LWPOLYLINE
  5
3C2
330
70
100
AcDbEntity
  8
Camada 1
 62
    18
420
        0
370
    70
100
AcDbPolyline
 90
        7
 70
     0
 43
0.0
 10
1620.586371065003
 20
845.9698013829729
 10
1618.122644584966
 20
844.1025972871575
 10
1616.573467049815
 20
841.9437204554178
 10
1616.045411189989
 20
839.6390072557114
 10
1616.573467049815
 20
837.3196926125711
 10
1618.122644584966
 20
835.1606377144452
 10
1620.586371065003
 20
833.3082131284481
  0
LINE
  5
3C3
330
70
100
AcDbEntity
  8
Camada 1
 62
    18
420
        0
370
    70
100
AcDbLine
 10
1799.088482855592
 20
934.4995993925058
 30
0.0
 11
1797.479564048828
 21
935.4332014404118
 31
0.0
  0
LWPOLYLINE
  5
3C4
330
70
100
AcDbEntity
  8
Camada 1
 62
    18
420
        0
370
    70
100
AcDbPolyline
 90
        7
 70
     0
 43
0.0
 10
1797.479564048828
 20
935.4332014404118
 10
1794.268849090635
 20
936.8481169225161
 10
1790.52874277474
 20
937.7525160835521
 10
1786.515749726361
 20
938.0587902629159
 10
1782.501421180106
 20
937.7525160835521
 10
1778.762650362087
 20
936.8481169225161
 10
1775.550599906019
 20
935.4332014404118
  0
LINE
  5
3C5
330
70
100
AcDbEntity
  8
Camada 1
 62
    18
420
        0
370
    70
100
AcDbLine
 10
1802.450821339207
 20
911.77263075271
 30
0.0
 11
1802.450821339207
 21
928.6793215863108
 31
0.0
  0
LWPOLYLINE
  5
3C6
330
70
100
AcDbEntity
  8
Camada 1
 62
    18
420
        0
370
    70
100
AcDbPolyline
 90
        4
 70
     0
 43
0.0
 10
1802.450821339207
 20
928.6793215863108
 10
1802.000135322947
 20
930.8820027483561
 10
1800.768895315272
 20
933.0116766932277
 10
1799.088482855592
 20
934.4995993925058
  0
LINE
  5
3C7
330
70
100
AcDbEntity
  8
Camada 1
 62
    18
420
        0
370
    70
100
AcDbLine
 10
1622.195378904958
 20
832.3746110805423
 30
0.0
 11
1799.088482855592
 21
934.4995993925058
 31
0.0
  0
LINE
  5
3C8
330
70
100
AcDbEntity
  8
Camada 1
 62
    18
420
        0
370
    70
100
AcDbLine
 10
1802.450821339207
 20
928.6793215863108
 30
0.0
 11
1625.557717388574
 21
826.5543332743472
 31
0.0
  0
LINE
  5
3C9
330
70
100
AcDbEntity
  8
Camada 1
 62
    18
420
        0
370
    70
100
AcDbLine
 10
1865.607584252357
 20
560.3379675099732
 30
0.0
 11
1860.636237928786
 21
557.4641541490782
 31
0.0
  0
LINE
  5
3CA
330
70
100
AcDbEntity
  8
Camada 1
 62
    18
420
        0
370
    70
100
AcDbLine
 10
1622.195378904958
 20
832.3746110805423
 30
0.0
 11
1620.586371065003
 21
833.3082131284481
 31
0.0
  0
LINE
  5
3CB
330
70
100
AcDbEntity
  8
Camada 1
 62
    18
420
        0
370
    70
100
AcDbLine
 10
1620.586371065003
 20
833.3082131284481
 30
0.0
 11
1620.586371065003
 21
831.6160482874693
 31
0.0
  0
LINE
  5
3CC
330
70
100
AcDbEntity
  8
Camada 1
 62
    18
420
        0
370
    70
100
AcDbLine
 10
1622.195378904958
 20
830.6824462395615
 30
0.0
 11
1620.586371065003
 21
831.6160482874693
 31
0.0
  0
LWPOLYLINE
  5
3CD
330
70
100
AcDbEntity
  8
Camada 1
 62
    18
420
        0
370
    70
100
AcDbPolyline
 90
        3
 70
     0
 43
0.0
 10
1624.094634949775
 20
827.4003266616455
 10
1623.538889767338
 20
829.267530757459
 10
1622.195378904958
 20
830.6824462395615
  0
LINE
  5
3CE
330
70
100
AcDbEntity
  8
Camada 1
 62
    18
420
        0
370
    70
100
AcDbLine
 10
1624.094634949775
 20
825.7081618206647
 30
0.0
 11
1624.094634949775
 21
827.4003266616455
 31
0.0
  0
LINE
  5
3CF
330
70
100
AcDbEntity
  8
Camada 1
 62
    18
420
        0
370
    70
100
AcDbLine
 10
1624.094634949775
 20
641.0342691831483
 30
0.0
 11
1624.094634949775
 21
791.1803778234643
 31
0.0
  0
LINE
  5
3D0
330
70
100
AcDbEntity
  8
Camada 1
 62
    18
420
        0
370
    70
100
AcDbLine
 10
1625.557717388574
 20
824.8621684333667
 30
0.0
 11
1625.557717388574
 21
826.5543332743472
 31
0.0
  0
LWPOLYLINE
  5
3D1
330
70
100
AcDbEntity
  8
Camada 1
 62
    18
420
        0
370
    70
100
AcDbPolyline
 90
        4
 70
     0
 43
0.0
 10
1625.557717388574
 20
826.5543332743472
 10
1625.106942339123
 20
828.7570144363945
 10
1623.875791364637
 20
830.8866883812662
 10
1622.195378904958
 20
832.3746110805423
  0
LWPOLYLINE
  5
3D2
330
70
100
AcDbEntity
  8
Camada 1
 62
    18
420
        0
370
    70
100
AcDbPolyline
 90
        4
 70
     0
 43
0.0
 10
1630.23587741196
 20
822.1635723936906
 10
1632.450132888924
 20
822.7178930450591
 10
1634.986866586135
 20
822.3968393558788
 10
1637.691338816463
 20
821.2299703457828
  0
LINE
  5
3D3
330
70
100
AcDbEntity
  8
Camada 1
 62
    18
420
        0
370
    70
100
AcDbLine
 10
2031.827211118576
 20
804.0170053328219
 30
0.0
 11
1819.847550859788
 21
926.4036332070899
 31
0.0
  0
LINE
  5
3D4
330
70
100
AcDbEntity
  8
Camada 1
 62
    18
420
        0
370
    70
100
AcDbLine
 10
1819.847550859788
 20
926.4036332070899
 30
0.0
 11
1818.385892952054
 21
925.5576398197918
 31
0.0
  0
LWPOLYLINE
  5
3D5
330
70
100
AcDbEntity
  8
Camada 1
 62
    18
420
        0
370
    70
100
AcDbPolyline
 90
        5
 70
     0
 43
0.0
 10
2031.827211118576
 20
804.0170053328219
 10
2034.846771814242
 20
801.7852993502893
 10
2037.634401045594
 20
798.7364467345615
 10
2039.971255227496
 20
795.1334515338458
 10
2041.677932478719
 20
791.2240040873857
  0
LINE
  5
3D6
330
70
100
AcDbEntity
  8
Camada 1
 62
    18
420
        0
370
    70
100
AcDbLine
 10
2030.364128679776
 20
803.1710119455237
 30
0.0
 11
2031.827211118576
 21
804.0170053328219
 31
0.0
  0
LWPOLYLINE
  5
3D7
330
70
100
AcDbEntity
  8
Camada 1
 62
    18
420
        0
370
    70
100
AcDbPolyline
 90
        5
 70
     0
 43
0.0
 10
2040.216363604177
 20
790.3780107000875
 10
2038.509597319762
 20
794.2874581465475
 10
2036.172743137861
 20
797.8904533472632
 10
2033.385113906508
 20
800.9391278966068
 10
2030.364128679776
 20
803.1710119455237
  0
LINE
  5
3D8
330
70
100
AcDbEntity
  8
Camada 1
 62
    18
420
        0
370
    70
100
AcDbLine
 10
2030.364128679776
 20
803.1710119455237
 30
0.0
 11
1818.385892952054
 21
925.5576398197918
 31
0.0
  0
LWPOLYLINE
  5
3D9
330
70
100
AcDbEntity
  8
Camada 1
 62
    18
420
        0
370
    70
100
AcDbPolyline
 90
        7
 70
     0
 43
0.0
 10
1818.385892952054
 20
925.5576398197918
 10
1815.547247701874
 20
926.7683131601916
 10
1812.902605776351
 20
927.030961075634
 10
1810.632793587782
 20
926.3306259899163
 10
1808.889612727971
 20
924.7114683661093
 10
1807.794148337598
 20
922.2901216853097
 10
1807.420743131714
 20
919.2266676261478
  0
LINE
  5
3DA
330
70
100
AcDbEntity
  8
Camada 1
 62
    18
420
        0
370
    70
100
AcDbLine
 10
1807.420743131714
 20
912.5165921023491
 30
0.0
 11
1807.420743131714
 21
919.2266676261478
 31
0.0
  0
LINE
  5
3DB
330
70
100
AcDbEntity
  8
Camada 1
 62
    18
420
        0
370
    70
100
AcDbLine
 10
1865.607584252357
 20
562.0299542845696
 30
0.0
 11
1860.636237928786
 21
559.1563189900589
 31
0.0
  0
LINE
  5
3DC
330
70
100
AcDbEntity
  8
Camada 1
 62
    18
420
        0
370
    70
100
AcDbLine
 10
1860.636237928786
 20
550.7248757384113
 30
0.0
 11
1865.60615972129
 21
553.5840876558705
 31
0.0
  0
LINE
  5
3DD
330
70
100
AcDbEntity
  8
Camada 1
 62
    18
420
        0
370
    70
100
AcDbLine
 10
1866.083110529094
 20
498.5756424448409
 30
0.0
 11
1998.492560923014
 21
575.0125962282727
 31
0.0
  0
LWPOLYLINE
  5
3DE
330
70
100
AcDbEntity
  8
Camada 1
 62
    18
420
        0
370
    70
100
AcDbPolyline
 90
        4
 70
     0
 43
0.0
 10
2052.011569870509
 20
783.0844116380504
 10
2051.482000446424
 20
780.7650969949081
 10
2049.932911944466
 20
778.6062201631684
 10
2047.469096431236
 20
776.7536175107888
  0
LINE
  5
3DF
330
70
100
AcDbEntity
  8
Camada 1
 62
    18
420
        0
370
    70
100
AcDbLine
 10
2052.011569870509
 20
783.0844116380504
 30
0.0
 11
2052.011569870509
 21
784.7765764790292
 31
0.0
  0
LINE
  5
3E0
330
70
100
AcDbEntity
  8
Camada 1
 62
    18
420
        0
370
    70
100
AcDbLine
 10
1860.634813397719
 20
502.2662463061642
 30
0.0
 11
1860.634813397719
 21
654.6150361085255
 31
0.0
  0
LINE
  5
3E1
330
70
100
AcDbEntity
  8
Camada 1
 62
    18
420
        0
370
    70
100
AcDbLine
 10
1637.691338816463
 20
821.2299703457828
 30
0.0
 11
1849.671088108443
 21
698.8433424715148
 31
0.0
  0
LINE
  5
3E2
330
70
100
AcDbEntity
  8
Camada 1
 62
    18
420
        0
370
    70
100
AcDbLine
 10
1637.691338816463
 20
821.2299703457828
 30
0.0
 11
1636.229680908731
 21
820.3839769584865
 31
0.0
  0
LINE
  5
3E3
330
70
100
AcDbEntity
  8
Camada 1
 62
    18
420
        0
370
    70
100
AcDbLine
 10
2043.960832546465
 20
743.6697738161765
 30
0.0
 11
2043.960832546465
 21
750.4090522268434
 31
0.0
  0
LINE
  5
3E4
330
70
100
AcDbEntity
  8
Camada 1
 62
    18
420
        0
370
    70
100
AcDbLine
 10
2043.960832546465
 20
687.9613496521979
 30
0.0
 11
2043.960832546465
 21
694.7152295062988
 31
0.0
  0
LINE
  5
3E5
330
70
100
AcDbEntity
  8
Camada 1
 62
    18
420
        0
370
    70
100
AcDbLine
 10
2043.960832546465
 20
632.2527474218332
 30
0.0
 11
2043.960832546465
 21
639.0066272759359
 31
0.0
  0
LINE
  5
3E6
330
70
100
AcDbEntity
  8
Camada 1
 62
    18
420
        0
370
    70
100
AcDbLine
 10
1867.067728595832
 20
500.7491207200182
 30
0.0
 11
1997.10097213713
 21
575.8295647950854
 31
0.0
  0
LINE
  5
3E7
330
70
100
AcDbEntity
  8
Camada 1
 62
    18
420
        0
370
    70
100
AcDbLine
 10
1636.229680908731
 20
820.3839769584865
 30
0.0
 11
1848.208005669643
 21
697.9973490842167
 31
0.0
  0
LWPOLYLINE
  5
3E8
330
70
100
AcDbEntity
  8
Camada 1
 62
    18
420
        0
370
    70
100
AcDbPolyline
 90
        3
 70
     0
 43
0.0
 10
1636.229680908731
 20
820.3839769584865
 10
1633.398336380265
 20
821.5946502988845
 10
1630.759481612202
 20
821.8571201479445
  0
LINE
  5
3E9
330
70
100
AcDbEntity
  8
Camada 1
 62
    18
420
        0
370
    70
100
AcDbLine
 10
1625.264531088389
 20
636.4684690476569
 30
0.0
 11
1625.264531088389
 21
790.5092456246165
 31
0.0
  0
LINE
  5
3EA
330
70
100
AcDbEntity
  8
Camada 1
 62
    18
420
        0
370
    70
100
AcDbLine
 10
1859.173155489985
 20
501.420252918866
 30
0.0
 11
1859.173155489985
 21
655.4610294958256
 31
0.0
  0
LWPOLYLINE
  5
3EB
330
70
100
AcDbEntity
  8
Camada 1
 62
    18
420
        0
370
    70
100
AcDbPolyline
 90
        3
 70
     0
 43
0.0
 10
1853.67820496617
 20
693.1542995898471
 10
1851.039350198109
 20
695.9405042901344
 10
1848.208005669643
 20
697.9973490842167
  0
LWPOLYLINE
  5
3EC
330
70
100
AcDbEntity
  8
Camada 1
 62
    18
420
        0
370
    70
100
AcDbPolyline
 90
        4
 70
     0
 43
0.0
 10
1849.671088108443
 20
698.8433424715148
 10
1852.374046774514
 20
696.8887077814761
 10
1854.912205002791
 20
694.2775423360235
 10
1857.12512498188
 20
691.1704620129403
  0
LINE
  5
3ED
330
70
100
AcDbEntity
  8
Camada 1
 62
    18
420
        0
370
    70
100
AcDbLine
 10
1848.208005669643
 20
697.9973490842167
 30
0.0
 11
1849.671088108443
 21
698.8433424715148
 31
0.0
  0
LINE
  5
3EE
330
70
100
AcDbEntity
  8
Camada 1
 62
    18
420
        0
370
    70
100
AcDbLine
 10
1867.067728595832
 20
687.1151781985154
 30
0.0
 11
1868.968498204908
 21
688.2092180578202
 31
0.0
  0
LWPOLYLINE
  5
3EF
330
70
100
AcDbEntity
  8
Camada 1
 62
    18
420
        0
370
    70
100
AcDbPolyline
 90
        3
 70
     0
 43
0.0
 10
2043.483881738661
 20
792.2598162393351
 10
2044.57498350264
 20
792.4786598244736
 10
2045.861602155539
 20
792.0263712107644
  0
LINE
  5
3F0
330
70
100
AcDbEntity
  8
Camada 1
 62
    18
420
        0
370
    70
100
AcDbLine
 10
2043.483881738661
 20
792.2598162393351
 30
0.0
 11
1866.590777788027
 21
690.1348279273734
 31
0.0
  0
LINE
  5
3F1
330
70
100
AcDbEntity
  8
Camada 1
 62
    18
420
        0
370
    70
100
AcDbLine
 10
1868.968498204908
 20
688.2092180578202
 30
0.0
 11
1870.575992480604
 21
687.2902174533483
 31
0.0
  0
LWPOLYLINE
  5
3F2
330
70
100
AcDbEntity
  8
Camada 1
 62
    18
420
        0
370
    70
100
AcDbPolyline
 90
        4
 70
     0
 43
0.0
 10
1865.60615972129
 20
687.9613496521979
 10
1866.055421206483
 20
689.6389130497428
 10
1867.28657218097
 20
690.3536715125119
 10
1868.968498204908
 20
689.9013828988008
  0
LINE
  5
3F3
330
70
100
AcDbEntity
  8
Camada 1
 62
    18
420
        0
370
    70
100
AcDbLine
 10
1865.60615972129
 20
686.3567934718248
 30
0.0
 11
1865.60615972129
 21
687.9613496521979
 31
0.0
  0
LINE
  5
3F4
330
70
100
AcDbEntity
  8
Camada 1
 62
    18
420
        0
370
    70
100
AcDbLine
 10
1865.60615972129
 20
501.5952921736989
 30
0.0
 11
1865.60615972129
 21
651.7412227476325
 31
0.0
  0
LINE
  5
3F5
330
70
100
AcDbEntity
  8
Camada 1
 62
    18
420
        0
370
    70
100
AcDbLine
 10
1867.067728595832
 20
686.0211383392088
 30
0.0
 11
1867.067728595832
 21
687.1151781985154
 31
0.0
  0
LINE
  5
3F6
330
70
100
AcDbEntity
  8
Camada 1
 62
    18
420
        0
370
    70
100
AcDbLine
 10
1867.067728595832
 20
500.7491207200182
 30
0.0
 11
1867.067728595832
 21
650.8952293603343
 31
0.0
  0
LWPOLYLINE
  5
3F7
330
70
100
AcDbEntity
  8
Camada 1
 62
    18
420
        0
370
    70
100
AcDbPolyline
 90
        3
 70
     0
 43
0.0
 10
1867.067728595832
 20
687.1151781985154
 10
1867.623562811461
 20
688.3406310487335
 10
1868.968498204908
 20
688.2092180578202
  0
LINE
  5
3F8
330
70
100
AcDbEntity
  8
Camada 1
 62
    18
420
        0
370
    70
100
AcDbLine
 10
2047.469096431236
 20
776.7536175107888
 30
0.0
 11
1892.504867590222
 21
687.2902174533483
 31
0.0
  0
LINE
  5
3F9
330
70
100
AcDbEntity
  8
Camada 1
 62
    18
420
        0
370
    70
100
AcDbLine
 10
2047.469096431236
 20
776.7536175107888
 30
0.0
 11
2047.469096431236
 21
778.4457823517696
 31
0.0
  0
LINE
  5
3FA
330
70
100
AcDbEntity
  8
Camada 1
 62
    18
420
        0
370
    70
100
AcDbLine
 10
2047.469096431236
 20
778.4457823517696
 30
0.0
 11
1892.504867590222
 21
688.967780850895
 31
0.0
  0
LWPOLYLINE
  5
3FB
330
70
100
AcDbEntity
  8
Camada 1
 62
    18
420
        0
370
    70
100
AcDbPolyline
 90
        7
 70
     0
 43
0.0
 10
2047.469096431236
 20
778.4457823517696
 10
2049.932911944466
 20
780.298206937763
 10
2051.482000446424
 20
782.4572618358888
 10
2052.011569870509
 20
784.7765764790292
 10
2051.482000446424
 20
787.0812896787356
 10
2049.932911944466
 20
789.2401665104771
 10
2047.469096431236
 20
791.1073706062907
  0
LINE
  5
3FC
330
70
100
AcDbEntity
  8
Camada 1
 62
    18
420
        0
370
    70
100
AcDbLine
 10
2045.861602155539
 20
792.0263712107644
 30
0.0
 11
2047.469096431236
 21
791.1073706062907
 31
0.0
  0
LINE
  5
3FD
330
70
100
AcDbEntity
  8
Camada 1
 62
    18
420
        0
370
    70
100
AcDbLine
 10
2045.861602155539
 20
792.0263712107644
 30
0.0
 11
1868.968498204908
 21
689.9013828988008
 31
0.0
  0
LINE
  5
3FE
330
70
100
AcDbEntity
  8
Camada 1
 62
    18
420
        0
370
    70
100
AcDbLine
 10
1868.968498204908
 20
689.9013828988008
 30
0.0
 11
1870.575992480604
 21
688.967780850895
 31
0.0
  0
LWPOLYLINE
  5
3FF
330
70
100
AcDbEntity
  8
Camada 1
 62
    18
420
        0
370
    70
100
AcDbPolyline
 90
        7
 70
     0
 43
0.0
 10
1870.575992480604
 20
688.967780850895
 10
1873.78804293667
 20
687.5528653687906
 10
1877.526813754692
 20
686.6484662077546
 10
1881.541142300944
 20
686.3421920283908
 10
1885.554135349324
 20
686.6484662077546
 10
1889.29424166522
 20
687.5528653687906
 10
1892.504867590222
 20
688.967780850895
  0
LINE
  5
400
330
70
100
AcDbEntity
  8
Camada 1
 62
    18
420
        0
370
    70
100
AcDbLine
 10
1870.575992480604
 20
687.2902174533483
 30
0.0
 11
1870.575992480604
 21
688.967780850895
 31
0.0
  0
LWPOLYLINE
  5
401
330
70
100
AcDbEntity
  8
Camada 1
 62
    18
420
        0
370
    70
100
AcDbPolyline
 90
        7
 70
     0
 43
0.0
 10
1892.504867590222
 20
687.2902174533483
 10
1889.29424166522
 20
685.8607005278099
 10
1885.554135349324
 20
684.9709028102079
 10
1881.541142300944
 20
684.664628630846
 10
1877.526813754692
 20
684.9709028102079
 10
1873.78804293667
 20
685.8607005278099
 10
1870.575992480604
 20
687.2902174533483
  0
LINE
  5
402
330
70
100
AcDbEntity
  8
Camada 1
 62
    18
420
        0
370
    70
100
AcDbLine
 10
1892.504867590222
 20
688.967780850895
 30
0.0
 11
1892.504867590222
 21
687.2902174533483
 31
0.0
  0
LINE
  5
403
330
70
100
AcDbEntity
  8
Camada 1
 62
    18
420
        0
370
    35
100
AcDbLine
 10
2442.49653163614
 20
656.0195346230866
 30
0.0
 11
1821.699827985596
 21
1014.436405257038
 31
0.0
  0
LINE
  5
404
330
70
100
AcDbEntity
  8
Camada 1
 62
    18
420
        0
370
    35
100
AcDbLine
 10
2447.515164443401
 20
658.6805757214952
 30
0.0
 11
2404.511261198744
 21
633.8502863401791
 31
0.0
  0
LINE
  5
405
330
70
100
AcDbEntity
  8
Camada 1
 62
    18
420
        0
370
    35
100
AcDbLine
 10
1830.240081722812
 20
1019.372947749061
 30
0.0
 11
1787.236178478157
 21
994.5426583677454
 31
0.0
  0
MTEXT
  5
406
330
70
100
AcDbEntity
  8
Camada 1
100
AcDbMText
 10
1603.616395663499
 20
420.0181653042382
 30
0.0
 40
0.2
 41
0.0
 46
0.0
 71
     7
 72
     1
  1
\C18;\c0;\FMyriad Pro|b0|i0|c1;\H20.938453;\W1.000000;424
 11
0.8704032227716147
 21
-0.49233954725249
 31
0.0
 73
     1
 44
1.0
  0
LINE
  5
407
330
70
100
AcDbEntity
  8
Camada 1
 62
    18
420
        0
370
    35
100
AcDbLine
 10
1975.002466541584
 20
199.6376693710262
 30
0.0
 11
1354.205762891042
 21
558.0545400049759
 31
0.0
  0
LINE
  5
408
330
70
100
AcDbEntity
  8
Camada 1
 62
    18
420
        0
370
    35
100
AcDbLine
 10
1980.021099348845
 20
202.2987104694348
 30
0.0
 11
1937.01719610419
 21
177.4684210881169
 31
0.0
  0
LINE
  5
409
330
70
100
AcDbEntity
  8
Camada 1
 62
    18
420
        0
370
    35
100
AcDbLine
 10
1362.746016628258
 20
562.9910824969993
 30
0.0
 11
1319.742113383601
 21
538.1607931156832
 31
0.0
  0
LINE
  5
40A
330
70
100
AcDbEntity
  8
Camada 1
 62
    18
420
        0
370
    35
100
AcDbLine
 10
1553.235352797936
 20
676.4220046344926
 30
0.0
 11
1553.235352797936
 21
876.4776566658074
 31
0.0
  0
LINE
  5
40B
330
70
100
AcDbEntity
  8
Camada 1
 62
    18
420
        0
370
    35
100
AcDbLine
 10
1563.936791385487
 20
870.4033582407973
 30
0.0
 11
1550.966260841722
 21
877.895619575389
 31
0.0
  0
LINE
  5
40C
330
70
100
AcDbEntity
  8
Camada 1
 62
    18
420
        0
370
    35
100
AcDbLine
 10
1615.638756694288
 20
640.1500167560352
 30
0.0
 11
1549.586588826691
 21
678.3042080368341
 31
0.0
  0
MTEXT
  5
40D
330
70
100
AcDbEntity
  8
Camada 1
100
AcDbMText
 10
1079.670834529946
 20
350.2071525794781
 30
0.0
 40
0.2
 41
0.0
 46
0.0
 71
     7
 72
     1
  1
\C18;\c0;\FMyriad Pro|b0|i0|c1;\H20.938453;\W1.000000;63
 11
-0.0015203288869067
 21
0.99999884429937
 31
0.0
 73
     1
 44
1.0
  0
LINE
  5
40E
330
70
100
AcDbEntity
  8
Camada 1
 62
    18
420
        0
370
    35
100
AcDbLine
 10
1085.062529263365
 20
315.1941847792004
 30
0.0
 11
1085.062529263365
 21
419.5397146037175
 31
0.0
  0
LINE
  5
40F
330
70
100
AcDbEntity
  8
Camada 1
 62
    18
420
        0
370
    35
100
AcDbLine
 10
1437.350558884805
 20
111.5899052814638
 30
0.0
 11
1081.41376529212
 21
317.1922487780666
 31
0.0
  0
LINE
  5
410
330
70
100
AcDbEntity
  8
Camada 1
 62
    18
420
        0
370
    35
100
AcDbLine
 10
1553.426898219944
 20
876.6560766360216
 30
0.0
 11
1764.452101387042
 21
998.4807444818688
 31
0.0
  0
LINE
  5
411
330
70
100
AcDbEntity
  8
Camada 1
 62
    18
420
        0
370
    35
100
AcDbLine
 10
1771.064293937359
 20
994.6925275819394
 30
0.0
 11
1761.225273438554
 21
1000.375762614559
 31
0.0
  0
MTEXT
  5
412
330
70
100
AcDbEntity
  8
Camada 1
100
AcDbMText
 10
1155.396442511177
 20
472.0296881173271
 30
0.0
 40
0.2
 41
0.0
 46
0.0
 71
     7
 72
     1
  1
\C18;\c0;\FMyriad Pro|b0|i0|c1;\H20.938451;\W1.000000;169,5
 11
0.8620920812293167
 21
0.5067516585880162
 31
0.0
 73
     1
 44
1.0
  0
LINE
  5
413
330
70
100
AcDbEntity
  8
Camada 1
 62
    18
420
        0
370
    35
100
AcDbLine
 10
1095.681834497907
 20
413.5832502278499
 30
0.0
 11
1082.711303954142
 21
421.0755115624396
 31
0.0
  0
LINE
  5
414
330
70
100
AcDbEntity
  8
Camada 1
 62
    18
420
        0
370
    35
100
AcDbLine
 10
1085.171941332366
 20
419.8359686230723
 30
0.0
 11
1296.197144499463
 21
541.6606364689195
 31
0.0
  0
LINE
  5
415
330
70
100
AcDbEntity
  8
Camada 1
 62
    18
420
        0
370
    35
100
AcDbLine
 10
1302.809337049779
 20
537.8724195689901
 30
0.0
 11
1292.970316550976
 21
543.5556546016105
 31
0.0
  0
ENDSEC
  0
SECTION
  2
OBJECTS
  0
DICTIONARY
  5
C
330
0
100
AcDbDictionary
281
     1
  3
ACAD_COLOR
350
63
  3
ACAD_DETAILVIEWSTYLE
350
6A
  3
ACAD_GROUP
350
D
  3
ACAD_LAYOUT
350
62
  3
ACAD_MATERIAL
350
10
  3
ACAD_MLEADERSTYLE
350
66
  3
ACAD_MLINESTYLE
350
5F
  3
ACAD_PLOTSETTINGS
350
61
  3
ACAD_PLOTSTYLENAME
350
E
  3
ACAD_SCALELIST
350
42
  3
ACAD_SECTIONVIEWSTYLE
350
68
  3
ACAD_TABLESTYLE
350
64
  3
ACAD_VISUALSTYLE
350
29
  3
ACDB_RECOMPOSE_DATA
350
41E
  3
AcDbVariableDictionary
350
416
  0
DICTIONARY
  5
63
102
{ACAD_REACTORS
330
C
102
}
330
C
100
AcDbDictionary
281
     1
  0
DICTIONARY
  5
6A
102
{ACAD_REACTORS
330
C
102
}
330
C
100
AcDbDictionary
281
     1
  3
Imperial24
350
6B
  0
DICTIONARY
  5
D
102
{ACAD_REACTORS
330
C
102
}
330
C
100
AcDbDictionary
281
     1
  0
DICTIONARY
  5
62
102
{ACAD_REACTORS
330
C
102
}
330
C
100
AcDbDictionary
281
     1
  3
Layout1
350
6F
  3
Layout2
350
77
  3
Model
350
73
  0
DICTIONARY
  5
10
102
{ACAD_REACTORS
330
C
102
}
330
C
100
AcDbDictionary
281
     1
  3
ByBlock
350
19
  3
ByLayer
350
11
  3
Global
350
21
  0
DICTIONARY
  5
66
102
{ACAD_REACTORS
330
C
102
}
330
C
100
AcDbDictionary
281
     1
  3
Standard
350
67
  0
DICTIONARY
  5
5F
102
{ACAD_REACTORS
330
C
102
}
330
C
100
AcDbDictionary
281
     1
  3
Standard
350
60
  0
DICTIONARY
  5
61
102
{ACAD_REACTORS
330
C
102
}
330
C
100
AcDbDictionary
281
     1
  0
ACDBDICTIONARYWDFLT
  5
E
102
{ACAD_REACTORS
330
C
102
}
330
C
100
AcDbDictionary
281
     1
  3
Normal
350
F
100
AcDbDictionaryWithDefault
340
F
  0
DICTIONARY
  5
42
102
{ACAD_REACTORS
330
C
102
}
330
C
100
AcDbDictionary
281
     1
  3
A0
350
43
  3
A1
350
44
  3
A2
350
45
  3
A3
350
46
  3
A4
350
47
  3
A5
350
48
  3
A6
350
49
  3
A7
350
4A
  3
A8
350
4B
  3
A9
350
4C
  3
B0
350
4D
  3
B1
350
4E
  3
B2
350
4F
  3
B3
350
50
  3
B4
350
51
  3
B5
350
52
  3
B6
350
53
  0
DICTIONARY
  5
68
102
{ACAD_REACTORS
330
C
102
}
330
C
100
AcDbDictionary
281
     1
  3
Imperial24
350
69
  0
DICTIONARY
  5
64
102
{ACAD_REACTORS
330
C
102
}
330
C
100
AcDbDictionary
281
     1
  3
Standard
350
65
  0
DICTIONARY
  5
29
102
{ACAD_REACTORS
330
C
102
}
330
C
100
AcDbDictionary
281
     1
  3
2dWireframe
350
2F
  3
Basic
350
2E
  3
Brighten
350
35
  3
ColorChange
350
39
  3
Conceptual
350
32
  3
Dim
350
34
  3
EdgeColorOff
350
41
  3
Facepattern
350
38
  3
Flat
350
2A
  3
FlatWithEdges
350
2B
  3
Gouraud
350
2C
  3
GouraudWithEdges
350
2D
  3
Hidden
350
31
  3
JitterOff
350
3F
  3
Linepattern
350
37
  3
OverhangOff
350
40
  3
Realistic
350
33
  3
Shaded
350
3E
  3
Shaded with edges
350
3D
  3
Shades of Gray
350
3A
  3
Sketchy
350
3B
  3
Thicken
350
36
  3
Wireframe
350
30
  3
X-Ray
350
3C
  0
XRECORD
  5
41E
102
{ACAD_REACTORS
330
C
102
}
330
C
100
AcDbXrecord
280
     1
 90
        1
330
65
  0
DICTIONARY
  5
416
102
{ACAD_REACTORS
330
C
102
}
330
C
100
AcDbDictionary
281
     1
  3
CANNOSCALE
350
41B
  3
CMLEADERSTYLE
350
418
  3
CTABLESTYLE
350
417
  3
CVIEWDETAILSTYLE
350
419
  3
CVIEWSECTIONSTYLE
350
41A
  0
ACDBDETAILVIEWSTYLE
  5
6B
102
{ACAD_REACTORS
330
6A
102
}
330
6A
100
AcDbModelDocViewStyle
 70
     0
  3
Imperial24
290
     1
300
Imperial24
 90
        0
100
AcDbDetailViewStyle
 70
     0
 71
     0
 90
        3
 71
     1
340
55
 62
   256
 40
0.24
340
0
 62
   256
 40
0.24
300

 40
0.36
280
     3
 71
     2
340
5D
 90
       25
 62
   256
 71
     3
340
55
 62
   256
 40
0.24
 90
        1
 40
0.75
 90
        1
300
%<\AcVar ViewType \f "%tc1">% %<\AcVar ViewDetailId>%\PSCALE %<\AcVar ViewScale \f "%sn">%
 71
     4
340
5D
 90
       25
 62
   256
340
5D
 90
       25
 62
   256
280
     0
  0
LAYOUT
  5
6F
102
{ACAD_REACTORS
330
62
102
}
330
62
100
AcDbPlotSettings
  1

  2

  4

  6

 40
0.0
 41
0.0
 42
0.0
 43
0.0
 44
0.0
 45
0.0
 46
0.0
 47
0.0
 48
0.0
 49
0.0
140
0.0
141
0.0
142
1.0
143
1.0
 70
   688
 72
     0
 73
     0
 74
     5
  7

 75
    16
147
1.0
 76
     0
 77
     2
 78
   300
148
0.0
149
0.0
100
AcDbLayout
  1
Layout1
 70
     1
 71
     1
 10
0.0
 20
0.0
 11
12.0
 21
9.0
 12
0.0
 22
0.0
 32
0.0
 14
0.0
 24
0.0
 34
0.0
 15
0.0
 25
0.0
 35
0.0
146
0.0
 13
0.0
 23
0.0
 33
0.0
 16
1.0
 26
0.0
 36
0.0
 17
0.0
 27
1.0
 37
0.0
 76
     0
330
6C
  0
LAYOUT
  5
77
102
{ACAD_REACTORS
330
62
102
}
330
62
100
AcDbPlotSettings
  1

  2

  4

  6

 40
0.0
 41
0.0
 42
0.0
 43
0.0
 44
0.0
 45
0.0
 46
0.0
 47
0.0
 48
0.0
 49
0.0
140
0.0
141
0.0
142
1.0
143
1.0
 70
   688
 72
     0
 73
     0
 74
     5
  7

 75
    16
147
1.0
 76
     0
 77
     2
 78
   300
148
0.0
149
0.0
100
AcDbLayout
  1
Layout2
 70
     1
 71
     2
 10
0.0
 20
0.0
 11
12.0
 21
9.0
 12
0.0
 22
0.0
 32
0.0
 14
0.0
 24
0.0
 34
0.0
 15
0.0
 25
0.0
 35
0.0
146
0.0
 13
0.0
 23
0.0
 33
0.0
 16
1.0
 26
0.0
 36
0.0
 17
0.0
 27
1.0
 37
0.0
 76
     0
330
74
  0
LAYOUT
  5
73
102
{ACAD_REACTORS
330
62
102
}
330
62
100
AcDbPlotSettings
  1

  2

  4

  6

 40
0.0
 41
0.0
 42
0.0
 43
0.0
 44
0.0
 45
0.0
 46
0.0
 47
0.0
 48
0.0
 49
0.0
140
0.0
141
0.0
142
1.0
143
1.0
 70
  1712
 72
     0
 73
     0
 74
     0
  7

 75
     0
147
1.0
 76
     0
 77
     2
 78
   300
148
0.0
149
0.0
100
AcDbLayout
  1
Model
 70
     1
 71
     0
 10
0.0
 20
0.0
 11
12.0
 21
9.0
 12
0.0
 22
0.0
 32
0.0
 14
0.0
 24
0.0
 34
0.0
 15
0.0
 25
0.0
 35
0.0
146
0.0
 13
0.0
 23
0.0
 33
0.0
 16
1.0
 26
0.0
 36
0.0
 17
0.0
 27
1.0
 37
0.0
 76
     0
330
70
  0
MATERIAL
  5
19
102
{ACAD_XDICTIONARY
360
1A
102
}
102
{ACAD_REACTORS
330
10
102
}
330
10
100
AcDbMaterial
  1
ByBlock
 72
     0
 43
0.0208333333333333
 43
0.0
 43
0.0
 43
0.0
 43
0.0
 43
0.0208333333333333
 43
0.0
 43
0.0
 43
0.0
 43
0.0
 43
1.0
 43
0.0
 43
0.0
 43
0.0
 43
0.0
 43
1.0
 77
     0
 47
0.0208333333333333
 47
0.0
 47
0.0
 47
0.0
 47
0.0
 47
0.0208333333333333
 47
0.0
 47
0.0
 47
0.0
 47
0.0
 47
1.0
 47
0.0
 47
0.0
 47
0.0
 47
0.0
 47
1.0
171
     0
 49
0.0208333333333333
 49
0.0
 49
0.0
 49
0.0
 49
0.0
 49
0.0208333333333333
 49
0.0
 49
0.0
 49
0.0
 49
0.0
 49
1.0
 49
0.0
 49
0.0
 49
0.0
 49
0.0
 49
1.0
175
     0
142
0.0208333333333333
142
0.0
142
0.0
142
0.0
142
0.0
142
0.0208333333333333
142
0.0
142
0.0
142
0.0
142
0.0
142
1.0
142
0.0
142
0.0
142
0.0
142
0.0
142
1.0
179
     0
144
0.0208333333333333
144
0.0
144
0.0
144
0.0
144
0.0
144
0.0208333333333333
144
0.0
144
0.0
144
0.0
144
0.0
144
1.0
144
0.0
144
0.0
144
0.0
144
0.0
144
1.0
147
0.0208333333333333
147
0.0
147
0.0
147
0.0
147
0.0
147
0.0208333333333333
147
0.0
147
0.0
147
0.0
147
0.0
147
1.0
147
0.0
147
0.0
147
0.0
147
0.0
147
1.0
  0
MATERIAL
  5
11
102
{ACAD_XDICTIONARY
360
12
102
}
102
{ACAD_REACTORS
330
10
102
}
330
10
100
AcDbMaterial
  1
ByLayer
 72
     0
 43
0.0208333333333333
 43
0.0
 43
0.0
 43
0.0
 43
0.0
 43
0.0208333333333333
 43
0.0
 43
0.0
 43
0.0
 43
0.0
 43
1.0
 43
0.0
 43
0.0
 43
0.0
 43
0.0
 43
1.0
 77
     0
 47
0.0208333333333333
 47
0.0
 47
0.0
 47
0.0
 47
0.0
 47
0.0208333333333333
 47
0.0
 47
0.0
 47
0.0
 47
0.0
 47
1.0
 47
0.0
 47
0.0
 47
0.0
 47
0.0
 47
1.0
171
     0
 49
0.0208333333333333
 49
0.0
 49
0.0
 49
0.0
 49
0.0
 49
0.0208333333333333
 49
0.0
 49
0.0
 49
0.0
 49
0.0
 49
1.0
 49
0.0
 49
0.0
 49
0.0
 49
0.0
 49
1.0
175
     0
142
0.0208333333333333
142
0.0
142
0.0
142
0.0
142
0.0
142
0.0208333333333333
142
0.0
142
0.0
142
0.0
142
0.0
142
1.0
142
0.0
142
0.0
142
0.0
142
0.0
142
1.0
179
     0
144
0.0208333333333333
144
0.0
144
0.0
144
0.0
144
0.0
144
0.0208333333333333
144
0.0
144
0.0
144
0.0
144
0.0
144
1.0
144
0.0
144
0.0
144
0.0
144
0.0
144
1.0
147
0.0208333333333333
147
0.0
147
0.0
147
0.0
147
0.0
147
0.0208333333333333
147
0.0
147
0.0
147
0.0
147
0.0
147
1.0
147
0.0
147
0.0
147
0.0
147
0.0
147
1.0
  0
MATERIAL
  5
21
102
{ACAD_XDICTIONARY
360
22
102
}
102
{ACAD_REACTORS
330
10
102
}
330
10
100
AcDbMaterial
  1
Global
 72
     0
 43
0.0208333333333333
 43
0.0
 43
0.0
 43
0.0
 43
0.0
 43
0.0208333333333333
 43
0.0
 43
0.0
 43
0.0
 43
0.0
 43
1.0
 43
0.0
 43
0.0
 43
0.0
 43
0.0
 43
1.0
 77
     0
 47
0.0208333333333333
 47
0.0
 47
0.0
 47
0.0
 47
0.0
 47
0.0208333333333333
 47
0.0
 47
0.0
 47
0.0
 47
0.0
 47
1.0
 47
0.0
 47
0.0
 47
0.0
 47
0.0
 47
1.0
171
     0
 49
0.0208333333333333
 49
0.0
 49
0.0
 49
0.0
 49
0.0
 49
0.0208333333333333
 49
0.0
 49
0.0
 49
0.0
 49
0.0
 49
1.0
 49
0.0
 49
0.0
 49
0.0
 49
0.0
 49
1.0
175
     0
142
0.0208333333333333
142
0.0
142
0.0
142
0.0
142
0.0
142
0.0208333333333333
142
0.0
142
0.0
142
0.0
142
0.0
142
1.0
142
0.0
142
0.0
142
0.0
142
0.0
142
1.0
179
     0
144
0.0208333333333333
144
0.0
144
0.0
144
0.0
144
0.0
144
0.0208333333333333
144
0.0
144
0.0
144
0.0
144
0.0
144
1.0
144
0.0
144
0.0
144
0.0
144
0.0
144
1.0
147
0.0208333333333333
147
0.0
147
0.0
147
0.0
147
0.0
147
0.0208333333333333
147
0.0
147
0.0
147
0.0
147
0.0
147
1.0
147
0.0
147
0.0
147
0.0
147
0.0
147
1.0
  0
MLEADERSTYLE
  5
67
102
{ACAD_REACTORS
330
66
102
}
330
66
100
AcDbMLeaderStyle
179
     2
170
     2
171
     1
172
     0
 90
        2
 40
0.0
 41
0.0
173
     1
 91
-1056964608
340
5B
 92
       -2
290
     1
 42
0.09
291
     1
 43
0.36
  3
Standard
 44
0.18
300

342
55
174
     1
178
     6
175
     1
176
     0
 93
-1056964608
 45
0.18
292
     0
297
     0
 46
0.18
 94
-1056964608
 47
1.0
 49
1.0
140
1.0
293
     1
141
0.0
294
     1
177
     0
142
1.0
295
     1
296
     0
143
0.125
271
     0
272
     9
273
     9
298
     1
  0
MLINESTYLE
  5
60
102
{ACAD_REACTORS
330
5F
102
}
330
5F
100
AcDbMlineStyle
  2
STANDARD
 70
     0
  3

 62
   256
 51
90.0
 52
90.0
 71
     2
 49
0.5
 62
   256
  6
BYLAYER
 49
-0.5
 62
   256
  6
BYLAYER
  0
ACDBPLACEHOLDER
  5
F
102
{ACAD_REACTORS
330
E
102
}
330
E
  0
SCALE
  5
43
102
{ACAD_REACTORS
330
42
102
}
330
42
100
AcDbScale
 70
     0
300
1:1
140
1.0
141
1.0
290
     1
  0
SCALE
  5
44
102
{ACAD_REACTORS
330
42
102
}
330
42
100
AcDbScale
 70
     0
300
1/128" = 1'-0"
140
0.0078125
141
12.0
290
     0
  0
SCALE
  5
45
102
{ACAD_REACTORS
330
42
102
}
330
42
100
AcDbScale
 70
     0
300
1/64" = 1'-0"
140
0.015625
141
12.0
290
     0
  0
SCALE
  5
46
102
{ACAD_REACTORS
330
42
102
}
330
42
100
AcDbScale
 70
     0
300
1/32" = 1'-0"
140
0.03125
141
12.0
290
     0
  0
SCALE
  5
47
102
{ACAD_REACTORS
330
42
102
}
330
42
100
AcDbScale
 70
     0
300
1/16" = 1'-0"
140
0.0625
141
12.0
290
     0
  0
SCALE
  5
48
102
{ACAD_REACTORS
330
42
102
}
330
42
100
AcDbScale
 70
     0
300
3/32" = 1'-0"
140
0.09375
141
12.0
290
     0
  0
SCALE
  5
49
102
{ACAD_REACTORS
330
42
102
}
330
42
100
AcDbScale
 70
     0
300
1/8" = 1'-0"
140
0.125
141
12.0
290
     0
  0
SCALE
  5
4A
102
{ACAD_REACTORS
330
42
102
}
330
42
100
AcDbScale
 70
     0
300
3/16" = 1'-0"
140
0.1875
141
12.0
290
     0
  0
SCALE
  5
4B
102
{ACAD_REACTORS
330
42
102
}
330
42
100
AcDbScale
 70
     0
300
1/4" = 1'-0"
140
0.25
141
12.0
290
     0
  0
SCALE
  5
4C
102
{ACAD_REACTORS
330
42
102
}
330
42
100
AcDbScale
 70
     0
300
3/8" = 1'-0"
140
0.375
141
12.0
290
     0
  0
SCALE
  5
4D
102
{ACAD_REACTORS
330
42
102
}
330
42
100
AcDbScale
 70
     0
300
1/2" = 1'-0"
140
0.5
141
12.0
290
     0
  0
SCALE
  5
4E
102
{ACAD_REACTORS
330
42
102
}
330
42
100
AcDbScale
 70
     0
300
3/4" = 1'-0"
140
0.75
141
12.0
290
     0
  0
SCALE
  5
4F
102
{ACAD_REACTORS
330
42
102
}
330
42
100
AcDbScale
 70
     0
300
1" = 1'-0"
140
1.0
141
12.0
290
     0
  0
SCALE
  5
50
102
{ACAD_REACTORS
330
42
102
}
330
42
100
AcDbScale
 70
     0
300
1-1/2" = 1'-0"
140
1.5
141
12.0
290
     0
  0
SCALE
  5
51
102
{ACAD_REACTORS
330
42
102
}
330
42
100
AcDbScale
 70
     0
300
3" = 1'-0"
140
3.0
141
12.0
290
     0
  0
SCALE
  5
52
102
{ACAD_REACTORS
330
42
102
}
330
42
100
AcDbScale
 70
     0
300
6" = 1'-0"
140
6.0
141
12.0
290
     0
  0
SCALE
  5
53
102
{ACAD_REACTORS
330
42
102
}
330
42
100
AcDbScale
 70
     0
300
1'-0" = 1'-0"
140
12.0
141
12.0
290
     0
  0
ACDBSECTIONVIEWSTYLE
  5
69
102
{ACAD_REACTORS
330
68
102
}
330
68
100
AcDbModelDocViewStyle
 70
     0
  3
Imperial24
290
     1
300
Imperial24
 90
        0
100
AcDbSectionViewStyle
 70
     0
 71
     0
 90
       78
 71
     1
340
55
 62
   256
 40
0.24
340
0
340
0
 62
   256
 40
0.24
300
I, O, Q, S, X, Z
 40
0.48
 90
        3
 40
0.18
 90
        1
 71
     2
340
5D
 90
       25
 62
   256
340
5D
 90
       50
 62
   256
 40
0.24
 40
0.0
 40
0.24
 71
     3
340
55
 62
   256
 40
0.24
 90
        1
 40
0.75
 90
        1
300
%<\AcVar ViewType \f "%tc1">% %<\AcVar ViewSectionStartId>%-%<\AcVar ViewSectionEndId>%\PSCALE %<\AcVar ViewScale \f "%sn">%
 71
     4
 62
   256
 62
   257
300
ANSI31
 40
1.0
 90
        0
290
     0
290
     0
 90
        6
 40
0.0
 40
1.570796326794896
 40
0.2617993877991494
 40
1.308996938995747
 40
-0.2617993877991494
 40
1.832595714594046
  0
TABLESTYLE
  5
65
102
{ACAD_XDICTIONARY
360
41C
102
}
102
{ACAD_REACTORS
330
64
102
}
330
64
100
AcDbTableStyle
280
     0
  3
Standard
 70
     0
 71
     0
 40
0.06
 41
0.06
280
     0
281
     0
  7
Standard
140
0.18
170
     2
 62
     0
 63
     7
283
     0
 90
      512
 91
        0
  1

274
    -2
284
     1
 64
     0
275
    -2
285
     1
 65
     0
276
    -2
286
     1
 66
     0
277
    -2
287
     1
 67
     0
278
    -2
288
     1
 68
     0
279
    -2
289
     1
 69
     0
  7
Standard
140
0.25
170
     5
 62
     0
 63
     7
283
     0
 90
      512
 91
        0
  1

274
    -2
284
     1
 64
     0
275
    -2
285
     1
 65
     0
276
    -2
286
     1
 66
     0
277
    -2
287
     1
 67
     0
278
    -2
288
     1
 68
     0
279
    -2
289
     1
 69
     0
  7
Standard
140
0.18
170
     5
 62
     0
 63
     7
283
     0
 90
      512
 91
        0
  1

274
    -2
284
     1
 64
     0
275
    -2
285
     1
 65
     0
276
    -2
286
     1
 66
     0
277
    -2
287
     1
 67
     0
278
    -2
288
     1
 68
     0
279
    -2
289
     1
 69
     0
  0
VISUALSTYLE
  5
2F
102
{ACAD_REACTORS
330
29
102
}
330
29
100
AcDbVisualStyle
  2
2dWireframe
 70
     4
177
     3
291
     0
 70
    58
 90
        0
176
     1
 90
        2
176
     1
 90
        0
176
     1
 90
        0
176
     1
 40
0.6
176
     1
 40
30.0
176
     1
 62
     7
420
 16777215
176
     1
 90
        1
176
     1
 90
        4
176
     1
 62
     7
176
     1
 62
   257
176
     1
 90
        1
176
     1
 90
        1
176
     1
 40
1.0
176
     1
 90
        0
176
     1
 62
   257
176
     1
 40
1.0
176
     1
 90
        1
176
     1
 90
        6
176
     1
 90
        2
176
     1
 62
     7
176
     1
 90
        5
176
     1
 90
        0
176
     1
 90
        0
176
     1
290
     0
176
     1
 90
        1
176
     1
 40
0.0
176
     1
 90
        0
176
     1
290
     1
176
     1
290
     1
176
     1
290
     0
176
     1
290
     0
176
     1
290
     0
176
     1
290
     0
176
     1
290
     0
176
     1
290
     0
176
     1
290
     0
176
     1
 90
       50
176
     1
 40
0.0
176
     1
 40
1.0
176
     1
 90
        0
176
     1
 62
    18
420
        0
176
     1
 90
       50
176
     1
 90
        3
176
     1
 62
     5
420
      255
176
     1
290
     0
176
     1
 90
       50
176
     1
 90
       50
176
     1
 90
       50
176
     1
290
     0
176
     1
 90
       50
176
     1
 62
   256
176
     0
 40
1.0
176
     0
 90
        2
176
     1
  1
strokes_ogs.tif
176
     1
290
     0
176
     1
 40
1.0
176
     1
 40
1.0
176
     1
  0
VISUALSTYLE
  5
2E
102
{ACAD_REACTORS
330
29
102
}
330
29
100
AcDbVisualStyle
  2
Basic
 70
     7
177
     3
291
     1
 70
    58
 90
        1
176
     1
 90
        0
176
     1
 90
        1
176
     1
 90
        0
176
     1
 40
0.6
176
     1
 40
30.0
176
     1
 62
     7
420
 16777215
176
     1
 90
        0
176
     1
 90
        4
176
     1
 62
     7
176
     1
 62
   257
176
     1
 90
        1
176
     1
 90
        1
176
     1
 40
1.0
176
     1
 90
        8
176
     1
 62
     7
176
     1
 40
1.0
176
     1
 90
        1
176
     1
 90
        6
176
     1
 90
        2
176
     1
 62
     7
176
     1
 90
        5
176
     1
 90
        0
176
     1
 90
        0
176
     1
290
     0
176
     1
 90
        1
176
     1
 40
0.0
176
     1
 90
        0
176
     1
290
     0
176
     1
290
     1
176
     1
290
     1
176
     1
290
     0
176
     1
290
     0
176
     1
290
     0
176
     1
290
     0
176
     1
290
     0
176
     1
290
     0
176
     1
 90
       50
176
     1
 40
0.0
176
     1
 40
1.0
176
     1
 90
        0
176
     1
 62
    18
420
        0
176
     1
 90
       50
176
     1
 90
        3
176
     1
 62
     5
420
      255
176
     1
290
     0
176
     1
 90
       50
176
     1
 90
       50
176
     1
 90
       50
176
     1
290
     0
176
     1
 90
       50
176
     1
 62
   256
176
     0
 40
1.0
176
     0
 90
        2
176
     1
  1
strokes_ogs.tif
176
     1
290
     0
176
     1
 40
1.0
176
     1
 40
1.0
176
     1
  0
VISUALSTYLE
  5
35
102
{ACAD_REACTORS
330
29
102
}
330
29
100
AcDbVisualStyle
  2
Brighten
 70
    12
177
     3
291
     1
 70
    58
 90
        2
176
     1
 90
        2
176
     1
 90
        0
176
     1
 90
        0
176
     1
 40
0.6
176
     1
 40
30.0
176
     1
 62
     7
420
 16777215
176
     1
 90
        1
176
     1
 90
        4
176
     1
 62
     7
176
     1
 62
   257
176
     1
 90
        1
176
     1
 90
        1
176
     1
 40
1.0
176
     1
 90
        8
176
     1
 62
     7
176
     1
 40
1.0
176
     1
 90
        1
176
     1
 90
        6
176
     1
 90
        2
176
     1
 62
     7
176
     1
 90
        5
176
     1
 90
        0
176
     1
 90
        0
176
     1
290
     0
176
     1
 90
        1
176
     1
 40
50.0
176
     1
 90
        0
176
     1
290
     0
176
     1
290
     1
176
     1
290
     1
176
     1
290
     0
176
     1
290
     0
176
     1
290
     0
176
     1
290
     0
176
     1
290
     0
176
     1
290
     0
176
     1
 90
       50
176
     1
 40
0.0
176
     1
 40
1.0
176
     1
 90
        0
176
     1
 62
    18
420
        0
176
     1
 90
       50
176
     1
 90
        3
176
     1
 62
     5
420
      255
176
     1
290
     0
176
     1
 90
       50
176
     1
 90
       50
176
     1
 90
       50
176
     1
290
     0
176
     1
 90
       50
176
     1
 62
   256
176
     0
 40
1.0
176
     0
 90
        2
176
     1
  1
strokes_ogs.tif
176
     1
290
     0
176
     1
 40
1.0
176
     1
 40
1.0
176
     1
  0
VISUALSTYLE
  5
39
102
{ACAD_REACTORS
330
29
102
}
330
29
100
AcDbVisualStyle
  2
ColorChange
 70
    16
177
     3
291
     1
 70
    58
 90
        2
176
     1
 90
        2
176
     1
 90
        3
176
     1
 90
        0
176
     1
 40
0.6
176
     1
 40
30.0
176
     1
 62
     8
420
  8421504
176
     1
 90
        1
176
     1
 90
        4
176
     1
 62
     7
176
     1
 62
   257
176
     1
 90
        1
176
     1
 90
        1
176
     1
 40
1.0
176
     1
 90
        8
176
     1
 62
     8
420
  8421504
176
     1
 40
1.0
176
     1
 90
        1
176
     1
 90
        6
176
     1
 90
        2
176
     1
 62
     7
176
     1
 90
        5
176
     1
 90
        0
176
     1
 90
        0
176
     1
290
     0
176
     1
 90
        1
176
     1
 40
0.0
176
     1
 90
        0
176
     1
290
     0
176
     1
290
     1
176
     1
290
     1
176
     1
290
     0
176
     1
290
     0
176
     1
290
     0
176
     1
290
     0
176
     1
290
     0
176
     1
290
     0
176
     1
 90
       50
176
     1
 40
0.0
176
     1
 40
1.0
176
     1
 90
        0
176
     1
 62
    18
420
        0
176
     1
 90
       50
176
     1
 90
        3
176
     1
 62
     5
420
      255
176
     1
290
     0
176
     1
 90
       50
176
     1
 90
       50
176
     1
 90
       50
176
     1
290
     0
176
     1
 90
       50
176
     1
 62
   256
176
     0
 40
1.0
176
     0
 90
        2
176
     1
  1
strokes_ogs.tif
176
     1
290
     0
176
     1
 40
1.0
176
     1
 40
1.0
176
     1
  0
VISUALSTYLE
  5
32
102
{ACAD_REACTORS
330
29
102
}
330
29
100
AcDbVisualStyle
  2
Conceptual
 70
     9
177
     3
291
     0
 70
    58
 90
        3
176
     1
 90
        2
176
     1
 90
        0
176
     1
 90
        0
176
     1
 40
0.6
176
     1
 40
30.0
176
     1
 62
     7
420
 16777215
176
     1
 90
        2
176
     1
 90
        2
176
     1
 62
     7
176
     1
 62
   257
176
     1
 90
        1
176
     1
 90
        1
176
     1
 40
179.0
176
     1
 90
        8
176
     1
 62
     7
176
     1
 40
1.0
176
     1
 90
        1
176
     1
 90
        6
176
     1
 90
        2
176
     1
 62
     7
176
     1
 90
        3
176
     1
 90
        0
176
     1
 90
        0
176
     1
290
     0
176
     1
 90
        1
176
     1
 40
0.0
176
     1
 90
        0
176
     1
290
     0
176
     1
290
     1
176
     1
290
     1
176
     1
290
     0
176
     1
290
     0
176
     1
290
     0
176
     1
290
     0
176
     1
290
     0
176
     1
290
     0
176
     1
 90
       50
176
     1
 40
0.0
176
     1
 40
1.0
176
     1
 90
        0
176
     1
 62
    18
420
        0
176
     1
 90
       50
176
     1
 90
        3
176
     1
 62
     5
420
      255
176
     1
290
     0
176
     1
 90
       50
176
     1
 90
       50
176
     1
 90
       50
176
     1
290
     0
176
     1
 90
       50
176
     1
 62
   256
176
     0
 40
1.0
176
     0
 90
        2
176
     1
  1
strokes_ogs.tif
176
     1
290
     0
176
     1
 40
1.0
176
     1
 40
1.0
176
     1
  0
VISUALSTYLE
  5
34
102
{ACAD_REACTORS
330
29
102
}
330
29
100
AcDbVisualStyle
  2
Dim
 70
    11
177
     3
291
     1
 70
    58
 90
        2
176
     1
 90
        2
176
     1
 90
        0
176
     1
 90
        0
176
     1
 40
0.6
176
     1
 40
30.0
176
     1
 62
     7
420
 16777215
176
     1
 90
        1
176
     1
 90
        4
176
     1
 62
     7
176
     1
 62
   257
176
     1
 90
        1
176
     1
 90
        1
176
     1
 40
1.0
176
     1
 90
        8
176
     1
 62
     7
176
     1
 40
1.0
176
     1
 90
        1
176
     1
 90
        6
176
     1
 90
        2
176
     1
 62
     7
176
     1
 90
        5
176
     1
 90
        0
176
     1
 90
        0
176
     1
290
     0
176
     1
 90
        1
176
     1
 40
-50.0
176
     1
 90
        0
176
     1
290
     0
176
     1
290
     1
176
     1
290
     1
176
     1
290
     0
176
     1
290
     0
176
     1
290
     0
176
     1
290
     0
176
     1
290
     0
176
     1
290
     0
176
     1
 90
       50
176
     1
 40
0.0
176
     1
 40
1.0
176
     1
 90
        0
176
     1
 62
    18
420
        0
176
     1
 90
       50
176
     1
 90
        3
176
     1
 62
     5
420
      255
176
     1
290
     0
176
     1
 90
       50
176
     1
 90
       50
176
     1
 90
       50
176
     1
290
     0
176
     1
 90
       50
176
     1
 62
   256
176
     0
 40
1.0
176
     0
 90
        2
176
     1
  1
strokes_ogs.tif
176
     1
290
     0
176
     1
 40
1.0
176
     1
 40
1.0
176
     1
  0
VISUALSTYLE
  5
41
102
{ACAD_REACTORS
330
29
102
}
330
29
100
AcDbVisualStyle
  2
EdgeColorOff
 70
    22
177
     3
291
     1
 70
    58
 90
        2
176
     0
 90
        2
176
     0
 90
        0
176
     0
 90
        0
176
     0
 40
0.6
176
     0
 40
30.0
176
     0
 62
     7
420
 16777215
176
     0
 90
        1
176
     0
 90
        4
176
     0
 62
     7
176
     0
 62
   257
176
     0
 90
        1
176
     0
 90
        1
176
     0
 40
1.0
176
     0
 90
        8
176
     2
 62
     7
176
     0
 40
1.0
176
     0
 90
        1
176
     0
 90
        6
176
     0
 90
        2
176
     0
 62
     7
176
     0
 90
        5
176
     0
 90
        0
176
     0
 90
        0
176
     0
290
     0
176
     0
 90
        1
176
     0
 40
0.0
176
     0
 90
        0
176
     0
290
     0
176
     0
290
     1
176
     0
290
     1
176
     0
290
     0
176
     0
290
     0
176
     0
290
     0
176
     0
290
     0
176
     0
290
     0
176
     0
290
     0
176
     0
 90
       50
176
     0
 40
0.0
176
     0
 40
1.0
176
     0
 90
        0
176
     0
 62
    18
420
        0
176
     0
 90
       50
176
     0
 90
        3
176
     0
 62
     5
420
      255
176
     0
290
     0
176
     0
 90
       50
176
     0
 90
       50
176
     0
 90
       50
176
     0
290
     0
176
     0
 90
       50
176
     0
 62
   256
176
     0
 40
1.0
176
     0
 90
        2
176
     0
  1
strokes_ogs.tif
176
     0
290
     0
176
     0
 40
1.0
176
     0
 40
1.0
176
     0
  0
VISUALSTYLE
  5
38
102
{ACAD_REACTORS
330
29
102
}
330
29
100
AcDbVisualStyle
  2
Facepattern
 70
    15
177
     3
291
     1
 70
    58
 90
        2
176
     1
 90
        2
176
     1
 90
        0
176
     1
 90
        0
176
     1
 40
0.6
176
     1
 40
30.0
176
     1
 62
     7
420
 16777215
176
     1
 90
        1
176
     1
 90
        4
176
     1
 62
     7
176
     1
 62
   257
176
     1
 90
        1
176
     1
 90
        1
176
     1
 40
1.0
176
     1
 90
        8
176
     1
 62
     7
176
     1
 40
1.0
176
     1
 90
        1
176
     1
 90
        6
176
     1
 90
        2
176
     1
 62
     7
176
     1
 90
        5
176
     1
 90
        0
176
     1
 90
        0
176
     1
290
     0
176
     1
 90
        1
176
     1
 40
0.0
176
     1
 90
        0
176
     1
290
     0
176
     1
290
     1
176
     1
290
     1
176
     1
290
     0
176
     1
290
     0
176
     1
290
     0
176
     1
290
     0
176
     1
290
     0
176
     1
290
     0
176
     1
 90
       50
176
     1
 40
0.0
176
     1
 40
1.0
176
     1
 90
        0
176
     1
 62
    18
420
        0
176
     1
 90
       50
176
     1
 90
        3
176
     1
 62
     5
420
      255
176
     1
290
     0
176
     1
 90
       50
176
     1
 90
       50
176
     1
 90
       50
176
     1
290
     0
176
     1
 90
       50
176
     1
 62
   256
176
     0
 40
1.0
176
     0
 90
        2
176
     1
  1
strokes_ogs.tif
176
     1
290
     0
176
     1
 40
1.0
176
     1
 40
1.0
176
     1
  0
VISUALSTYLE
  5
2A
102
{ACAD_REACTORS
330
29
102
}
330
29
100
AcDbVisualStyle
  2
Flat
 70
     0
177
     3
291
     1
 70
    58
 90
        2
176
     1
 90
        1
176
     1
 90
        1
176
     1
 90
        2
176
     1
 40
0.6
176
     1
 40
30.0
176
     1
 62
     7
420
 16777215
176
     1
 90
        0
176
     1
 90
        0
176
     1
 62
     7
176
     1
 62
   257
176
     1
 90
        1
176
     1
 90
        1
176
     1
 40
1.0
176
     1
 90
        8
176
     1
 62
     7
176
     1
 40
1.0
176
     1
 90
        1
176
     1
 90
        6
176
     1
 90
        2
176
     1
 62
     7
176
     1
 90
        5
176
     1
 90
        0
176
     1
 90
        0
176
     1
290
     0
176
     1
 90
       13
176
     1
 40
0.0
176
     1
 90
        0
176
     1
290
     0
176
     1
290
     1
176
     1
290
     1
176
     1
290
     0
176
     1
290
     0
176
     1
290
     0
176
     1
290
     0
176
     1
290
     0
176
     1
290
     0
176
     1
 90
       50
176
     1
 40
0.0
176
     1
 40
1.0
176
     1
 90
        0
176
     1
 62
    18
420
        0
176
     1
 90
       50
176
     1
 90
        3
176
     1
 62
     5
420
      255
176
     1
290
     0
176
     1
 90
       50
176
     1
 90
       50
176
     1
 90
       50
176
     1
290
     0
176
     1
 90
       50
176
     1
 62
   256
176
     0
 40
1.0
176
     0
 90
        2
176
     1
  1
strokes_ogs.tif
176
     1
290
     0
176
     1
 40
1.0
176
     1
 40
1.0
176
     1
  0
VISUALSTYLE
  5
2B
102
{ACAD_REACTORS
330
29
102
}
330
29
100
AcDbVisualStyle
  2
FlatWithEdges
 70
     1
177
     3
291
     1
 70
    58
 90
        2
176
     1
 90
        1
176
     1
 90
        1
176
     1
 90
        2
176
     1
 40
0.6
176
     1
 40
30.0
176
     1
 62
     7
420
 16777215
176
     1
 90
        1
176
     1
 90
        0
176
     1
 62
     7
176
     1
 62
   257
176
     1
 90
        1
176
     1
 90
        1
176
     1
 40
1.0
176
     1
 90
        0
176
     1
 62
   257
176
     1
 40
1.0
176
     1
 90
        1
176
     1
 90
        6
176
     1
 90
        2
176
     1
 62
     7
176
     1
 90
        5
176
     1
 90
        0
176
     1
 90
        0
176
     1
290
     0
176
     1
 90
       13
176
     1
 40
0.0
176
     1
 90
        0
176
     1
290
     0
176
     1
290
     1
176
     1
290
     1
176
     1
290
     0
176
     1
290
     0
176
     1
290
     0
176
     1
290
     0
176
     1
290
     0
176
     1
290
     0
176
     1
 90
       50
176
     1
 40
0.0
176
     1
 40
1.0
176
     1
 90
        0
176
     1
 62
    18
420
        0
176
     1
 90
       50
176
     1
 90
        3
176
     1
 62
     5
420
      255
176
     1
290
     0
176
     1
 90
       50
176
     1
 90
       50
176
     1
 90
       50
176
     1
290
     0
176
     1
 90
       50
176
     1
 62
   256
176
     0
 40
1.0
176
     0
 90
        2
176
     1
  1
strokes_ogs.tif
176
     1
290
     0
176
     1
 40
1.0
176
     1
 40
1.0
176
     1
  0
VISUALSTYLE
  5
2C
102
{ACAD_REACTORS
330
29
102
}
330
29
100
AcDbVisualStyle
  2
Gouraud
 70
     2
177
     3
291
     1
 70
    58
 90
        2
176
     1
 90
        2
176
     1
 90
        1
176
     1
 90
        2
176
     1
 40
0.6
176
     1
 40
30.0
176
     1
 62
     7
420
 16777215
176
     1
 90
        0
176
     1
 90
        0
176
     1
 62
     7
176
     1
 62
   257
176
     1
 90
        1
176
     1
 90
        1
176
     1
 40
1.0
176
     1
 90
        0
176
     1
 62
     7
176
     1
 40
1.0
176
     1
 90
        1
176
     1
 90
        6
176
     1
 90
        2
176
     1
 62
     7
176
     1
 90
        5
176
     1
 90
        0
176
     1
 90
        0
176
     1
290
     0
176
     1
 90
       13
176
     1
 40
0.0
176
     1
 90
        0
176
     1
290
     0
176
     1
290
     1
176
     1
290
     1
176
     1
290
     0
176
     1
290
     0
176
     1
290
     0
176
     1
290
     0
176
     1
290
     0
176
     1
290
     0
176
     1
 90
       50
176
     1
 40
0.0
176
     1
 40
1.0
176
     1
 90
        0
176
     1
 62
    18
420
        0
176
     1
 90
       50
176
     1
 90
        3
176
     1
 62
     5
420
      255
176
     1
290
     0
176
     1
 90
       50
176
     1
 90
       50
176
     1
 90
       50
176
     1
290
     0
176
     1
 90
       50
176
     1
 62
   256
176
     0
 40
1.0
176
     0
 90
        2
176
     1
  1
strokes_ogs.tif
176
     1
290
     0
176
     1
 40
1.0
176
     1
 40
1.0
176
     1
  0
VISUALSTYLE
  5
2D
102
{ACAD_REACTORS
330
29
102
}
330
29
100
AcDbVisualStyle
  2
GouraudWithEdges
 70
     3
177
     3
291
     1
 70
    58
 90
        2
176
     1
 90
        2
176
     1
 90
        1
176
     1
 90
        2
176
     1
 40
0.6
176
     1
 40
30.0
176
     1
 62
     7
420
 16777215
176
     1
 90
        1
176
     1
 90
        0
176
     1
 62
     7
176
     1
 62
   257
176
     1
 90
        1
176
     1
 90
        1
176
     1
 40
1.0
176
     1
 90
        0
176
     1
 62
   257
176
     1
 40
1.0
176
     1
 90
        1
176
     1
 90
        6
176
     1
 90
        2
176
     1
 62
     7
176
     1
 90
        5
176
     1
 90
        0
176
     1
 90
        0
176
     1
290
     0
176
     1
 90
       13
176
     1
 40
0.0
176
     1
 90
        0
176
     1
290
     0
176
     1
290
     1
176
     1
290
     1
176
     1
290
     0
176
     1
290
     0
176
     1
290
     0
176
     1
290
     0
176
     1
290
     0
176
     1
290
     0
176
     1
 90
       50
176
     1
 40
0.0
176
     1
 40
1.0
176
     1
 90
        0
176
     1
 62
    18
420
        0
176
     1
 90
       50
176
     1
 90
        3
176
     1
 62
     5
420
      255
176
     1
290
     0
176
     1
 90
       50
176
     1
 90
       50
176
     1
 90
       50
176
     1
290
     0
176
     1
 90
       50
176
     1
 62
   256
176
     0
 40
1.0
176
     0
 90
        2
176
     1
  1
strokes_ogs.tif
176
     1
290
     0
176
     1
 40
1.0
176
     1
 40
1.0
176
     1
  0
VISUALSTYLE
  5
31
102
{ACAD_REACTORS
330
29
102
}
330
29
100
AcDbVisualStyle
  2
Hidden
 70
     6
177
     3
291
     0
 70
    58
 90
        1
176
     1
 90
        2
176
     1
 90
        2
176
     1
 90
        0
176
     1
 40
0.6
176
     1
 40
30.0
176
     1
 62
     7
420
 16777215
176
     1
 90
        2
176
     1
 90
        2
176
     1
 62
     7
176
     1
 62
   257
176
     1
 90
        2
176
     1
 90
        1
176
     1
 40
40.0
176
     1
 90
        0
176
     1
 62
   257
176
     1
 40
1.0
176
     1
 90
        1
176
     1
 90
        6
176
     1
 90
        2
176
     1
 62
     7
176
     1
 90
        3
176
     1
 90
        0
176
     1
 90
        0
176
     1
290
     0
176
     1
 90
        1
176
     1
 40
0.0
176
     1
 90
        0
176
     1
290
     0
176
     1
290
     1
176
     1
290
     1
176
     1
290
     0
176
     1
290
     0
176
     1
290
     0
176
     1
290
     0
176
     1
290
     0
176
     1
290
     0
176
     1
 90
       50
176
     1
 40
0.0
176
     1
 40
1.0
176
     1
 90
        0
176
     1
 62
    18
420
        0
176
     1
 90
       50
176
     1
 90
        3
176
     1
 62
     5
420
      255
176
     1
290
     0
176
     1
 90
       50
176
     1
 90
       50
176
     1
 90
       50
176
     1
290
     0
176
     1
 90
       50
176
     1
 62
   256
176
     0
 40
1.0
176
     0
 90
        2
176
     1
  1
strokes_ogs.tif
176
     1
290
     0
176
     1
 40
1.0
176
     1
 40
1.0
176
     1
  0
VISUALSTYLE
  5
3F
102
{ACAD_REACTORS
330
29
102
}
330
29
100
AcDbVisualStyle
  2
JitterOff
 70
    20
177
     3
291
     1
 70
    58
 90
        2
176
     0
 90
        2
176
     0
 90
        0
176
     0
 90
        0
176
     0
 40
0.6
176
     0
 40
30.0
176
     0
 62
     7
420
 16777215
176
     0
 90
        1
176
     0
 90
        4
176
     0
 62
     7
176
     0
 62
   257
176
     0
 90
        1
176
     0
 90
        1
176
     0
 40
1.0
176
     0
 90
       10
176
     2
 62
     7
176
     0
 40
1.0
176
     0
 90
        1
176
     0
 90
        6
176
     0
 90
        2
176
     0
 62
     7
176
     0
 90
        5
176
     0
 90
        0
176
     0
 90
        0
176
     0
290
     0
176
     0
 90
        1
176
     0
 40
0.0
176
     0
 90
        0
176
     0
290
     0
176
     0
290
     1
176
     0
290
     1
176
     0
290
     0
176
     0
290
     0
176
     0
290
     0
176
     0
290
     0
176
     0
290
     0
176
     0
290
     0
176
     0
 90
       50
176
     0
 40
0.0
176
     0
 40
1.0
176
     0
 90
        0
176
     0
 62
    18
420
        0
176
     0
 90
       50
176
     0
 90
        3
176
     0
 62
     5
420
      255
176
     0
290
     0
176
     0
 90
       50
176
     0
 90
       50
176
     0
 90
       50
176
     0
290
     0
176
     0
 90
       50
176
     0
 62
   256
176
     0
 40
1.0
176
     0
 90
        2
176
     0
  1
strokes_ogs.tif
176
     0
290
     0
176
     0
 40
1.0
176
     0
 40
1.0
176
     0
  0
VISUALSTYLE
  5
37
102
{ACAD_REACTORS
330
29
102
}
330
29
100
AcDbVisualStyle
  2
Linepattern
 70
    14
177
     3
291
     1
 70
    58
 90
        2
176
     1
 90
        2
176
     1
 90
        0
176
     1
 90
        0
176
     1
 40
0.6
176
     1
 40
30.0
176
     1
 62
     7
420
 16777215
176
     1
 90
        1
176
     1
 90
        4
176
     1
 62
     7
176
     1
 62
   257
176
     1
 90
        7
176
     1
 90
        7
176
     1
 40
1.0
176
     1
 90
        8
176
     1
 62
     7
176
     1
 40
1.0
176
     1
 90
        1
176
     1
 90
        6
176
     1
 90
        2
176
     1
 62
     7
176
     1
 90
        5
176
     1
 90
        0
176
     1
 90
        0
176
     1
290
     0
176
     1
 90
        1
176
     1
 40
0.0
176
     1
 90
        0
176
     1
290
     0
176
     1
290
     1
176
     1
290
     1
176
     1
290
     0
176
     1
290
     0
176
     1
290
     0
176
     1
290
     0
176
     1
290
     0
176
     1
290
     0
176
     1
 90
       50
176
     1
 40
0.0
176
     1
 40
1.0
176
     1
 90
        0
176
     1
 62
    18
420
        0
176
     1
 90
       50
176
     1
 90
        3
176
     1
 62
     5
420
      255
176
     1
290
     0
176
     1
 90
       50
176
     1
 90
       50
176
     1
 90
       50
176
     1
290
     0
176
     1
 90
       50
176
     1
 62
   256
176
     0
 40
1.0
176
     0
 90
        2
176
     1
  1
strokes_ogs.tif
176
     1
290
     0
176
     1
 40
1.0
176
     1
 40
1.0
176
     1
  0
VISUALSTYLE
  5
40
102
{ACAD_REACTORS
330
29
102
}
330
29
100
AcDbVisualStyle
  2
OverhangOff
 70
    21
177
     3
291
     1
 70
    58
 90
        2
176
     0
 90
        2
176
     0
 90
        0
176
     0
 90
        0
176
     0
 40
0.6
176
     0
 40
30.0
176
     0
 62
     7
420
 16777215
176
     0
 90
        1
176
     0
 90
        4
176
     0
 62
     7
176
     0
 62
   257
176
     0
 90
        1
176
     0
 90
        1
176
     0
 40
1.0
176
     0
 90
        9
176
     2
 62
     7
176
     0
 40
1.0
176
     0
 90
        1
176
     0
 90
        6
176
     0
 90
        2
176
     0
 62
     7
176
     0
 90
        5
176
     0
 90
        0
176
     0
 90
        0
176
     0
290
     0
176
     0
 90
        1
176
     0
 40
0.0
176
     0
 90
        0
176
     0
290
     0
176
     0
290
     1
176
     0
290
     1
176
     0
290
     0
176
     0
290
     0
176
     0
290
     0
176
     0
290
     0
176
     0
290
     0
176
     0
290
     0
176
     0
 90
       50
176
     0
 40
0.0
176
     0
 40
1.0
176
     0
 90
        0
176
     0
 62
    18
420
        0
176
     0
 90
       50
176
     0
 90
        3
176
     0
 62
     5
420
      255
176
     0
290
     0
176
     0
 90
       50
176
     0
 90
       50
176
     0
 90
       50
176
     0
290
     0
176
     0
 90
       50
176
     0
 62
   256
176
     0
 40
1.0
176
     0
 90
        2
176
     0
  1
strokes_ogs.tif
176
     0
290
     0
176
     0
 40
1.0
176
     0
 40
1.0
176
     0
  0
VISUALSTYLE
  5
33
102
{ACAD_REACTORS
330
29
102
}
330
29
100
AcDbVisualStyle
  2
Realistic
 70
     8
177
     3
291
     0
 70
    58
 90
        2
176
     1
 90
        3
176
     1
 90
        0
176
     1
 90
        2
176
     1
 40
0.6
176
     1
 40
30.0
176
     1
 62
     7
420
 16777215
176
     1
 90
        0
176
     1
 90
        0
176
     1
 62
     7
176
     1
 62
   257
176
     1
 90
        1
176
     1
 90
        1
176
     1
 40
1.0
176
     1
 90
        8
176
     1
 62
   257
176
     1
 40
1.0
176
     1
 90
        1
176
     1
 90
        6
176
     1
 90
        2
176
     1
 62
     7
176
     1
 90
        3
176
     1
 90
        0
176
     1
 90
        0
176
     1
290
     0
176
     1
 90
       13
176
     1
 40
0.0
176
     1
 90
        0
176
     1
290
     0
176
     1
290
     1
176
     1
290
     1
176
     1
290
     0
176
     1
290
     0
176
     1
290
     0
176
     1
290
     0
176
     1
290
     0
176
     1
290
     0
176
     1
 90
       50
176
     1
 40
0.0
176
     1
 40
1.0
176
     1
 90
        0
176
     1
 62
    18
420
        0
176
     1
 90
       50
176
     1
 90
        3
176
     1
 62
     5
420
      255
176
     1
290
     0
176
     1
 90
       50
176
     1
 90
       50
176
     1
 90
       50
176
     1
290
     0
176
     1
 90
       50
176
     1
 62
   256
176
     0
 40
1.0
176
     0
 90
        2
176
     1
  1
strokes_ogs.tif
176
     1
290
     0
176
     1
 40
1.0
176
     1
 40
1.0
176
     1
  0
VISUALSTYLE
  5
3E
102
{ACAD_REACTORS
330
29
102
}
330
29
100
AcDbVisualStyle
  2
Shaded
 70
    27
177
     3
291
     0
 70
    58
 90
        2
176
     1
 90
        2
176
     1
 90
        1
176
     1
 90
        2
176
     1
 40
0.6
176
     1
 40
30.0
176
     1
 62
     7
420
 16777215
176
     1
 90
        0
176
     1
 90
        4
176
     1
 62
     7
176
     1
 62
   257
176
     1
 90
        1
176
     1
 90
        1
176
     1
 40
1.0
176
     1
 90
        8
176
     1
 62
   257
176
     1
 40
1.0
176
     1
 90
        1
176
     1
 90
        6
176
     1
 90
        2
176
     1
 62
     8
420
  7895160
176
     1
 90
        3
176
     1
 90
        0
176
     1
 90
        0
176
     1
290
     0
176
     1
 90
        5
176
     1
 40
0.0
176
     1
 90
        0
176
     1
290
     0
176
     1
290
     1
176
     1
290
     1
176
     1
290
     0
176
     1
290
     0
176
     1
290
     0
176
     1
290
     0
176
     1
290
     0
176
     1
290
     0
176
     1
 90
       50
176
     1
 40
0.0
176
     1
 40
1.0
176
     1
 90
        0
176
     1
 62
    18
420
        0
176
     1
 90
       50
176
     1
 90
        3
176
     1
 62
     5
420
      255
176
     1
290
     0
176
     1
 90
       50
176
     1
 90
       50
176
     1
 90
       50
176
     1
290
     0
176
     1
 90
       50
176
     1
 62
   256
176
     0
 40
1.0
176
     0
 90
        2
176
     1
  1
strokes_ogs.tif
176
     1
290
     0
176
     1
 40
1.0
176
     1
 40
1.0
176
     1
  0
VISUALSTYLE
  5
3D
102
{ACAD_REACTORS
330
29
102
}
330
29
100
AcDbVisualStyle
  2
Shaded with edges
 70
    26
177
     3
291
     0
 70
    58
 90
        2
176
     1
 90
        2
176
     1
 90
        1
176
     1
 90
        2
176
     1
 40
0.6
176
     1
 40
30.0
176
     1
 62
     7
420
 16777215
176
     1
 90
        1
176
     1
 90
        2
176
     1
 62
     7
176
     1
 62
   257
176
     1
 90
        2
176
     1
 90
        1
176
     1
 40
1.0
176
     1
 90
        8
176
     1
 62
   257
176
     1
 40
1.0
176
     1
 90
        1
176
     1
 90
        6
176
     1
 90
        2
176
     1
 62
     7
176
     1
 90
        3
176
     1
 90
        0
176
     1
 90
        0
176
     1
290
     0
176
     1
 90
        5
176
     1
 40
0.0
176
     1
 90
        0
176
     1
290
     0
176
     1
290
     1
176
     1
290
     1
176
     1
290
     0
176
     1
290
     0
176
     1
290
     0
176
     1
290
     0
176
     1
290
     0
176
     1
290
     0
176
     1
 90
       50
176
     1
 40
0.0
176
     1
 40
1.0
176
     1
 90
        0
176
     1
 62
    18
420
        0
176
     1
 90
       50
176
     1
 90
        3
176
     1
 62
     5
420
      255
176
     1
290
     0
176
     1
 90
       50
176
     1
 90
       50
176
     1
 90
       50
176
     1
290
     0
176
     1
 90
       50
176
     1
 62
   256
176
     0
 40
1.0
176
     0
 90
        2
176
     1
  1
strokes_ogs.tif
176
     1
290
     0
176
     1
 40
1.0
176
     1
 40
1.0
176
     1
  0
VISUALSTYLE
  5
3A
102
{ACAD_REACTORS
330
29
102
}
330
29
100
AcDbVisualStyle
  2
Shades of Gray
 70
    23
177
     3
291
     0
 70
    58
 90
        2
176
     1
 90
        2
176
     1
 90
        3
176
     1
 90
        0
176
     1
 40
0.6
176
     1
 40
30.0
176
     1
 62
     7
420
 16777215
176
     1
 90
        2
176
     1
 90
        2
176
     1
 62
     7
176
     1
 62
     7
176
     1
 90
        1
176
     1
 90
        1
176
     1
 40
40.0
176
     1
 90
        8
176
     1
 62
     7
176
     1
 40
1.0
176
     1
 90
        1
176
     1
 90
        6
176
     1
 90
        2
176
     1
 62
     7
176
     1
 90
        3
176
     1
 90
        0
176
     1
 90
        0
176
     1
290
     0
176
     1
 90
        1
176
     1
 40
0.0
176
     1
 90
        0
176
     1
290
     0
176
     1
290
     1
176
     1
290
     1
176
     1
290
     0
176
     1
290
     0
176
     1
290
     0
176
     1
290
     0
176
     1
290
     0
176
     1
290
     0
176
     1
 90
       50
176
     1
 40
0.0
176
     1
 40
1.0
176
     1
 90
        0
176
     1
 62
    18
420
        0
176
     1
 90
       50
176
     1
 90
        3
176
     1
 62
     5
420
      255
176
     1
290
     0
176
     1
 90
       50
176
     1
 90
       50
176
     1
 90
       50
176
     1
290
     0
176
     1
 90
       50
176
     1
 62
   256
176
     0
 40
1.0
176
     0
 90
        2
176
     1
  1
strokes_ogs.tif
176
     1
290
     0
176
     1
 40
1.0
176
     1
 40
1.0
176
     1
  0
VISUALSTYLE
  5
3B
102
{ACAD_REACTORS
330
29
102
}
330
29
100
AcDbVisualStyle
  2
Sketchy
 70
    24
177
     3
291
     0
 70
    58
 90
        1
176
     1
 90
        2
176
     1
 90
        2
176
     1
 90
        0
176
     1
 40
0.6
176
     1
 40
30.0
176
     1
 62
     7
420
 16777215
176
     1
 90
        2
176
     1
 90
        2
176
     1
 62
     7
176
     1
 62
     7
176
     1
 90
        1
176
     1
 90
        1
176
     1
 40
40.0
176
     1
 90
       11
176
     1
 62
     7
176
     1
 40
1.0
176
     1
 90
        1
176
     1
 90
        6
176
     1
 90
        2
176
     1
 62
     7
176
     1
 90
        6
176
     1
 90
        0
176
     1
 90
        0
176
     1
290
     0
176
     1
 90
        1
176
     1
 40
0.0
176
     1
 90
        0
176
     1
290
     0
176
     1
290
     1
176
     1
290
     1
176
     1
290
     0
176
     1
290
     0
176
     1
290
     0
176
     1
290
     0
176
     1
290
     0
176
     1
290
     0
176
     1
 90
       50
176
     1
 40
0.0
176
     1
 40
1.0
176
     1
 90
        0
176
     1
 62
    18
420
        0
176
     1
 90
       50
176
     1
 90
        3
176
     1
 62
     5
420
      255
176
     1
290
     0
176
     1
 90
       50
176
     1
 90
       50
176
     1
 90
       50
176
     1
290
     0
176
     1
 90
       50
176
     1
 62
   256
176
     0
 40
1.0
176
     0
 90
        2
176
     1
  1
strokes_ogs.tif
176
     1
290
     0
176
     1
 40
1.0
176
     1
 40
1.0
176
     1
  0
VISUALSTYLE
  5
36
102
{ACAD_REACTORS
330
29
102
}
330
29
100
AcDbVisualStyle
  2
Thicken
 70
    13
177
     3
291
     1
 70
    58
 90
        2
176
     1
 90
        2
176
     1
 90
        0
176
     1
 90
        0
176
     1
 40
0.6
176
     1
 40
30.0
176
     1
 62
     7
420
 16777215
176
     1
 90
        1
176
     1
 90
        4
176
     1
 62
     7
176
     1
 62
   257
176
     1
 90
        1
176
     1
 90
        1
176
     1
 40
1.0
176
     1
 90
       12
176
     1
 62
     7
176
     1
 40
1.0
176
     1
 90
        1
176
     1
 90
        6
176
     1
 90
        2
176
     1
 62
     7
176
     1
 90
        5
176
     1
 90
        0
176
     1
 90
        0
176
     1
290
     0
176
     1
 90
        1
176
     1
 40
0.0
176
     1
 90
        0
176
     1
290
     0
176
     1
290
     1
176
     1
290
     1
176
     1
290
     0
176
     1
290
     0
176
     1
290
     0
176
     1
290
     0
176
     1
290
     0
176
     1
290
     0
176
     1
 90
       50
176
     1
 40
0.0
176
     1
 40
1.0
176
     1
 90
        0
176
     1
 62
    18
420
        0
176
     1
 90
       50
176
     1
 90
        3
176
     1
 62
     5
420
      255
176
     1
290
     0
176
     1
 90
       50
176
     1
 90
       50
176
     1
 90
       50
176
     1
290
     0
176
     1
 90
       50
176
     1
 62
   256
176
     0
 40
1.0
176
     0
 90
        2
176
     1
  1
strokes_ogs.tif
176
     1
290
     0
176
     1
 40
1.0
176
     1
 40
1.0
176
     1
  0
VISUALSTYLE
  5
30
102
{ACAD_REACTORS
330
29
102
}
330
29
100
AcDbVisualStyle
  2
Wireframe
 70
     5
177
     3
291
     0
 70
    58
 90
        0
176
     1
 90
        2
176
     1
 90
        0
176
     1
 90
        0
176
     1
 40
0.6
176
     1
 40
30.0
176
     1
 62
     7
420
 16777215
176
     1
 90
        1
176
     1
 90
        4
176
     1
 62
     7
176
     1
 62
   257
176
     1
 90
        1
176
     1
 90
        1
176
     1
 40
1.0
176
     1
 90
        0
176
     1
 62
   257
176
     1
 40
1.0
176
     1
 90
        1
176
     1
 90
        6
176
     1
 90
        2
176
     1
 62
     7
176
     1
 90
        3
176
     1
 90
        0
176
     1
 90
        0
176
     1
290
     0
176
     1
 90
        1
176
     1
 40
0.0
176
     1
 90
        0
176
     1
290
     0
176
     1
290
     1
176
     1
290
     1
176
     1
290
     0
176
     1
290
     0
176
     1
290
     0
176
     1
290
     0
176
     1
290
     0
176
     1
290
     0
176
     1
 90
       50
176
     1
 40
0.0
176
     1
 40
1.0
176
     1
 90
        0
176
     1
 62
    18
420
        0
176
     1
 90
       50
176
     1
 90
        3
176
     1
 62
     5
420
      255
176
     1
290
     0
176
     1
 90
       50
176
     1
 90
       50
176
     1
 90
       50
176
     1
290
     0
176
     1
 90
       50
176
     1
 62
   256
176
     0
 40
1.0
176
     0
 90
        2
176
     1
  1
strokes_ogs.tif
176
     1
290
     0
176
     1
 40
1.0
176
     1
 40
1.0
176
     1
  0
VISUALSTYLE
  5
3C
102
{ACAD_REACTORS
330
29
102
}
330
29
100
AcDbVisualStyle
  2
X-Ray
 70
    25
177
     3
291
     0
 70
    58
 90
        2
176
     1
 90
        2
176
     1
 90
        1
176
     1
 90
        1
176
     1
 40
0.5
176
     1
 40
30.0
176
     1
 62
     7
420
 16777215
176
     1
 90
        1
176
     1
 90
        0
176
     1
 62
     7
176
     1
 62
   257
176
     1
 90
        1
176
     1
 90
        1
176
     1
 40
1.0
176
     1
 90
        8
176
     1
 62
     7
176
     1
 40
1.0
176
     1
 90
        1
176
     1
 90
        6
176
     1
 90
        2
176
     1
 62
     7
176
     1
 90
        3
176
     1
 90
        0
176
     1
 90
        0
176
     1
290
     0
176
     1
 90
       13
176
     1
 40
0.0
176
     1
 90
        0
176
     1
290
     0
176
     1
290
     1
176
     1
290
     1
176
     1
290
     0
176
     1
290
     0
176
     1
290
     0
176
     1
290
     0
176
     1
290
     0
176
     1
290
     0
176
     1
 90
       50
176
     1
 40
0.0
176
     1
 40
1.0
176
     1
 90
        0
176
     1
 62
    18
420
        0
176
     1
 90
       50
176
     1
 90
        3
176
     1
 62
     5
420
      255
176
     1
290
     0
176
     1
 90
       50
176
     1
 90
       50
176
     1
 90
       50
176
     1
290
     0
176
     1
 90
       50
176
     1
 62
   256
176
     0
 40
1.0
176
     0
 90
        2
176
     1
  1
strokes_ogs.tif
176
     1
290
     0
176
     1
 40
1.0
176
     1
 40
1.0
176
     1
  0
DICTIONARYVAR
  5
41B
102
{ACAD_REACTORS
330
416
102
}
330
416
100
DictionaryVariables
280
     0
  1
1:1
  0
DICTIONARYVAR
  5
418
102
{ACAD_REACTORS
330
416
102
}
330
416
100
DictionaryVariables
280
     0
  1
STANDARD
  0
DICTIONARYVAR
  5
417
102
{ACAD_REACTORS
330
416
102
}
330
416
100
DictionaryVariables
280
     0
  1
STANDARD
  0
DICTIONARYVAR
  5
419
102
{ACAD_REACTORS
330
416
102
}
330
416
100
DictionaryVariables
280
     0
  1
Imperial24
  0
DICTIONARYVAR
  5
41A
102
{ACAD_REACTORS
330
416
102
}
330
416
100
DictionaryVariables
280
     0
  1
Imperial24
  0
DICTIONARY
  5
1A
330
19
100
AcDbDictionary
280
     1
281
     1
  3
BUMPTILE
360
1C
  3
DIFFUSETILE
360
1B
  3
OPACITYTILE
360
1F
  3
REFLECTIONTILE
360
1E
  3
REFRACTIONTILE
360
20
  3
SPECULARTILE
360
1D
  0
DICTIONARY
  5
12
330
11
100
AcDbDictionary
280
     1
281
     1
  3
BUMPTILE
360
14
  3
DIFFUSETILE
360
13
  3
OPACITYTILE
360
17
  3
REFLECTIONTILE
360
16
  3
REFRACTIONTILE
360
18
  3
SPECULARTILE
360
15
  0
DICTIONARY
  5
22
330
21
100
AcDbDictionary
280
     1
281
     1
  3
BUMPTILE
360
24
  3
DIFFUSETILE
360
23
  3
OPACITYTILE
360
27
  3
REFLECTIONTILE
360
26
  3
REFRACTIONTILE
360
28
  3
SPECULARTILE
360
25
  0
DICTIONARY
  5
41C
330
65
100
AcDbDictionary
280
     1
281
     1
  3
ACAD_ROUNDTRIP_2008_TABLESTYLE_CELLSTYLEMAP
360
41D
  0
XRECORD
  5
1C
102
{ACAD_REACTORS
330
1A
102
}
330
1A
100
AcDbXrecord
280
     1
270
     1
271
     1
  0
XRECORD
  5
1B
102
{ACAD_REACTORS
330
1A
102
}
330
1A
100
AcDbXrecord
280
     1
270
     1
271
     1
  0
XRECORD
  5
1F
102
{ACAD_REACTORS
330
1A
102
}
330
1A
100
AcDbXrecord
280
     1
270
     1
271
     1
  0
XRECORD
  5
1E
102
{ACAD_REACTORS
330
1A
102
}
330
1A
100
AcDbXrecord
280
     1
270
     1
271
     1
  0
XRECORD
  5
20
102
{ACAD_REACTORS
330
1A
102
}
330
1A
100
AcDbXrecord
280
     1
270
     1
271
     1
  0
XRECORD
  5
1D
102
{ACAD_REACTORS
330
1A
102
}
330
1A
100
AcDbXrecord
280
     1
270
     1
271
     1
  0
XRECORD
  5
14
102
{ACAD_REACTORS
330
12
102
}
330
12
100
AcDbXrecord
280
     1
270
     1
271
     1
  0
XRECORD
  5
13
102
{ACAD_REACTORS
330
12
102
}
330
12
100
AcDbXrecord
280
     1
270
     1
271
     1
  0
XRECORD
  5
17
102
{ACAD_REACTORS
330
12
102
}
330
12
100
AcDbXrecord
280
     1
270
     1
271
     1
  0
XRECORD
  5
16
102
{ACAD_REACTORS
330
12
102
}
330
12
100
AcDbXrecord
280
     1
270
     1
271
     1
  0
XRECORD
  5
18
102
{ACAD_REACTORS
330
12
102
}
330
12
100
AcDbXrecord
280
     1
270
     1
271
     1
  0
XRECORD
  5
15
102
{ACAD_REACTORS
330
12
102
}
330
12
100
AcDbXrecord
280
     1
270
     1
271
     1
  0
XRECORD
  5
24
102
{ACAD_REACTORS
330
22
102
}
330
22
100
AcDbXrecord
280
     1
270
     1
271
     1
  0
XRECORD
  5
23
102
{ACAD_REACTORS
330
22
102
}
330
22
100
AcDbXrecord
280
     1
270
     1
271
     1
  0
XRECORD
  5
27
102
{ACAD_REACTORS
330
22
102
}
330
22
100
AcDbXrecord
280
     1
270
     1
271
     1
  0
XRECORD
  5
26
102
{ACAD_REACTORS
330
22
102
}
330
22
100
AcDbXrecord
280
     1
270
     1
271
     1
  0
XRECORD
  5
28
102
{ACAD_REACTORS
330
22
102
}
330
22
100
AcDbXrecord
280
     1
270
     1
271
     1
  0
XRECORD
  5
25
102
{ACAD_REACTORS
330
22
102
}
330
22
100
AcDbXrecord
280
     1
270
     1
271
     1
  0
CELLSTYLEMAP
  5
41D
102
{ACAD_REACTORS
330
41C
102
}
330
41C
100
AcDbCellStyleMap
 90
        3
300
CELLSTYLE
  1
TABLEFORMAT_BEGIN
 90
        5
170
     1
 91
        0
 92
    32768
 62
   257
 93
        1
300
CONTENTFORMAT
  1
CONTENTFORMAT_BEGIN
 90
        0
 91
        0
 92
      512
 93
        0
300

 40
0.0
140
1.0
 94
        5
 62
     0
340
55
144
0.25
309
CONTENTFORMAT_END
171
     0
 94
        0
309
TABLEFORMAT_END
  1
CELLSTYLE_BEGIN
 90
        1
 91
        1
300
_TITLE
309
CELLSTYLE_END
300
CELLSTYLE
  1
TABLEFORMAT_BEGIN
 90
        5
170
     1
 91
        0
 92
        0
 62
   257
 93
        1
300
CONTENTFORMAT
  1
CONTENTFORMAT_BEGIN
 90
        0
 91
        0
 92
      512
 93
        0
300

 40
0.0
140
1.0
 94
        5
 62
     0
340
55
144
0.18
309
CONTENTFORMAT_END
171
     0
 94
        0
309
TABLEFORMAT_END
  1
CELLSTYLE_BEGIN
 90
        2
 91
        1
300
_HEADER
309
CELLSTYLE_END
300
CELLSTYLE
  1
TABLEFORMAT_BEGIN
 90
        5
170
     1
 91
        0
 92
        0
 62
   257
 93
        1
300
CONTENTFORMAT
  1
CONTENTFORMAT_BEGIN
 90
        0
 91
        0
 92
      512
 93
        0
300

 40
0.0
140
1.0
 94
        2
 62
     0
340
55
144
0.18
309
CONTENTFORMAT_END
171
     0
 94
        0
309
TABLEFORMAT_END
  1
CELLSTYLE_BEGIN
 90
        3
 91
        2
300
_DATA
309
CELLSTYLE_END
  0
ENDSEC
  0
EOF
