  0
SECTION
  2
HEADER
  9
$ACADVER
  1
AC1032
  9
$ACADMAINTVER
 90
      197
  9
$DWGCODEPAGE
  3
ANSI_1252
  9
$REQUIREDVERSIONS
160
                 0
  9
$INSBASE
 10
0.0
 20
0.0
 30
0.0
  9
$EXTMIN
 10
1.000000000000000E+20
 20
1.000000000000000E+20
 30
1.000000000000000E+20
  9
$EXTMAX
 10
-1.000000000000000E+20
 20
-1.000000000000000E+20
 30
-1.000000000000000E+20
  9
$LIMMIN
 10
0.0
 20
0.0
  9
$LIMMAX
 10
12.0
 20
9.0
  9
$ORTHOMODE
 70
     0
  9
$REGENMODE
 70
     1
  9
$FILLMODE
 70
     1
  9
$QTEXTMODE
 70
     0
  9
$MIRRTEXT
 70
     0
  9
$LTSCALE
 40
1.0
  9
$ATTMODE
 70
     1
  9
$TEXTSIZE
 40
0.2
  9
$TRACEWID
 40
0.05
  9
$TEXTSTYLE
  7
Standard
  9
$CLAYER
  8
0
  9
$CELTYPE
  6
ByLayer
  9
$CECOLOR
 62
   256
  9
$CELTSCALE
 40
1.0
  9
$DISPSILH
 70
     0
  9
$DIMSCALE
 40
1.0
  9
$DIMASZ
 40
0.18
  9
$DIMEXO
 40
0.0625
  9
$DIMDLI
 40
0.38
  9
$DIMRND
 40
0.0
  9
$DIMDLE
 40
0.0
  9
$DIMEXE
 40
0.18
  9
$DIMTP
 40
0.0
  9
$DIMTM
 40
0.0
  9
$DIMTXT
 40
0.18
  9
$DIMCEN
 40
0.09
  9
$DIMTSZ
 40
0.0
  9
$DIMTOL
 70
     0
  9
$DIMLIM
 70
     0
  9
$DIMTIH
 70
     1
  9
$DIMTOH
 70
     1
  9
$DIMSE1
 70
     0
  9
$DIMSE2
 70
     0
  9
$DIMTAD
 70
     0
  9
$DIMZIN
 70
     0
  9
$DIMBLK
  1

  9
$DIMASO
 70
     1
  9
$DIMSHO
 70
     1
  9
$DIMPOST
  1

  9
$DIMAPOST
  1

  9
$DIMALT
 70
     0
  9
$DIMALTD
 70
     2
  9
$DIMALTF
 40
25.4
  9
$DIMLFAC
 40
1.0
  9
$DIMTOFL
 70
     0
  9
$DIMTVP
 40
0.0
  9
$DIMTIX
 70
     0
  9
$DIMSOXD
 70
     0
  9
$DIMSAH
 70
     0
  9
$DIMBLK1
  1

  9
$DIMBLK2
  1

  9
$DIMSTYLE
  2
Standard
  9
$DIMCLRD
 70
     0
  9
$DIMCLRE
 70
     0
  9
$DIMCLRT
 70
     0
  9
$DIMTFAC
 40
1.0
  9
$DIMGAP
 40
0.09
  9
$DIMJUST
 70
     0
  9
$DIMSD1
 70
     0
  9
$DIMSD2
 70
     0
  9
$DIMTOLJ
 70
     1
  9
$DIMTZIN
 70
     0
  9
$DIMALTZ
 70
     0
  9
$DIMALTTZ
 70
     0
  9
$DIMUPT
 70
     0
  9
$DIMDEC
 70
     4
  9
$DIMTDEC
 70
     4
  9
$DIMALTU
 70
     2
  9
$DIMALTTD
 70
     2
  9
$DIMTXSTY
  7
Standard
  9
$DIMAUNIT
 70
     0
  9
$DIMADEC
 70
     0
  9
$DIMALTRND
 40
0.0
  9
$DIMAZIN
 70
     0
  9
$DIMDSEP
 70
    46
  9
$DIMATFIT
 70
     3
  9
$DIMFRAC
 70
     0
  9
$DIMLDRBLK
  1

  9
$DIMLUNIT
 70
     2
  9
$DIMLWD
 70
    -2
  9
$DIMLWE
 70
    -2
  9
$DIMTMOVE
 70
     0
  9
$DIMFXL
 40
1.0
  9
$DIMFXLON
 70
     0
  9
$DIMJOGANG
 40
0.7853981633974483
  9
$DIMTFILL
 70
     0
  9
$DIMTFILLCLR
 70
     0
  9
$DIMARCSYM
 70
     0
  9
$DIMLTYPE
  6

  9
$DIMLTEX1
  6

  9
$DIMLTEX2
  6

  9
$DIMTXTDIRECTION
 70
     0
  9
$LUNITS
 70
     2
  9
$LUPREC
 70
     4
  9
$SKETCHINC
 40
0.1
  9
$FILLETRAD
 40
0.0
  9
$AUNITS
 70
     0
  9
$AUPREC
 70
     0
  9
$MENU
  1
.
  9
$ELEVATION
 40
0.0
  9
$PELEVATION
 40
0.0
  9
$THICKNESS
 40
0.0
  9
$LIMCHECK
 70
     0
  9
$CHAMFERA
 40
0.0
  9
$CHAMFERB
 40
0.0
  9
$CHAMFERC
 40
0.0
  9
$CHAMFERD
 40
0.0
  9
$SKPOLY
 70
     0
  9
$TDCREATE
 40
2459586.491724537
  9
$TDUCREATE
 40
2459586.616724537
  9
$TDUPDATE
 40
2459586.491724537
  9
$TDUUPDATE
 40
2459586.616724537
  9
$TDINDWG
 40
0.0000000000
  9
$TDUSRTIMER
 40
0.0000000000
  9
$USRTIMER
 70
     1
  9
$ANGBASE
 50
0.0
  9
$ANGDIR
 70
     0
  9
$PDMODE
 70
     0
  9
$PDSIZE
 40
0.0
  9
$PLINEWID
 40
0.0
  9
$SPLFRAME
 70
     0
  9
$SPLINETYPE
 70
     6
  9
$SPLINESEGS
 70
     8
  9
$HANDSEED
  5
19A
  9
$SURFTAB1
 70
     6
  9
$SURFTAB2
 70
     6
  9
$SURFTYPE
 70
     6
  9
$SURFU
 70
     6
  9
$SURFV
 70
     6
  9
$UCSBASE
  2

  9
$UCSNAME
  2

  9
$UCSORG
 10
0.0
 20
0.0
 30
0.0
  9
$UCSXDIR
 10
1.0
 20
0.0
 30
0.0
  9
$UCSYDIR
 10
0.0
 20
1.0
 30
0.0
  9
$UCSORTHOREF
  2

  9
$UCSORTHOVIEW
 70
     0
  9
$UCSORGTOP
 10
0.0
 20
0.0
 30
0.0
  9
$UCSORGBOTTOM
 10
0.0
 20
0.0
 30
0.0
  9
$UCSORGLEFT
 10
0.0
 20
0.0
 30
0.0
  9
$UCSORGRIGHT
 10
0.0
 20
0.0
 30
0.0
  9
$UCSORGFRONT
 10
0.0
 20
0.0
 30
0.0
  9
$UCSORGBACK
 10
0.0
 20
0.0
 30
0.0
  9
$PUCSBASE
  2

  9
$PUCSNAME
  2

  9
$PUCSORG
 10
0.0
 20
0.0
 30
0.0
  9
$PUCSXDIR
 10
1.0
 20
0.0
 30
0.0
  9
$PUCSYDIR
 10
0.0
 20
1.0
 30
0.0
  9
$PUCSORTHOREF
  2

  9
$PUCSORTHOVIEW
 70
     0
  9
$PUCSORGTOP
 10
0.0
 20
0.0
 30
0.0
  9
$PUCSORGBOTTOM
 10
0.0
 20
0.0
 30
0.0
  9
$PUCSORGLEFT
 10
0.0
 20
0.0
 30
0.0
  9
$PUCSORGRIGHT
 10
0.0
 20
0.0
 30
0.0
  9
$PUCSORGFRONT
 10
0.0
 20
0.0
 30
0.0
  9
$PUCSORGBACK
 10
0.0
 20
0.0
 30
0.0
  9
$USERI1
 70
     0
  9
$USERI2
 70
     0
  9
$USERI3
 70
     0
  9
$USERI4
 70
     0
  9
$USERI5
 70
     0
  9
$USERR1
 40
0.0
  9
$USERR2
 40
0.0
  9
$USERR3
 40
0.0
  9
$USERR4
 40
0.0
  9
$USERR5
 40
0.0
  9
$WORLDVIEW
 70
     1
  9
$SHADEDGE
 70
     3
  9
$SHADEDIF
 70
    70
  9
$TILEMODE
 70
     1
  9
$MAXACTVP
 70
    64
  9
$PINSBASE
 10
0.0
 20
0.0
 30
0.0
  9
$PLIMCHECK
 70
     0
  9
$PEXTMIN
 10
1.000000000000000E+20
 20
1.000000000000000E+20
 30
1.000000000000000E+20
  9
$PEXTMAX
 10
-1.000000000000000E+20
 20
-1.000000000000000E+20
 30
-1.000000000000000E+20
  9
$PLIMMIN
 10
0.0
 20
0.0
  9
$PLIMMAX
 10
12.0
 20
9.0
  9
$UNITMODE
 70
     0
  9
$VISRETAIN
 70
     1
  9
$PLINEGEN
 70
     0
  9
$PSLTSCALE
 70
     1
  9
$TREEDEPTH
 70
  3020
  9
$CMLSTYLE
  2
Standard
  9
$CMLJUST
 70
     0
  9
$CMLSCALE
 40
1.0
  9
$PROXYGRAPHICS
 70
     1
  9
$MEASUREMENT
 70
     0
  9
$CELWEIGHT
370
    -1
  9
$ENDCAPS
280
     0
  9
$JOINSTYLE
280
     0
  9
$LWDISPLAY
290
     1
  9
$INSUNITS
 70
     0
  9
$HYPERLINKBASE
  1

  9
$STYLESHEET
  1

  9
$XEDIT
290
     1
  9
$CEPSNTYPE
380
     0
  9
$PSTYLEMODE
290
     1
  9
$FINGERPRINTGUID
  2
{E0838179-4AC8-1640-A2BC-58EC64BCE3E7}
  9
$VERSIONGUID
  2
{63A8C9E2-37CA-9945-8D7F-50F0DA9F4128}
  9
$EXTNAMES
290
     1
  9
$PSVPSCALE
 40
0.0
  9
$OLESTARTUP
290
     0
  9
$SORTENTS
280
   127
  9
$INDEXCTL
280
     0
  9
$HIDETEXT
280
     1
  9
$XCLIPFRAME
280
     2
  9
$HALOGAP
280
     0
  9
$OBSCOLOR
 70
   257
  9
$OBSLTYPE
280
     0
  9
$INTERSECTIONDISPLAY
280
     0
  9
$INTERSECTIONCOLOR
 70
   257
  9
$DIMASSOC
280
     2
  9
$PROJECTNAME
  1

  9
$CAMERADISPLAY
290
     0
  9
$LENSLENGTH
 40
50.0
  9
$CAMERAHEIGHT
 40
0.0
  9
$STEPSPERSEC
 40
2.0
  9
$STEPSIZE
 40
6.0
  9
$3DDWFPREC
 40
2.0
  9
$PSOLWIDTH
 40
0.25
  9
$PSOLHEIGHT
 40
4.0
  9
$LOFTANG1
 40
1.570796326794896
  9
$LOFTANG2
 40
1.570796326794896
  9
$LOFTMAG1
 40
0.0
  9
$LOFTMAG2
 40
0.0
  9
$LOFTPARAM
 70
     7
  9
$LOFTNORMALS
280
     1
  9
$LATITUDE
 40
37.795
  9
$LONGITUDE
 40
-122.394
  9
$NORTHDIRECTION
 40
0.0
  9
$TIMEZONE
 70
 -8000
  9
$LIGHTGLYPHDISPLAY
280
     1
  9
$TILEMODELIGHTSYNCH
280
     1
  9
$CMATERIAL
347
11
  9
$SOLIDHIST
280
     0
  9
$SHOWHIST
280
     1
  9
$DWFFRAME
280
     2
  9
$DGNFRAME
280
     0
  9
$REALWORLDSCALE
290
     1
  9
$INTERFERECOLOR
 62
     1
  9
$INTERFEREOBJVS
345
33
  9
$INTERFEREVPVS
346
30
  9
$CSHADOW
280
     0
  9
$SHADOWPLANELOCATION
 40
0.0
  0
ENDSEC
  0
SECTION
  2
CLASSES
  0
CLASS
  1
ACDBDICTIONARYWDFLT
  2
AcDbDictionaryWithDefault
  3
ObjectDBX Classes
 90
        0
 91
        1
280
     0
281
     0
  0
CLASS
  1
MATERIAL
  2
AcDbMaterial
  3
ObjectDBX Classes
 90
     1153
 91
        3
280
     0
281
     0
  0
CLASS
  1
VISUALSTYLE
  2
AcDbVisualStyle
  3
ObjectDBX Classes
 90
     4095
 91
       24
280
     0
281
     0
  0
CLASS
  1
SCALE
  2
AcDbScale
  3
ObjectDBX Classes
 90
     1153
 91
       17
280
     0
281
     0
  0
CLASS
  1
TABLESTYLE
  2
AcDbTableStyle
  3
ObjectDBX Classes
 90
     4095
 91
        1
280
     0
281
     0
  0
CLASS
  1
MLEADERSTYLE
  2
AcDbMLeaderStyle
  3
ACDB_MLEADERSTYLE_CLASS
 90
     4095
 91
        1
280
     0
281
     0
  0
CLASS
  1
ACDBSECTIONVIEWSTYLE
  2
AcDbSectionViewStyle
  3
ObjectDBX Classes
 90
     1025
 91
        1
280
     0
281
     0
  0
CLASS
  1
ACDBDETAILVIEWSTYLE
  2
AcDbDetailViewStyle
  3
ObjectDBX Classes
 90
     1025
 91
        1
280
     0
281
     0
  0
CLASS
  1
DICTIONARYVAR
  2
AcDbDictionaryVar
  3
ObjectDBX Classes
 90
        0
 91
        5
280
     0
281
     0
  0
CLASS
  1
CELLSTYLEMAP
  2
AcDbCellStyleMap
  3
ObjectDBX Classes
 90
     1152
 91
        1
280
     0
281
     0
  0
ENDSEC
  0
SECTION
  2
TABLES
  0
TABLE
  2
VPORT
  5
8
330
0
100
AcDbSymbolTable
 70
     1
  0
VPORT
  5
57
330
8
100
AcDbSymbolTableRecord
100
AcDbViewportTableRecord
  2
*Active
 70
     0
 10
0.0
 20
0.0
 11
1.0
 21
1.0
 12
0.0
 22
0.0
 13
0.0
 23
0.0
 14
1.0
 24
1.0
 15
0.0
 25
0.0
 16
0.0
 26
0.0
 36
1.0
 17
450.0
 27
115.0
 37
0.0
 40
622.2
 41
1.475409836065573
 42
50.0
 43
0.0
 44
0.0
 50
0.0
 51
0.0
 71
     0
 72
   100
 73
     1
 74
     1
 75
     0
 76
     0
 77
     0
 78
     0
281
     0
 65
     1
110
0.0
120
0.0
130
0.0
111
1.0
121
0.0
131
0.0
112
0.0
122
1.0
132
0.0
 79
     0
146
0.0
 60
     3
 61
     5
292
     1
282
     1
141
0.0
142
0.0
 63
   250
421
  3355443
  0
ENDTAB
  0
TABLE
  2
LTYPE
  5
5
330
0
100
AcDbSymbolTable
 70
    32
  0
LTYPE
  5
5B
330
5
100
AcDbSymbolTableRecord
100
AcDbLinetypeTableRecord
  2
ByBlock
 70
     0
  3

 72
    65
 73
     0
 40
0.0
  0
LTYPE
  5
5C
330
5
100
AcDbSymbolTableRecord
100
AcDbLinetypeTableRecord
  2
ByLayer
 70
     0
  3

 72
    65
 73
     0
 40
0.0
  0
LTYPE
  5
5D
330
5
100
AcDbSymbolTableRecord
100
AcDbLinetypeTableRecord
  2
Continuous
 70
     0
  3
Solid line
 72
    65
 73
     0
 40
0.0
  0
LTYPE
  5
10D
330
5
100
AcDbSymbolTableRecord
100
AcDbLinetypeTableRecord
  2
AI-Linetype-0
 70
     0
  3
Adobe Illustrator Linetype No. 0
 72
    65
 73
     4
 40
47.5
 49
22.0
 74
     0
 49
-8.5
 74
     0
 49
8.5
 74
     0
 49
-8.5
 74
     0
  0
LTYPE
  5
10F
330
5
100
AcDbSymbolTableRecord
100
AcDbLinetypeTableRecord
  2
AI-Linetype-1
 70
     0
  3
Adobe Illustrator Linetype No. 1
 72
    65
 73
     4
 40
47.5
 49
22.0
 74
     0
 49
-8.5
 74
     0
 49
8.5
 74
     0
 49
-8.5
 74
     0
  0
LTYPE
  5
111
330
5
100
AcDbSymbolTableRecord
100
AcDbLinetypeTableRecord
  2
AI-Linetype-2
 70
     0
  3
Adobe Illustrator Linetype No. 2
 72
    65
 73
     4
 40
47.5
 49
22.0
 74
     0
 49
-8.5
 74
     0
 49
8.5
 74
     0
 49
-8.5
 74
     0
  0
LTYPE
  5
113
330
5
100
AcDbSymbolTableRecord
100
AcDbLinetypeTableRecord
  2
AI-Linetype-3
 70
     0
  3
Adobe Illustrator Linetype No. 3
 72
    65
 73
     4
 40
47.5
 49
22.0
 74
     0
 49
-8.5
 74
     0
 49
8.5
 74
     0
 49
-8.5
 74
     0
  0
LTYPE
  5
115
330
5
100
AcDbSymbolTableRecord
100
AcDbLinetypeTableRecord
  2
AI-Linetype-4
 70
     0
  3
Adobe Illustrator Linetype No. 4
 72
    65
 73
     4
 40
47.5
 49
22.0
 74
     0
 49
-8.5
 74
     0
 49
8.5
 74
     0
 49
-8.5
 74
     0
  0
LTYPE
  5
117
330
5
100
AcDbSymbolTableRecord
100
AcDbLinetypeTableRecord
  2
AI-Linetype-5
 70
     0
  3
Adobe Illustrator Linetype No. 5
 72
    65
 73
     4
 40
47.5
 49
22.0
 74
     0
 49
-8.5
 74
     0
 49
8.5
 74
     0
 49
-8.5
 74
     0
  0
LTYPE
  5
119
330
5
100
AcDbSymbolTableRecord
100
AcDbLinetypeTableRecord
  2
AI-Linetype-6
 70
     0
  3
Adobe Illustrator Linetype No. 6
 72
    65
 73
     4
 40
47.5
 49
22.0
 74
     0
 49
-8.5
 74
     0
 49
8.5
 74
     0
 49
-8.5
 74
     0
  0
LTYPE
  5
11B
330
5
100
AcDbSymbolTableRecord
100
AcDbLinetypeTableRecord
  2
AI-Linetype-7
 70
     0
  3
Adobe Illustrator Linetype No. 7
 72
    65
 73
     4
 40
47.5
 49
22.0
 74
     0
 49
-8.5
 74
     0
 49
8.5
 74
     0
 49
-8.5
 74
     0
  0
LTYPE
  5
11D
330
5
100
AcDbSymbolTableRecord
100
AcDbLinetypeTableRecord
  2
AI-Linetype-8
 70
     0
  3
Adobe Illustrator Linetype No. 8
 72
    65
 73
     4
 40
47.5
 49
22.0
 74
     0
 49
-8.5
 74
     0
 49
8.5
 74
     0
 49
-8.5
 74
     0
  0
LTYPE
  5
11F
330
5
100
AcDbSymbolTableRecord
100
AcDbLinetypeTableRecord
  2
AI-Linetype-9
 70
     0
  3
Adobe Illustrator Linetype No. 9
 72
    65
 73
     4
 40
47.5
 49
22.0
 74
     0
 49
-8.5
 74
     0
 49
8.5
 74
     0
 49
-8.5
 74
     0
  0
LTYPE
  5
121
330
5
100
AcDbSymbolTableRecord
100
AcDbLinetypeTableRecord
  2
AI-Linetype-10
 70
     0
  3
Adobe Illustrator Linetype No. 10
 72
    65
 73
     4
 40
47.5
 49
22.0
 74
     0
 49
-8.5
 74
     0
 49
8.5
 74
     0
 49
-8.5
 74
     0
  0
LTYPE
  5
123
330
5
100
AcDbSymbolTableRecord
100
AcDbLinetypeTableRecord
  2
AI-Linetype-11
 70
     0
  3
Adobe Illustrator Linetype No. 11
 72
    65
 73
     4
 40
47.5
 49
22.0
 74
     0
 49
-8.5
 74
     0
 49
8.5
 74
     0
 49
-8.5
 74
     0
  0
LTYPE
  5
125
330
5
100
AcDbSymbolTableRecord
100
AcDbLinetypeTableRecord
  2
AI-Linetype-12
 70
     0
  3
Adobe Illustrator Linetype No. 12
 72
    65
 73
     4
 40
47.5
 49
22.0
 74
     0
 49
-8.5
 74
     0
 49
8.5
 74
     0
 49
-8.5
 74
     0
  0
LTYPE
  5
127
330
5
100
AcDbSymbolTableRecord
100
AcDbLinetypeTableRecord
  2
AI-Linetype-13
 70
     0
  3
Adobe Illustrator Linetype No. 13
 72
    65
 73
     4
 40
47.5
 49
22.0
 74
     0
 49
-8.5
 74
     0
 49
8.5
 74
     0
 49
-8.5
 74
     0
  0
LTYPE
  5
129
330
5
100
AcDbSymbolTableRecord
100
AcDbLinetypeTableRecord
  2
AI-Linetype-14
 70
     0
  3
Adobe Illustrator Linetype No. 14
 72
    65
 73
     4
 40
47.5
 49
22.0
 74
     0
 49
-8.5
 74
     0
 49
8.5
 74
     0
 49
-8.5
 74
     0
  0
LTYPE
  5
12B
330
5
100
AcDbSymbolTableRecord
100
AcDbLinetypeTableRecord
  2
AI-Linetype-15
 70
     0
  3
Adobe Illustrator Linetype No. 15
 72
    65
 73
     4
 40
47.5
 49
22.0
 74
     0
 49
-8.5
 74
     0
 49
8.5
 74
     0
 49
-8.5
 74
     0
  0
LTYPE
  5
12D
330
5
100
AcDbSymbolTableRecord
100
AcDbLinetypeTableRecord
  2
AI-Linetype-16
 70
     0
  3
Adobe Illustrator Linetype No. 16
 72
    65
 73
     4
 40
47.5
 49
22.0
 74
     0
 49
-8.5
 74
     0
 49
8.5
 74
     0
 49
-8.5
 74
     0
  0
LTYPE
  5
12F
330
5
100
AcDbSymbolTableRecord
100
AcDbLinetypeTableRecord
  2
AI-Linetype-17
 70
     0
  3
Adobe Illustrator Linetype No. 17
 72
    65
 73
     4
 40
47.5
 49
22.0
 74
     0
 49
-8.5
 74
     0
 49
8.5
 74
     0
 49
-8.5
 74
     0
  0
LTYPE
  5
131
330
5
100
AcDbSymbolTableRecord
100
AcDbLinetypeTableRecord
  2
AI-Linetype-18
 70
     0
  3
Adobe Illustrator Linetype No. 18
 72
    65
 73
     4
 40
47.5
 49
22.0
 74
     0
 49
-8.5
 74
     0
 49
8.5
 74
     0
 49
-8.5
 74
     0
  0
LTYPE
  5
133
330
5
100
AcDbSymbolTableRecord
100
AcDbLinetypeTableRecord
  2
AI-Linetype-19
 70
     0
  3
Adobe Illustrator Linetype No. 19
 72
    65
 73
     4
 40
47.5
 49
22.0
 74
     0
 49
-8.5
 74
     0
 49
8.5
 74
     0
 49
-8.5
 74
     0
  0
LTYPE
  5
135
330
5
100
AcDbSymbolTableRecord
100
AcDbLinetypeTableRecord
  2
AI-Linetype-20
 70
     0
  3
Adobe Illustrator Linetype No. 20
 72
    65
 73
     4
 40
47.5
 49
22.0
 74
     0
 49
-8.5
 74
     0
 49
8.5
 74
     0
 49
-8.5
 74
     0
  0
LTYPE
  5
137
330
5
100
AcDbSymbolTableRecord
100
AcDbLinetypeTableRecord
  2
AI-Linetype-21
 70
     0
  3
Adobe Illustrator Linetype No. 21
 72
    65
 73
     4
 40
47.5
 49
22.0
 74
     0
 49
-8.5
 74
     0
 49
8.5
 74
     0
 49
-8.5
 74
     0
  0
LTYPE
  5
139
330
5
100
AcDbSymbolTableRecord
100
AcDbLinetypeTableRecord
  2
AI-Linetype-22
 70
     0
  3
Adobe Illustrator Linetype No. 22
 72
    65
 73
     4
 40
47.5
 49
22.0
 74
     0
 49
-8.5
 74
     0
 49
8.5
 74
     0
 49
-8.5
 74
     0
  0
LTYPE
  5
180
330
5
100
AcDbSymbolTableRecord
100
AcDbLinetypeTableRecord
  2
AI-Linetype-23
 70
     0
  3
Adobe Illustrator Linetype No. 23
 72
    65
 73
     4
 40
40.35900020599365
 49
25.22437477111817
 74
     0
 49
-5.044875144958496
 74
     0
 49
5.044875144958496
 74
     0
 49
-5.044875144958496
 74
     0
  0
LTYPE
  5
182
330
5
100
AcDbSymbolTableRecord
100
AcDbLinetypeTableRecord
  2
AI-Linetype-24
 70
     0
  3
Adobe Illustrator Linetype No. 24
 72
    65
 73
     4
 40
40.35900020599365
 49
25.22437477111817
 74
     0
 49
-5.044875144958496
 74
     0
 49
5.044875144958496
 74
     0
 49
-5.044875144958496
 74
     0
  0
LTYPE
  5
184
330
5
100
AcDbSymbolTableRecord
100
AcDbLinetypeTableRecord
  2
AI-Linetype-25
 70
     0
  3
Adobe Illustrator Linetype No. 25
 72
    65
 73
     4
 40
40.35900020599365
 49
25.22437477111817
 74
     0
 49
-5.044875144958496
 74
     0
 49
5.044875144958496
 74
     0
 49
-5.044875144958496
 74
     0
  0
LTYPE
  5
186
330
5
100
AcDbSymbolTableRecord
100
AcDbLinetypeTableRecord
  2
AI-Linetype-26
 70
     0
  3
Adobe Illustrator Linetype No. 26
 72
    65
 73
     4
 40
40.35900020599365
 49
25.22437477111817
 74
     0
 49
-5.044875144958496
 74
     0
 49
5.044875144958496
 74
     0
 49
-5.044875144958496
 74
     0
  0
LTYPE
  5
188
330
5
100
AcDbSymbolTableRecord
100
AcDbLinetypeTableRecord
  2
AI-Linetype-27
 70
     0
  3
Adobe Illustrator Linetype No. 27
 72
    65
 73
     4
 40
40.35900020599365
 49
25.22437477111817
 74
     0
 49
-5.044875144958496
 74
     0
 49
5.044875144958496
 74
     0
 49
-5.044875144958496
 74
     0
  0
LTYPE
  5
18A
330
5
100
AcDbSymbolTableRecord
100
AcDbLinetypeTableRecord
  2
AI-Linetype-28
 70
     0
  3
Adobe Illustrator Linetype No. 28
 72
    65
 73
     4
 40
40.35900020599365
 49
25.22437477111817
 74
     0
 49
-5.044875144958496
 74
     0
 49
5.044875144958496
 74
     0
 49
-5.044875144958496
 74
     0
  0
LTYPE
  5
18C
330
5
100
AcDbSymbolTableRecord
100
AcDbLinetypeTableRecord
  2
AI-Linetype-29
 70
     0
  3
Adobe Illustrator Linetype No. 29
 72
    65
 73
     4
 40
40.35900020599365
 49
25.22437477111817
 74
     0
 49
-5.044875144958496
 74
     0
 49
5.044875144958496
 74
     0
 49
-5.044875144958496
 74
     0
  0
LTYPE
  5
18E
330
5
100
AcDbSymbolTableRecord
100
AcDbLinetypeTableRecord
  2
AI-Linetype-30
 70
     0
  3
Adobe Illustrator Linetype No. 30
 72
    65
 73
     4
 40
40.35900020599365
 49
25.22437477111817
 74
     0
 49
-5.044875144958496
 74
     0
 49
5.044875144958496
 74
     0
 49
-5.044875144958496
 74
     0
  0
ENDTAB
  0
TABLE
  2
LAYER
  5
2
330
0
100
AcDbSymbolTable
 70
     2
  0
LAYER
  5
54
330
2
100
AcDbSymbolTableRecord
100
AcDbLayerTableRecord
  2
0
 70
     0
 62
     7
  6
Continuous
370
     0
390
F
347
21
348
0
  0
LAYER
  5
17E
330
2
100
AcDbSymbolTableRecord
100
AcDbLayerTableRecord
  2
02___PRT_ALL_AXES
 70
     0
 62
     7
  6
Continuous
370
     0
390
F
347
21
348
0
  0
ENDTAB
  0
TABLE
  2
STYLE
  5
3
330
0
100
AcDbSymbolTable
 70
     2
  0
STYLE
  5
55
330
3
100
AcDbSymbolTableRecord
100
AcDbTextStyleTableRecord
  2
Standard
 70
     0
 40
0.0
 41
1.0
 50
0.0
 71
     0
 42
0.2
  3
txt
  4

  0
STYLE
  5
5A
330
3
100
AcDbSymbolTableRecord
100
AcDbTextStyleTableRecord
  2
Annotative
 70
     0
 40
0.0
 41
1.0
 50
0.0
 71
     0
 42
0.2
  3
txt
  4

1001
AcadAnnotative
1000
AnnotativeData
1002
{
1070
     1
1070
     1
1002
}
  0
ENDTAB
  0
TABLE
  2
VIEW
  5
6
330
0
100
AcDbSymbolTable
 70
     0
  0
ENDTAB
  0
TABLE
  2
UCS
  5
7
330
0
100
AcDbSymbolTable
 70
     0
  0
ENDTAB
  0
TABLE
  2
APPID
  5
9
330
0
100
AcDbSymbolTable
 70
     2
  0
APPID
  5
56
330
9
100
AcDbSymbolTableRecord
100
AcDbRegAppTableRecord
  2
ACAD
 70
     0
  0
APPID
  5
5E
330
9
100
AcDbSymbolTableRecord
100
AcDbRegAppTableRecord
  2
AcadAnnotative
 70
     0
  0
ENDTAB
  0
TABLE
  2
DIMSTYLE
  5
A
330
0
100
AcDbSymbolTable
 70
     2
100
AcDbDimStyleTable
 71
     0
  0
DIMSTYLE
105
58
330
A
100
AcDbSymbolTableRecord
100
AcDbDimStyleTableRecord
  2
Standard
 70
     0
340
55
  0
DIMSTYLE
105
59
330
A
100
AcDbSymbolTableRecord
100
AcDbDimStyleTableRecord
  2
Annotative
 70
     0
340
55
1001
AcadAnnotative
1000
AnnotativeData
1002
{
1070
     1
1070
     1
1002
}
  0
ENDTAB
  0
TABLE
  2
BLOCK_RECORD
  5
1
330
0
100
AcDbSymbolTable
 70
     1
  0
BLOCK_RECORD
  5
70
330
1
100
AcDbSymbolTableRecord
100
AcDbBlockTableRecord
  2
*Model_Space
340
73
 70
     0
280
     1
281
     0
  0
BLOCK_RECORD
  5
6C
330
1
100
AcDbSymbolTableRecord
100
AcDbBlockTableRecord
  2
*Paper_Space
340
6F
 70
     0
280
     1
281
     0
  0
BLOCK_RECORD
  5
74
330
1
100
AcDbSymbolTableRecord
100
AcDbBlockTableRecord
  2
*Paper_Space0
340
77
 70
     0
280
     1
281
     0
  0
ENDTAB
  0
ENDSEC
  0
SECTION
  2
BLOCKS
  0
BLOCK
  5
71
330
70
100
AcDbEntity
  8
0
100
AcDbBlockBegin
  2
*Model_Space
 70
     0
 10
0.0
 20
0.0
 30
0.0
  3
*Model_Space
  1

  0
ENDBLK
  5
72
330
70
100
AcDbEntity
  8
0
100
AcDbBlockEnd
  0
BLOCK
  5
6D
330
6C
100
AcDbEntity
 67
     1
  8
0
100
AcDbBlockBegin
  2
*Paper_Space
 70
     0
 10
0.0
 20
0.0
 30
0.0
  3
*Paper_Space
  1

  0
ENDBLK
  5
6E
330
6C
100
AcDbEntity
 67
     1
  8
0
100
AcDbBlockEnd
  0
BLOCK
  5
75
330
74
100
AcDbEntity
 67
     1
  8
0
100
AcDbBlockBegin
  2
*Paper_Space0
 70
     0
 10
0.0
 20
0.0
 30
0.0
  3
*Paper_Space0
  1

  0
ENDBLK
  5
76
330
74
100
AcDbEntity
 67
     1
  8
0
100
AcDbBlockEnd
  0
ENDSEC
  0
SECTION
  2
ENTITIES
  0
MTEXT
  5
78
330
70
100
AcDbEntity
  8
0
100
AcDbMText
 10
264.7401885986328
 20
345.6682434082031
 30
0.0
 40
0.2
 41
0.0
 46
0.0
 71
     7
 72
     1
  1
\C7;\FMyriad Pro|b0|i0|c1;\H14.914785;\W0.800000;660
 73
     1
 44
1.0
  0
LINE
  5
79
330
70
100
AcDbEntity
  8
0
 62
     7
370
    18
100
AcDbLine
 10
112.7777777777783
 20
306.560044359916
 30
0.0
 11
112.7777777777783
 21
349.5785628784342
 31
0.0
  0
LINE
  5
7A
330
70
100
AcDbEntity
  8
0
 62
     7
370
    18
100
AcDbLine
 10
442.7777777777773
 20
305.893377693249
 30
0.0
 11
442.7777777777773
 21
348.6341184339899
 31
0.0
  0
LINE
  5
7B
330
70
100
AcDbEntity
  8
0
 62
     7
370
    18
100
AcDbLine
 10
112.7160455252015
 20
343.3847211788816
 30
0.0
 11
442.7003748124861
 21
343.3847211788816
 31
0.0
  0
MTEXT
  5
7C
330
70
100
AcDbEntity
  8
0
100
AcDbMText
 10
64.49568176269531
 20
174.5435581207275
 30
0.0
 40
0.2
 41
0.0
 46
0.0
 71
     7
 72
     1
  1
\C7;\FMyriad Pro|b0|i0|c1;\H15.259347;\W0.838200;460
 11
0.0000000000000001
 21
1.0
 31
0.0
 73
     1
 44
1.0
  0
LINE
  5
7D
330
70
100
AcDbEntity
  8
0
 62
     7
370
    18
100
AcDbLine
 10
108.2643076297063
 20
303.2222222222226
 30
0.0
 11
65.86237907393206
 21
303.2222222222226
 31
0.0
  0
LINE
  5
7E
330
70
100
AcDbEntity
  8
0
 62
     7
370
    18
100
AcDbLine
 10
108.8902116402259
 20
73.22222222222262
 30
0.0
 11
65.33465608467031
 21
73.22222222222262
 31
0.0
  0
LINE
  5
7F
330
70
100
AcDbEntity
  8
0
 62
     7
370
    18
100
AcDbLine
 10
69.74910040896702
 20
73.53478648060264
 30
0.0
 11
69.74910040896702
 21
303.3540900997786
 31
0.0
  0
MTEXT
  5
80
330
70
100
AcDbEntity
  8
0
100
AcDbMText
 10
215.1370544433594
 20
317.0017395019531
 30
0.0
 40
0.2
 41
0.0
 46
0.0
 71
     7
 72
     1
  1
\C7;\FMyriad Pro|b0|i0|c1;\H14.727257;\W0.800000;400
 73
     1
 44
1.0
  0
LINE
  5
81
330
70
100
AcDbEntity
  8
0
 62
     7
370
    18
100
AcDbLine
 10
127.7777777777783
 20
289.4489332488074
 30
0.0
 11
127.7777777777783
 21
318.5507851006569
 31
0.0
  0
LINE
  5
82
330
70
100
AcDbEntity
  8
0
 62
     7
370
    18
100
AcDbLine
 10
327.839480768429
 20
315.2222222222226
 30
0.0
 11
128.0445072234688
 21
315.2222222222226
 31
0.0
  0
MTEXT
  5
83
330
70
100
AcDbEntity
  8
0
100
AcDbMText
 10
97.54429626464844
 20
175.0312929153442
 30
0.0
 40
0.2
 41
0.0
 46
0.0
 71
     7
 72
     1
  1
\C7;\FMyriad Pro|b0|i0|c1;\H15.405982;\W0.800000;400
 11
0.0000000000000001
 21
1.0
 31
0.0
 73
     1
 44
1.0
  0
LINE
  5
84
330
70
100
AcDbEntity
  8
0
 62
     7
370
    18
100
AcDbLine
 10
125.5753968254112
 20
288.2222222222226
 30
0.0
 11
94.96428571429987
 21
288.2222222222226
 31
0.0
  0
LINE
  5
85
330
70
100
AcDbEntity
  8
0
 62
     7
370
    18
100
AcDbLine
 10
125.7791005291146
 20
88.22222222222263
 30
0.0
 11
95.48280423281813
 21
88.22222222222263
 31
0.0
  0
LINE
  5
86
330
70
100
AcDbEntity
  8
0
 62
     7
370
    18
100
AcDbLine
 10
100.7777777777782
 20
288.2944345564147
 30
0.0
 11
100.7777777777782
 21
88.55818262003595
 31
0.0
  0
MTEXT
  5
87
330
70
100
AcDbEntity
  8
0
100
AcDbMText
 10
374.6339111328125
 20
317.6328172683716
 30
0.0
 40
0.2
 41
0.0
 46
0.0
 71
     7
 72
     1
  1
\C7;\FMyriad Pro|b0|i0|c1;\H12.314038;\W0.800000;170
 73
     1
 44
1.0
  0
LINE
  5
88
330
70
100
AcDbEntity
  8
0
 62
     7
370
    18
100
AcDbLine
 10
342.7777777777774
 20
288.4118962117709
 30
0.0
 11
342.7777777777774
 21
319.8193036191796
 31
0.0
  0
LINE
  5
89
330
70
100
AcDbEntity
  8
0
 62
     7
370
    18
100
AcDbLine
 10
427.7777777777774
 20
290.1155999154735
 30
0.0
 11
427.7777777777774
 21
321.1526369525099
 31
0.0
  0
LINE
  5
8A
330
70
100
AcDbEntity
  8
0
 62
     7
370
    18
100
AcDbLine
 10
342.9513350153466
 20
315.2222222222226
 30
0.0
 11
427.7304355444612
 21
315.2222222222226
 31
0.0
  0
MTEXT
  5
8B
330
70
100
AcDbEntity
  8
0
100
AcDbMText
 10
462.0420837402344
 20
251.4453163146973
 30
0.0
 40
0.2
 41
0.0
 46
0.0
 71
     7
 72
     1
  1
\C7;\FMyriad Pro|b0|i0|c1;\H13.704473;\W0.800000;150
 11
0.0000000000000001
 21
1.0
 31
0.0
 73
     1
 44
1.0
  0
LINE
  5
8C
330
70
100
AcDbEntity
  8
0
 62
     7
370
    18
100
AcDbLine
 10
422.7420634920781
 20
228.2222222222226
 30
0.0
 11
470.2235449735598
 21
228.2222222222226
 31
0.0
  0
LINE
  5
8D
330
70
100
AcDbEntity
  8
0
 62
     7
370
    18
100
AcDbLine
 10
445.7065434564793
 20
303.2222222222226
 30
0.0
 11
468.8902116402259
 21
303.2222222222226
 31
0.0
  0
LINE
  5
8E
330
70
100
AcDbEntity
  8
0
 62
     7
370
    18
100
AcDbLine
 10
464.0001387500287
 20
228.2222222222226
 30
0.0
 11
464.0001387500287
 21
303.2222222222226
 31
0.0
  0
LINE
  5
8F
330
70
100
AcDbEntity
  8
0
 62
     7
370
    18
100
AcDbLine
 10
327.7777777777774
 20
288.4118962117709
 30
0.0
 11
327.7777777777774
 21
319.9674517673266
 31
0.0
  0
MTEXT
  5
90
330
70
100
AcDbEntity
  8
0
100
AcDbMText
 10
293.1004638671875
 20
44.28548431396484
 30
0.0
 40
0.2
 41
0.0
 46
0.0
 71
     7
 72
     1
  1
\C7;\FMyriad Pro|b0|i0|c1;\H15.331726;\W0.800000;315
 73
     1
 44
1.0
  0
LINE
  5
91
330
70
100
AcDbEntity
  8
0
 62
     7
370
    18
100
AcDbLine
 10
227.7777777777783
 20
193.9722222222226
 30
0.0
 11
227.7777777777783
 21
36.78226658214044
 31
0.0
  0
LINE
  5
92
330
70
100
AcDbEntity
  8
0
 62
     7
370
    18
100
AcDbLine
 10
385.2777777777774
 20
193.9722222222226
 30
0.0
 11
385.2777777777774
 21
36.63411843399081
 31
0.0
  0
LINE
  5
93
330
70
100
AcDbEntity
  8
0
 62
     7
370
    18
100
AcDbLine
 10
227.7262331039219
 20
41.65227266959482
 30
0.0
 11
385.1349632626662
 21
41.65227266959482
 31
0.0
  0
LINE
  5
94
330
70
100
AcDbEntity
  8
0
 62
     7
370
    25
100
AcDbLine
 10
112.7777777777783
 20
76.22222222222262
 30
0.0
 11
112.7777777777783
 21
300.2222222222226
 31
0.0
  0
LINE
  5
95
330
70
100
AcDbEntity
  8
0
 62
     7
370
    25
100
AcDbLine
 10
127.7777777777783
 20
281.9722222222226
 30
0.0
 11
127.7777777777783
 21
94.47222222222263
 31
0.0
  0
LINE
  5
96
330
70
100
AcDbEntity
  8
0
 62
     7
370
    25
100
AcDbLine
 10
439.7777777777774
 20
73.22222222222262
 30
0.0
 11
115.7777777777783
 21
73.22222222222262
 31
0.0
  0
LINE
  5
97
330
70
100
AcDbEntity
  8
0
 62
     7
370
    25
100
AcDbLine
 10
134.0277777777783
 20
88.22222222222263
 30
0.0
 11
321.5277777777774
 21
88.22222222222263
 31
0.0
  0
LINE
  5
98
330
70
100
AcDbEntity
  8
0
 62
     7
370
    25
100
AcDbLine
 10
349.0277777777774
 20
88.22222222222263
 30
0.0
 11
421.5277777777774
 21
88.22222222222263
 31
0.0
  0
LINE
  5
99
330
70
100
AcDbEntity
  8
0
 62
     7
370
    25
100
AcDbLine
 10
355.7777777818774
 20
98.72222222222262
 30
0.0
 11
414.7777777738774
 21
98.72222222222262
 31
0.0
  0
LINE
  5
9A
330
70
100
AcDbEntity
  8
0
 62
     7
370
    25
100
AcDbLine
 10
327.7777777777774
 20
94.47222222222263
 30
0.0
 11
327.7777777777774
 21
281.9722222222226
 31
0.0
  0
LINE
  5
9B
330
70
100
AcDbEntity
  8
0
 62
     7
370
    25
100
AcDbLine
 10
342.7777777777774
 20
281.9722222222226
 30
0.0
 11
342.7777777777774
 21
94.47222222222263
 31
0.0
  0
LINE
  5
9C
330
70
100
AcDbEntity
  8
0
 62
     7
370
    25
100
AcDbLine
 10
351.5732777777775
 20
228.2222222222226
 30
0.0
 11
353.2777777776792
 21
101.2222222234231
 31
0.0
  0
LINE
  5
9D
330
70
100
AcDbEntity
  8
0
 62
     7
370
    25
100
AcDbLine
 10
353.2777777775773
 20
275.2222222184236
 30
0.0
 11
351.5732777777775
 21
228.2222222222226
 31
0.0
  0
LINE
  5
9E
330
70
100
AcDbEntity
  8
0
 62
     7
370
    25
100
AcDbLine
 10
414.7777777773789
 20
277.7222222222226
 30
0.0
 11
355.7777777779774
 21
277.7222222222226
 31
0.0
  0
LINE
  5
9F
330
70
100
AcDbEntity
  8
0
 62
     7
370
    25
100
AcDbLine
 10
421.5277777777774
 20
288.2222222222226
 30
0.0
 11
349.0277777777774
 21
288.2222222222226
 31
0.0
  0
LINE
  5
A0
330
70
100
AcDbEntity
  8
0
 62
     7
370
    25
100
AcDbLine
 10
321.5277777777774
 20
288.2222222222226
 30
0.0
 11
134.0277777777783
 21
288.2222222222226
 31
0.0
  0
LINE
  5
A1
330
70
100
AcDbEntity
  8
0
 62
     7
370
    25
100
AcDbLine
 10
115.7777777777783
 20
303.2222222222226
 30
0.0
 11
439.7777777777774
 21
303.2222222222226
 31
0.0
  0
LINE
  5
A2
330
70
100
AcDbEntity
  8
0
 62
     7
370
    25
100
AcDbLine
 10
418.9822777777772
 20
228.2222222222226
 30
0.0
 11
417.2777777778774
 21
275.2222222177224
 31
0.0
  0
LINE
  5
A3
330
70
100
AcDbEntity
  8
0
 62
     7
370
    25
100
AcDbLine
 10
417.2777777777773
 20
101.2222222234231
 30
0.0
 11
418.9822777777772
 21
228.2222222222226
 31
0.0
  0
LINE
  5
A4
330
70
100
AcDbEntity
  8
0
 62
     7
370
    25
100
AcDbLine
 10
427.7777777777774
 20
94.47222222222263
 30
0.0
 11
427.7777777777774
 21
281.9722222222226
 31
0.0
  0
LINE
  5
A5
330
70
100
AcDbEntity
  8
0
 62
     7
370
    25
100
AcDbLine
 10
442.7777777777773
 20
300.2222222222226
 30
0.0
 11
442.7777777777773
 21
76.22222222222262
 31
0.0
  0
SPLINE
  5
A6
330
70
100
AcDbEntity
  8
0
 62
     7
370
    25
100
AcDbSpline
210
0.0
220
0.0
230
1.0
 70
     8
 71
     3
 72
     8
 73
     4
 74
     0
 42
0.0000000001
 43
0.0000000001
 40
0.0
 40
0.0
 40
0.0
 40
0.0
 40
1.0
 40
1.0
 40
1.0
 40
1.0
 10
134.0277777777783
 20
288.2222222222226
 30
0.0
 10
130.5759980913353
 20
288.2222222222226
 30
0.0
 10
127.7777777777783
 20
285.4240019086656
 30
0.0
 10
127.7777777777783
 20
281.9722222222226
 30
0.0
  0
SPLINE
  5
A7
330
70
100
AcDbEntity
  8
0
 62
     7
370
    25
100
AcDbSpline
210
0.0
220
0.0
230
1.0
 70
     8
 71
     3
 72
     8
 73
     4
 74
     0
 42
0.0000000001
 43
0.0000000001
 40
0.0
 40
0.0
 40
0.0
 40
0.0
 40
1.0
 40
1.0
 40
1.0
 40
1.0
 10
127.7777777777783
 20
94.47222222222263
 30
0.0
 10
127.7777777777783
 20
91.02044253578061
 30
0.0
 10
130.5759980913353
 20
88.22222222222263
 30
0.0
 10
134.0277777777783
 20
88.22222222222263
 30
0.0
  0
SPLINE
  5
A8
330
70
100
AcDbEntity
  8
0
 62
     7
370
    25
100
AcDbSpline
210
0.0
220
0.0
230
1.0
 70
     8
 71
     3
 72
     8
 73
     4
 74
     0
 42
0.0000000001
 43
0.0000000001
 40
0.0
 40
0.0
 40
0.0
 40
0.0
 40
1.0
 40
1.0
 40
1.0
 40
1.0
 10
321.5277777777774
 20
88.22222222222263
 30
0.0
 10
324.9795574642212
 20
88.22222222222263
 30
0.0
 10
327.7777777777774
 20
91.02044253578061
 30
0.0
 10
327.7777777777774
 20
94.47222222222263
 30
0.0
  0
SPLINE
  5
A9
330
70
100
AcDbEntity
  8
0
 62
     7
370
    25
100
AcDbSpline
210
0.0
220
0.0
230
1.0
 70
     8
 71
     3
 72
     8
 73
     4
 74
     0
 42
0.0000000001
 43
0.0000000001
 40
0.0
 40
0.0
 40
0.0
 40
0.0
 40
1.0
 40
1.0
 40
1.0
 40
1.0
 10
327.7777777777774
 20
281.9722222222226
 30
0.0
 10
327.7777777777774
 20
285.4240019086656
 30
0.0
 10
324.9795574642212
 20
288.2222222222226
 30
0.0
 10
321.5277777777774
 20
288.2222222222226
 30
0.0
  0
SPLINE
  5
AA
330
70
100
AcDbEntity
  8
0
 62
     7
370
    25
100
AcDbSpline
210
0.0
220
0.0
230
1.0
 70
     8
 71
     3
 72
     8
 73
     4
 74
     0
 42
0.0000000001
 43
0.0000000001
 40
0.0
 40
0.0
 40
0.0
 40
0.0
 40
1.0
 40
1.0
 40
1.0
 40
1.0
 10
349.0277777777774
 20
288.2222222222226
 30
0.0
 10
345.5759980913354
 20
288.2222222222226
 30
0.0
 10
342.7777777777774
 20
285.4240019086656
 30
0.0
 10
342.7777777777774
 20
281.9722222222226
 30
0.0
  0
SPLINE
  5
AB
330
70
100
AcDbEntity
  8
0
 62
     7
370
    25
100
AcDbSpline
210
0.0
220
0.0
230
1.0
 70
     8
 71
     3
 72
     8
 73
     4
 74
     0
 42
0.0000000001
 43
0.0000000001
 40
0.0
 40
0.0
 40
0.0
 40
0.0
 40
1.0
 40
1.0
 40
1.0
 40
1.0
 10
342.7777777777774
 20
94.47222222222263
 30
0.0
 10
342.7777777777774
 20
91.02044253578061
 30
0.0
 10
345.5759980913354
 20
88.22222222222263
 30
0.0
 10
349.0277777777774
 20
88.22222222222263
 30
0.0
  0
SPLINE
  5
AC
330
70
100
AcDbEntity
  8
0
 62
     7
370
    25
100
AcDbSpline
210
0.0
220
0.0
230
1.0
 70
     8
 71
     3
 72
     8
 73
     4
 74
     0
 42
0.0000000001
 43
0.0000000001
 40
0.0
 40
0.0
 40
0.0
 40
0.0
 40
1.0
 40
1.0
 40
1.0
 40
1.0
 10
421.5277777777774
 20
88.22222222222263
 30
0.0
 10
424.9795574642211
 20
88.22222222222263
 30
0.0
 10
427.7777777777774
 20
91.02044253578061
 30
0.0
 10
427.7777777777774
 20
94.47222222222263
 30
0.0
  0
SPLINE
  5
AD
330
70
100
AcDbEntity
  8
0
 62
     7
370
    25
100
AcDbSpline
210
0.0
220
0.0
230
1.0
 70
     8
 71
     3
 72
     8
 73
     4
 74
     0
 42
0.0000000001
 43
0.0000000001
 40
0.0
 40
0.0
 40
0.0
 40
0.0
 40
1.0
 40
1.0
 40
1.0
 40
1.0
 10
427.7777777777774
 20
281.9722222222226
 30
0.0
 10
427.7777777777774
 20
285.4240019086656
 30
0.0
 10
424.9795574642211
 20
288.2222222222226
 30
0.0
 10
421.5277777777774
 20
288.2222222222226
 30
0.0
  0
SPLINE
  5
AE
330
70
100
AcDbEntity
  8
0
 62
     7
370
    25
100
AcDbSpline
210
0.0
220
0.0
230
1.0
 70
     8
 71
     3
 72
     8
 73
     4
 74
     0
 42
0.0000000001
 43
0.0000000001
 40
0.0
 40
0.0
 40
0.0
 40
0.0
 40
1.0
 40
1.0
 40
1.0
 40
1.0
 10
442.7777777777773
 20
300.2222222222226
 30
0.0
 10
442.7777777777773
 20
301.8790764717151
 30
0.0
 10
441.4346320272707
 20
303.2222222222226
 30
0.0
 10
439.7777777777774
 20
303.2222222222226
 30
0.0
  0
SPLINE
  5
AF
330
70
100
AcDbEntity
  8
0
 62
     7
370
    25
100
AcDbSpline
210
0.0
220
0.0
230
1.0
 70
     8
 71
     3
 72
     8
 73
     4
 74
     0
 42
0.0000000001
 43
0.0000000001
 40
0.0
 40
0.0
 40
0.0
 40
0.0
 40
1.0
 40
1.0
 40
1.0
 40
1.0
 10
439.7777777777774
 20
73.22222222222262
 30
0.0
 10
441.4346320272707
 20
73.22222222222262
 30
0.0
 10
442.7777777777773
 20
74.56536797273293
 30
0.0
 10
442.7777777777773
 20
76.22222222222262
 30
0.0
  0
SPLINE
  5
B0
330
70
100
AcDbEntity
  8
0
 62
     7
370
    25
100
AcDbSpline
210
0.0
220
0.0
230
1.0
 70
     8
 71
     3
 72
     8
 73
     4
 74
     0
 42
0.0000000001
 43
0.0000000001
 40
0.0
 40
0.0
 40
0.0
 40
0.0
 40
1.0
 40
1.0
 40
1.0
 40
1.0
 10
112.7777777777783
 20
76.22222222222262
 30
0.0
 10
112.7777777777783
 20
74.56536797273293
 30
0.0
 10
114.1209235282858
 20
73.22222222222262
 30
0.0
 10
115.7777777777783
 20
73.22222222222262
 30
0.0
  0
SPLINE
  5
B1
330
70
100
AcDbEntity
  8
0
 62
     7
370
    25
100
AcDbSpline
210
0.0
220
0.0
230
1.0
 70
     8
 71
     3
 72
     8
 73
     4
 74
     0
 42
0.0000000001
 43
0.0000000001
 40
0.0
 40
0.0
 40
0.0
 40
0.0
 40
1.0
 40
1.0
 40
1.0
 40
1.0
 10
115.7777777777783
 20
303.2222222222226
 30
0.0
 10
114.1209235282858
 20
303.2222222222226
 30
0.0
 10
112.7777777777783
 20
301.8790764717151
 30
0.0
 10
112.7777777777783
 20
300.2222222222226
 30
0.0
  0
SPLINE
  5
B2
330
70
100
AcDbEntity
  8
0
 62
     7
370
    25
100
AcDbSpline
210
0.0
220
0.0
230
1.0
 70
     8
 71
     3
 72
    11
 73
     7
 74
     0
 42
0.0000000001
 43
0.0000000001
 40
0.0
 40
0.0
 40
0.0
 40
0.0
 40
1.0
 40
1.0
 40
1.0
 40
2.0
 40
2.0
 40
2.0
 40
2.0
 10
353.2777777777774
 20
101.2222222234595
 30
0.0
 10
353.2777777770971
 20
99.84151034888055
 30
0.0
 10
354.3970659019669
 20
98.72222222290657
 30
0.0
 10
355.7777777765441
 20
98.72222222222262
 30
0.0
 10
355.7777777765441
 20
98.72222222222262
 30
0.0
 10
355.7777777819538
 20
98.72222222222262
 30
0.0
 10
355.7777777819538
 20
98.72222222222262
 30
0.0
  0
SPLINE
  5
B3
330
70
100
AcDbEntity
  8
0
 62
     7
370
    25
100
AcDbSpline
210
0.0
220
0.0
230
1.0
 70
     8
 71
     3
 72
    11
 73
     7
 74
     0
 42
0.0000000001
 43
0.0000000001
 40
0.0
 40
0.0
 40
0.0
 40
0.0
 40
1.0
 40
1.0
 40
1.0
 40
2.0
 40
2.0
 40
2.0
 40
2.0
 10
414.7777777739174
 20
98.72222222222262
 30
0.0
 10
416.1584896484928
 20
98.72222222009078
 30
0.0
 10
417.2777777756455
 20
99.84151034378374
 30
0.0
 10
417.2777777777773
 20
101.2222222183627
 30
0.0
 10
417.2777777777773
 20
101.2222222183627
 30
0.0
 10
417.2777777777773
 20
101.2222222222226
 30
0.0
 10
417.2777777777773
 20
101.2222222222226
 30
0.0
  0
SPLINE
  5
B4
330
70
100
AcDbEntity
  8
0
 62
     7
370
    25
100
AcDbSpline
210
0.0
220
0.0
230
1.0
 70
     8
 71
     3
 72
    11
 73
     7
 74
     0
 42
0.0000000001
 43
0.0000000001
 40
0.0
 40
0.0
 40
0.0
 40
0.0
 40
1.0
 40
1.0
 40
1.0
 40
2.0
 40
2.0
 40
2.0
 40
2.0
 10
417.2777777777773
 20
275.2222222177597
 30
0.0
 10
417.2777777802439
 20
276.602934092336
 30
0.0
 10
416.1584896568183
 20
277.7222222197579
 30
0.0
 10
414.7777777822411
 20
277.7222222222226
 30
0.0
 10
414.7777777822411
 20
277.7222222222226
 30
0.0
 10
414.7777777774154
 20
277.7222222222226
 30
0.0
 10
414.7777777774154
 20
277.7222222222226
 30
0.0
  0
SPLINE
  5
B5
330
70
100
AcDbEntity
  8
0
 62
     7
370
    25
100
AcDbSpline
210
0.0
220
0.0
230
1.0
 70
     8
 71
     3
 72
    11
 73
     7
 74
     0
 42
0.0000000001
 43
0.0000000001
 40
0.0
 40
0.0
 40
0.0
 40
0.0
 40
1.0
 40
1.0
 40
1.0
 40
2.0
 40
2.0
 40
2.0
 40
2.0
 10
355.7777777780102
 20
277.7222222222226
 30
0.0
 10
354.397065903433
 20
277.7222222223509
 30
0.0
 10
353.2777777779065
 20
276.6029340970317
 30
0.0
 10
353.2777777777774
 20
275.2222222224536
 30
0.0
 10
353.2777777777774
 20
275.2222222224536
 30
0.0
 10
353.2777777777774
 20
275.2222222184182
 30
0.0
 10
353.2777777777774
 20
275.2222222184182
 30
0.0
  0
LINE
  5
B6
330
70
100
AcDbEntity
  8
0
 62
     7
370
    18
100
AcDbLine
 10
702.0025751111134
 20
205.9166666666661
 30
0.0
 11
702.0025751111134
 21
192.666666666666
 31
0.0
  0
LINE
  5
B7
330
70
100
AcDbEntity
  8
0
 62
     7
370
    18
100
AcDbLine
 10
701.0700601111129
 20
205.9166666666661
 30
0.0
 11
701.0700601111129
 21
192.666666666666
 31
0.0
  0
LINE
  5
B8
330
70
100
AcDbEntity
  8
0
 62
     7
370
    18
100
AcDbLine
 10
702.0025751111134
 20
231.4166666666661
 30
0.0
 11
702.0025751111134
 21
219.916666666666
 31
0.0
  0
LINE
  5
B9
330
70
100
AcDbEntity
  8
0
 62
     7
370
    18
100
AcDbLine
 10
701.0700601111129
 20
231.4166666666661
 30
0.0
 11
701.0700601111129
 21
219.916666666666
 31
0.0
  0
LINE
  5
BA
330
70
100
AcDbEntity
  8
0
 62
     7
370
    18
100
AcDbLine
 10
702.0025751111134
 20
256.9166666666661
 30
0.0
 11
702.0025751111134
 21
245.4166666666661
 31
0.0
  0
LINE
  5
BB
330
70
100
AcDbEntity
  8
0
 62
     7
370
    18
100
AcDbLine
 10
701.0700601111129
 20
256.9166666666661
 30
0.0
 11
701.0700601111129
 21
245.4166666666661
 31
0.0
  0
LINE
  5
BC
330
70
100
AcDbEntity
  8
0
 62
     7
370
    18
100
AcDbLine
 10
702.0025751111134
 20
282.4166666666661
 30
0.0
 11
702.0025751111134
 21
270.9166666666661
 31
0.0
  0
LINE
  5
BD
330
70
100
AcDbEntity
  8
0
 62
     7
370
    18
100
AcDbLine
 10
701.0700601111129
 20
282.4166666666661
 30
0.0
 11
701.0700601111129
 21
270.9166666666661
 31
0.0
  0
LINE
  5
BE
330
70
100
AcDbEntity
  8
0
 62
     7
370
    18
100
AcDbLine
 10
702.0025751111134
 20
307.9166666666661
 30
0.0
 11
702.0025751111134
 21
296.4166666666661
 31
0.0
  0
LINE
  5
BF
330
70
100
AcDbEntity
  8
0
 62
     7
370
    18
100
AcDbLine
 10
701.0700601111129
 20
307.9166666666661
 30
0.0
 11
701.0700601111129
 21
296.4166666666661
 31
0.0
  0
LINE
  5
C0
330
70
100
AcDbEntity
  8
0
 62
     7
370
    18
100
AcDbLine
 10
702.0025751111134
 20
321.916666666666
 30
0.0
 11
702.0025751111134
 21
333.4166666666661
 31
0.0
  0
LINE
  5
C1
330
70
100
AcDbEntity
  8
0
 62
     7
370
    18
100
AcDbLine
 10
701.0700601111129
 20
321.916666666666
 30
0.0
 11
701.0700601111129
 21
333.4166666666661
 31
0.0
  0
LINE
  5
C2
330
70
100
AcDbEntity
  8
0
 62
     7
370
    18
100
AcDbLine
 10
702.0025751111134
 20
347.4166666666661
 30
0.0
 11
702.0025751111134
 21
360.6666666666661
 31
0.0
  0
LINE
  5
C3
330
70
100
AcDbEntity
  8
0
 62
     7
370
    18
100
AcDbLine
 10
701.0700601111129
 20
347.4166666666661
 30
0.0
 11
701.0700601111129
 21
360.6666666666661
 31
0.0
  0
LINE
  5
C4
330
70
100
AcDbEntity
  8
0
 62
     7
370
    18
100
AcDbLine
 10
629.328727111113
 20
347.4166666666661
 30
0.0
 11
629.328727111113
 21
360.6666666666661
 31
0.0
  0
LINE
  5
C5
330
70
100
AcDbEntity
  8
0
 62
     7
370
    18
100
AcDbLine
 10
628.9348171111123
 20
347.4166666666661
 30
0.0
 11
628.9348171111123
 21
360.6666666666661
 31
0.0
  0
LINE
  5
C6
330
70
100
AcDbEntity
  8
0
 62
     7
370
    18
100
AcDbLine
 10
629.328727111113
 20
321.916666666666
 30
0.0
 11
629.328727111113
 21
333.4166666666661
 31
0.0
  0
LINE
  5
C7
330
70
100
AcDbEntity
  8
0
 62
     7
370
    18
100
AcDbLine
 10
628.9348171111123
 20
321.916666666666
 30
0.0
 11
628.9348171111123
 21
333.4166666666661
 31
0.0
  0
LINE
  5
C8
330
70
100
AcDbEntity
  8
0
 62
     7
370
    18
100
AcDbLine
 10
629.328727111113
 20
205.9166666666661
 30
0.0
 11
629.328727111113
 21
192.666666666666
 31
0.0
  0
LINE
  5
C9
330
70
100
AcDbEntity
  8
0
 62
     7
370
    18
100
AcDbLine
 10
628.9348171111123
 20
205.9166666666661
 30
0.0
 11
628.9348171111123
 21
192.666666666666
 31
0.0
  0
LINE
  5
CA
330
70
100
AcDbEntity
  8
0
 62
     7
370
    18
100
AcDbLine
 10
629.328727111113
 20
231.4166666666661
 30
0.0
 11
629.328727111113
 21
219.916666666666
 31
0.0
  0
LINE
  5
CB
330
70
100
AcDbEntity
  8
0
 62
     7
370
    18
100
AcDbLine
 10
628.9348171111123
 20
231.4166666666661
 30
0.0
 11
628.9348171111123
 21
219.916666666666
 31
0.0
  0
LINE
  5
CC
330
70
100
AcDbEntity
  8
0
 62
     7
370
    18
100
AcDbLine
 10
629.328727111113
 20
256.9166666666661
 30
0.0
 11
629.328727111113
 21
245.4166666666661
 31
0.0
  0
LINE
  5
CD
330
70
100
AcDbEntity
  8
0
 62
     7
370
    18
100
AcDbLine
 10
628.9348171111123
 20
256.9166666666661
 30
0.0
 11
628.9348171111123
 21
245.4166666666661
 31
0.0
  0
LINE
  5
CE
330
70
100
AcDbEntity
  8
0
 62
     7
370
    18
100
AcDbLine
 10
629.328727111113
 20
282.4166666666661
 30
0.0
 11
629.328727111113
 21
270.9166666666661
 31
0.0
  0
LINE
  5
CF
330
70
100
AcDbEntity
  8
0
 62
     7
370
    18
100
AcDbLine
 10
628.9348171111123
 20
282.4166666666661
 30
0.0
 11
628.9348171111123
 21
270.9166666666661
 31
0.0
  0
LINE
  5
D0
330
70
100
AcDbEntity
  8
0
 62
     7
370
    18
100
AcDbLine
 10
629.328727111113
 20
307.9166666666661
 30
0.0
 11
629.328727111113
 21
296.4166666666661
 31
0.0
  0
LINE
  5
D1
330
70
100
AcDbEntity
  8
0
 62
     7
370
    18
100
AcDbLine
 10
628.9348171111123
 20
307.9166666666661
 30
0.0
 11
628.9348171111123
 21
296.4166666666661
 31
0.0
  0
LINE
  5
D2
330
70
100
AcDbEntity
  8
0
 62
     7
370
    18
100
AcDbLine
 10
773.4521621111126
 20
321.916666666666
 30
0.0
 11
773.4521621111126
 21
333.4166666666661
 31
0.0
  0
LINE
  5
D3
330
70
100
AcDbEntity
  8
0
 62
     7
370
    18
100
AcDbLine
 10
773.0582521111137
 20
321.916666666666
 30
0.0
 11
773.0582521111137
 21
333.4166666666661
 31
0.0
  0
LINE
  5
D4
330
70
100
AcDbEntity
  8
0
 62
     7
370
    18
100
AcDbLine
 10
773.4521621111126
 20
296.4166666666661
 30
0.0
 11
773.4521621111126
 21
307.9166666666661
 31
0.0
  0
LINE
  5
D5
330
70
100
AcDbEntity
  8
0
 62
     7
370
    18
100
AcDbLine
 10
773.0582521111137
 20
296.4166666666661
 30
0.0
 11
773.0582521111137
 21
307.9166666666661
 31
0.0
  0
LINE
  5
D6
330
70
100
AcDbEntity
  8
0
 62
     7
370
    18
100
AcDbLine
 10
773.4521621111126
 20
270.9166666666661
 30
0.0
 11
773.4521621111126
 21
282.4166666666661
 31
0.0
  0
LINE
  5
D7
330
70
100
AcDbEntity
  8
0
 62
     7
370
    18
100
AcDbLine
 10
773.0582521111137
 20
270.9166666666661
 30
0.0
 11
773.0582521111137
 21
282.4166666666661
 31
0.0
  0
LINE
  5
D8
330
70
100
AcDbEntity
  8
0
 62
     7
370
    18
100
AcDbLine
 10
773.4521621111126
 20
245.4166666666661
 30
0.0
 11
773.4521621111126
 21
256.9166666666661
 31
0.0
  0
LINE
  5
D9
330
70
100
AcDbEntity
  8
0
 62
     7
370
    18
100
AcDbLine
 10
773.0582521111137
 20
245.4166666666661
 30
0.0
 11
773.0582521111137
 21
256.9166666666661
 31
0.0
  0
LINE
  5
DA
330
70
100
AcDbEntity
  8
0
 62
     7
370
    18
100
AcDbLine
 10
773.4521621111126
 20
219.916666666666
 30
0.0
 11
773.4521621111126
 21
231.4166666666661
 31
0.0
  0
LINE
  5
DB
330
70
100
AcDbEntity
  8
0
 62
     7
370
    18
100
AcDbLine
 10
773.0582521111137
 20
219.916666666666
 30
0.0
 11
773.0582521111137
 21
231.4166666666661
 31
0.0
  0
LINE
  5
DC
330
70
100
AcDbEntity
  8
0
 62
     7
370
    18
100
AcDbLine
 10
773.4521621111126
 20
205.9166666666661
 30
0.0
 11
773.4521621111126
 21
192.666666666666
 31
0.0
  0
LINE
  5
DD
330
70
100
AcDbEntity
  8
0
 62
     7
370
    18
100
AcDbLine
 10
773.0582521111137
 20
205.9166666666661
 30
0.0
 11
773.0582521111137
 21
192.666666666666
 31
0.0
  0
LINE
  5
DE
330
70
100
AcDbEntity
  8
0
 62
     7
370
    18
100
AcDbLine
 10
773.4521621111126
 20
347.4166666666661
 30
0.0
 11
773.4521621111126
 21
360.6666666666661
 31
0.0
  0
LINE
  5
DF
330
70
100
AcDbEntity
  8
0
 62
     7
370
    18
100
AcDbLine
 10
773.0582521111137
 20
347.4166666666661
 30
0.0
 11
773.0582521111137
 21
360.6666666666661
 31
0.0
  0
LINE
  5
E0
330
70
100
AcDbEntity
  8
0
 62
     7
370
    18
100
AcDbLine
 10
548.2287271111126
 20
345.6666666666661
 30
0.0
 11
548.2287271111126
 21
207.666666666666
 31
0.0
  0
LINE
  5
E1
330
70
100
AcDbEntity
  8
0
 62
     7
370
    18
100
AcDbLine
 10
549.2287271111126
 20
345.6666666666661
 30
0.0
 11
549.2287271111126
 21
207.666666666666
 31
0.0
  0
LINE
  5
E2
330
70
100
AcDbEntity
  8
0
 62
     7
370
    18
100
AcDbLine
 10
853.9934951111135
 20
207.666666666666
 30
0.0
 11
853.9934951111135
 21
345.6666666666661
 31
0.0
  0
LINE
  5
E3
330
70
100
AcDbEntity
  8
0
 62
     7
370
    18
100
AcDbLine
 10
852.9934951111135
 20
207.666666666666
 30
0.0
 11
852.9934951111135
 21
345.6666666666661
 31
0.0
  0
LINE
  5
E4
330
70
100
AcDbEntity
  8
0
 62
     7
370
    18
100
AcDbLine
 10
862.0481411111123
 20
341.6666666666661
 30
0.0
 11
862.0481411111123
 21
211.666666666666
 31
0.0
  0
LINE
  5
E5
330
70
100
AcDbEntity
  8
0
 62
     7
370
    18
100
AcDbLine
 10
851.6934951111124
 20
345.6666666666661
 30
0.0
 11
858.0481411111122
 21
345.6666666666661
 31
0.0
  0
LINE
  5
E6
330
70
100
AcDbEntity
  8
0
 62
     7
370
    18
100
AcDbLine
 10
851.6934951111124
 20
207.666666666666
 30
0.0
 11
858.0481411111122
 21
207.666666666666
 31
0.0
  0
LINE
  5
E7
330
70
100
AcDbEntity
  8
0
 62
     7
370
    18
100
AcDbLine
 10
851.6934951111124
 20
207.666666666666
 30
0.0
 11
851.6934951111124
 21
207.6646666666657
 31
0.0
  0
LINE
  5
E8
330
70
100
AcDbEntity
  8
0
 62
     7
370
    18
100
AcDbLine
 10
540.1740811111121
 20
211.666666666666
 30
0.0
 11
540.1740811111121
 21
341.6666666666661
 31
0.0
  0
LINE
  5
E9
330
70
100
AcDbEntity
  8
0
 62
     7
370
    18
100
AcDbLine
 10
550.5287271111119
 20
207.666666666666
 30
0.0
 11
544.1740811111121
 21
207.666666666666
 31
0.0
  0
LINE
  5
EA
330
70
100
AcDbEntity
  8
0
 62
     7
370
    18
100
AcDbLine
 10
550.5287271111119
 20
345.6666666666661
 30
0.0
 11
544.1740811111121
 21
345.6666666666661
 31
0.0
  0
LINE
  5
EB
330
70
100
AcDbEntity
  8
0
 62
     7
370
    18
100
AcDbLine
 10
550.5287271111119
 20
207.6646666666657
 30
0.0
 11
550.5287271111119
 21
207.666666666666
 31
0.0
  0
LINE
  5
EC
330
70
100
AcDbEntity
  8
0
 62
     7
370
    18
100
AcDbLine
 10
792.4934951111135
 20
364.6666666666661
 30
0.0
 11
792.4934951111135
 21
365.666666666666
 31
0.0
  0
LINE
  5
ED
330
70
100
AcDbEntity
  8
0
 62
     7
370
    18
100
AcDbLine
 10
796.4934951111136
 20
369.666666666666
 30
0.0
 11
846.4934951111136
 21
369.666666666666
 31
0.0
  0
LINE
  5
EE
330
70
100
AcDbEntity
  8
0
 62
     7
370
    18
100
AcDbLine
 10
853.9934951111135
 20
362.1666666666661
 30
0.0
 11
853.9934951111135
 21
345.6686666666665
 31
0.0
  0
LINE
  5
EF
330
70
100
AcDbEntity
  8
0
 62
     7
370
    18
100
AcDbLine
 10
853.9934951111135
 20
345.6686666666665
 30
0.0
 11
851.6934951111124
 21
345.6686666666665
 31
0.0
  0
LINE
  5
F0
330
70
100
AcDbEntity
  8
0
 62
     7
370
    18
100
AcDbLine
 10
851.6934951111124
 20
345.6686666666665
 30
0.0
 11
851.6934951111124
 21
345.6666666666661
 31
0.0
  0
LINE
  5
F1
330
70
100
AcDbEntity
  8
0
 62
     7
370
    18
100
AcDbLine
 10
853.9934951111135
 20
207.6646666666657
 30
0.0
 11
853.9934951111135
 21
191.166666666666
 31
0.0
  0
LINE
  5
F2
330
70
100
AcDbEntity
  8
0
 62
     7
370
    18
100
AcDbLine
 10
796.4934951111136
 20
183.666666666666
 30
0.0
 11
846.4934951111136
 21
183.666666666666
 31
0.0
  0
LINE
  5
F3
330
70
100
AcDbEntity
  8
0
 62
     7
370
    18
100
AcDbLine
 10
853.9934951111135
 20
207.6646666666657
 30
0.0
 11
851.6934951111124
 21
207.6646666666657
 31
0.0
  0
LINE
  5
F4
330
70
100
AcDbEntity
  8
0
 62
     7
370
    18
100
AcDbLine
 10
792.4934951111135
 20
188.6666666666661
 30
0.0
 11
792.4934951111135
 21
187.666666666666
 31
0.0
  0
LINE
  5
F5
330
70
100
AcDbEntity
  8
0
 62
     7
370
    18
100
AcDbLine
 10
548.2287271111126
 20
207.6646666666657
 30
0.0
 11
550.5287271111119
 21
207.6646666666657
 31
0.0
  0
LINE
  5
F6
330
70
100
AcDbEntity
  8
0
 62
     7
370
    18
100
AcDbLine
 10
605.7287271111126
 20
183.666666666666
 30
0.0
 11
555.7287271111126
 21
183.666666666666
 31
0.0
  0
LINE
  5
F7
330
70
100
AcDbEntity
  8
0
 62
     7
370
    18
100
AcDbLine
 10
609.7287271111127
 20
188.6666666666661
 30
0.0
 11
609.7287271111127
 21
187.666666666666
 31
0.0
  0
LINE
  5
F8
330
70
100
AcDbEntity
  8
0
 62
     7
370
    18
100
AcDbLine
 10
605.7287271111126
 20
369.666666666666
 30
0.0
 11
555.7287271111126
 21
369.666666666666
 31
0.0
  0
LINE
  5
F9
330
70
100
AcDbEntity
  8
0
 62
     7
370
    18
100
AcDbLine
 10
548.2287271111126
 20
362.1666666666661
 30
0.0
 11
548.2287271111126
 21
345.6686666666665
 31
0.0
  0
LINE
  5
FA
330
70
100
AcDbEntity
  8
0
 62
     7
370
    18
100
AcDbLine
 10
548.2287271111126
 20
345.6686666666665
 30
0.0
 11
550.5287271111119
 21
345.6686666666665
 31
0.0
  0
LINE
  5
FB
330
70
100
AcDbEntity
  8
0
 62
     7
370
    18
100
AcDbLine
 10
550.5287271111119
 20
345.6666666666661
 30
0.0
 11
550.5287271111119
 21
345.6686666666665
 31
0.0
  0
LINE
  5
FC
330
70
100
AcDbEntity
  8
0
 62
     7
370
    18
100
AcDbLine
 10
548.2287271111126
 20
207.6646666666657
 30
0.0
 11
548.2287271111126
 21
191.166666666666
 31
0.0
  0
LINE
  5
FD
330
70
100
AcDbEntity
  8
0
 62
     7
370
    18
100
AcDbLine
 10
609.7287271111127
 20
364.6666666666661
 30
0.0
 11
609.7287271111127
 21
365.666666666666
 31
0.0
  0
LINE
  5
FE
330
70
100
AcDbEntity
  8
0
 62
     7
370
    18
100
AcDbLine
 10
832.8481411111134
 20
205.9166666666661
 30
0.0
 11
569.3740811111129
 21
205.9166666666661
 31
0.0
  0
LINE
  5
FF
330
70
100
AcDbEntity
  8
0
 62
     7
370
    18
100
AcDbLine
 10
569.3740811111129
 20
219.916666666666
 30
0.0
 11
832.8481411111134
 21
219.916666666666
 31
0.0
  0
LINE
  5
100
330
70
100
AcDbEntity
  8
0
 62
     7
370
    18
100
AcDbLine
 10
832.8481411111134
 20
231.4166666666661
 30
0.0
 11
569.3740811111129
 21
231.4166666666661
 31
0.0
  0
LINE
  5
101
330
70
100
AcDbEntity
  8
0
 62
     7
370
    18
100
AcDbLine
 10
569.3740811111129
 20
245.4166666666661
 30
0.0
 11
832.8481411111134
 21
245.4166666666661
 31
0.0
  0
LINE
  5
102
330
70
100
AcDbEntity
  8
0
 62
     7
370
    18
100
AcDbLine
 10
832.8481411111134
 20
256.9166666666661
 30
0.0
 11
569.3740811111129
 21
256.9166666666661
 31
0.0
  0
LINE
  5
103
330
70
100
AcDbEntity
  8
0
 62
     7
370
    18
100
AcDbLine
 10
569.3740811111129
 20
270.9166666666661
 30
0.0
 11
832.8481411111134
 21
270.9166666666661
 31
0.0
  0
LINE
  5
104
330
70
100
AcDbEntity
  8
0
 62
     7
370
    18
100
AcDbLine
 10
832.8481411111134
 20
282.4166666666661
 30
0.0
 11
569.3740811111129
 21
282.4166666666661
 31
0.0
  0
LINE
  5
105
330
70
100
AcDbEntity
  8
0
 62
     7
370
    18
100
AcDbLine
 10
569.3740811111129
 20
296.4166666666661
 30
0.0
 11
832.8481411111134
 21
296.4166666666661
 31
0.0
  0
LINE
  5
106
330
70
100
AcDbEntity
  8
0
 62
     7
370
    18
100
AcDbLine
 10
832.8481411111134
 20
307.9166666666661
 30
0.0
 11
569.3740811111129
 21
307.9166666666661
 31
0.0
  0
LINE
  5
107
330
70
100
AcDbEntity
  8
0
 62
     7
370
    18
100
AcDbLine
 10
569.3740811111129
 20
321.916666666666
 30
0.0
 11
832.8481411111134
 21
321.916666666666
 31
0.0
  0
LINE
  5
108
330
70
100
AcDbEntity
  8
0
 62
     7
370
    18
100
AcDbLine
 10
832.8481411111134
 20
333.4166666666661
 30
0.0
 11
569.3740811111129
 21
333.4166666666661
 31
0.0
  0
LINE
  5
109
330
70
100
AcDbEntity
  8
0
 62
     7
370
    18
100
AcDbLine
 10
569.3740811111129
 20
347.4166666666661
 30
0.0
 11
832.8481411111134
 21
347.4166666666661
 31
0.0
  0
LINE
  5
10A
330
70
100
AcDbEntity
  8
0
 62
     7
370
    18
100
AcDbLine
 10
613.7287271111127
 20
360.6666666666661
 30
0.0
 11
788.4934951111135
 21
360.6666666666661
 31
0.0
  0
LINE
  5
10B
330
70
100
AcDbEntity
  8
0
 62
     7
370
    18
100
AcDbLine
 10
613.7287271111127
 20
192.666666666666
 30
0.0
 11
788.4934951111135
 21
192.666666666666
 31
0.0
  0
LINE
  5
10C
330
70
100
AcDbEntity
  8
0
  6
AI-Linetype-0
 62
     7
370
    13
100
AcDbLine
 10
701.1111111111131
 20
205.9166666666661
 30
0.0
 11
701.1111111111131
 21
192.666666666666
 31
0.0
  0
LINE
  5
10E
330
70
100
AcDbEntity
  8
0
  6
AI-Linetype-1
 62
     7
370
    13
100
AcDbLine
 10
701.1111111111131
 20
231.4166666666661
 30
0.0
 11
701.1111111111131
 21
219.916666666666
 31
0.0
  0
LINE
  5
110
330
70
100
AcDbEntity
  8
0
  6
AI-Linetype-2
 62
     7
370
    13
100
AcDbLine
 10
701.1111111111131
 20
256.9166666666661
 30
0.0
 11
701.1111111111131
 21
245.4166666666661
 31
0.0
  0
LINE
  5
112
330
70
100
AcDbEntity
  8
0
  6
AI-Linetype-3
 62
     7
370
    13
100
AcDbLine
 10
701.1111111111131
 20
282.4166666666661
 30
0.0
 11
701.1111111111131
 21
270.9166666666661
 31
0.0
  0
LINE
  5
114
330
70
100
AcDbEntity
  8
0
  6
AI-Linetype-4
 62
     7
370
    13
100
AcDbLine
 10
701.1111111111131
 20
307.9166666666661
 30
0.0
 11
701.1111111111131
 21
296.4166666666661
 31
0.0
  0
LINE
  5
116
330
70
100
AcDbEntity
  8
0
  6
AI-Linetype-5
 62
     7
370
    13
100
AcDbLine
 10
701.1111111111131
 20
321.916666666666
 30
0.0
 11
701.1111111111131
 21
333.4166666666661
 31
0.0
  0
LINE
  5
118
330
70
100
AcDbEntity
  8
0
  6
AI-Linetype-6
 62
     7
370
    13
100
AcDbLine
 10
701.1111111111131
 20
347.4166666666661
 30
0.0
 11
701.1111111111131
 21
360.6666666666661
 31
0.0
  0
LINE
  5
11A
330
70
100
AcDbEntity
  8
0
  6
AI-Linetype-7
 62
     7
370
    13
100
AcDbLine
 10
629.0493931111122
 20
347.4166666666661
 30
0.0
 11
629.0493931111122
 21
360.6666666666661
 31
0.0
  0
LINE
  5
11C
330
70
100
AcDbEntity
  8
0
  6
AI-Linetype-8
 62
     7
370
    13
100
AcDbLine
 10
629.0493931111122
 20
321.916666666666
 30
0.0
 11
629.0493931111122
 21
333.4166666666661
 31
0.0
  0
LINE
  5
11E
330
70
100
AcDbEntity
  8
0
  6
AI-Linetype-9
 62
     7
370
    13
100
AcDbLine
 10
629.0493931111122
 20
205.9166666666661
 30
0.0
 11
629.0493931111122
 21
192.666666666666
 31
0.0
  0
LINE
  5
120
330
70
100
AcDbEntity
  8
0
  6
AI-Linetype-10
 62
     7
370
    13
100
AcDbLine
 10
629.0493931111122
 20
231.4166666666661
 30
0.0
 11
629.0493931111122
 21
219.916666666666
 31
0.0
  0
LINE
  5
122
330
70
100
AcDbEntity
  8
0
  6
AI-Linetype-11
 62
     7
370
    13
100
AcDbLine
 10
629.0493931111122
 20
256.9166666666661
 30
0.0
 11
629.0493931111122
 21
245.4166666666661
 31
0.0
  0
LINE
  5
124
330
70
100
AcDbEntity
  8
0
  6
AI-Linetype-12
 62
     7
370
    13
100
AcDbLine
 10
629.0493931111122
 20
282.4166666666661
 30
0.0
 11
629.0493931111122
 21
270.9166666666661
 31
0.0
  0
LINE
  5
126
330
70
100
AcDbEntity
  8
0
  6
AI-Linetype-13
 62
     7
370
    13
100
AcDbLine
 10
629.0493931111122
 20
307.9166666666661
 30
0.0
 11
629.0493931111122
 21
296.4166666666661
 31
0.0
  0
LINE
  5
128
330
70
100
AcDbEntity
  8
0
  6
AI-Linetype-14
 62
     7
370
    13
100
AcDbLine
 10
773.172829111114
 20
321.916666666666
 30
0.0
 11
773.172829111114
 21
333.4166666666661
 31
0.0
  0
LINE
  5
12A
330
70
100
AcDbEntity
  8
0
  6
AI-Linetype-15
 62
     7
370
    13
100
AcDbLine
 10
773.172829111114
 20
296.4166666666661
 30
0.0
 11
773.172829111114
 21
307.9166666666661
 31
0.0
  0
LINE
  5
12C
330
70
100
AcDbEntity
  8
0
  6
AI-Linetype-16
 62
     7
370
    13
100
AcDbLine
 10
773.172829111114
 20
270.9166666666661
 30
0.0
 11
773.172829111114
 21
282.4166666666661
 31
0.0
  0
LINE
  5
12E
330
70
100
AcDbEntity
  8
0
  6
AI-Linetype-17
 62
     7
370
    13
100
AcDbLine
 10
773.172829111114
 20
245.4166666666661
 30
0.0
 11
773.172829111114
 21
256.9166666666661
 31
0.0
  0
LINE
  5
130
330
70
100
AcDbEntity
  8
0
  6
AI-Linetype-18
 62
     7
370
    13
100
AcDbLine
 10
773.172829111114
 20
219.916666666666
 30
0.0
 11
773.172829111114
 21
231.4166666666661
 31
0.0
  0
LINE
  5
132
330
70
100
AcDbEntity
  8
0
  6
AI-Linetype-19
 62
     7
370
    13
100
AcDbLine
 10
773.172829111114
 20
205.9166666666661
 30
0.0
 11
773.172829111114
 21
192.666666666666
 31
0.0
  0
LINE
  5
134
330
70
100
AcDbEntity
  8
0
  6
AI-Linetype-20
 62
     7
370
    13
100
AcDbLine
 10
773.172829111114
 20
347.4166666666661
 30
0.0
 11
773.172829111114
 21
360.6666666666661
 31
0.0
  0
LINE
  5
136
330
70
100
AcDbEntity
  8
0
  6
AI-Linetype-21
 62
     7
370
    13
100
AcDbLine
 10
549.2014041111142
 20
345.6666666666661
 30
0.0
 11
549.2014041111142
 21
207.666666666666
 31
0.0
  0
LINE
  5
138
330
70
100
AcDbEntity
  8
0
  6
AI-Linetype-22
 62
     7
370
    13
100
AcDbLine
 10
853.0208181111138
 20
207.666666666666
 30
0.0
 11
853.0208181111138
 21
345.6666666666661
 31
0.0
  0
SPLINE
  5
13A
330
70
100
AcDbEntity
  8
0
 62
     7
370
    18
100
AcDbSpline
210
0.0
220
0.0
230
1.0
 70
     8
 71
     3
 72
     8
 73
     4
 74
     0
 42
0.0000000001
 43
0.0000000001
 40
0.0
 40
0.0
 40
0.0
 40
0.0
 40
1.0
 40
1.0
 40
1.0
 40
1.0
 10
858.0481411111122
 20
207.666666666666
 30
0.0
 10
860.2572801104361
 20
207.666666666666
 30
0.0
 10
862.0481411111123
 20
209.4575276673422
 30
0.0
 10
862.0481411111123
 20
211.666666666666
 30
0.0
  0
SPLINE
  5
13B
330
70
100
AcDbEntity
  8
0
 62
     7
370
    18
100
AcDbSpline
210
0.0
220
0.0
230
1.0
 70
     8
 71
     3
 72
     8
 73
     4
 74
     0
 42
0.0000000001
 43
0.0000000001
 40
0.0
 40
0.0
 40
0.0
 40
0.0
 40
1.0
 40
1.0
 40
1.0
 40
1.0
 10
862.0481411111123
 20
341.6666666666661
 30
0.0
 10
862.0481411111123
 20
343.875805665989
 30
0.0
 10
860.2572801104361
 20
345.6666666666661
 30
0.0
 10
858.0481411111122
 20
345.6666666666661
 30
0.0
  0
SPLINE
  5
13C
330
70
100
AcDbEntity
  8
0
 62
     7
370
    18
100
AcDbSpline
210
0.0
220
0.0
230
1.0
 70
     8
 71
     3
 72
     8
 73
     4
 74
     0
 42
0.0000000001
 43
0.0000000001
 40
0.0
 40
0.0
 40
0.0
 40
0.0
 40
1.0
 40
1.0
 40
1.0
 40
1.0
 10
544.1740811111121
 20
345.6666666666661
 30
0.0
 10
541.9649421117902
 20
345.6666666666661
 30
0.0
 10
540.1740811111121
 20
343.875805665989
 30
0.0
 10
540.1740811111121
 20
341.6666666666661
 30
0.0
  0
SPLINE
  5
13D
330
70
100
AcDbEntity
  8
0
 62
     7
370
    18
100
AcDbSpline
210
0.0
220
0.0
230
1.0
 70
     8
 71
     3
 72
     8
 73
     4
 74
     0
 42
0.0000000001
 43
0.0000000001
 40
0.0
 40
0.0
 40
0.0
 40
0.0
 40
1.0
 40
1.0
 40
1.0
 40
1.0
 10
540.1740811111121
 20
211.666666666666
 30
0.0
 10
540.1740811111121
 20
209.4575276673422
 30
0.0
 10
541.9649421117902
 20
207.666666666666
 30
0.0
 10
544.1740811111121
 20
207.666666666666
 30
0.0
  0
SPLINE
  5
13E
330
70
100
AcDbEntity
  8
0
 62
     7
370
    18
100
AcDbSpline
210
0.0
220
0.0
230
1.0
 70
     8
 71
     3
 72
     8
 73
     4
 74
     0
 42
0.0000000001
 43
0.0000000001
 40
0.0
 40
0.0
 40
0.0
 40
0.0
 40
1.0
 40
1.0
 40
1.0
 40
1.0
 10
846.4934951111136
 20
183.666666666666
 30
0.0
 10
850.6356307348433
 20
183.666666666666
 30
0.0
 10
853.9934951111135
 20
187.0245310429345
 30
0.0
 10
853.9934951111135
 20
191.166666666666
 30
0.0
  0
SPLINE
  5
13F
330
70
100
AcDbEntity
  8
0
 62
     7
370
    18
100
AcDbSpline
210
0.0
220
0.0
230
1.0
 70
     8
 71
     3
 72
     8
 73
     4
 74
     0
 42
0.0000000001
 43
0.0000000001
 40
0.0
 40
0.0
 40
0.0
 40
0.0
 40
1.0
 40
1.0
 40
1.0
 40
1.0
 10
853.9934951111135
 20
362.1666666666661
 30
0.0
 10
853.9934951111135
 20
366.3088022903967
 30
0.0
 10
850.6356307348433
 20
369.666666666666
 30
0.0
 10
846.4934951111136
 20
369.666666666666
 30
0.0
  0
SPLINE
  5
140
330
70
100
AcDbEntity
  8
0
 62
     7
370
    18
100
AcDbSpline
210
0.0
220
0.0
230
1.0
 70
     8
 71
     3
 72
     8
 73
     4
 74
     0
 42
0.0000000001
 43
0.0000000001
 40
0.0
 40
0.0
 40
0.0
 40
0.0
 40
1.0
 40
1.0
 40
1.0
 40
1.0
 10
796.4934951111136
 20
369.666666666666
 30
0.0
 10
794.2843561117897
 20
369.666666666666
 30
0.0
 10
792.4934951111135
 20
367.875805665989
 30
0.0
 10
792.4934951111135
 20
365.666666666666
 30
0.0
  0
SPLINE
  5
141
330
70
100
AcDbEntity
  8
0
 62
     7
370
    18
100
AcDbSpline
210
0.0
220
0.0
230
1.0
 70
     8
 71
     3
 72
     8
 73
     4
 74
     0
 42
0.0000000001
 43
0.0000000001
 40
0.0
 40
0.0
 40
0.0
 40
0.0
 40
1.0
 40
1.0
 40
1.0
 40
1.0
 10
788.4934951111135
 20
360.6666666666661
 30
0.0
 10
790.7026341104356
 20
360.6666666666661
 30
0.0
 10
792.4934951111135
 20
362.4575276673431
 30
0.0
 10
792.4934951111135
 20
364.6666666666661
 30
0.0
  0
SPLINE
  5
142
330
70
100
AcDbEntity
  8
0
 62
     7
370
    18
100
AcDbSpline
210
0.0
220
0.0
230
1.0
 70
     8
 71
     3
 72
    11
 73
     7
 74
     0
 42
0.0000000001
 43
0.0000000001
 40
0.0
 40
0.0
 40
0.0
 40
0.0
 40
1.0
 40
1.0
 40
1.0
 40
2.0
 40
2.0
 40
2.0
 40
2.0
 10
832.8481411111134
 20
333.4166666666661
 30
0.0
 10
836.7141343599287
 20
333.4166666666661
 30
0.0
 10
839.8481411111132
 20
336.5506734178507
 30
0.0
 10
839.8481411111132
 20
340.4166666666661
 30
0.0
 10
839.8481411111132
 20
344.2826599154814
 30
0.0
 10
836.7141343599287
 20
347.4166666666661
 30
0.0
 10
832.8481411111134
 20
347.4166666666661
 30
0.0
  0
SPLINE
  5
143
330
70
100
AcDbEntity
  8
0
 62
     7
370
    18
100
AcDbSpline
210
0.0
220
0.0
230
1.0
 70
     8
 71
     3
 72
    11
 73
     7
 74
     0
 42
0.0000000001
 43
0.0000000001
 40
0.0
 40
0.0
 40
0.0
 40
0.0
 40
1.0
 40
1.0
 40
1.0
 40
2.0
 40
2.0
 40
2.0
 40
2.0
 10
832.8481411111134
 20
307.9166666666661
 30
0.0
 10
836.7141343599287
 20
307.9166666666661
 30
0.0
 10
839.8481411111132
 20
311.0506734178507
 30
0.0
 10
839.8481411111132
 20
314.9166666666661
 30
0.0
 10
839.8481411111132
 20
318.7826599154814
 30
0.0
 10
836.7141343599287
 20
321.916666666666
 30
0.0
 10
832.8481411111134
 20
321.916666666666
 30
0.0
  0
SPLINE
  5
144
330
70
100
AcDbEntity
  8
0
 62
     7
370
    18
100
AcDbSpline
210
0.0
220
0.0
230
1.0
 70
     8
 71
     3
 72
    11
 73
     7
 74
     0
 42
0.0000000001
 43
0.0000000001
 40
0.0
 40
0.0
 40
0.0
 40
0.0
 40
1.0
 40
1.0
 40
1.0
 40
2.0
 40
2.0
 40
2.0
 40
2.0
 10
832.8481411111134
 20
282.4166666666661
 30
0.0
 10
836.7141343599287
 20
282.4166666666661
 30
0.0
 10
839.8481411111132
 20
285.5506734178507
 30
0.0
 10
839.8481411111132
 20
289.4166666666661
 30
0.0
 10
839.8481411111132
 20
293.2826599154814
 30
0.0
 10
836.7141343599287
 20
296.4166666666661
 30
0.0
 10
832.8481411111134
 20
296.4166666666661
 30
0.0
  0
SPLINE
  5
145
330
70
100
AcDbEntity
  8
0
 62
     7
370
    18
100
AcDbSpline
210
0.0
220
0.0
230
1.0
 70
     8
 71
     3
 72
    11
 73
     7
 74
     0
 42
0.0000000001
 43
0.0000000001
 40
0.0
 40
0.0
 40
0.0
 40
0.0
 40
1.0
 40
1.0
 40
1.0
 40
2.0
 40
2.0
 40
2.0
 40
2.0
 10
832.8481411111134
 20
256.9166666666661
 30
0.0
 10
836.7141343599287
 20
256.9166666666661
 30
0.0
 10
839.8481411111132
 20
260.0506734178507
 30
0.0
 10
839.8481411111132
 20
263.916666666666
 30
0.0
 10
839.8481411111132
 20
267.7826599154814
 30
0.0
 10
836.7141343599287
 20
270.9166666666661
 30
0.0
 10
832.8481411111134
 20
270.9166666666661
 30
0.0
  0
SPLINE
  5
146
330
70
100
AcDbEntity
  8
0
 62
     7
370
    18
100
AcDbSpline
210
0.0
220
0.0
230
1.0
 70
     8
 71
     3
 72
    11
 73
     7
 74
     0
 42
0.0000000001
 43
0.0000000001
 40
0.0
 40
0.0
 40
0.0
 40
0.0
 40
1.0
 40
1.0
 40
1.0
 40
2.0
 40
2.0
 40
2.0
 40
2.0
 10
832.8481411111134
 20
231.4166666666661
 30
0.0
 10
836.7141343599287
 20
231.4166666666661
 30
0.0
 10
839.8481411111132
 20
234.5506734178507
 30
0.0
 10
839.8481411111132
 20
238.416666666666
 30
0.0
 10
839.8481411111132
 20
242.2826599154814
 30
0.0
 10
836.7141343599287
 20
245.4166666666661
 30
0.0
 10
832.8481411111134
 20
245.4166666666661
 30
0.0
  0
SPLINE
  5
147
330
70
100
AcDbEntity
  8
0
 62
     7
370
    18
100
AcDbSpline
210
0.0
220
0.0
230
1.0
 70
     8
 71
     3
 72
    11
 73
     7
 74
     0
 42
0.0000000001
 43
0.0000000001
 40
0.0
 40
0.0
 40
0.0
 40
0.0
 40
1.0
 40
1.0
 40
1.0
 40
2.0
 40
2.0
 40
2.0
 40
2.0
 10
832.8481411111134
 20
205.9166666666661
 30
0.0
 10
836.7141343599287
 20
205.9166666666661
 30
0.0
 10
839.8481411111132
 20
209.0506734178507
 30
0.0
 10
839.8481411111132
 20
212.9166666666661
 30
0.0
 10
839.8481411111132
 20
216.7826599154814
 30
0.0
 10
836.7141343599287
 20
219.916666666666
 30
0.0
 10
832.8481411111134
 20
219.916666666666
 30
0.0
  0
SPLINE
  5
148
330
70
100
AcDbEntity
  8
0
 62
     7
370
    18
100
AcDbSpline
210
0.0
220
0.0
230
1.0
 70
     8
 71
     3
 72
     8
 73
     4
 74
     0
 42
0.0000000001
 43
0.0000000001
 40
0.0
 40
0.0
 40
0.0
 40
0.0
 40
1.0
 40
1.0
 40
1.0
 40
1.0
 10
792.4934951111135
 20
188.6666666666661
 30
0.0
 10
792.4934951111135
 20
190.8758056659899
 30
0.0
 10
790.7026341104356
 20
192.666666666666
 30
0.0
 10
788.4934951111135
 20
192.666666666666
 30
0.0
  0
SPLINE
  5
149
330
70
100
AcDbEntity
  8
0
 62
     7
370
    18
100
AcDbSpline
210
0.0
220
0.0
230
1.0
 70
     8
 71
     3
 72
     8
 73
     4
 74
     0
 42
0.0000000001
 43
0.0000000001
 40
0.0
 40
0.0
 40
0.0
 40
0.0
 40
1.0
 40
1.0
 40
1.0
 40
1.0
 10
792.4934951111135
 20
187.666666666666
 30
0.0
 10
792.4934951111135
 20
185.4575276673422
 30
0.0
 10
794.2843561117897
 20
183.666666666666
 30
0.0
 10
796.4934951111136
 20
183.666666666666
 30
0.0
  0
SPLINE
  5
14A
330
70
100
AcDbEntity
  8
0
 62
     7
370
    18
100
AcDbSpline
210
0.0
220
0.0
230
1.0
 70
     8
 71
     3
 72
    11
 73
     7
 74
     0
 42
0.0000000001
 43
0.0000000001
 40
0.0
 40
0.0
 40
0.0
 40
0.0
 40
1.0
 40
1.0
 40
1.0
 40
2.0
 40
2.0
 40
2.0
 40
2.0
 10
569.3740811111129
 20
219.916666666666
 30
0.0
 10
565.5080878622975
 20
219.916666666666
 30
0.0
 10
562.3740811111129
 20
216.7826599154814
 30
0.0
 10
562.3740811111129
 20
212.9166666666661
 30
0.0
 10
562.3740811111129
 20
209.0506734178507
 30
0.0
 10
565.5080878622975
 20
205.9166666666661
 30
0.0
 10
569.3740811111129
 20
205.9166666666661
 30
0.0
  0
SPLINE
  5
14B
330
70
100
AcDbEntity
  8
0
 62
     7
370
    18
100
AcDbSpline
210
0.0
220
0.0
230
1.0
 70
     8
 71
     3
 72
    11
 73
     7
 74
     0
 42
0.0000000001
 43
0.0000000001
 40
0.0
 40
0.0
 40
0.0
 40
0.0
 40
1.0
 40
1.0
 40
1.0
 40
2.0
 40
2.0
 40
2.0
 40
2.0
 10
569.3740811111129
 20
245.4166666666661
 30
0.0
 10
565.5080878622975
 20
245.4166666666661
 30
0.0
 10
562.3740811111129
 20
242.2826599154814
 30
0.0
 10
562.3740811111129
 20
238.416666666666
 30
0.0
 10
562.3740811111129
 20
234.5506734178507
 30
0.0
 10
565.5080878622975
 20
231.4166666666661
 30
0.0
 10
569.3740811111129
 20
231.4166666666661
 30
0.0
  0
SPLINE
  5
14C
330
70
100
AcDbEntity
  8
0
 62
     7
370
    18
100
AcDbSpline
210
0.0
220
0.0
230
1.0
 70
     8
 71
     3
 72
    11
 73
     7
 74
     0
 42
0.0000000001
 43
0.0000000001
 40
0.0
 40
0.0
 40
0.0
 40
0.0
 40
1.0
 40
1.0
 40
1.0
 40
2.0
 40
2.0
 40
2.0
 40
2.0
 10
569.3740811111129
 20
270.9166666666661
 30
0.0
 10
565.5080878622975
 20
270.9166666666661
 30
0.0
 10
562.3740811111129
 20
267.7826599154814
 30
0.0
 10
562.3740811111129
 20
263.916666666666
 30
0.0
 10
562.3740811111129
 20
260.0506734178507
 30
0.0
 10
565.5080878622975
 20
256.9166666666661
 30
0.0
 10
569.3740811111129
 20
256.9166666666661
 30
0.0
  0
SPLINE
  5
14D
330
70
100
AcDbEntity
  8
0
 62
     7
370
    18
100
AcDbSpline
210
0.0
220
0.0
230
1.0
 70
     8
 71
     3
 72
    11
 73
     7
 74
     0
 42
0.0000000001
 43
0.0000000001
 40
0.0
 40
0.0
 40
0.0
 40
0.0
 40
1.0
 40
1.0
 40
1.0
 40
2.0
 40
2.0
 40
2.0
 40
2.0
 10
569.3740811111129
 20
296.4166666666661
 30
0.0
 10
565.5080878622975
 20
296.4166666666661
 30
0.0
 10
562.3740811111129
 20
293.2826599154814
 30
0.0
 10
562.3740811111129
 20
289.4166666666661
 30
0.0
 10
562.3740811111129
 20
285.5506734178507
 30
0.0
 10
565.5080878622975
 20
282.4166666666661
 30
0.0
 10
569.3740811111129
 20
282.4166666666661
 30
0.0
  0
SPLINE
  5
14E
330
70
100
AcDbEntity
  8
0
 62
     7
370
    18
100
AcDbSpline
210
0.0
220
0.0
230
1.0
 70
     8
 71
     3
 72
    11
 73
     7
 74
     0
 42
0.0000000001
 43
0.0000000001
 40
0.0
 40
0.0
 40
0.0
 40
0.0
 40
1.0
 40
1.0
 40
1.0
 40
2.0
 40
2.0
 40
2.0
 40
2.0
 10
569.3740811111129
 20
347.4166666666661
 30
0.0
 10
565.5080878622975
 20
347.4166666666661
 30
0.0
 10
562.3740811111129
 20
344.2826599154814
 30
0.0
 10
562.3740811111129
 20
340.4166666666661
 30
0.0
 10
562.3740811111129
 20
336.5506734178507
 30
0.0
 10
565.5080878622975
 20
333.4166666666661
 30
0.0
 10
569.3740811111129
 20
333.4166666666661
 30
0.0
  0
SPLINE
  5
14F
330
70
100
AcDbEntity
  8
0
 62
     7
370
    18
100
AcDbSpline
210
0.0
220
0.0
230
1.0
 70
     8
 71
     3
 72
    11
 73
     7
 74
     0
 42
0.0000000001
 43
0.0000000001
 40
0.0
 40
0.0
 40
0.0
 40
0.0
 40
1.0
 40
1.0
 40
1.0
 40
2.0
 40
2.0
 40
2.0
 40
2.0
 10
569.3740811111129
 20
321.916666666666
 30
0.0
 10
565.5080878622975
 20
321.916666666666
 30
0.0
 10
562.3740811111129
 20
318.7826599154814
 30
0.0
 10
562.3740811111129
 20
314.9166666666661
 30
0.0
 10
562.3740811111129
 20
311.0506734178507
 30
0.0
 10
565.5080878622975
 20
307.9166666666661
 30
0.0
 10
569.3740811111129
 20
307.9166666666661
 30
0.0
  0
SPLINE
  5
150
330
70
100
AcDbEntity
  8
0
 62
     7
370
    18
100
AcDbSpline
210
0.0
220
0.0
230
1.0
 70
     8
 71
     3
 72
     8
 73
     4
 74
     0
 42
0.0000000001
 43
0.0000000001
 40
0.0
 40
0.0
 40
0.0
 40
0.0
 40
1.0
 40
1.0
 40
1.0
 40
1.0
 10
555.7287271111126
 20
369.666666666666
 30
0.0
 10
551.5865914873829
 20
369.666666666666
 30
0.0
 10
548.2287271111126
 20
366.3088022903967
 30
0.0
 10
548.2287271111126
 20
362.1666666666661
 30
0.0
  0
SPLINE
  5
151
330
70
100
AcDbEntity
  8
0
 62
     7
370
    18
100
AcDbSpline
210
0.0
220
0.0
230
1.0
 70
     8
 71
     3
 72
     8
 73
     4
 74
     0
 42
0.0000000001
 43
0.0000000001
 40
0.0
 40
0.0
 40
0.0
 40
0.0
 40
1.0
 40
1.0
 40
1.0
 40
1.0
 10
548.2287271111126
 20
191.166666666666
 30
0.0
 10
548.2287271111126
 20
187.0245310429345
 30
0.0
 10
551.5865914873829
 20
183.666666666666
 30
0.0
 10
555.7287271111126
 20
183.666666666666
 30
0.0
  0
SPLINE
  5
152
330
70
100
AcDbEntity
  8
0
 62
     7
370
    18
100
AcDbSpline
210
0.0
220
0.0
230
1.0
 70
     8
 71
     3
 72
     8
 73
     4
 74
     0
 42
0.0000000001
 43
0.0000000001
 40
0.0
 40
0.0
 40
0.0
 40
0.0
 40
1.0
 40
1.0
 40
1.0
 40
1.0
 10
605.7287271111126
 20
183.666666666666
 30
0.0
 10
607.9378661104365
 20
183.666666666666
 30
0.0
 10
609.7287271111127
 20
185.4575276673422
 30
0.0
 10
609.7287271111127
 20
187.666666666666
 30
0.0
  0
SPLINE
  5
153
330
70
100
AcDbEntity
  8
0
 62
     7
370
    18
100
AcDbSpline
210
0.0
220
0.0
230
1.0
 70
     8
 71
     3
 72
     8
 73
     4
 74
     0
 42
0.0000000001
 43
0.0000000001
 40
0.0
 40
0.0
 40
0.0
 40
0.0
 40
1.0
 40
1.0
 40
1.0
 40
1.0
 10
613.7287271111127
 20
192.666666666666
 30
0.0
 10
611.5195881117906
 20
192.666666666666
 30
0.0
 10
609.7287271111127
 20
190.8758056659899
 30
0.0
 10
609.7287271111127
 20
188.6666666666661
 30
0.0
  0
SPLINE
  5
154
330
70
100
AcDbEntity
  8
0
 62
     7
370
    18
100
AcDbSpline
210
0.0
220
0.0
230
1.0
 70
     8
 71
     3
 72
     8
 73
     4
 74
     0
 42
0.0000000001
 43
0.0000000001
 40
0.0
 40
0.0
 40
0.0
 40
0.0
 40
1.0
 40
1.0
 40
1.0
 40
1.0
 10
609.7287271111127
 20
364.6666666666661
 30
0.0
 10
609.7287271111127
 20
362.4575276673431
 30
0.0
 10
611.5195881117906
 20
360.6666666666661
 30
0.0
 10
613.7287271111127
 20
360.6666666666661
 30
0.0
  0
SPLINE
  5
155
330
70
100
AcDbEntity
  8
0
 62
     7
370
    18
100
AcDbSpline
210
0.0
220
0.0
230
1.0
 70
     8
 71
     3
 72
     8
 73
     4
 74
     0
 42
0.0000000001
 43
0.0000000001
 40
0.0
 40
0.0
 40
0.0
 40
0.0
 40
1.0
 40
1.0
 40
1.0
 40
1.0
 10
609.7287271111127
 20
365.666666666666
 30
0.0
 10
609.7287271111127
 20
367.875805665989
 30
0.0
 10
607.9378661104365
 20
369.666666666666
 30
0.0
 10
605.7287271111126
 20
369.666666666666
 30
0.0
  0
LINE
  5
156
330
70
100
AcDbEntity
  8
0
 62
     7
370
    18
100
AcDbLine
 10
648.6356626724227
 20
-32.92926004981018
 30
0.0
 11
648.6356626724227
 21
-113.1332650769291
 31
0.0
  0
LINE
  5
157
330
70
100
AcDbEntity
  8
0
 62
     7
370
    18
100
AcDbLine
 10
672.8478882163308
 20
49.26585277974118
 30
0.0
 11
672.7735034988399
 21
49.26585277974118
 31
0.0
  0
LINE
  5
158
330
70
100
AcDbEntity
  8
0
 62
     7
370
    18
100
AcDbLine
 10
743.5133698344961
 20
49.26585277974118
 30
0.0
 11
743.4389851170053
 21
49.26585277974118
 31
0.0
  0
LINE
  5
159
330
70
100
AcDbEntity
  8
0
 62
     7
370
    18
100
AcDbLine
 10
767.6512106609134
 20
-32.92926004981018
 30
0.0
 11
767.6512106609134
 21
-113.1332650769291
 31
0.0
  0
LINE
  5
15A
330
70
100
AcDbEntity
  8
0
 62
     7
370
    18
100
AcDbLine
 10
674.6703137949062
 20
-23.29643913449036
 30
0.0
 11
674.6703137949062
 21
47.44342720116947
 31
0.0
  0
LINE
  5
15B
330
70
100
AcDbEntity
  8
0
 62
     7
370
    18
100
AcDbLine
 10
654.2145164843841
 20
-118.7121188888886
 30
0.0
 11
762.072356848952
 21
-118.7121188888886
 31
0.0
  0
LINE
  5
15C
330
70
100
AcDbEntity
  8
0
 62
     7
370
    18
100
AcDbLine
 10
860.6666666666679
 20
51.49739430452609
 30
0.0
 11
860.6666666666679
 21
-27.3504062378488
 31
0.0
  0
LINE
  5
15D
330
70
100
AcDbEntity
  8
0
 62
     7
370
    18
100
AcDbLine
 10
855.0878128547065
 20
-32.92926004981018
 30
0.0
 11
767.6512106609134
 21
-32.92926004981018
 31
0.0
  0
LINE
  5
15E
330
70
100
AcDbEntity
  8
0
 62
     7
370
    18
100
AcDbLine
 10
706.2838187293473
 20
47.40623484242132
 30
0.0
 11
706.2838187293473
 21
-23.25924677574403
 31
0.0
  0
LINE
  5
15F
330
70
100
AcDbEntity
  8
0
 62
     7
370
    18
100
AcDbLine
 10
555.6202066666683
 20
-27.3504062378488
 30
0.0
 11
555.6202066666683
 21
51.49739430452609
 31
0.0
  0
LINE
  5
160
330
70
100
AcDbEntity
  8
0
 62
     7
370
    18
100
AcDbLine
 10
767.6512106609134
 20
57.07624811648566
 30
0.0
 11
767.6512106609134
 21
137.2802531436045
 31
0.0
  0
LINE
  5
161
330
70
100
AcDbEntity
  8
0
 62
     7
370
    18
100
AcDbLine
 10
743.4389851170053
 20
-25.11886471306389
 30
0.0
 11
743.5133698344961
 21
-25.11886471306389
 31
0.0
  0
LINE
  5
162
330
70
100
AcDbEntity
  8
0
 62
     7
370
    18
100
AcDbLine
 10
672.7735034988399
 20
-25.11886471306389
 30
0.0
 11
672.8478882163308
 21
-25.11886471306389
 31
0.0
  0
LINE
  5
163
330
70
100
AcDbEntity
  8
0
 62
     7
370
    18
100
AcDbLine
 10
670.9510779202646
 20
47.44342720116947
 30
0.0
 11
670.9510779202646
 21
-23.29643913449036
 31
0.0
  0
LINE
  5
164
330
70
100
AcDbEntity
  8
0
 62
     7
370
    18
100
AcDbLine
 10
762.072356848952
 20
142.8591069555659
 30
0.0
 11
654.2145164843841
 21
142.8591069555659
 31
0.0
  0
LINE
  5
165
330
70
100
AcDbEntity
  8
0
 62
     7
370
    18
100
AcDbLine
 10
745.3357954130715
 20
-23.29643913449036
 30
0.0
 11
745.3357954130715
 21
47.44342720116947
 31
0.0
  0
LINE
  5
166
330
70
100
AcDbEntity
  8
0
 62
     7
370
    18
100
AcDbLine
 10
561.1990604786278
 20
57.07624811648566
 30
0.0
 11
648.6356626724227
 21
57.07624811648566
 31
0.0
  0
LINE
  5
167
330
70
100
AcDbEntity
  8
0
 62
     7
370
    18
100
AcDbLine
 10
648.6356626724227
 20
-32.92926004981018
 30
0.0
 11
561.1990604786278
 21
-32.92926004981018
 31
0.0
  0
LINE
  5
168
330
70
100
AcDbEntity
  8
0
 62
     7
370
    18
100
AcDbLine
 10
648.6356626724227
 20
57.07624811648566
 30
0.0
 11
648.6356626724227
 21
137.2802531436045
 31
0.0
  0
LINE
  5
169
330
70
100
AcDbEntity
  8
0
 62
     7
370
    18
100
AcDbLine
 10
741.6165595384318
 20
47.44342720116947
 30
0.0
 11
741.6165595384318
 21
-23.29643913449036
 31
0.0
  0
LINE
  5
16A
330
70
100
AcDbEntity
  8
0
 62
     7
370
    18
100
AcDbLine
 10
710.0030546039889
 20
-23.25924677574403
 30
0.0
 11
710.0030546039889
 21
47.40623484242132
 31
0.0
  0
LINE
  5
16B
330
70
100
AcDbEntity
  8
0
 62
     7
370
    18
100
AcDbLine
 10
767.6512106609134
 20
57.07624811648566
 30
0.0
 11
855.0878128547065
 21
57.07624811648566
 31
0.0
  0
SPLINE
  5
16C
330
70
100
AcDbEntity
  8
0
 62
     7
370
    18
100
AcDbSpline
210
0.0
220
0.0
230
1.0
 70
     8
 71
     3
 72
     8
 73
     4
 74
     0
 42
0.0000000001
 43
0.0000000001
 40
0.0
 40
0.0
 40
0.0
 40
0.0
 40
1.0
 40
1.0
 40
1.0
 40
1.0
 10
648.6356626724227
 20
-113.1332650769291
 30
0.0
 10
648.6356626724227
 20
-116.2143809588106
 30
0.0
 10
651.1334006025026
 20
-118.7121188888886
 30
0.0
 10
654.2145164843841
 20
-118.7121188888886
 30
0.0
  0
SPLINE
  5
16D
330
70
100
AcDbEntity
  8
0
 62
     7
370
    18
100
AcDbSpline
210
0.0
220
0.0
230
1.0
 70
     8
 71
     3
 72
     8
 73
     4
 74
     0
 42
0.0000000001
 43
0.0000000001
 40
0.0
 40
0.0
 40
0.0
 40
0.0
 40
1.0
 40
1.0
 40
1.0
 40
1.0
 10
654.2145164843841
 20
142.8591069555659
 30
0.0
 10
651.1334006025026
 20
142.8591069555659
 30
0.0
 10
648.6356626724227
 20
140.361369025486
 30
0.0
 10
648.6356626724227
 20
137.2802531436045
 30
0.0
  0
SPLINE
  5
16E
330
70
100
AcDbEntity
  8
0
 62
     7
370
    18
100
AcDbSpline
210
0.0
220
0.0
230
1.0
 70
     8
 71
     3
 72
    11
 73
     7
 74
     0
 42
0.0000000001
 43
0.0000000001
 40
0.0
 40
0.0
 40
0.0
 40
0.0
 40
1.0
 40
1.0
 40
1.0
 40
2.0
 40
2.0
 40
2.0
 40
2.0
 10
710.0030546039889
 20
47.40623484242132
 30
0.0
 10
710.0030546039889
 20
48.43327346971455
 30
0.0
 10
709.1704752939622
 20
49.26585277974118
 30
0.0
 10
708.1434366666671
 20
49.26585277974118
 30
0.0
 10
707.1163980393739
 20
49.26585277974118
 30
0.0
 10
706.2838187293473
 20
48.43327346971455
 30
0.0
 10
706.2838187293473
 20
47.40623484242132
 30
0.0
  0
SPLINE
  5
16F
330
70
100
AcDbEntity
  8
0
 62
     7
370
    18
100
AcDbSpline
210
0.0
220
0.0
230
1.0
 70
     8
 71
     3
 72
     8
 73
     4
 74
     0
 42
0.0000000001
 43
0.0000000001
 40
0.0
 40
0.0
 40
0.0
 40
0.0
 40
1.0
 40
1.0
 40
1.0
 40
1.0
 10
674.6703137949062
 20
47.44342720116947
 30
0.0
 10
674.6703137949062
 20
48.44992505591472
 30
0.0
 10
673.8543860710797
 20
49.26585277974118
 30
0.0
 10
672.8478882163308
 20
49.26585277974118
 30
0.0
  0
SPLINE
  5
170
330
70
100
AcDbEntity
  8
0
 62
     7
370
    18
100
AcDbSpline
210
0.0
220
0.0
230
1.0
 70
     8
 71
     3
 72
     8
 73
     4
 74
     0
 42
0.0000000001
 43
0.0000000001
 40
0.0
 40
0.0
 40
0.0
 40
0.0
 40
1.0
 40
1.0
 40
1.0
 40
1.0
 10
855.0878128547065
 20
-32.92926004981018
 30
0.0
 10
858.1689287365898
 20
-32.92926004981018
 30
0.0
 10
860.6666666666679
 20
-30.43152211973029
 30
0.0
 10
860.6666666666679
 20
-27.3504062378488
 30
0.0
  0
SPLINE
  5
171
330
70
100
AcDbEntity
  8
0
 62
     7
370
    18
100
AcDbSpline
210
0.0
220
0.0
230
1.0
 70
     8
 71
     3
 72
     8
 73
     4
 74
     0
 42
0.0000000001
 43
0.0000000001
 40
0.0
 40
0.0
 40
0.0
 40
0.0
 40
1.0
 40
1.0
 40
1.0
 40
1.0
 10
743.4389851170053
 20
49.26585277974118
 30
0.0
 10
742.4324872622564
 20
49.26585277974118
 30
0.0
 10
741.6165595384318
 20
48.44992505591472
 30
0.0
 10
741.6165595384318
 20
47.44342720116947
 30
0.0
  0
SPLINE
  5
172
330
70
100
AcDbEntity
  8
0
 62
     7
370
    18
100
AcDbSpline
210
0.0
220
0.0
230
1.0
 70
     8
 71
     3
 72
     8
 73
     4
 74
     0
 42
0.0000000001
 43
0.0000000001
 40
0.0
 40
0.0
 40
0.0
 40
0.0
 40
1.0
 40
1.0
 40
1.0
 40
1.0
 10
741.6165595384318
 20
-23.29643913449036
 30
0.0
 10
741.6165595384318
 20
-24.30293698923924
 30
0.0
 10
742.4324872622564
 20
-25.11886471306389
 30
0.0
 10
743.4389851170053
 20
-25.11886471306389
 30
0.0
  0
SPLINE
  5
173
330
70
100
AcDbEntity
  8
0
 62
     7
370
    18
100
AcDbSpline
210
0.0
220
0.0
230
1.0
 70
     8
 71
     3
 72
     8
 73
     4
 74
     0
 42
0.0000000001
 43
0.0000000001
 40
0.0
 40
0.0
 40
0.0
 40
0.0
 40
1.0
 40
1.0
 40
1.0
 40
1.0
 10
762.072356848952
 20
-118.7121188888886
 30
0.0
 10
765.1534727308335
 20
-118.7121188888886
 30
0.0
 10
767.6512106609134
 20
-116.2143809588106
 30
0.0
 10
767.6512106609134
 20
-113.1332650769291
 30
0.0
  0
SPLINE
  5
174
330
70
100
AcDbEntity
  8
0
 62
     7
370
    18
100
AcDbSpline
210
0.0
220
0.0
230
1.0
 70
     8
 71
     3
 72
     8
 73
     4
 74
     0
 42
0.0000000001
 43
0.0000000001
 40
0.0
 40
0.0
 40
0.0
 40
0.0
 40
1.0
 40
1.0
 40
1.0
 40
1.0
 10
561.1990604786278
 20
57.07624811648566
 30
0.0
 10
558.1179445967463
 20
57.07624811648566
 30
0.0
 10
555.6202066666683
 20
54.57851018640758
 30
0.0
 10
555.6202066666683
 20
51.49739430452609
 30
0.0
  0
SPLINE
  5
175
330
70
100
AcDbEntity
  8
0
 62
     7
370
    18
100
AcDbSpline
210
0.0
220
0.0
230
1.0
 70
     8
 71
     3
 72
     8
 73
     4
 74
     0
 42
0.0000000001
 43
0.0000000001
 40
0.0
 40
0.0
 40
0.0
 40
0.0
 40
1.0
 40
1.0
 40
1.0
 40
1.0
 10
670.9510779202646
 20
-23.29643913449036
 30
0.0
 10
670.9510779202646
 20
-24.30293698923924
 30
0.0
 10
671.7670056440911
 20
-25.11886471306389
 30
0.0
 10
672.7735034988399
 20
-25.11886471306389
 30
0.0
  0
SPLINE
  5
176
330
70
100
AcDbEntity
  8
0
 62
     7
370
    18
100
AcDbSpline
210
0.0
220
0.0
230
1.0
 70
     8
 71
     3
 72
     8
 73
     4
 74
     0
 42
0.0000000001
 43
0.0000000001
 40
0.0
 40
0.0
 40
0.0
 40
0.0
 40
1.0
 40
1.0
 40
1.0
 40
1.0
 10
860.6666666666679
 20
51.49739430452609
 30
0.0
 10
860.6666666666679
 20
54.57851018640758
 30
0.0
 10
858.1689287365898
 20
57.07624811648566
 30
0.0
 10
855.0878128547065
 20
57.07624811648566
 30
0.0
  0
SPLINE
  5
177
330
70
100
AcDbEntity
  8
0
 62
     7
370
    18
100
AcDbSpline
210
0.0
220
0.0
230
1.0
 70
     8
 71
     3
 72
     8
 73
     4
 74
     0
 42
0.0000000001
 43
0.0000000001
 40
0.0
 40
0.0
 40
0.0
 40
0.0
 40
1.0
 40
1.0
 40
1.0
 40
1.0
 10
767.6512106609134
 20
137.2802531436045
 30
0.0
 10
767.6512106609134
 20
140.361369025486
 30
0.0
 10
765.1534727308335
 20
142.8591069555659
 30
0.0
 10
762.072356848952
 20
142.8591069555659
 30
0.0
  0
SPLINE
  5
178
330
70
100
AcDbEntity
  8
0
 62
     7
370
    18
100
AcDbSpline
210
0.0
220
0.0
230
1.0
 70
     8
 71
     3
 72
     8
 73
     4
 74
     0
 42
0.0000000001
 43
0.0000000001
 40
0.0
 40
0.0
 40
0.0
 40
0.0
 40
1.0
 40
1.0
 40
1.0
 40
1.0
 10
555.6202066666683
 20
-27.3504062378488
 30
0.0
 10
555.6202066666683
 20
-30.43152211973029
 30
0.0
 10
558.1179445967463
 20
-32.92926004981018
 30
0.0
 10
561.1990604786278
 20
-32.92926004981018
 30
0.0
  0
SPLINE
  5
179
330
70
100
AcDbEntity
  8
0
 62
     7
370
    18
100
AcDbSpline
210
0.0
220
0.0
230
1.0
 70
     8
 71
     3
 72
     8
 73
     4
 74
     0
 42
0.0000000001
 43
0.0000000001
 40
0.0
 40
0.0
 40
0.0
 40
0.0
 40
1.0
 40
1.0
 40
1.0
 40
1.0
 10
672.8478882163308
 20
-25.11886471306389
 30
0.0
 10
673.8543860710797
 20
-25.11886471306389
 30
0.0
 10
674.6703137949062
 20
-24.30293698923924
 30
0.0
 10
674.6703137949062
 20
-23.29643913449036
 30
0.0
  0
SPLINE
  5
17A
330
70
100
AcDbEntity
  8
0
 62
     7
370
    18
100
AcDbSpline
210
0.0
220
0.0
230
1.0
 70
     8
 71
     3
 72
    11
 73
     7
 74
     0
 42
0.0000000001
 43
0.0000000001
 40
0.0
 40
0.0
 40
0.0
 40
0.0
 40
1.0
 40
1.0
 40
1.0
 40
2.0
 40
2.0
 40
2.0
 40
2.0
 10
706.2838187293473
 20
-23.25924677574403
 30
0.0
 10
706.2838187293473
 20
-24.28628540303908
 30
0.0
 10
707.1163980393739
 20
-25.11886471306389
 30
0.0
 10
708.1434366666671
 20
-25.11886471306389
 30
0.0
 10
709.1704752939622
 20
-25.11886471306389
 30
0.0
 10
710.0030546039889
 20
-24.28628540303908
 30
0.0
 10
710.0030546039889
 20
-23.25924677574403
 30
0.0
  0
SPLINE
  5
17B
330
70
100
AcDbEntity
  8
0
 62
     7
370
    18
100
AcDbSpline
210
0.0
220
0.0
230
1.0
 70
     8
 71
     3
 72
     8
 73
     4
 74
     0
 42
0.0000000001
 43
0.0000000001
 40
0.0
 40
0.0
 40
0.0
 40
0.0
 40
1.0
 40
1.0
 40
1.0
 40
1.0
 10
672.7735034988399
 20
49.26585277974118
 30
0.0
 10
671.7670056440911
 20
49.26585277974118
 30
0.0
 10
670.9510779202646
 20
48.44992505591472
 30
0.0
 10
670.9510779202646
 20
47.44342720116947
 30
0.0
  0
SPLINE
  5
17C
330
70
100
AcDbEntity
  8
0
 62
     7
370
    18
100
AcDbSpline
210
0.0
220
0.0
230
1.0
 70
     8
 71
     3
 72
     8
 73
     4
 74
     0
 42
0.0000000001
 43
0.0000000001
 40
0.0
 40
0.0
 40
0.0
 40
0.0
 40
1.0
 40
1.0
 40
1.0
 40
1.0
 10
743.5133698344961
 20
-25.11886471306389
 30
0.0
 10
744.519867689245
 20
-25.11886471306389
 30
0.0
 10
745.3357954130715
 20
-24.30293698923924
 30
0.0
 10
745.3357954130715
 20
-23.29643913449036
 30
0.0
  0
SPLINE
  5
17D
330
70
100
AcDbEntity
  8
0
 62
     7
370
    18
100
AcDbSpline
210
0.0
220
0.0
230
1.0
 70
     8
 71
     3
 72
     8
 73
     4
 74
     0
 42
0.0000000001
 43
0.0000000001
 40
0.0
 40
0.0
 40
0.0
 40
0.0
 40
1.0
 40
1.0
 40
1.0
 40
1.0
 10
745.3357954130715
 20
47.44342720116947
 30
0.0
 10
745.3357954130715
 20
48.44992505591472
 30
0.0
 10
744.519867689245
 20
49.26585277974118
 30
0.0
 10
743.5133698344961
 20
49.26585277974118
 30
0.0
  0
LINE
  5
17F
330
70
100
AcDbEntity
  8
02___PRT_ALL_AXES
  6
AI-Linetype-23
 62
     7
370
    25
100
AcDbLine
 10
227.7777777777783
 20
228.2222222222226
 30
0.0
 11
227.7777777777783
 21
194.4722222222226
 31
0.0
  0
LINE
  5
181
330
70
100
AcDbEntity
  8
02___PRT_ALL_AXES
  6
AI-Linetype-24
 62
     7
370
    25
100
AcDbLine
 10
227.7777777777783
 20
228.2222222222226
 30
0.0
 11
227.7777777777783
 21
261.9722222222226
 31
0.0
  0
LINE
  5
183
330
70
100
AcDbEntity
  8
02___PRT_ALL_AXES
  6
AI-Linetype-25
 62
     7
370
    25
100
AcDbLine
 10
385.2777777777774
 20
228.2222222222226
 30
0.0
 11
351.5277777777774
 21
228.2222222222226
 31
0.0
  0
LINE
  5
185
330
70
100
AcDbEntity
  8
02___PRT_ALL_AXES
  6
AI-Linetype-26
 62
     7
370
    25
100
AcDbLine
 10
227.7777777777783
 20
228.2222222222226
 30
0.0
 11
194.0277777777783
 21
228.2222222222226
 31
0.0
  0
LINE
  5
187
330
70
100
AcDbEntity
  8
02___PRT_ALL_AXES
  6
AI-Linetype-27
 62
     7
370
    25
100
AcDbLine
 10
227.7777777777783
 20
228.2222222222226
 30
0.0
 11
261.5277777777783
 21
228.2222222222226
 31
0.0
  0
LINE
  5
189
330
70
100
AcDbEntity
  8
02___PRT_ALL_AXES
  6
AI-Linetype-28
 62
     7
370
    25
100
AcDbLine
 10
385.2777777777774
 20
228.2222222222226
 30
0.0
 11
419.0277777777773
 21
228.2222222222226
 31
0.0
  0
LINE
  5
18B
330
70
100
AcDbEntity
  8
02___PRT_ALL_AXES
  6
AI-Linetype-29
 62
     7
370
    25
100
AcDbLine
 10
385.2777777777774
 20
228.2222222222226
 30
0.0
 11
385.2777777777774
 21
194.4722222222226
 31
0.0
  0
LINE
  5
18D
330
70
100
AcDbEntity
  8
02___PRT_ALL_AXES
  6
AI-Linetype-30
 62
     7
370
    25
100
AcDbLine
 10
385.2777777777774
 20
228.2222222222226
 30
0.0
 11
385.2777777777774
 21
261.9722222222226
 31
0.0
  0
CIRCLE
  5
18F
330
70
100
AcDbEntity
  8
02___PRT_ALL_AXES
 62
     7
370
    25
100
AcDbCircle
 10
385.2777777777774
 20
228.2222222222226
 30
0.0
 40
22.5
  0
CIRCLE
  5
190
330
70
100
AcDbEntity
  8
02___PRT_ALL_AXES
 62
     7
370
    25
100
AcDbCircle
 10
227.7777777777783
 20
228.2222222222226
 30
0.0
 40
22.5
  0
ENDSEC
  0
SECTION
  2
OBJECTS
  0
DICTIONARY
  5
C
330
0
100
AcDbDictionary
281
     1
  3
ACAD_COLOR
350
63
  3
ACAD_DETAILVIEWSTYLE
350
6A
  3
ACAD_GROUP
350
D
  3
ACAD_LAYOUT
350
62
  3
ACAD_MATERIAL
350
10
  3
ACAD_MLEADERSTYLE
350
66
  3
ACAD_MLINESTYLE
350
5F
  3
ACAD_PLOTSETTINGS
350
61
  3
ACAD_PLOTSTYLENAME
350
E
  3
ACAD_SCALELIST
350
42
  3
ACAD_SECTIONVIEWSTYLE
350
68
  3
ACAD_TABLESTYLE
350
64
  3
ACAD_VISUALSTYLE
350
29
  3
ACDB_RECOMPOSE_DATA
350
199
  3
AcDbVariableDictionary
350
191
  0
DICTIONARY
  5
63
102
{ACAD_REACTORS
330
C
102
}
330
C
100
AcDbDictionary
281
     1
  0
DICTIONARY
  5
6A
102
{ACAD_REACTORS
330
C
102
}
330
C
100
AcDbDictionary
281
     1
  3
Imperial24
350
6B
  0
DICTIONARY
  5
D
102
{ACAD_REACTORS
330
C
102
}
330
C
100
AcDbDictionary
281
     1
  0
DICTIONARY
  5
62
102
{ACAD_REACTORS
330
C
102
}
330
C
100
AcDbDictionary
281
     1
  3
Layout1
350
6F
  3
Layout2
350
77
  3
Model
350
73
  0
DICTIONARY
  5
10
102
{ACAD_REACTORS
330
C
102
}
330
C
100
AcDbDictionary
281
     1
  3
ByBlock
350
19
  3
ByLayer
350
11
  3
Global
350
21
  0
DICTIONARY
  5
66
102
{ACAD_REACTORS
330
C
102
}
330
C
100
AcDbDictionary
281
     1
  3
Standard
350
67
  0
DICTIONARY
  5
5F
102
{ACAD_REACTORS
330
C
102
}
330
C
100
AcDbDictionary
281
     1
  3
Standard
350
60
  0
DICTIONARY
  5
61
102
{ACAD_REACTORS
330
C
102
}
330
C
100
AcDbDictionary
281
     1
  0
ACDBDICTIONARYWDFLT
  5
E
102
{ACAD_REACTORS
330
C
102
}
330
C
100
AcDbDictionary
281
     1
  3
Normal
350
F
100
AcDbDictionaryWithDefault
340
F
  0
DICTIONARY
  5
42
102
{ACAD_REACTORS
330
C
102
}
330
C
100
AcDbDictionary
281
     1
  3
A0
350
43
  3
A1
350
44
  3
A2
350
45
  3
A3
350
46
  3
A4
350
47
  3
A5
350
48
  3
A6
350
49
  3
A7
350
4A
  3
A8
350
4B
  3
A9
350
4C
  3
B0
350
4D
  3
B1
350
4E
  3
B2
350
4F
  3
B3
350
50
  3
B4
350
51
  3
B5
350
52
  3
B6
350
53
  0
DICTIONARY
  5
68
102
{ACAD_REACTORS
330
C
102
}
330
C
100
AcDbDictionary
281
     1
  3
Imperial24
350
69
  0
DICTIONARY
  5
64
102
{ACAD_REACTORS
330
C
102
}
330
C
100
AcDbDictionary
281
     1
  3
Standard
350
65
  0
DICTIONARY
  5
29
102
{ACAD_REACTORS
330
C
102
}
330
C
100
AcDbDictionary
281
     1
  3
2dWireframe
350
2F
  3
Basic
350
2E
  3
Brighten
350
35
  3
ColorChange
350
39
  3
Conceptual
350
32
  3
Dim
350
34
  3
EdgeColorOff
350
41
  3
Facepattern
350
38
  3
Flat
350
2A
  3
FlatWithEdges
350
2B
  3
Gouraud
350
2C
  3
GouraudWithEdges
350
2D
  3
Hidden
350
31
  3
JitterOff
350
3F
  3
Linepattern
350
37
  3
OverhangOff
350
40
  3
Realistic
350
33
  3
Shaded
350
3E
  3
Shaded with edges
350
3D
  3
Shades of Gray
350
3A
  3
Sketchy
350
3B
  3
Thicken
350
36
  3
Wireframe
350
30
  3
X-Ray
350
3C
  0
XRECORD
  5
199
102
{ACAD_REACTORS
330
C
102
}
330
C
100
AcDbXrecord
280
     1
 90
        1
330
65
  0
DICTIONARY
  5
191
102
{ACAD_REACTORS
330
C
102
}
330
C
100
AcDbDictionary
281
     1
  3
CANNOSCALE
350
196
  3
CMLEADERSTYLE
350
193
  3
CTABLESTYLE
350
192
  3
CVIEWDETAILSTYLE
350
194
  3
CVIEWSECTIONSTYLE
350
195
  0
ACDBDETAILVIEWSTYLE
  5
6B
102
{ACAD_REACTORS
330
6A
102
}
330
6A
100
AcDbModelDocViewStyle
 70
     0
  3
Imperial24
290
     1
300
Imperial24
 90
        0
100
AcDbDetailViewStyle
 70
     0
 71
     0
 90
        3
 71
     1
340
55
 62
   256
 40
0.24
340
0
 62
   256
 40
0.24
300

 40
0.36
280
     3
 71
     2
340
5D
 90
       25
 62
   256
 71
     3
340
55
 62
   256
 40
0.24
 90
        1
 40
0.75
 90
        1
300
%<\AcVar ViewType \f "%tc1">% %<\AcVar ViewDetailId>%\PSCALE %<\AcVar ViewScale \f "%sn">%
 71
     4
340
5D
 90
       25
 62
   256
340
5D
 90
       25
 62
   256
280
     0
  0
LAYOUT
  5
6F
102
{ACAD_REACTORS
330
62
102
}
330
62
100
AcDbPlotSettings
  1

  2

  4

  6

 40
0.0
 41
0.0
 42
0.0
 43
0.0
 44
0.0
 45
0.0
 46
0.0
 47
0.0
 48
0.0
 49
0.0
140
0.0
141
0.0
142
1.0
143
1.0
 70
   688
 72
     0
 73
     0
 74
     5
  7

 75
    16
147
1.0
 76
     0
 77
     2
 78
   300
148
0.0
149
0.0
100
AcDbLayout
  1
Layout1
 70
     1
 71
     1
 10
0.0
 20
0.0
 11
12.0
 21
9.0
 12
0.0
 22
0.0
 32
0.0
 14
0.0
 24
0.0
 34
0.0
 15
0.0
 25
0.0
 35
0.0
146
0.0
 13
0.0
 23
0.0
 33
0.0
 16
1.0
 26
0.0
 36
0.0
 17
0.0
 27
1.0
 37
0.0
 76
     0
330
6C
  0
LAYOUT
  5
77
102
{ACAD_REACTORS
330
62
102
}
330
62
100
AcDbPlotSettings
  1

  2

  4

  6

 40
0.0
 41
0.0
 42
0.0
 43
0.0
 44
0.0
 45
0.0
 46
0.0
 47
0.0
 48
0.0
 49
0.0
140
0.0
141
0.0
142
1.0
143
1.0
 70
   688
 72
     0
 73
     0
 74
     5
  7

 75
    16
147
1.0
 76
     0
 77
     2
 78
   300
148
0.0
149
0.0
100
AcDbLayout
  1
Layout2
 70
     1
 71
     2
 10
0.0
 20
0.0
 11
12.0
 21
9.0
 12
0.0
 22
0.0
 32
0.0
 14
0.0
 24
0.0
 34
0.0
 15
0.0
 25
0.0
 35
0.0
146
0.0
 13
0.0
 23
0.0
 33
0.0
 16
1.0
 26
0.0
 36
0.0
 17
0.0
 27
1.0
 37
0.0
 76
     0
330
74
  0
LAYOUT
  5
73
102
{ACAD_REACTORS
330
62
102
}
330
62
100
AcDbPlotSettings
  1

  2

  4

  6

 40
0.0
 41
0.0
 42
0.0
 43
0.0
 44
0.0
 45
0.0
 46
0.0
 47
0.0
 48
0.0
 49
0.0
140
0.0
141
0.0
142
1.0
143
1.0
 70
  1712
 72
     0
 73
     0
 74
     0
  7

 75
     0
147
1.0
 76
     0
 77
     2
 78
   300
148
0.0
149
0.0
100
AcDbLayout
  1
Model
 70
     1
 71
     0
 10
0.0
 20
0.0
 11
12.0
 21
9.0
 12
0.0
 22
0.0
 32
0.0
 14
0.0
 24
0.0
 34
0.0
 15
0.0
 25
0.0
 35
0.0
146
0.0
 13
0.0
 23
0.0
 33
0.0
 16
1.0
 26
0.0
 36
0.0
 17
0.0
 27
1.0
 37
0.0
 76
     0
330
70
  0
MATERIAL
  5
19
102
{ACAD_XDICTIONARY
360
1A
102
}
102
{ACAD_REACTORS
330
10
102
}
330
10
100
AcDbMaterial
  1
ByBlock
 72
     0
 43
0.0208333333333333
 43
0.0
 43
0.0
 43
0.0
 43
0.0
 43
0.0208333333333333
 43
0.0
 43
0.0
 43
0.0
 43
0.0
 43
1.0
 43
0.0
 43
0.0
 43
0.0
 43
0.0
 43
1.0
 77
     0
 47
0.0208333333333333
 47
0.0
 47
0.0
 47
0.0
 47
0.0
 47
0.0208333333333333
 47
0.0
 47
0.0
 47
0.0
 47
0.0
 47
1.0
 47
0.0
 47
0.0
 47
0.0
 47
0.0
 47
1.0
171
     0
 49
0.0208333333333333
 49
0.0
 49
0.0
 49
0.0
 49
0.0
 49
0.0208333333333333
 49
0.0
 49
0.0
 49
0.0
 49
0.0
 49
1.0
 49
0.0
 49
0.0
 49
0.0
 49
0.0
 49
1.0
175
     0
142
0.0208333333333333
142
0.0
142
0.0
142
0.0
142
0.0
142
0.0208333333333333
142
0.0
142
0.0
142
0.0
142
0.0
142
1.0
142
0.0
142
0.0
142
0.0
142
0.0
142
1.0
179
     0
144
0.0208333333333333
144
0.0
144
0.0
144
0.0
144
0.0
144
0.0208333333333333
144
0.0
144
0.0
144
0.0
144
0.0
144
1.0
144
0.0
144
0.0
144
0.0
144
0.0
144
1.0
147
0.0208333333333333
147
0.0
147
0.0
147
0.0
147
0.0
147
0.0208333333333333
147
0.0
147
0.0
147
0.0
147
0.0
147
1.0
147
0.0
147
0.0
147
0.0
147
0.0
147
1.0
  0
MATERIAL
  5
11
102
{ACAD_XDICTIONARY
360
12
102
}
102
{ACAD_REACTORS
330
10
102
}
330
10
100
AcDbMaterial
  1
ByLayer
 72
     0
 43
0.0208333333333333
 43
0.0
 43
0.0
 43
0.0
 43
0.0
 43
0.0208333333333333
 43
0.0
 43
0.0
 43
0.0
 43
0.0
 43
1.0
 43
0.0
 43
0.0
 43
0.0
 43
0.0
 43
1.0
 77
     0
 47
0.0208333333333333
 47
0.0
 47
0.0
 47
0.0
 47
0.0
 47
0.0208333333333333
 47
0.0
 47
0.0
 47
0.0
 47
0.0
 47
1.0
 47
0.0
 47
0.0
 47
0.0
 47
0.0
 47
1.0
171
     0
 49
0.0208333333333333
 49
0.0
 49
0.0
 49
0.0
 49
0.0
 49
0.0208333333333333
 49
0.0
 49
0.0
 49
0.0
 49
0.0
 49
1.0
 49
0.0
 49
0.0
 49
0.0
 49
0.0
 49
1.0
175
     0
142
0.0208333333333333
142
0.0
142
0.0
142
0.0
142
0.0
142
0.0208333333333333
142
0.0
142
0.0
142
0.0
142
0.0
142
1.0
142
0.0
142
0.0
142
0.0
142
0.0
142
1.0
179
     0
144
0.0208333333333333
144
0.0
144
0.0
144
0.0
144
0.0
144
0.0208333333333333
144
0.0
144
0.0
144
0.0
144
0.0
144
1.0
144
0.0
144
0.0
144
0.0
144
0.0
144
1.0
147
0.0208333333333333
147
0.0
147
0.0
147
0.0
147
0.0
147
0.0208333333333333
147
0.0
147
0.0
147
0.0
147
0.0
147
1.0
147
0.0
147
0.0
147
0.0
147
0.0
147
1.0
  0
MATERIAL
  5
21
102
{ACAD_XDICTIONARY
360
22
102
}
102
{ACAD_REACTORS
330
10
102
}
330
10
100
AcDbMaterial
  1
Global
 72
     0
 43
0.0208333333333333
 43
0.0
 43
0.0
 43
0.0
 43
0.0
 43
0.0208333333333333
 43
0.0
 43
0.0
 43
0.0
 43
0.0
 43
1.0
 43
0.0
 43
0.0
 43
0.0
 43
0.0
 43
1.0
 77
     0
 47
0.0208333333333333
 47
0.0
 47
0.0
 47
0.0
 47
0.0
 47
0.0208333333333333
 47
0.0
 47
0.0
 47
0.0
 47
0.0
 47
1.0
 47
0.0
 47
0.0
 47
0.0
 47
0.0
 47
1.0
171
     0
 49
0.0208333333333333
 49
0.0
 49
0.0
 49
0.0
 49
0.0
 49
0.0208333333333333
 49
0.0
 49
0.0
 49
0.0
 49
0.0
 49
1.0
 49
0.0
 49
0.0
 49
0.0
 49
0.0
 49
1.0
175
     0
142
0.0208333333333333
142
0.0
142
0.0
142
0.0
142
0.0
142
0.0208333333333333
142
0.0
142
0.0
142
0.0
142
0.0
142
1.0
142
0.0
142
0.0
142
0.0
142
0.0
142
1.0
179
     0
144
0.0208333333333333
144
0.0
144
0.0
144
0.0
144
0.0
144
0.0208333333333333
144
0.0
144
0.0
144
0.0
144
0.0
144
1.0
144
0.0
144
0.0
144
0.0
144
0.0
144
1.0
147
0.0208333333333333
147
0.0
147
0.0
147
0.0
147
0.0
147
0.0208333333333333
147
0.0
147
0.0
147
0.0
147
0.0
147
1.0
147
0.0
147
0.0
147
0.0
147
0.0
147
1.0
  0
MLEADERSTYLE
  5
67
102
{ACAD_REACTORS
330
66
102
}
330
66
100
AcDbMLeaderStyle
179
     2
170
     2
171
     1
172
     0
 90
        2
 40
0.0
 41
0.0
173
     1
 91
-1056964608
340
5B
 92
       -2
290
     1
 42
0.09
291
     1
 43
0.36
  3
Standard
 44
0.18
300

342
55
174
     1
178
     6
175
     1
176
     0
 93
-1056964608
 45
0.18
292
     0
297
     0
 46
0.18
 94
-1056964608
 47
1.0
 49
1.0
140
1.0
293
     1
141
0.0
294
     1
177
     0
142
1.0
295
     1
296
     0
143
0.125
271
     0
272
     9
273
     9
298
     1
  0
MLINESTYLE
  5
60
102
{ACAD_REACTORS
330
5F
102
}
330
5F
100
AcDbMlineStyle
  2
STANDARD
 70
     0
  3

 62
   256
 51
90.0
 52
90.0
 71
     2
 49
0.5
 62
   256
  6
BYLAYER
 49
-0.5
 62
   256
  6
BYLAYER
  0
ACDBPLACEHOLDER
  5
F
102
{ACAD_REACTORS
330
E
102
}
330
E
  0
SCALE
  5
43
102
{ACAD_REACTORS
330
42
102
}
330
42
100
AcDbScale
 70
     0
300
1:1
140
1.0
141
1.0
290
     1
  0
SCALE
  5
44
102
{ACAD_REACTORS
330
42
102
}
330
42
100
AcDbScale
 70
     0
300
1/128" = 1'-0"
140
0.0078125
141
12.0
290
     0
  0
SCALE
  5
45
102
{ACAD_REACTORS
330
42
102
}
330
42
100
AcDbScale
 70
     0
300
1/64" = 1'-0"
140
0.015625
141
12.0
290
     0
  0
SCALE
  5
46
102
{ACAD_REACTORS
330
42
102
}
330
42
100
AcDbScale
 70
     0
300
1/32" = 1'-0"
140
0.03125
141
12.0
290
     0
  0
SCALE
  5
47
102
{ACAD_REACTORS
330
42
102
}
330
42
100
AcDbScale
 70
     0
300
1/16" = 1'-0"
140
0.0625
141
12.0
290
     0
  0
SCALE
  5
48
102
{ACAD_REACTORS
330
42
102
}
330
42
100
AcDbScale
 70
     0
300
3/32" = 1'-0"
140
0.09375
141
12.0
290
     0
  0
SCALE
  5
49
102
{ACAD_REACTORS
330
42
102
}
330
42
100
AcDbScale
 70
     0
300
1/8" = 1'-0"
140
0.125
141
12.0
290
     0
  0
SCALE
  5
4A
102
{ACAD_REACTORS
330
42
102
}
330
42
100
AcDbScale
 70
     0
300
3/16" = 1'-0"
140
0.1875
141
12.0
290
     0
  0
SCALE
  5
4B
102
{ACAD_REACTORS
330
42
102
}
330
42
100
AcDbScale
 70
     0
300
1/4" = 1'-0"
140
0.25
141
12.0
290
     0
  0
SCALE
  5
4C
102
{ACAD_REACTORS
330
42
102
}
330
42
100
AcDbScale
 70
     0
300
3/8" = 1'-0"
140
0.375
141
12.0
290
     0
  0
SCALE
  5
4D
102
{ACAD_REACTORS
330
42
102
}
330
42
100
AcDbScale
 70
     0
300
1/2" = 1'-0"
140
0.5
141
12.0
290
     0
  0
SCALE
  5
4E
102
{ACAD_REACTORS
330
42
102
}
330
42
100
AcDbScale
 70
     0
300
3/4" = 1'-0"
140
0.75
141
12.0
290
     0
  0
SCALE
  5
4F
102
{ACAD_REACTORS
330
42
102
}
330
42
100
AcDbScale
 70
     0
300
1" = 1'-0"
140
1.0
141
12.0
290
     0
  0
SCALE
  5
50
102
{ACAD_REACTORS
330
42
102
}
330
42
100
AcDbScale
 70
     0
300
1-1/2" = 1'-0"
140
1.5
141
12.0
290
     0
  0
SCALE
  5
51
102
{ACAD_REACTORS
330
42
102
}
330
42
100
AcDbScale
 70
     0
300
3" = 1'-0"
140
3.0
141
12.0
290
     0
  0
SCALE
  5
52
102
{ACAD_REACTORS
330
42
102
}
330
42
100
AcDbScale
 70
     0
300
6" = 1'-0"
140
6.0
141
12.0
290
     0
  0
SCALE
  5
53
102
{ACAD_REACTORS
330
42
102
}
330
42
100
AcDbScale
 70
     0
300
1'-0" = 1'-0"
140
12.0
141
12.0
290
     0
  0
ACDBSECTIONVIEWSTYLE
  5
69
102
{ACAD_REACTORS
330
68
102
}
330
68
100
AcDbModelDocViewStyle
 70
     0
  3
Imperial24
290
     1
300
Imperial24
 90
        0
100
AcDbSectionViewStyle
 70
     0
 71
     0
 90
       78
 71
     1
340
55
 62
   256
 40
0.24
340
0
340
0
 62
   256
 40
0.24
300
I, O, Q, S, X, Z
 40
0.48
 90
        3
 40
0.18
 90
        1
 71
     2
340
5D
 90
       25
 62
   256
340
5D
 90
       50
 62
   256
 40
0.24
 40
0.0
 40
0.24
 71
     3
340
55
 62
   256
 40
0.24
 90
        1
 40
0.75
 90
        1
300
%<\AcVar ViewType \f "%tc1">% %<\AcVar ViewSectionStartId>%-%<\AcVar ViewSectionEndId>%\PSCALE %<\AcVar ViewScale \f "%sn">%
 71
     4
 62
   256
 62
   257
300
ANSI31
 40
1.0
 90
        0
290
     0
290
     0
 90
        6
 40
0.0
 40
1.570796326794896
 40
0.2617993877991494
 40
1.308996938995747
 40
-0.2617993877991494
 40
1.832595714594046
  0
TABLESTYLE
  5
65
102
{ACAD_XDICTIONARY
360
197
102
}
102
{ACAD_REACTORS
330
64
102
}
330
64
100
AcDbTableStyle
280
     0
  3
Standard
 70
     0
 71
     0
 40
0.06
 41
0.06
280
     0
281
     0
  7
Standard
140
0.18
170
     2
 62
     0
 63
     7
283
     0
 90
      512
 91
        0
  1

274
    -2
284
     1
 64
     0
275
    -2
285
     1
 65
     0
276
    -2
286
     1
 66
     0
277
    -2
287
     1
 67
     0
278
    -2
288
     1
 68
     0
279
    -2
289
     1
 69
     0
  7
Standard
140
0.25
170
     5
 62
     0
 63
     7
283
     0
 90
      512
 91
        0
  1

274
    -2
284
     1
 64
     0
275
    -2
285
     1
 65
     0
276
    -2
286
     1
 66
     0
277
    -2
287
     1
 67
     0
278
    -2
288
     1
 68
     0
279
    -2
289
     1
 69
     0
  7
Standard
140
0.18
170
     5
 62
     0
 63
     7
283
     0
 90
      512
 91
        0
  1

274
    -2
284
     1
 64
     0
275
    -2
285
     1
 65
     0
276
    -2
286
     1
 66
     0
277
    -2
287
     1
 67
     0
278
    -2
288
     1
 68
     0
279
    -2
289
     1
 69
     0
  0
VISUALSTYLE
  5
2F
102
{ACAD_REACTORS
330
29
102
}
330
29
100
AcDbVisualStyle
  2
2dWireframe
 70
     4
177
     3
291
     0
 70
    58
 90
        0
176
     1
 90
        2
176
     1
 90
        0
176
     1
 90
        0
176
     1
 40
0.6
176
     1
 40
30.0
176
     1
 62
     7
420
 16777215
176
     1
 90
        1
176
     1
 90
        4
176
     1
 62
     7
176
     1
 62
   257
176
     1
 90
        1
176
     1
 90
        1
176
     1
 40
1.0
176
     1
 90
        0
176
     1
 62
   257
176
     1
 40
1.0
176
     1
 90
        1
176
     1
 90
        6
176
     1
 90
        2
176
     1
 62
     7
176
     1
 90
        5
176
     1
 90
        0
176
     1
 90
        0
176
     1
290
     0
176
     1
 90
        1
176
     1
 40
0.0
176
     1
 90
        0
176
     1
290
     1
176
     1
290
     1
176
     1
290
     0
176
     1
290
     0
176
     1
290
     0
176
     1
290
     0
176
     1
290
     0
176
     1
290
     0
176
     1
290
     0
176
     1
 90
       50
176
     1
 40
0.0
176
     1
 40
1.0
176
     1
 90
        0
176
     1
 62
    18
420
        0
176
     1
 90
       50
176
     1
 90
        3
176
     1
 62
     5
420
      255
176
     1
290
     0
176
     1
 90
       50
176
     1
 90
       50
176
     1
 90
       50
176
     1
290
     0
176
     1
 90
       50
176
     1
 62
   256
176
     0
 40
1.0
176
     0
 90
        2
176
     1
  1
strokes_ogs.tif
176
     1
290
     0
176
     1
 40
1.0
176
     1
 40
1.0
176
     1
  0
VISUALSTYLE
  5
2E
102
{ACAD_REACTORS
330
29
102
}
330
29
100
AcDbVisualStyle
  2
Basic
 70
     7
177
     3
291
     1
 70
    58
 90
        1
176
     1
 90
        0
176
     1
 90
        1
176
     1
 90
        0
176
     1
 40
0.6
176
     1
 40
30.0
176
     1
 62
     7
420
 16777215
176
     1
 90
        0
176
     1
 90
        4
176
     1
 62
     7
176
     1
 62
   257
176
     1
 90
        1
176
     1
 90
        1
176
     1
 40
1.0
176
     1
 90
        8
176
     1
 62
     7
176
     1
 40
1.0
176
     1
 90
        1
176
     1
 90
        6
176
     1
 90
        2
176
     1
 62
     7
176
     1
 90
        5
176
     1
 90
        0
176
     1
 90
        0
176
     1
290
     0
176
     1
 90
        1
176
     1
 40
0.0
176
     1
 90
        0
176
     1
290
     0
176
     1
290
     1
176
     1
290
     1
176
     1
290
     0
176
     1
290
     0
176
     1
290
     0
176
     1
290
     0
176
     1
290
     0
176
     1
290
     0
176
     1
 90
       50
176
     1
 40
0.0
176
     1
 40
1.0
176
     1
 90
        0
176
     1
 62
    18
420
        0
176
     1
 90
       50
176
     1
 90
        3
176
     1
 62
     5
420
      255
176
     1
290
     0
176
     1
 90
       50
176
     1
 90
       50
176
     1
 90
       50
176
     1
290
     0
176
     1
 90
       50
176
     1
 62
   256
176
     0
 40
1.0
176
     0
 90
        2
176
     1
  1
strokes_ogs.tif
176
     1
290
     0
176
     1
 40
1.0
176
     1
 40
1.0
176
     1
  0
VISUALSTYLE
  5
35
102
{ACAD_REACTORS
330
29
102
}
330
29
100
AcDbVisualStyle
  2
Brighten
 70
    12
177
     3
291
     1
 70
    58
 90
        2
176
     1
 90
        2
176
     1
 90
        0
176
     1
 90
        0
176
     1
 40
0.6
176
     1
 40
30.0
176
     1
 62
     7
420
 16777215
176
     1
 90
        1
176
     1
 90
        4
176
     1
 62
     7
176
     1
 62
   257
176
     1
 90
        1
176
     1
 90
        1
176
     1
 40
1.0
176
     1
 90
        8
176
     1
 62
     7
176
     1
 40
1.0
176
     1
 90
        1
176
     1
 90
        6
176
     1
 90
        2
176
     1
 62
     7
176
     1
 90
        5
176
     1
 90
        0
176
     1
 90
        0
176
     1
290
     0
176
     1
 90
        1
176
     1
 40
50.0
176
     1
 90
        0
176
     1
290
     0
176
     1
290
     1
176
     1
290
     1
176
     1
290
     0
176
     1
290
     0
176
     1
290
     0
176
     1
290
     0
176
     1
290
     0
176
     1
290
     0
176
     1
 90
       50
176
     1
 40
0.0
176
     1
 40
1.0
176
     1
 90
        0
176
     1
 62
    18
420
        0
176
     1
 90
       50
176
     1
 90
        3
176
     1
 62
     5
420
      255
176
     1
290
     0
176
     1
 90
       50
176
     1
 90
       50
176
     1
 90
       50
176
     1
290
     0
176
     1
 90
       50
176
     1
 62
   256
176
     0
 40
1.0
176
     0
 90
        2
176
     1
  1
strokes_ogs.tif
176
     1
290
     0
176
     1
 40
1.0
176
     1
 40
1.0
176
     1
  0
VISUALSTYLE
  5
39
102
{ACAD_REACTORS
330
29
102
}
330
29
100
AcDbVisualStyle
  2
ColorChange
 70
    16
177
     3
291
     1
 70
    58
 90
        2
176
     1
 90
        2
176
     1
 90
        3
176
     1
 90
        0
176
     1
 40
0.6
176
     1
 40
30.0
176
     1
 62
     8
420
  8421504
176
     1
 90
        1
176
     1
 90
        4
176
     1
 62
     7
176
     1
 62
   257
176
     1
 90
        1
176
     1
 90
        1
176
     1
 40
1.0
176
     1
 90
        8
176
     1
 62
     8
420
  8421504
176
     1
 40
1.0
176
     1
 90
        1
176
     1
 90
        6
176
     1
 90
        2
176
     1
 62
     7
176
     1
 90
        5
176
     1
 90
        0
176
     1
 90
        0
176
     1
290
     0
176
     1
 90
        1
176
     1
 40
0.0
176
     1
 90
        0
176
     1
290
     0
176
     1
290
     1
176
     1
290
     1
176
     1
290
     0
176
     1
290
     0
176
     1
290
     0
176
     1
290
     0
176
     1
290
     0
176
     1
290
     0
176
     1
 90
       50
176
     1
 40
0.0
176
     1
 40
1.0
176
     1
 90
        0
176
     1
 62
    18
420
        0
176
     1
 90
       50
176
     1
 90
        3
176
     1
 62
     5
420
      255
176
     1
290
     0
176
     1
 90
       50
176
     1
 90
       50
176
     1
 90
       50
176
     1
290
     0
176
     1
 90
       50
176
     1
 62
   256
176
     0
 40
1.0
176
     0
 90
        2
176
     1
  1
strokes_ogs.tif
176
     1
290
     0
176
     1
 40
1.0
176
     1
 40
1.0
176
     1
  0
VISUALSTYLE
  5
32
102
{ACAD_REACTORS
330
29
102
}
330
29
100
AcDbVisualStyle
  2
Conceptual
 70
     9
177
     3
291
     0
 70
    58
 90
        3
176
     1
 90
        2
176
     1
 90
        0
176
     1
 90
        0
176
     1
 40
0.6
176
     1
 40
30.0
176
     1
 62
     7
420
 16777215
176
     1
 90
        2
176
     1
 90
        2
176
     1
 62
     7
176
     1
 62
   257
176
     1
 90
        1
176
     1
 90
        1
176
     1
 40
179.0
176
     1
 90
        8
176
     1
 62
     7
176
     1
 40
1.0
176
     1
 90
        1
176
     1
 90
        6
176
     1
 90
        2
176
     1
 62
     7
176
     1
 90
        3
176
     1
 90
        0
176
     1
 90
        0
176
     1
290
     0
176
     1
 90
        1
176
     1
 40
0.0
176
     1
 90
        0
176
     1
290
     0
176
     1
290
     1
176
     1
290
     1
176
     1
290
     0
176
     1
290
     0
176
     1
290
     0
176
     1
290
     0
176
     1
290
     0
176
     1
290
     0
176
     1
 90
       50
176
     1
 40
0.0
176
     1
 40
1.0
176
     1
 90
        0
176
     1
 62
    18
420
        0
176
     1
 90
       50
176
     1
 90
        3
176
     1
 62
     5
420
      255
176
     1
290
     0
176
     1
 90
       50
176
     1
 90
       50
176
     1
 90
       50
176
     1
290
     0
176
     1
 90
       50
176
     1
 62
   256
176
     0
 40
1.0
176
     0
 90
        2
176
     1
  1
strokes_ogs.tif
176
     1
290
     0
176
     1
 40
1.0
176
     1
 40
1.0
176
     1
  0
VISUALSTYLE
  5
34
102
{ACAD_REACTORS
330
29
102
}
330
29
100
AcDbVisualStyle
  2
Dim
 70
    11
177
     3
291
     1
 70
    58
 90
        2
176
     1
 90
        2
176
     1
 90
        0
176
     1
 90
        0
176
     1
 40
0.6
176
     1
 40
30.0
176
     1
 62
     7
420
 16777215
176
     1
 90
        1
176
     1
 90
        4
176
     1
 62
     7
176
     1
 62
   257
176
     1
 90
        1
176
     1
 90
        1
176
     1
 40
1.0
176
     1
 90
        8
176
     1
 62
     7
176
     1
 40
1.0
176
     1
 90
        1
176
     1
 90
        6
176
     1
 90
        2
176
     1
 62
     7
176
     1
 90
        5
176
     1
 90
        0
176
     1
 90
        0
176
     1
290
     0
176
     1
 90
        1
176
     1
 40
-50.0
176
     1
 90
        0
176
     1
290
     0
176
     1
290
     1
176
     1
290
     1
176
     1
290
     0
176
     1
290
     0
176
     1
290
     0
176
     1
290
     0
176
     1
290
     0
176
     1
290
     0
176
     1
 90
       50
176
     1
 40
0.0
176
     1
 40
1.0
176
     1
 90
        0
176
     1
 62
    18
420
        0
176
     1
 90
       50
176
     1
 90
        3
176
     1
 62
     5
420
      255
176
     1
290
     0
176
     1
 90
       50
176
     1
 90
       50
176
     1
 90
       50
176
     1
290
     0
176
     1
 90
       50
176
     1
 62
   256
176
     0
 40
1.0
176
     0
 90
        2
176
     1
  1
strokes_ogs.tif
176
     1
290
     0
176
     1
 40
1.0
176
     1
 40
1.0
176
     1
  0
VISUALSTYLE
  5
41
102
{ACAD_REACTORS
330
29
102
}
330
29
100
AcDbVisualStyle
  2
EdgeColorOff
 70
    22
177
     3
291
     1
 70
    58
 90
        2
176
     0
 90
        2
176
     0
 90
        0
176
     0
 90
        0
176
     0
 40
0.6
176
     0
 40
30.0
176
     0
 62
     7
420
 16777215
176
     0
 90
        1
176
     0
 90
        4
176
     0
 62
     7
176
     0
 62
   257
176
     0
 90
        1
176
     0
 90
        1
176
     0
 40
1.0
176
     0
 90
        8
176
     2
 62
     7
176
     0
 40
1.0
176
     0
 90
        1
176
     0
 90
        6
176
     0
 90
        2
176
     0
 62
     7
176
     0
 90
        5
176
     0
 90
        0
176
     0
 90
        0
176
     0
290
     0
176
     0
 90
        1
176
     0
 40
0.0
176
     0
 90
        0
176
     0
290
     0
176
     0
290
     1
176
     0
290
     1
176
     0
290
     0
176
     0
290
     0
176
     0
290
     0
176
     0
290
     0
176
     0
290
     0
176
     0
290
     0
176
     0
 90
       50
176
     0
 40
0.0
176
     0
 40
1.0
176
     0
 90
        0
176
     0
 62
    18
420
        0
176
     0
 90
       50
176
     0
 90
        3
176
     0
 62
     5
420
      255
176
     0
290
     0
176
     0
 90
       50
176
     0
 90
       50
176
     0
 90
       50
176
     0
290
     0
176
     0
 90
       50
176
     0
 62
   256
176
     0
 40
1.0
176
     0
 90
        2
176
     0
  1
strokes_ogs.tif
176
     0
290
     0
176
     0
 40
1.0
176
     0
 40
1.0
176
     0
  0
VISUALSTYLE
  5
38
102
{ACAD_REACTORS
330
29
102
}
330
29
100
AcDbVisualStyle
  2
Facepattern
 70
    15
177
     3
291
     1
 70
    58
 90
        2
176
     1
 90
        2
176
     1
 90
        0
176
     1
 90
        0
176
     1
 40
0.6
176
     1
 40
30.0
176
     1
 62
     7
420
 16777215
176
     1
 90
        1
176
     1
 90
        4
176
     1
 62
     7
176
     1
 62
   257
176
     1
 90
        1
176
     1
 90
        1
176
     1
 40
1.0
176
     1
 90
        8
176
     1
 62
     7
176
     1
 40
1.0
176
     1
 90
        1
176
     1
 90
        6
176
     1
 90
        2
176
     1
 62
     7
176
     1
 90
        5
176
     1
 90
        0
176
     1
 90
        0
176
     1
290
     0
176
     1
 90
        1
176
     1
 40
0.0
176
     1
 90
        0
176
     1
290
     0
176
     1
290
     1
176
     1
290
     1
176
     1
290
     0
176
     1
290
     0
176
     1
290
     0
176
     1
290
     0
176
     1
290
     0
176
     1
290
     0
176
     1
 90
       50
176
     1
 40
0.0
176
     1
 40
1.0
176
     1
 90
        0
176
     1
 62
    18
420
        0
176
     1
 90
       50
176
     1
 90
        3
176
     1
 62
     5
420
      255
176
     1
290
     0
176
     1
 90
       50
176
     1
 90
       50
176
     1
 90
       50
176
     1
290
     0
176
     1
 90
       50
176
     1
 62
   256
176
     0
 40
1.0
176
     0
 90
        2
176
     1
  1
strokes_ogs.tif
176
     1
290
     0
176
     1
 40
1.0
176
     1
 40
1.0
176
     1
  0
VISUALSTYLE
  5
2A
102
{ACAD_REACTORS
330
29
102
}
330
29
100
AcDbVisualStyle
  2
Flat
 70
     0
177
     3
291
     1
 70
    58
 90
        2
176
     1
 90
        1
176
     1
 90
        1
176
     1
 90
        2
176
     1
 40
0.6
176
     1
 40
30.0
176
     1
 62
     7
420
 16777215
176
     1
 90
        0
176
     1
 90
        0
176
     1
 62
     7
176
     1
 62
   257
176
     1
 90
        1
176
     1
 90
        1
176
     1
 40
1.0
176
     1
 90
        8
176
     1
 62
     7
176
     1
 40
1.0
176
     1
 90
        1
176
     1
 90
        6
176
     1
 90
        2
176
     1
 62
     7
176
     1
 90
        5
176
     1
 90
        0
176
     1
 90
        0
176
     1
290
     0
176
     1
 90
       13
176
     1
 40
0.0
176
     1
 90
        0
176
     1
290
     0
176
     1
290
     1
176
     1
290
     1
176
     1
290
     0
176
     1
290
     0
176
     1
290
     0
176
     1
290
     0
176
     1
290
     0
176
     1
290
     0
176
     1
 90
       50
176
     1
 40
0.0
176
     1
 40
1.0
176
     1
 90
        0
176
     1
 62
    18
420
        0
176
     1
 90
       50
176
     1
 90
        3
176
     1
 62
     5
420
      255
176
     1
290
     0
176
     1
 90
       50
176
     1
 90
       50
176
     1
 90
       50
176
     1
290
     0
176
     1
 90
       50
176
     1
 62
   256
176
     0
 40
1.0
176
     0
 90
        2
176
     1
  1
strokes_ogs.tif
176
     1
290
     0
176
     1
 40
1.0
176
     1
 40
1.0
176
     1
  0
VISUALSTYLE
  5
2B
102
{ACAD_REACTORS
330
29
102
}
330
29
100
AcDbVisualStyle
  2
FlatWithEdges
 70
     1
177
     3
291
     1
 70
    58
 90
        2
176
     1
 90
        1
176
     1
 90
        1
176
     1
 90
        2
176
     1
 40
0.6
176
     1
 40
30.0
176
     1
 62
     7
420
 16777215
176
     1
 90
        1
176
     1
 90
        0
176
     1
 62
     7
176
     1
 62
   257
176
     1
 90
        1
176
     1
 90
        1
176
     1
 40
1.0
176
     1
 90
        0
176
     1
 62
   257
176
     1
 40
1.0
176
     1
 90
        1
176
     1
 90
        6
176
     1
 90
        2
176
     1
 62
     7
176
     1
 90
        5
176
     1
 90
        0
176
     1
 90
        0
176
     1
290
     0
176
     1
 90
       13
176
     1
 40
0.0
176
     1
 90
        0
176
     1
290
     0
176
     1
290
     1
176
     1
290
     1
176
     1
290
     0
176
     1
290
     0
176
     1
290
     0
176
     1
290
     0
176
     1
290
     0
176
     1
290
     0
176
     1
 90
       50
176
     1
 40
0.0
176
     1
 40
1.0
176
     1
 90
        0
176
     1
 62
    18
420
        0
176
     1
 90
       50
176
     1
 90
        3
176
     1
 62
     5
420
      255
176
     1
290
     0
176
     1
 90
       50
176
     1
 90
       50
176
     1
 90
       50
176
     1
290
     0
176
     1
 90
       50
176
     1
 62
   256
176
     0
 40
1.0
176
     0
 90
        2
176
     1
  1
strokes_ogs.tif
176
     1
290
     0
176
     1
 40
1.0
176
     1
 40
1.0
176
     1
  0
VISUALSTYLE
  5
2C
102
{ACAD_REACTORS
330
29
102
}
330
29
100
AcDbVisualStyle
  2
Gouraud
 70
     2
177
     3
291
     1
 70
    58
 90
        2
176
     1
 90
        2
176
     1
 90
        1
176
     1
 90
        2
176
     1
 40
0.6
176
     1
 40
30.0
176
     1
 62
     7
420
 16777215
176
     1
 90
        0
176
     1
 90
        0
176
     1
 62
     7
176
     1
 62
   257
176
     1
 90
        1
176
     1
 90
        1
176
     1
 40
1.0
176
     1
 90
        0
176
     1
 62
     7
176
     1
 40
1.0
176
     1
 90
        1
176
     1
 90
        6
176
     1
 90
        2
176
     1
 62
     7
176
     1
 90
        5
176
     1
 90
        0
176
     1
 90
        0
176
     1
290
     0
176
     1
 90
       13
176
     1
 40
0.0
176
     1
 90
        0
176
     1
290
     0
176
     1
290
     1
176
     1
290
     1
176
     1
290
     0
176
     1
290
     0
176
     1
290
     0
176
     1
290
     0
176
     1
290
     0
176
     1
290
     0
176
     1
 90
       50
176
     1
 40
0.0
176
     1
 40
1.0
176
     1
 90
        0
176
     1
 62
    18
420
        0
176
     1
 90
       50
176
     1
 90
        3
176
     1
 62
     5
420
      255
176
     1
290
     0
176
     1
 90
       50
176
     1
 90
       50
176
     1
 90
       50
176
     1
290
     0
176
     1
 90
       50
176
     1
 62
   256
176
     0
 40
1.0
176
     0
 90
        2
176
     1
  1
strokes_ogs.tif
176
     1
290
     0
176
     1
 40
1.0
176
     1
 40
1.0
176
     1
  0
VISUALSTYLE
  5
2D
102
{ACAD_REACTORS
330
29
102
}
330
29
100
AcDbVisualStyle
  2
GouraudWithEdges
 70
     3
177
     3
291
     1
 70
    58
 90
        2
176
     1
 90
        2
176
     1
 90
        1
176
     1
 90
        2
176
     1
 40
0.6
176
     1
 40
30.0
176
     1
 62
     7
420
 16777215
176
     1
 90
        1
176
     1
 90
        0
176
     1
 62
     7
176
     1
 62
   257
176
     1
 90
        1
176
     1
 90
        1
176
     1
 40
1.0
176
     1
 90
        0
176
     1
 62
   257
176
     1
 40
1.0
176
     1
 90
        1
176
     1
 90
        6
176
     1
 90
        2
176
     1
 62
     7
176
     1
 90
        5
176
     1
 90
        0
176
     1
 90
        0
176
     1
290
     0
176
     1
 90
       13
176
     1
 40
0.0
176
     1
 90
        0
176
     1
290
     0
176
     1
290
     1
176
     1
290
     1
176
     1
290
     0
176
     1
290
     0
176
     1
290
     0
176
     1
290
     0
176
     1
290
     0
176
     1
290
     0
176
     1
 90
       50
176
     1
 40
0.0
176
     1
 40
1.0
176
     1
 90
        0
176
     1
 62
    18
420
        0
176
     1
 90
       50
176
     1
 90
        3
176
     1
 62
     5
420
      255
176
     1
290
     0
176
     1
 90
       50
176
     1
 90
       50
176
     1
 90
       50
176
     1
290
     0
176
     1
 90
       50
176
     1
 62
   256
176
     0
 40
1.0
176
     0
 90
        2
176
     1
  1
strokes_ogs.tif
176
     1
290
     0
176
     1
 40
1.0
176
     1
 40
1.0
176
     1
  0
VISUALSTYLE
  5
31
102
{ACAD_REACTORS
330
29
102
}
330
29
100
AcDbVisualStyle
  2
Hidden
 70
     6
177
     3
291
     0
 70
    58
 90
        1
176
     1
 90
        2
176
     1
 90
        2
176
     1
 90
        0
176
     1
 40
0.6
176
     1
 40
30.0
176
     1
 62
     7
420
 16777215
176
     1
 90
        2
176
     1
 90
        2
176
     1
 62
     7
176
     1
 62
   257
176
     1
 90
        2
176
     1
 90
        1
176
     1
 40
40.0
176
     1
 90
        0
176
     1
 62
   257
176
     1
 40
1.0
176
     1
 90
        1
176
     1
 90
        6
176
     1
 90
        2
176
     1
 62
     7
176
     1
 90
        3
176
     1
 90
        0
176
     1
 90
        0
176
     1
290
     0
176
     1
 90
        1
176
     1
 40
0.0
176
     1
 90
        0
176
     1
290
     0
176
     1
290
     1
176
     1
290
     1
176
     1
290
     0
176
     1
290
     0
176
     1
290
     0
176
     1
290
     0
176
     1
290
     0
176
     1
290
     0
176
     1
 90
       50
176
     1
 40
0.0
176
     1
 40
1.0
176
     1
 90
        0
176
     1
 62
    18
420
        0
176
     1
 90
       50
176
     1
 90
        3
176
     1
 62
     5
420
      255
176
     1
290
     0
176
     1
 90
       50
176
     1
 90
       50
176
     1
 90
       50
176
     1
290
     0
176
     1
 90
       50
176
     1
 62
   256
176
     0
 40
1.0
176
     0
 90
        2
176
     1
  1
strokes_ogs.tif
176
     1
290
     0
176
     1
 40
1.0
176
     1
 40
1.0
176
     1
  0
VISUALSTYLE
  5
3F
102
{ACAD_REACTORS
330
29
102
}
330
29
100
AcDbVisualStyle
  2
JitterOff
 70
    20
177
     3
291
     1
 70
    58
 90
        2
176
     0
 90
        2
176
     0
 90
        0
176
     0
 90
        0
176
     0
 40
0.6
176
     0
 40
30.0
176
     0
 62
     7
420
 16777215
176
     0
 90
        1
176
     0
 90
        4
176
     0
 62
     7
176
     0
 62
   257
176
     0
 90
        1
176
     0
 90
        1
176
     0
 40
1.0
176
     0
 90
       10
176
     2
 62
     7
176
     0
 40
1.0
176
     0
 90
        1
176
     0
 90
        6
176
     0
 90
        2
176
     0
 62
     7
176
     0
 90
        5
176
     0
 90
        0
176
     0
 90
        0
176
     0
290
     0
176
     0
 90
        1
176
     0
 40
0.0
176
     0
 90
        0
176
     0
290
     0
176
     0
290
     1
176
     0
290
     1
176
     0
290
     0
176
     0
290
     0
176
     0
290
     0
176
     0
290
     0
176
     0
290
     0
176
     0
290
     0
176
     0
 90
       50
176
     0
 40
0.0
176
     0
 40
1.0
176
     0
 90
        0
176
     0
 62
    18
420
        0
176
     0
 90
       50
176
     0
 90
        3
176
     0
 62
     5
420
      255
176
     0
290
     0
176
     0
 90
       50
176
     0
 90
       50
176
     0
 90
       50
176
     0
290
     0
176
     0
 90
       50
176
     0
 62
   256
176
     0
 40
1.0
176
     0
 90
        2
176
     0
  1
strokes_ogs.tif
176
     0
290
     0
176
     0
 40
1.0
176
     0
 40
1.0
176
     0
  0
VISUALSTYLE
  5
37
102
{ACAD_REACTORS
330
29
102
}
330
29
100
AcDbVisualStyle
  2
Linepattern
 70
    14
177
     3
291
     1
 70
    58
 90
        2
176
     1
 90
        2
176
     1
 90
        0
176
     1
 90
        0
176
     1
 40
0.6
176
     1
 40
30.0
176
     1
 62
     7
420
 16777215
176
     1
 90
        1
176
     1
 90
        4
176
     1
 62
     7
176
     1
 62
   257
176
     1
 90
        7
176
     1
 90
        7
176
     1
 40
1.0
176
     1
 90
        8
176
     1
 62
     7
176
     1
 40
1.0
176
     1
 90
        1
176
     1
 90
        6
176
     1
 90
        2
176
     1
 62
     7
176
     1
 90
        5
176
     1
 90
        0
176
     1
 90
        0
176
     1
290
     0
176
     1
 90
        1
176
     1
 40
0.0
176
     1
 90
        0
176
     1
290
     0
176
     1
290
     1
176
     1
290
     1
176
     1
290
     0
176
     1
290
     0
176
     1
290
     0
176
     1
290
     0
176
     1
290
     0
176
     1
290
     0
176
     1
 90
       50
176
     1
 40
0.0
176
     1
 40
1.0
176
     1
 90
        0
176
     1
 62
    18
420
        0
176
     1
 90
       50
176
     1
 90
        3
176
     1
 62
     5
420
      255
176
     1
290
     0
176
     1
 90
       50
176
     1
 90
       50
176
     1
 90
       50
176
     1
290
     0
176
     1
 90
       50
176
     1
 62
   256
176
     0
 40
1.0
176
     0
 90
        2
176
     1
  1
strokes_ogs.tif
176
     1
290
     0
176
     1
 40
1.0
176
     1
 40
1.0
176
     1
  0
VISUALSTYLE
  5
40
102
{ACAD_REACTORS
330
29
102
}
330
29
100
AcDbVisualStyle
  2
OverhangOff
 70
    21
177
     3
291
     1
 70
    58
 90
        2
176
     0
 90
        2
176
     0
 90
        0
176
     0
 90
        0
176
     0
 40
0.6
176
     0
 40
30.0
176
     0
 62
     7
420
 16777215
176
     0
 90
        1
176
     0
 90
        4
176
     0
 62
     7
176
     0
 62
   257
176
     0
 90
        1
176
     0
 90
        1
176
     0
 40
1.0
176
     0
 90
        9
176
     2
 62
     7
176
     0
 40
1.0
176
     0
 90
        1
176
     0
 90
        6
176
     0
 90
        2
176
     0
 62
     7
176
     0
 90
        5
176
     0
 90
        0
176
     0
 90
        0
176
     0
290
     0
176
     0
 90
        1
176
     0
 40
0.0
176
     0
 90
        0
176
     0
290
     0
176
     0
290
     1
176
     0
290
     1
176
     0
290
     0
176
     0
290
     0
176
     0
290
     0
176
     0
290
     0
176
     0
290
     0
176
     0
290
     0
176
     0
 90
       50
176
     0
 40
0.0
176
     0
 40
1.0
176
     0
 90
        0
176
     0
 62
    18
420
        0
176
     0
 90
       50
176
     0
 90
        3
176
     0
 62
     5
420
      255
176
     0
290
     0
176
     0
 90
       50
176
     0
 90
       50
176
     0
 90
       50
176
     0
290
     0
176
     0
 90
       50
176
     0
 62
   256
176
     0
 40
1.0
176
     0
 90
        2
176
     0
  1
strokes_ogs.tif
176
     0
290
     0
176
     0
 40
1.0
176
     0
 40
1.0
176
     0
  0
VISUALSTYLE
  5
33
102
{ACAD_REACTORS
330
29
102
}
330
29
100
AcDbVisualStyle
  2
Realistic
 70
     8
177
     3
291
     0
 70
    58
 90
        2
176
     1
 90
        3
176
     1
 90
        0
176
     1
 90
        2
176
     1
 40
0.6
176
     1
 40
30.0
176
     1
 62
     7
420
 16777215
176
     1
 90
        0
176
     1
 90
        0
176
     1
 62
     7
176
     1
 62
   257
176
     1
 90
        1
176
     1
 90
        1
176
     1
 40
1.0
176
     1
 90
        8
176
     1
 62
   257
176
     1
 40
1.0
176
     1
 90
        1
176
     1
 90
        6
176
     1
 90
        2
176
     1
 62
     7
176
     1
 90
        3
176
     1
 90
        0
176
     1
 90
        0
176
     1
290
     0
176
     1
 90
       13
176
     1
 40
0.0
176
     1
 90
        0
176
     1
290
     0
176
     1
290
     1
176
     1
290
     1
176
     1
290
     0
176
     1
290
     0
176
     1
290
     0
176
     1
290
     0
176
     1
290
     0
176
     1
290
     0
176
     1
 90
       50
176
     1
 40
0.0
176
     1
 40
1.0
176
     1
 90
        0
176
     1
 62
    18
420
        0
176
     1
 90
       50
176
     1
 90
        3
176
     1
 62
     5
420
      255
176
     1
290
     0
176
     1
 90
       50
176
     1
 90
       50
176
     1
 90
       50
176
     1
290
     0
176
     1
 90
       50
176
     1
 62
   256
176
     0
 40
1.0
176
     0
 90
        2
176
     1
  1
strokes_ogs.tif
176
     1
290
     0
176
     1
 40
1.0
176
     1
 40
1.0
176
     1
  0
VISUALSTYLE
  5
3E
102
{ACAD_REACTORS
330
29
102
}
330
29
100
AcDbVisualStyle
  2
Shaded
 70
    27
177
     3
291
     0
 70
    58
 90
        2
176
     1
 90
        2
176
     1
 90
        1
176
     1
 90
        2
176
     1
 40
0.6
176
     1
 40
30.0
176
     1
 62
     7
420
 16777215
176
     1
 90
        0
176
     1
 90
        4
176
     1
 62
     7
176
     1
 62
   257
176
     1
 90
        1
176
     1
 90
        1
176
     1
 40
1.0
176
     1
 90
        8
176
     1
 62
   257
176
     1
 40
1.0
176
     1
 90
        1
176
     1
 90
        6
176
     1
 90
        2
176
     1
 62
     8
420
  7895160
176
     1
 90
        3
176
     1
 90
        0
176
     1
 90
        0
176
     1
290
     0
176
     1
 90
        5
176
     1
 40
0.0
176
     1
 90
        0
176
     1
290
     0
176
     1
290
     1
176
     1
290
     1
176
     1
290
     0
176
     1
290
     0
176
     1
290
     0
176
     1
290
     0
176
     1
290
     0
176
     1
290
     0
176
     1
 90
       50
176
     1
 40
0.0
176
     1
 40
1.0
176
     1
 90
        0
176
     1
 62
    18
420
        0
176
     1
 90
       50
176
     1
 90
        3
176
     1
 62
     5
420
      255
176
     1
290
     0
176
     1
 90
       50
176
     1
 90
       50
176
     1
 90
       50
176
     1
290
     0
176
     1
 90
       50
176
     1
 62
   256
176
     0
 40
1.0
176
     0
 90
        2
176
     1
  1
strokes_ogs.tif
176
     1
290
     0
176
     1
 40
1.0
176
     1
 40
1.0
176
     1
  0
VISUALSTYLE
  5
3D
102
{ACAD_REACTORS
330
29
102
}
330
29
100
AcDbVisualStyle
  2
Shaded with edges
 70
    26
177
     3
291
     0
 70
    58
 90
        2
176
     1
 90
        2
176
     1
 90
        1
176
     1
 90
        2
176
     1
 40
0.6
176
     1
 40
30.0
176
     1
 62
     7
420
 16777215
176
     1
 90
        1
176
     1
 90
        2
176
     1
 62
     7
176
     1
 62
   257
176
     1
 90
        2
176
     1
 90
        1
176
     1
 40
1.0
176
     1
 90
        8
176
     1
 62
   257
176
     1
 40
1.0
176
     1
 90
        1
176
     1
 90
        6
176
     1
 90
        2
176
     1
 62
     7
176
     1
 90
        3
176
     1
 90
        0
176
     1
 90
        0
176
     1
290
     0
176
     1
 90
        5
176
     1
 40
0.0
176
     1
 90
        0
176
     1
290
     0
176
     1
290
     1
176
     1
290
     1
176
     1
290
     0
176
     1
290
     0
176
     1
290
     0
176
     1
290
     0
176
     1
290
     0
176
     1
290
     0
176
     1
 90
       50
176
     1
 40
0.0
176
     1
 40
1.0
176
     1
 90
        0
176
     1
 62
    18
420
        0
176
     1
 90
       50
176
     1
 90
        3
176
     1
 62
     5
420
      255
176
     1
290
     0
176
     1
 90
       50
176
     1
 90
       50
176
     1
 90
       50
176
     1
290
     0
176
     1
 90
       50
176
     1
 62
   256
176
     0
 40
1.0
176
     0
 90
        2
176
     1
  1
strokes_ogs.tif
176
     1
290
     0
176
     1
 40
1.0
176
     1
 40
1.0
176
     1
  0
VISUALSTYLE
  5
3A
102
{ACAD_REACTORS
330
29
102
}
330
29
100
AcDbVisualStyle
  2
Shades of Gray
 70
    23
177
     3
291
     0
 70
    58
 90
        2
176
     1
 90
        2
176
     1
 90
        3
176
     1
 90
        0
176
     1
 40
0.6
176
     1
 40
30.0
176
     1
 62
     7
420
 16777215
176
     1
 90
        2
176
     1
 90
        2
176
     1
 62
     7
176
     1
 62
     7
176
     1
 90
        1
176
     1
 90
        1
176
     1
 40
40.0
176
     1
 90
        8
176
     1
 62
     7
176
     1
 40
1.0
176
     1
 90
        1
176
     1
 90
        6
176
     1
 90
        2
176
     1
 62
     7
176
     1
 90
        3
176
     1
 90
        0
176
     1
 90
        0
176
     1
290
     0
176
     1
 90
        1
176
     1
 40
0.0
176
     1
 90
        0
176
     1
290
     0
176
     1
290
     1
176
     1
290
     1
176
     1
290
     0
176
     1
290
     0
176
     1
290
     0
176
     1
290
     0
176
     1
290
     0
176
     1
290
     0
176
     1
 90
       50
176
     1
 40
0.0
176
     1
 40
1.0
176
     1
 90
        0
176
     1
 62
    18
420
        0
176
     1
 90
       50
176
     1
 90
        3
176
     1
 62
     5
420
      255
176
     1
290
     0
176
     1
 90
       50
176
     1
 90
       50
176
     1
 90
       50
176
     1
290
     0
176
     1
 90
       50
176
     1
 62
   256
176
     0
 40
1.0
176
     0
 90
        2
176
     1
  1
strokes_ogs.tif
176
     1
290
     0
176
     1
 40
1.0
176
     1
 40
1.0
176
     1
  0
VISUALSTYLE
  5
3B
102
{ACAD_REACTORS
330
29
102
}
330
29
100
AcDbVisualStyle
  2
Sketchy
 70
    24
177
     3
291
     0
 70
    58
 90
        1
176
     1
 90
        2
176
     1
 90
        2
176
     1
 90
        0
176
     1
 40
0.6
176
     1
 40
30.0
176
     1
 62
     7
420
 16777215
176
     1
 90
        2
176
     1
 90
        2
176
     1
 62
     7
176
     1
 62
     7
176
     1
 90
        1
176
     1
 90
        1
176
     1
 40
40.0
176
     1
 90
       11
176
     1
 62
     7
176
     1
 40
1.0
176
     1
 90
        1
176
     1
 90
        6
176
     1
 90
        2
176
     1
 62
     7
176
     1
 90
        6
176
     1
 90
        0
176
     1
 90
        0
176
     1
290
     0
176
     1
 90
        1
176
     1
 40
0.0
176
     1
 90
        0
176
     1
290
     0
176
     1
290
     1
176
     1
290
     1
176
     1
290
     0
176
     1
290
     0
176
     1
290
     0
176
     1
290
     0
176
     1
290
     0
176
     1
290
     0
176
     1
 90
       50
176
     1
 40
0.0
176
     1
 40
1.0
176
     1
 90
        0
176
     1
 62
    18
420
        0
176
     1
 90
       50
176
     1
 90
        3
176
     1
 62
     5
420
      255
176
     1
290
     0
176
     1
 90
       50
176
     1
 90
       50
176
     1
 90
       50
176
     1
290
     0
176
     1
 90
       50
176
     1
 62
   256
176
     0
 40
1.0
176
     0
 90
        2
176
     1
  1
strokes_ogs.tif
176
     1
290
     0
176
     1
 40
1.0
176
     1
 40
1.0
176
     1
  0
VISUALSTYLE
  5
36
102
{ACAD_REACTORS
330
29
102
}
330
29
100
AcDbVisualStyle
  2
Thicken
 70
    13
177
     3
291
     1
 70
    58
 90
        2
176
     1
 90
        2
176
     1
 90
        0
176
     1
 90
        0
176
     1
 40
0.6
176
     1
 40
30.0
176
     1
 62
     7
420
 16777215
176
     1
 90
        1
176
     1
 90
        4
176
     1
 62
     7
176
     1
 62
   257
176
     1
 90
        1
176
     1
 90
        1
176
     1
 40
1.0
176
     1
 90
       12
176
     1
 62
     7
176
     1
 40
1.0
176
     1
 90
        1
176
     1
 90
        6
176
     1
 90
        2
176
     1
 62
     7
176
     1
 90
        5
176
     1
 90
        0
176
     1
 90
        0
176
     1
290
     0
176
     1
 90
        1
176
     1
 40
0.0
176
     1
 90
        0
176
     1
290
     0
176
     1
290
     1
176
     1
290
     1
176
     1
290
     0
176
     1
290
     0
176
     1
290
     0
176
     1
290
     0
176
     1
290
     0
176
     1
290
     0
176
     1
 90
       50
176
     1
 40
0.0
176
     1
 40
1.0
176
     1
 90
        0
176
     1
 62
    18
420
        0
176
     1
 90
       50
176
     1
 90
        3
176
     1
 62
     5
420
      255
176
     1
290
     0
176
     1
 90
       50
176
     1
 90
       50
176
     1
 90
       50
176
     1
290
     0
176
     1
 90
       50
176
     1
 62
   256
176
     0
 40
1.0
176
     0
 90
        2
176
     1
  1
strokes_ogs.tif
176
     1
290
     0
176
     1
 40
1.0
176
     1
 40
1.0
176
     1
  0
VISUALSTYLE
  5
30
102
{ACAD_REACTORS
330
29
102
}
330
29
100
AcDbVisualStyle
  2
Wireframe
 70
     5
177
     3
291
     0
 70
    58
 90
        0
176
     1
 90
        2
176
     1
 90
        0
176
     1
 90
        0
176
     1
 40
0.6
176
     1
 40
30.0
176
     1
 62
     7
420
 16777215
176
     1
 90
        1
176
     1
 90
        4
176
     1
 62
     7
176
     1
 62
   257
176
     1
 90
        1
176
     1
 90
        1
176
     1
 40
1.0
176
     1
 90
        0
176
     1
 62
   257
176
     1
 40
1.0
176
     1
 90
        1
176
     1
 90
        6
176
     1
 90
        2
176
     1
 62
     7
176
     1
 90
        3
176
     1
 90
        0
176
     1
 90
        0
176
     1
290
     0
176
     1
 90
        1
176
     1
 40
0.0
176
     1
 90
        0
176
     1
290
     0
176
     1
290
     1
176
     1
290
     1
176
     1
290
     0
176
     1
290
     0
176
     1
290
     0
176
     1
290
     0
176
     1
290
     0
176
     1
290
     0
176
     1
 90
       50
176
     1
 40
0.0
176
     1
 40
1.0
176
     1
 90
        0
176
     1
 62
    18
420
        0
176
     1
 90
       50
176
     1
 90
        3
176
     1
 62
     5
420
      255
176
     1
290
     0
176
     1
 90
       50
176
     1
 90
       50
176
     1
 90
       50
176
     1
290
     0
176
     1
 90
       50
176
     1
 62
   256
176
     0
 40
1.0
176
     0
 90
        2
176
     1
  1
strokes_ogs.tif
176
     1
290
     0
176
     1
 40
1.0
176
     1
 40
1.0
176
     1
  0
VISUALSTYLE
  5
3C
102
{ACAD_REACTORS
330
29
102
}
330
29
100
AcDbVisualStyle
  2
X-Ray
 70
    25
177
     3
291
     0
 70
    58
 90
        2
176
     1
 90
        2
176
     1
 90
        1
176
     1
 90
        1
176
     1
 40
0.5
176
     1
 40
30.0
176
     1
 62
     7
420
 16777215
176
     1
 90
        1
176
     1
 90
        0
176
     1
 62
     7
176
     1
 62
   257
176
     1
 90
        1
176
     1
 90
        1
176
     1
 40
1.0
176
     1
 90
        8
176
     1
 62
     7
176
     1
 40
1.0
176
     1
 90
        1
176
     1
 90
        6
176
     1
 90
        2
176
     1
 62
     7
176
     1
 90
        3
176
     1
 90
        0
176
     1
 90
        0
176
     1
290
     0
176
     1
 90
       13
176
     1
 40
0.0
176
     1
 90
        0
176
     1
290
     0
176
     1
290
     1
176
     1
290
     1
176
     1
290
     0
176
     1
290
     0
176
     1
290
     0
176
     1
290
     0
176
     1
290
     0
176
     1
290
     0
176
     1
 90
       50
176
     1
 40
0.0
176
     1
 40
1.0
176
     1
 90
        0
176
     1
 62
    18
420
        0
176
     1
 90
       50
176
     1
 90
        3
176
     1
 62
     5
420
      255
176
     1
290
     0
176
     1
 90
       50
176
     1
 90
       50
176
     1
 90
       50
176
     1
290
     0
176
     1
 90
       50
176
     1
 62
   256
176
     0
 40
1.0
176
     0
 90
        2
176
     1
  1
strokes_ogs.tif
176
     1
290
     0
176
     1
 40
1.0
176
     1
 40
1.0
176
     1
  0
DICTIONARYVAR
  5
196
102
{ACAD_REACTORS
330
191
102
}
330
191
100
DictionaryVariables
280
     0
  1
1:1
  0
DICTIONARYVAR
  5
193
102
{ACAD_REACTORS
330
191
102
}
330
191
100
DictionaryVariables
280
     0
  1
STANDARD
  0
DICTIONARYVAR
  5
192
102
{ACAD_REACTORS
330
191
102
}
330
191
100
DictionaryVariables
280
     0
  1
STANDARD
  0
DICTIONARYVAR
  5
194
102
{ACAD_REACTORS
330
191
102
}
330
191
100
DictionaryVariables
280
     0
  1
Imperial24
  0
DICTIONARYVAR
  5
195
102
{ACAD_REACTORS
330
191
102
}
330
191
100
DictionaryVariables
280
     0
  1
Imperial24
  0
DICTIONARY
  5
1A
330
19
100
AcDbDictionary
280
     1
281
     1
  3
BUMPTILE
360
1C
  3
DIFFUSETILE
360
1B
  3
OPACITYTILE
360
1F
  3
REFLECTIONTILE
360
1E
  3
REFRACTIONTILE
360
20
  3
SPECULARTILE
360
1D
  0
DICTIONARY
  5
12
330
11
100
AcDbDictionary
280
     1
281
     1
  3
BUMPTILE
360
14
  3
DIFFUSETILE
360
13
  3
OPACITYTILE
360
17
  3
REFLECTIONTILE
360
16
  3
REFRACTIONTILE
360
18
  3
SPECULARTILE
360
15
  0
DICTIONARY
  5
22
330
21
100
AcDbDictionary
280
     1
281
     1
  3
BUMPTILE
360
24
  3
DIFFUSETILE
360
23
  3
OPACITYTILE
360
27
  3
REFLECTIONTILE
360
26
  3
REFRACTIONTILE
360
28
  3
SPECULARTILE
360
25
  0
DICTIONARY
  5
197
330
65
100
AcDbDictionary
280
     1
281
     1
  3
ACAD_ROUNDTRIP_2008_TABLESTYLE_CELLSTYLEMAP
360
198
  0
XRECORD
  5
1C
102
{ACAD_REACTORS
330
1A
102
}
330
1A
100
AcDbXrecord
280
     1
270
     1
271
     1
  0
XRECORD
  5
1B
102
{ACAD_REACTORS
330
1A
102
}
330
1A
100
AcDbXrecord
280
     1
270
     1
271
     1
  0
XRECORD
  5
1F
102
{ACAD_REACTORS
330
1A
102
}
330
1A
100
AcDbXrecord
280
     1
270
     1
271
     1
  0
XRECORD
  5
1E
102
{ACAD_REACTORS
330
1A
102
}
330
1A
100
AcDbXrecord
280
     1
270
     1
271
     1
  0
XRECORD
  5
20
102
{ACAD_REACTORS
330
1A
102
}
330
1A
100
AcDbXrecord
280
     1
270
     1
271
     1
  0
XRECORD
  5
1D
102
{ACAD_REACTORS
330
1A
102
}
330
1A
100
AcDbXrecord
280
     1
270
     1
271
     1
  0
XRECORD
  5
14
102
{ACAD_REACTORS
330
12
102
}
330
12
100
AcDbXrecord
280
     1
270
     1
271
     1
  0
XRECORD
  5
13
102
{ACAD_REACTORS
330
12
102
}
330
12
100
AcDbXrecord
280
     1
270
     1
271
     1
  0
XRECORD
  5
17
102
{ACAD_REACTORS
330
12
102
}
330
12
100
AcDbXrecord
280
     1
270
     1
271
     1
  0
XRECORD
  5
16
102
{ACAD_REACTORS
330
12
102
}
330
12
100
AcDbXrecord
280
     1
270
     1
271
     1
  0
XRECORD
  5
18
102
{ACAD_REACTORS
330
12
102
}
330
12
100
AcDbXrecord
280
     1
270
     1
271
     1
  0
XRECORD
  5
15
102
{ACAD_REACTORS
330
12
102
}
330
12
100
AcDbXrecord
280
     1
270
     1
271
     1
  0
XRECORD
  5
24
102
{ACAD_REACTORS
330
22
102
}
330
22
100
AcDbXrecord
280
     1
270
     1
271
     1
  0
XRECORD
  5
23
102
{ACAD_REACTORS
330
22
102
}
330
22
100
AcDbXrecord
280
     1
270
     1
271
     1
  0
XRECORD
  5
27
102
{ACAD_REACTORS
330
22
102
}
330
22
100
AcDbXrecord
280
     1
270
     1
271
     1
  0
XRECORD
  5
26
102
{ACAD_REACTORS
330
22
102
}
330
22
100
AcDbXrecord
280
     1
270
     1
271
     1
  0
XRECORD
  5
28
102
{ACAD_REACTORS
330
22
102
}
330
22
100
AcDbXrecord
280
     1
270
     1
271
     1
  0
XRECORD
  5
25
102
{ACAD_REACTORS
330
22
102
}
330
22
100
AcDbXrecord
280
     1
270
     1
271
     1
  0
CELLSTYLEMAP
  5
198
102
{ACAD_REACTORS
330
197
102
}
330
197
100
AcDbCellStyleMap
 90
        3
300
CELLSTYLE
  1
TABLEFORMAT_BEGIN
 90
        5
170
     1
 91
        0
 92
    32768
 62
   257
 93
        1
300
CONTENTFORMAT
  1
CONTENTFORMAT_BEGIN
 90
        0
 91
        0
 92
      512
 93
        0
300

 40
0.0
140
1.0
 94
        5
 62
     0
340
55
144
0.25
309
CONTENTFORMAT_END
171
     0
 94
        0
309
TABLEFORMAT_END
  1
CELLSTYLE_BEGIN
 90
        1
 91
        1
300
_TITLE
309
CELLSTYLE_END
300
CELLSTYLE
  1
TABLEFORMAT_BEGIN
 90
        5
170
     1
 91
        0
 92
        0
 62
   257
 93
        1
300
CONTENTFORMAT
  1
CONTENTFORMAT_BEGIN
 90
        0
 91
        0
 92
      512
 93
        0
300

 40
0.0
140
1.0
 94
        5
 62
     0
340
55
144
0.18
309
CONTENTFORMAT_END
171
     0
 94
        0
309
TABLEFORMAT_END
  1
CELLSTYLE_BEGIN
 90
        2
 91
        1
300
_HEADER
309
CELLSTYLE_END
300
CELLSTYLE
  1
TABLEFORMAT_BEGIN
 90
        5
170
     1
 91
        0
 92
        0
 62
   257
 93
        1
300
CONTENTFORMAT
  1
CONTENTFORMAT_BEGIN
 90
        0
 91
        0
 92
      512
 93
        0
300

 40
0.0
140
1.0
 94
        2
 62
     0
340
55
144
0.18
309
CONTENTFORMAT_END
171
     0
 94
        0
309
TABLEFORMAT_END
  1
CELLSTYLE_BEGIN
 90
        3
 91
        2
300
_DATA
309
CELLSTYLE_END
  0
ENDSEC
  0
EOF
