  0
SECTION
  2
HEADER
  9
$ACADVER
  1
AC1032
  9
$ACADMAINTVER
 90
      228
  9
$DWGCODEPAGE
  3
ANSI_1252
  9
$REQUIREDVERSIONS
160
                 0
  9
$INSBASE
 10
0.0
 20
0.0
 30
0.0
  9
$EXTMIN
 10
1.000000000000000E+20
 20
1.000000000000000E+20
 30
1.000000000000000E+20
  9
$EXTMAX
 10
-1.000000000000000E+20
 20
-1.000000000000000E+20
 30
-1.000000000000000E+20
  9
$LIMMIN
 10
0.0
 20
0.0
  9
$LIMMAX
 10
12.0
 20
9.0
  9
$ORTHOMODE
 70
     0
  9
$REGENMODE
 70
     1
  9
$FILLMODE
 70
     1
  9
$QTEXTMODE
 70
     0
  9
$MIRRTEXT
 70
     0
  9
$LTSCALE
 40
1.0
  9
$ATTMODE
 70
     1
  9
$TEXTSIZE
 40
0.2
  9
$TRACEWID
 40
0.05
  9
$TEXTSTYLE
  7
Standard
  9
$CLAYER
  8
0
  9
$CELTYPE
  6
ByLayer
  9
$CECOLOR
 62
   256
  9
$CELTSCALE
 40
1.0
  9
$DISPSILH
 70
     0
  9
$DIMSCALE
 40
1.0
  9
$DIMASZ
 40
0.18
  9
$DIMEXO
 40
0.0625
  9
$DIMDLI
 40
0.38
  9
$DIMRND
 40
0.0
  9
$DIMDLE
 40
0.0
  9
$DIMEXE
 40
0.18
  9
$DIMTP
 40
0.0
  9
$DIMTM
 40
0.0
  9
$DIMTXT
 40
0.18
  9
$DIMCEN
 40
0.09
  9
$DIMTSZ
 40
0.0
  9
$DIMTOL
 70
     0
  9
$DIMLIM
 70
     0
  9
$DIMTIH
 70
     1
  9
$DIMTOH
 70
     1
  9
$DIMSE1
 70
     0
  9
$DIMSE2
 70
     0
  9
$DIMTAD
 70
     0
  9
$DIMZIN
 70
     0
  9
$DIMBLK
  1

  9
$DIMASO
 70
     1
  9
$DIMSHO
 70
     1
  9
$DIMPOST
  1

  9
$DIMAPOST
  1

  9
$DIMALT
 70
     0
  9
$DIMALTD
 70
     2
  9
$DIMALTF
 40
25.4
  9
$DIMLFAC
 40
1.0
  9
$DIMTOFL
 70
     0
  9
$DIMTVP
 40
0.0
  9
$DIMTIX
 70
     0
  9
$DIMSOXD
 70
     0
  9
$DIMSAH
 70
     0
  9
$DIMBLK1
  1

  9
$DIMBLK2
  1

  9
$DIMSTYLE
  2
Standard
  9
$DIMCLRD
 70
     0
  9
$DIMCLRE
 70
     0
  9
$DIMCLRT
 70
     0
  9
$DIMTFAC
 40
1.0
  9
$DIMGAP
 40
0.09
  9
$DIMJUST
 70
     0
  9
$DIMSD1
 70
     0
  9
$DIMSD2
 70
     0
  9
$DIMTOLJ
 70
     1
  9
$DIMTZIN
 70
     0
  9
$DIMALTZ
 70
     0
  9
$DIMALTTZ
 70
     0
  9
$DIMUPT
 70
     0
  9
$DIMDEC
 70
     4
  9
$DIMTDEC
 70
     4
  9
$DIMALTU
 70
     2
  9
$DIMALTTD
 70
     2
  9
$DIMTXSTY
  7
Standard
  9
$DIMAUNIT
 70
     0
  9
$DIMADEC
 70
     0
  9
$DIMALTRND
 40
0.0
  9
$DIMAZIN
 70
     0
  9
$DIMDSEP
 70
    46
  9
$DIMATFIT
 70
     3
  9
$DIMFRAC
 70
     0
  9
$DIMLDRBLK
  1

  9
$DIMLUNIT
 70
     2
  9
$DIMLWD
 70
    -2
  9
$DIMLWE
 70
    -2
  9
$DIMTMOVE
 70
     0
  9
$DIMFXL
 40
1.0
  9
$DIMFXLON
 70
     0
  9
$DIMJOGANG
 40
0.7853981633974483
  9
$DIMTFILL
 70
     0
  9
$DIMTFILLCLR
 70
     0
  9
$DIMARCSYM
 70
     0
  9
$DIMLTYPE
  6

  9
$DIMLTEX1
  6

  9
$DIMLTEX2
  6

  9
$DIMTXTDIRECTION
 70
     0
  9
$LUNITS
 70
     2
  9
$LUPREC
 70
     4
  9
$SKETCHINC
 40
0.1
  9
$FILLETRAD
 40
0.0
  9
$AUNITS
 70
     0
  9
$AUPREC
 70
     0
  9
$MENU
  1
.
  9
$ELEVATION
 40
0.0
  9
$PELEVATION
 40
0.0
  9
$THICKNESS
 40
0.0
  9
$LIMCHECK
 70
     0
  9
$CHAMFERA
 40
0.0
  9
$CHAMFERB
 40
0.0
  9
$CHAMFERC
 40
0.0
  9
$CHAMFERD
 40
0.0
  9
$SKPOLY
 70
     0
  9
$TDCREATE
 40
2459837.490219908
  9
$TDUCREATE
 40
2459837.615219907
  9
$TDUPDATE
 40
2459837.490219908
  9
$TDUUPDATE
 40
2459837.615219907
  9
$TDINDWG
 40
0.0000000000
  9
$TDUSRTIMER
 40
0.0000000000
  9
$USRTIMER
 70
     1
  9
$ANGBASE
 50
0.0
  9
$ANGDIR
 70
     0
  9
$PDMODE
 70
     0
  9
$PDSIZE
 40
0.0
  9
$PLINEWID
 40
0.0
  9
$SPLFRAME
 70
     0
  9
$SPLINETYPE
 70
     6
  9
$SPLINESEGS
 70
     8
  9
$HANDSEED
  5
138
  9
$SURFTAB1
 70
     6
  9
$SURFTAB2
 70
     6
  9
$SURFTYPE
 70
     6
  9
$SURFU
 70
     6
  9
$SURFV
 70
     6
  9
$UCSBASE
  2

  9
$UCSNAME
  2

  9
$UCSORG
 10
0.0
 20
0.0
 30
0.0
  9
$UCSXDIR
 10
1.0
 20
0.0
 30
0.0
  9
$UCSYDIR
 10
0.0
 20
1.0
 30
0.0
  9
$UCSORTHOREF
  2

  9
$UCSORTHOVIEW
 70
     0
  9
$UCSORGTOP
 10
0.0
 20
0.0
 30
0.0
  9
$UCSORGBOTTOM
 10
0.0
 20
0.0
 30
0.0
  9
$UCSORGLEFT
 10
0.0
 20
0.0
 30
0.0
  9
$UCSORGRIGHT
 10
0.0
 20
0.0
 30
0.0
  9
$UCSORGFRONT
 10
0.0
 20
0.0
 30
0.0
  9
$UCSORGBACK
 10
0.0
 20
0.0
 30
0.0
  9
$PUCSBASE
  2

  9
$PUCSNAME
  2

  9
$PUCSORG
 10
0.0
 20
0.0
 30
0.0
  9
$PUCSXDIR
 10
1.0
 20
0.0
 30
0.0
  9
$PUCSYDIR
 10
0.0
 20
1.0
 30
0.0
  9
$PUCSORTHOREF
  2

  9
$PUCSORTHOVIEW
 70
     0
  9
$PUCSORGTOP
 10
0.0
 20
0.0
 30
0.0
  9
$PUCSORGBOTTOM
 10
0.0
 20
0.0
 30
0.0
  9
$PUCSORGLEFT
 10
0.0
 20
0.0
 30
0.0
  9
$PUCSORGRIGHT
 10
0.0
 20
0.0
 30
0.0
  9
$PUCSORGFRONT
 10
0.0
 20
0.0
 30
0.0
  9
$PUCSORGBACK
 10
0.0
 20
0.0
 30
0.0
  9
$USERI1
 70
     0
  9
$USERI2
 70
     0
  9
$USERI3
 70
     0
  9
$USERI4
 70
     0
  9
$USERI5
 70
     0
  9
$USERR1
 40
0.0
  9
$USERR2
 40
0.0
  9
$USERR3
 40
0.0
  9
$USERR4
 40
0.0
  9
$USERR5
 40
0.0
  9
$WORLDVIEW
 70
     1
  9
$SHADEDGE
 70
     3
  9
$SHADEDIF
 70
    70
  9
$TILEMODE
 70
     1
  9
$MAXACTVP
 70
    64
  9
$PINSBASE
 10
0.0
 20
0.0
 30
0.0
  9
$PLIMCHECK
 70
     0
  9
$PEXTMIN
 10
1.000000000000000E+20
 20
1.000000000000000E+20
 30
1.000000000000000E+20
  9
$PEXTMAX
 10
-1.000000000000000E+20
 20
-1.000000000000000E+20
 30
-1.000000000000000E+20
  9
$PLIMMIN
 10
0.0
 20
0.0
  9
$PLIMMAX
 10
12.0
 20
9.0
  9
$UNITMODE
 70
     0
  9
$VISRETAIN
 70
     1
  9
$PLINEGEN
 70
     0
  9
$PSLTSCALE
 70
     1
  9
$TREEDEPTH
 70
  3020
  9
$CMLSTYLE
  2
Standard
  9
$CMLJUST
 70
     0
  9
$CMLSCALE
 40
1.0
  9
$PROXYGRAPHICS
 70
     1
  9
$MEASUREMENT
 70
     0
  9
$CELWEIGHT
370
    -1
  9
$ENDCAPS
280
     0
  9
$JOINSTYLE
280
     0
  9
$LWDISPLAY
290
     1
  9
$INSUNITS
 70
     0
  9
$HYPERLINKBASE
  1

  9
$STYLESHEET
  1

  9
$XEDIT
290
     1
  9
$CEPSNTYPE
380
     0
  9
$PSTYLEMODE
290
     1
  9
$FINGERPRINTGUID
  2
{91C26770-E8E8-3A41-A524-C9EDDAA11F16}
  9
$VERSIONGUID
  2
{8CD27C8C-883B-A64B-9581-DAABEA3CFB00}
  9
$EXTNAMES
290
     1
  9
$PSVPSCALE
 40
0.0
  9
$OLESTARTUP
290
     0
  9
$SORTENTS
280
   127
  9
$INDEXCTL
280
     0
  9
$HIDETEXT
280
     1
  9
$XCLIPFRAME
280
     2
  9
$HALOGAP
280
     0
  9
$OBSCOLOR
 70
   257
  9
$OBSLTYPE
280
     0
  9
$INTERSECTIONDISPLAY
280
     0
  9
$INTERSECTIONCOLOR
 70
   257
  9
$DIMASSOC
280
     2
  9
$PROJECTNAME
  1

  9
$CAMERADISPLAY
290
     0
  9
$LENSLENGTH
 40
50.0
  9
$CAMERAHEIGHT
 40
0.0
  9
$STEPSPERSEC
 40
2.0
  9
$STEPSIZE
 40
6.0
  9
$3DDWFPREC
 40
2.0
  9
$PSOLWIDTH
 40
0.25
  9
$PSOLHEIGHT
 40
4.0
  9
$LOFTANG1
 40
1.570796326794896
  9
$LOFTANG2
 40
1.570796326794896
  9
$LOFTMAG1
 40
0.0
  9
$LOFTMAG2
 40
0.0
  9
$LOFTPARAM
 70
     7
  9
$LOFTNORMALS
280
     1
  9
$LATITUDE
 40
37.795
  9
$LONGITUDE
 40
-122.394
  9
$NORTHDIRECTION
 40
0.0
  9
$TIMEZONE
 70
 -8000
  9
$LIGHTGLYPHDISPLAY
280
     1
  9
$TILEMODELIGHTSYNCH
280
     1
  9
$CMATERIAL
347
11
  9
$SOLIDHIST
280
     0
  9
$SHOWHIST
280
     1
  9
$DWFFRAME
280
     2
  9
$DGNFRAME
280
     0
  9
$REALWORLDSCALE
290
     1
  9
$INTERFERECOLOR
 62
     1
  9
$INTERFEREOBJVS
345
33
  9
$INTERFEREVPVS
346
30
  9
$CSHADOW
280
     0
  9
$SHADOWPLANELOCATION
 40
0.0
  0
ENDSEC
  0
SECTION
  2
CLASSES
  0
CLASS
  1
ACDBDICTIONARYWDFLT
  2
AcDbDictionaryWithDefault
  3
ObjectDBX Classes
 90
        0
 91
        1
280
     0
281
     0
  0
CLASS
  1
MATERIAL
  2
AcDbMaterial
  3
ObjectDBX Classes
 90
     1153
 91
        3
280
     0
281
     0
  0
CLASS
  1
VISUALSTYLE
  2
AcDbVisualStyle
  3
ObjectDBX Classes
 90
     4095
 91
       24
280
     0
281
     0
  0
CLASS
  1
SCALE
  2
AcDbScale
  3
ObjectDBX Classes
 90
     1153
 91
       17
280
     0
281
     0
  0
CLASS
  1
TABLESTYLE
  2
AcDbTableStyle
  3
ObjectDBX Classes
 90
     4095
 91
        1
280
     0
281
     0
  0
CLASS
  1
MLEADERSTYLE
  2
AcDbMLeaderStyle
  3
ACDB_MLEADERSTYLE_CLASS
 90
     4095
 91
        1
280
     0
281
     0
  0
CLASS
  1
ACDBSECTIONVIEWSTYLE
  2
AcDbSectionViewStyle
  3
ObjectDBX Classes
 90
     1025
 91
        1
280
     0
281
     0
  0
CLASS
  1
ACDBDETAILVIEWSTYLE
  2
AcDbDetailViewStyle
  3
ObjectDBX Classes
 90
     1025
 91
        1
280
     0
281
     0
  0
CLASS
  1
DICTIONARYVAR
  2
AcDbDictionaryVar
  3
ObjectDBX Classes
 90
        0
 91
        5
280
     0
281
     0
  0
CLASS
  1
CELLSTYLEMAP
  2
AcDbCellStyleMap
  3
ObjectDBX Classes
 90
     1152
 91
        1
280
     0
281
     0
  0
ENDSEC
  0
SECTION
  2
TABLES
  0
TABLE
  2
VPORT
  5
8
330
0
100
AcDbSymbolTable
 70
     1
  0
VPORT
  5
57
330
8
100
AcDbSymbolTableRecord
100
AcDbViewportTableRecord
  2
*Active
 70
     0
 10
0.0
 20
0.0
 11
1.0
 21
1.0
 12
0.0
 22
0.0
 13
0.0
 23
0.0
 14
1.0
 24
1.0
 15
0.0
 25
0.0
 16
0.0
 26
0.0
 36
1.0
 17
297.6379999999999
 27
420.9450000000002
 37
0.0
 40
858.7278000000003
 41
0.7070709950231024
 42
50.0
 43
0.0
 44
0.0
 50
0.0
 51
0.0
 71
     0
 72
   100
 73
     1
 74
     1
 75
     0
 76
     0
 77
     0
 78
     0
281
     0
 65
     1
110
0.0
120
0.0
130
0.0
111
1.0
121
0.0
131
0.0
112
0.0
122
1.0
132
0.0
 79
     0
146
0.0
 60
     3
 61
     5
292
     1
282
     1
141
0.0
142
0.0
 63
   250
421
  3355443
  0
ENDTAB
  0
TABLE
  2
LTYPE
  5
5
330
0
100
AcDbSymbolTable
 70
     1
  0
LTYPE
  5
5B
330
5
100
AcDbSymbolTableRecord
100
AcDbLinetypeTableRecord
  2
ByBlock
 70
     0
  3

 72
    65
 73
     0
 40
0.0
  0
LTYPE
  5
5C
330
5
100
AcDbSymbolTableRecord
100
AcDbLinetypeTableRecord
  2
ByLayer
 70
     0
  3

 72
    65
 73
     0
 40
0.0
  0
LTYPE
  5
5D
330
5
100
AcDbSymbolTableRecord
100
AcDbLinetypeTableRecord
  2
Continuous
 70
     0
  3
Solid line
 72
    65
 73
     0
 40
0.0
  0
ENDTAB
  0
TABLE
  2
LAYER
  5
2
330
0
100
AcDbSymbolTable
 70
     2
  0
LAYER
  5
54
330
2
100
AcDbSymbolTableRecord
100
AcDbLayerTableRecord
  2
0
 70
     0
 62
     7
  6
Continuous
370
    -3
390
F
347
21
348
0
  0
LAYER
  5
78
330
2
100
AcDbSymbolTableRecord
100
AcDbLayerTableRecord
  2
1
 70
     0
 62
     7
  6
Continuous
370
     0
390
F
347
21
348
0
  0
ENDTAB
  0
TABLE
  2
STYLE
  5
3
330
0
100
AcDbSymbolTable
 70
     2
  0
STYLE
  5
55
330
3
100
AcDbSymbolTableRecord
100
AcDbTextStyleTableRecord
  2
Standard
 70
     0
 40
0.0
 41
1.0
 50
0.0
 71
     0
 42
0.2
  3
txt
  4

  0
STYLE
  5
5A
330
3
100
AcDbSymbolTableRecord
100
AcDbTextStyleTableRecord
  2
Annotative
 70
     0
 40
0.0
 41
1.0
 50
0.0
 71
     0
 42
0.2
  3
txt
  4

1001
AcadAnnotative
1000
AnnotativeData
1002
{
1070
     1
1070
     1
1002
}
  0
ENDTAB
  0
TABLE
  2
VIEW
  5
6
330
0
100
AcDbSymbolTable
 70
     0
  0
ENDTAB
  0
TABLE
  2
UCS
  5
7
330
0
100
AcDbSymbolTable
 70
     0
  0
ENDTAB
  0
TABLE
  2
APPID
  5
9
330
0
100
AcDbSymbolTable
 70
     2
  0
APPID
  5
56
330
9
100
AcDbSymbolTableRecord
100
AcDbRegAppTableRecord
  2
ACAD
 70
     0
  0
APPID
  5
5E
330
9
100
AcDbSymbolTableRecord
100
AcDbRegAppTableRecord
  2
AcadAnnotative
 70
     0
  0
ENDTAB
  0
TABLE
  2
DIMSTYLE
  5
A
330
0
100
AcDbSymbolTable
 70
     2
100
AcDbDimStyleTable
 71
     0
  0
DIMSTYLE
105
58
330
A
100
AcDbSymbolTableRecord
100
AcDbDimStyleTableRecord
  2
Standard
 70
     0
340
55
  0
DIMSTYLE
105
59
330
A
100
AcDbSymbolTableRecord
100
AcDbDimStyleTableRecord
  2
Annotative
 70
     0
340
55
1001
AcadAnnotative
1000
AnnotativeData
1002
{
1070
     1
1070
     1
1002
}
  0
ENDTAB
  0
TABLE
  2
BLOCK_RECORD
  5
1
330
0
100
AcDbSymbolTable
 70
    11
  0
BLOCK_RECORD
  5
70
330
1
100
AcDbSymbolTableRecord
100
AcDbBlockTableRecord
  2
*Model_Space
340
73
 70
     0
280
     1
281
     0
  0
BLOCK_RECORD
  5
6C
330
1
100
AcDbSymbolTableRecord
100
AcDbBlockTableRecord
  2
*Paper_Space
340
6F
 70
     0
280
     1
281
     0
  0
BLOCK_RECORD
  5
74
330
1
100
AcDbSymbolTableRecord
100
AcDbBlockTableRecord
  2
*Paper_Space0
340
77
 70
     0
280
     1
281
     0
  0
BLOCK_RECORD
  5
E3
330
1
100
AcDbSymbolTableRecord
100
AcDbBlockTableRecord
  2
Block_0
340
0
102
{BLKREFS
331
E4
102
}
 70
     0
280
     1
281
     0
  0
BLOCK_RECORD
  5
E8
330
1
100
AcDbSymbolTableRecord
100
AcDbBlockTableRecord
  2
Block_1
340
0
102
{BLKREFS
331
E9
102
}
 70
     0
280
     1
281
     0
  0
BLOCK_RECORD
  5
EE
330
1
100
AcDbSymbolTableRecord
100
AcDbBlockTableRecord
  2
Block_2
340
0
102
{BLKREFS
331
EF
102
}
 70
     0
280
     1
281
     0
  0
BLOCK_RECORD
  5
F3
330
1
100
AcDbSymbolTableRecord
100
AcDbBlockTableRecord
  2
Block_3
340
0
102
{BLKREFS
331
F4
102
}
 70
     0
280
     1
281
     0
  0
BLOCK_RECORD
  5
F9
330
1
100
AcDbSymbolTableRecord
100
AcDbBlockTableRecord
  2
Block_4
340
0
102
{BLKREFS
331
FA
102
}
 70
     0
280
     1
281
     0
  0
BLOCK_RECORD
  5
FF
330
1
100
AcDbSymbolTableRecord
100
AcDbBlockTableRecord
  2
Block_5
340
0
102
{BLKREFS
331
100
102
}
 70
     0
280
     1
281
     0
  0
BLOCK_RECORD
  5
105
330
1
100
AcDbSymbolTableRecord
100
AcDbBlockTableRecord
  2
Block_6
340
0
102
{BLKREFS
331
106
102
}
 70
     0
280
     1
281
     0
  0
BLOCK_RECORD
  5
10B
330
1
100
AcDbSymbolTableRecord
100
AcDbBlockTableRecord
  2
Block_7
340
0
102
{BLKREFS
331
10C
102
}
 70
     0
280
     1
281
     0
  0
BLOCK_RECORD
  5
110
330
1
100
AcDbSymbolTableRecord
100
AcDbBlockTableRecord
  2
Block_8
340
0
102
{BLKREFS
331
111
102
}
 70
     0
280
     1
281
     0
  0
BLOCK_RECORD
  5
115
330
1
100
AcDbSymbolTableRecord
100
AcDbBlockTableRecord
  2
Block_9
340
0
102
{BLKREFS
331
116
102
}
 70
     0
280
     1
281
     0
  0
ENDTAB
  0
ENDSEC
  0
SECTION
  2
BLOCKS
  0
BLOCK
  5
71
330
70
100
AcDbEntity
  8
0
100
AcDbBlockBegin
  2
*Model_Space
 70
     0
 10
0.0
 20
0.0
 30
0.0
  3
*Model_Space
  1

  0
ENDBLK
  5
72
330
70
100
AcDbEntity
  8
0
100
AcDbBlockEnd
  0
BLOCK
  5
6D
330
6C
100
AcDbEntity
 67
     1
  8
0
100
AcDbBlockBegin
  2
*Paper_Space
 70
     0
 10
0.0
 20
0.0
 30
0.0
  3
*Paper_Space
  1

  0
ENDBLK
  5
6E
330
6C
100
AcDbEntity
 67
     1
  8
0
100
AcDbBlockEnd
  0
BLOCK
  5
75
330
74
100
AcDbEntity
 67
     1
  8
0
100
AcDbBlockBegin
  2
*Paper_Space0
 70
     0
 10
0.0
 20
0.0
 30
0.0
  3
*Paper_Space0
  1

  0
ENDBLK
  5
76
330
74
100
AcDbEntity
 67
     1
  8
0
100
AcDbBlockEnd
  0
BLOCK
  5
E5
330
E3
100
AcDbEntity
  8
0
100
AcDbBlockBegin
  2
Block_0
 70
     0
 10
0.0
 20
0.0
 30
0.0
  3
Block_0
  1

  0
LINE
  5
E7
330
E3
100
AcDbEntity
  8
1
 62
     7
370
    15
100
AcDbLine
 10
125.8267022064519
 20
539.4074074074078
 30
0.0
 11
125.8267022064519
 21
564.2592592592591
 31
0.0
  0
ENDBLK
  5
E6
330
E3
100
AcDbEntity
  8
0
100
AcDbBlockEnd
  0
BLOCK
  5
EA
330
E8
100
AcDbEntity
  8
0
100
AcDbBlockBegin
  2
Block_1
 70
     0
 10
0.0
 20
0.0
 30
0.0
  3
Block_1
  1

  0
LINE
  5
EC
330
E8
100
AcDbEntity
  8
1
 62
     7
370
    18
100
AcDbLine
 10
122.5925925925921
 20
294.2965042351279
 30
0.0
 11
63.0370370370365
 21
294.2965042351279
 31
0.0
  0
LINE
  5
ED
330
E8
100
AcDbEntity
  8
1
 62
     7
370
    18
100
AcDbLine
 10
122.5925925925921
 20
535.3415156498922
 30
0.0
 11
63.0370370370365
 21
535.3415156498922
 31
0.0
  0
ENDBLK
  5
EB
330
E8
100
AcDbEntity
  8
0
100
AcDbBlockEnd
  0
BLOCK
  5
F0
330
EE
100
AcDbEntity
  8
0
100
AcDbBlockBegin
  2
Block_2
 70
     0
 10
0.0
 20
0.0
 30
0.0
  3
Block_2
  1

  0
LINE
  5
F2
330
EE
100
AcDbEntity
  8
1
 62
     7
370
    18
100
AcDbLine
 10
151.3491151797798
 20
515.9633872812555
 30
0.0
 11
90.22222222222172
 21
515.9633872812555
 31
0.0
  0
ENDBLK
  5
F1
330
EE
100
AcDbEntity
  8
0
100
AcDbBlockEnd
  0
BLOCK
  5
F5
330
F3
100
AcDbEntity
  8
0
100
AcDbBlockBegin
  2
Block_3
 70
     0
 10
0.0
 20
0.0
 30
0.0
  3
Block_3
  1

  0
LINE
  5
F7
330
F3
100
AcDbEntity
  8
1
 62
     7
370
    15
100
AcDbLine
 10
134.4444444444443
 20
306.9159195386055
 30
0.0
 11
88.22222222222171
 21
306.9159195386055
 31
0.0
  0
LINE
  5
F8
330
F3
100
AcDbEntity
  8
1
 62
     7
370
    15
100
AcDbLine
 10
134.4444444444443
 20
495.9708304521491
 30
0.0
 11
88.22222222222171
 21
495.9708304521491
 31
0.0
  0
ENDBLK
  5
F6
330
F3
100
AcDbEntity
  8
0
100
AcDbBlockEnd
  0
BLOCK
  5
FB
330
F9
100
AcDbEntity
  8
0
100
AcDbBlockBegin
  2
Block_4
 70
     0
 10
0.0
 20
0.0
 30
0.0
  3
Block_4
  1

  0
LINE
  5
FD
330
F9
100
AcDbEntity
  8
1
 62
     7
370
    18
100
AcDbLine
 10
469.7163557329877
 20
303.1111111111113
 30
0.0
 11
469.7163557329877
 21
261.4814814814817
 31
0.0
  0
LINE
  5
FE
330
F9
100
AcDbEntity
  8
1
 62
     7
370
    18
100
AcDbLine
 10
138.2823531375597
 20
303.1111111111113
 30
0.0
 11
138.2823531375597
 21
261.4814814814817
 31
0.0
  0
ENDBLK
  5
FC
330
F9
100
AcDbEntity
  8
0
100
AcDbBlockEnd
  0
BLOCK
  5
101
330
FF
100
AcDbEntity
  8
0
100
AcDbBlockBegin
  2
Block_5
 70
     0
 10
0.0
 20
0.0
 30
0.0
  3
Block_5
  1

  0
LINE
  5
103
330
FF
100
AcDbEntity
  8
1
 62
     7
370
    18
100
AcDbLine
 10
303.7777777777774
 20
439.254357178087
 30
0.0
 11
513.4074074074069
 21
439.254357178087
 31
0.0
  0
LINE
  5
104
330
FF
100
AcDbEntity
  8
1
 62
     7
370
    15
100
AcDbLine
 10
488.9139770870679
 20
535.3415156498922
 30
0.0
 11
513.4074074074069
 21
535.3415156498922
 31
0.0
  0
ENDBLK
  5
102
330
FF
100
AcDbEntity
  8
0
100
AcDbBlockEnd
  0
BLOCK
  5
107
330
105
100
AcDbEntity
  8
0
100
AcDbBlockBegin
  2
Block_6
 70
     0
 10
0.0
 20
0.0
 30
0.0
  3
Block_6
  1

  0
LINE
  5
109
330
105
100
AcDbEntity
  8
1
 62
     7
370
    18
100
AcDbLine
 10
482.1952092784759
 20
290.8148148148157
 30
0.0
 11
482.1952092784759
 21
237.4814814814818
 31
0.0
  0
LINE
  5
10A
330
105
100
AcDbEntity
  8
1
 62
     7
370
    18
100
AcDbLine
 10
125.8267022064519
 20
290.8148148148157
 30
0.0
 11
125.8267022064519
 21
237.4814814814818
 31
0.0
  0
ENDBLK
  5
108
330
105
100
AcDbEntity
  8
0
100
AcDbBlockEnd
  0
BLOCK
  5
10D
330
10B
100
AcDbEntity
  8
0
100
AcDbBlockBegin
  2
Block_7
 70
     0
 10
0.0
 20
0.0
 30
0.0
  3
Block_7
  1

  0
LINE
  5
10F
330
10B
100
AcDbEntity
  8
1
 62
     7
370
    18
100
AcDbLine
 10
304.0109557424639
 20
516.4360245585385
 30
0.0
 11
304.0109557424639
 21
564.1481481481487
 31
0.0
  0
ENDBLK
  5
10E
330
10B
100
AcDbEntity
  8
0
100
AcDbBlockEnd
  0
BLOCK
  5
112
330
110
100
AcDbEntity
  8
0
100
AcDbBlockBegin
  2
Block_8
 70
     0
 10
0.0
 20
0.0
 30
0.0
  3
Block_8
  1

  0
LINE
  5
114
330
110
100
AcDbEntity
  8
1
 62
     7
370
    18
100
AcDbLine
 10
141.5466747022519
 20
493.2982221743295
 30
0.0
 11
173.7940178815934
 21
458.6481771201542
 31
0.0
  0
ENDBLK
  5
113
330
110
100
AcDbEntity
  8
0
100
AcDbBlockEnd
  0
BLOCK
  5
117
330
115
100
AcDbEntity
  8
0
100
AcDbBlockBegin
  2
Block_9
 70
     0
 10
0.0
 20
0.0
 30
0.0
  3
Block_9
  1

  0
LINE
  5
119
330
115
100
AcDbEntity
  8
1
 62
     7
370
    18
100
AcDbLine
 10
118.668142113007
 20
785.5607436817317
 30
0.0
 11
108.4188520096149
 21
785.5607436817317
 31
0.0
  0
LINE
  5
11A
330
115
100
AcDbEntity
  8
1
 62
     7
370
    18
100
AcDbLine
 10
138.2222222222217
 20
688.2633350733203
 30
0.0
 11
108.4188520096149
 21
688.2633350733203
 31
0.0
  0
ENDBLK
  5
118
330
115
100
AcDbEntity
  8
0
100
AcDbBlockEnd
  0
ENDSEC
  0
SECTION
  2
ENTITIES
  0
LINE
  5
79
330
70
100
AcDbEntity
  8
1
 62
     7
370
    35
100
AcDbLine
 10
128.6625258701551
 20
785.5607436817317
 30
0.0
 11
128.6625258701551
 21
785.5607436817317
 31
0.0
  0
LINE
  5
7A
330
70
100
AcDbEntity
  8
1
 62
     7
370
    35
100
AcDbLine
 10
252.1579139073674
 20
688.2633350733203
 30
0.0
 11
252.1579139073674
 21
688.2633350733203
 31
0.0
  0
LINE
  5
7B
330
70
100
AcDbEntity
  8
1
 62
     7
370
    35
100
AcDbLine
 10
148.5132915160766
 20
483.6822612427686
 30
0.0
 11
148.5132915160766
 21
319.204488747986
 31
0.0
  0
LINE
  5
7C
330
70
100
AcDbEntity
  8
1
 62
     7
370
    35
100
AcDbLine
 10
459.5086199688503
 20
319.204488747986
 30
0.0
 11
459.5086199688503
 21
483.6822612427686
 31
0.0
  0
LINE
  5
7D
330
70
100
AcDbEntity
  8
1
 62
     7
370
    35
100
AcDbLine
 10
150.8764779024959
 20
316.8413023615685
 30
0.0
 11
457.1454335824292
 21
316.8413023615685
 31
0.0
  0
LINE
  5
7E
330
70
100
AcDbEntity
  8
1
 62
     7
370
    35
100
AcDbLine
 10
457.1454335824292
 20
486.045447629187
 30
0.0
 11
150.8764779024959
 21
486.045447629187
 31
0.0
  0
LINE
  5
7F
330
70
100
AcDbEntity
  8
1
 62
     7
370
    35
100
AcDbLine
 10
482.1952092784759
 20
297.1323278988311
 30
0.0
 11
482.1952092784759
 21
532.5056919861899
 31
0.0
  0
LINE
  5
80
330
70
100
AcDbEntity
  8
1
 62
     7
370
    35
100
AcDbLine
 10
145.6774678523734
 20
495.9708304521491
 30
0.0
 11
462.3444436325553
 21
495.9708304521491
 31
0.0
  0
LINE
  5
81
330
70
100
AcDbEntity
  8
1
 62
     7
370
    35
100
AcDbLine
 10
128.6625258701551
 20
294.2965042351279
 30
0.0
 11
479.3593856147708
 21
294.2965042351279
 31
0.0
  0
LINE
  5
82
330
70
100
AcDbEntity
  8
1
 62
     7
370
    35
100
AcDbLine
 10
479.3593856147708
 20
535.3415156498922
 30
0.0
 11
128.6625258701551
 21
535.3415156498922
 31
0.0
  0
LINE
  5
83
330
70
100
AcDbEntity
  8
1
 62
     7
370
    35
100
AcDbLine
 10
125.8267022064519
 20
532.5056919861899
 30
0.0
 11
125.8267022064519
 21
297.1323278988311
 31
0.0
  0
LINE
  5
84
330
70
100
AcDbEntity
  8
1
 62
     7
370
    35
100
AcDbLine
 10
462.3444436325553
 20
306.9159195386055
 30
0.0
 11
145.6774678523734
 21
306.9159195386055
 31
0.0
  0
LINE
  5
85
330
70
100
AcDbEntity
  8
1
 62
     7
370
    35
100
AcDbLine
 10
138.5879086931154
 20
314.0054786978653
 30
0.0
 11
138.5879086931154
 21
488.8812712928911
 31
0.0
  0
LINE
  5
86
330
70
100
AcDbEntity
  8
1
 62
     7
370
    35
100
AcDbLine
 10
469.4340027918115
 20
488.8812712928911
 30
0.0
 11
469.4340027918115
 21
314.0054786978653
 31
0.0
  0
LINE
  5
87
330
70
100
AcDbEntity
  8
1
 62
     7
370
    35
100
AcDbLine
 10
325.401960727706
 20
684.9051082628593
 30
0.0
 11
331.2568414926809
 21
686.4739185255903
 31
0.0
  0
LINE
  5
88
330
70
100
AcDbEntity
  8
1
 62
     7
370
    35
100
AcDbLine
 10
276.7650704648822
 20
686.4739185255903
 30
0.0
 11
282.6199507572201
 21
684.9051082628593
 31
0.0
  0
LINE
  5
89
330
70
100
AcDbEntity
  8
1
 62
     7
370
    35
100
AcDbLine
 10
331.4598226609705
 20
686.5544181066589
 30
0.0
 11
333.0598733024562
 21
687.4146992449259
 31
0.0
  0
LINE
  5
8A
330
70
100
AcDbEntity
  8
1
 62
     7
370
    35
100
AcDbLine
 10
274.9636120646028
 20
687.4138532242004
 30
0.0
 11
276.5620892965944
 21
686.5544181066589
 31
0.0
  0
LINE
  5
8B
330
70
100
AcDbEntity
  8
1
 62
     7
370
    35
100
AcDbLine
 10
128.6625258701551
 20
785.5607436817317
 30
0.0
 11
479.3593856147708
 21
785.5607436817317
 31
0.0
  0
LINE
  5
8C
330
70
100
AcDbEntity
  8
1
 62
     7
370
    35
100
AcDbLine
 10
128.6625258701551
 20
784.851787765806
 30
0.0
 11
479.3593856147708
 21
784.851787765806
 31
0.0
  0
LINE
  5
8D
330
70
100
AcDbEntity
  8
1
 62
     7
370
    35
100
AcDbLine
 10
482.1952092784759
 20
785.5607436817317
 30
0.0
 11
479.3593856147708
 21
785.5607436817317
 31
0.0
  0
LINE
  5
8E
330
70
100
AcDbEntity
  8
1
 62
     7
370
    35
100
AcDbLine
 10
482.1952092784759
 20
784.851787765806
 30
0.0
 11
479.3593856147708
 21
784.851787765806
 31
0.0
  0
LINE
  5
8F
330
70
100
AcDbEntity
  8
1
 62
     7
370
    35
100
AcDbLine
 10
128.6625258701551
 20
784.851787765806
 30
0.0
 11
125.8267022064519
 21
784.851787765806
 31
0.0
  0
LINE
  5
90
330
70
100
AcDbEntity
  8
1
 62
     7
370
    35
100
AcDbLine
 10
125.8267022064519
 20
784.851787765806
 30
0.0
 11
125.8267022064519
 21
785.5607436817317
 31
0.0
  0
LINE
  5
91
330
70
100
AcDbEntity
  8
1
 62
     7
370
    35
100
AcDbLine
 10
325.401960727706
 20
684.9051082628593
 30
0.0
 11
282.6199507572201
 21
684.9051082628593
 31
0.0
  0
LINE
  5
92
330
70
100
AcDbEntity
  8
1
 62
     7
370
    35
100
AcDbLine
 10
325.9090646057976
 20
687.4123398396368
 30
0.0
 11
327.9234040347783
 21
687.4123398396368
 31
0.0
  0
LINE
  5
93
330
70
100
AcDbEntity
  8
1
 62
     7
370
    35
100
AcDbLine
 10
280.0985074501514
 20
687.4123403122748
 30
0.0
 11
282.1128468791285
 21
687.4123403122748
 31
0.0
  0
LINE
  5
94
330
70
100
AcDbEntity
  8
1
 62
     7
370
    35
100
AcDbLine
 10
138.1152714158315
 20
697.4138914682953
 30
0.0
 11
138.1152714158315
 21
784.001040666697
 31
0.0
  0
LINE
  5
95
330
70
100
AcDbEntity
  8
1
 62
     7
370
    35
100
AcDbLine
 10
145.6774678523734
 20
689.8516950317516
 30
0.0
 11
462.3444436325553
 21
689.8516950317516
 31
0.0
  0
LINE
  5
96
330
70
100
AcDbEntity
  8
1
 62
     7
370
    35
100
AcDbLine
 10
469.9066400690953
 20
697.4138914682953
 30
0.0
 11
469.9066400690953
 21
784.001040666697
 31
0.0
  0
LINE
  5
97
330
70
100
AcDbEntity
  8
1
 62
     7
370
    35
100
AcDbLine
 10
132.4436240884251
 20
784.3791504885221
 30
0.0
 11
144.6551534216078
 21
784.3791504885221
 31
0.0
  0
LINE
  5
98
330
70
100
AcDbEntity
  8
1
 62
     7
370
    35
100
AcDbLine
 10
132.4436240884251
 20
784.851787765806
 30
0.0
 11
132.4436240884251
 21
784.3791504885221
 31
0.0
  0
LINE
  5
99
330
70
100
AcDbEntity
  8
1
 62
     7
370
    35
100
AcDbLine
 10
144.6551534216078
 20
784.3791504885221
 30
0.0
 11
463.3667580633191
 21
784.3791504885221
 31
0.0
  0
LINE
  5
9A
330
70
100
AcDbEntity
  8
1
 62
     7
370
    35
100
AcDbLine
 10
144.6551534216078
 20
784.851787765806
 30
0.0
 11
144.6551534216078
 21
784.3791504885221
 31
0.0
  0
LINE
  5
9B
330
70
100
AcDbEntity
  8
1
 62
     7
370
    35
100
AcDbLine
 10
463.3667580633191
 20
784.3791504885221
 30
0.0
 11
475.5782873965017
 21
784.3791504885221
 31
0.0
  0
LINE
  5
9C
330
70
100
AcDbEntity
  8
1
 62
     7
370
    35
100
AcDbLine
 10
475.5782873965017
 20
784.851787765806
 30
0.0
 11
475.5782873965017
 21
784.3791504885221
 31
0.0
  0
LINE
  5
9D
330
70
100
AcDbEntity
  8
1
 62
     7
370
    35
100
AcDbLine
 10
463.3667580633191
 20
784.851787765806
 30
0.0
 11
463.3667580633191
 21
784.3791504885221
 31
0.0
  0
LINE
  5
9E
330
70
100
AcDbEntity
  8
1
 62
     7
370
    35
100
AcDbLine
 10
482.1952092784759
 20
785.5607436817317
 30
0.0
 11
482.1952092784759
 21
784.851787765806
 31
0.0
  0
LINE
  5
9F
330
70
100
AcDbEntity
  8
1
 62
     7
370
    35
100
AcDbLine
 10
125.8267022064519
 20
785.5607436817317
 30
0.0
 11
128.6625258701551
 21
785.5607436817317
 31
0.0
  0
CIRCLE
  5
A0
330
70
100
AcDbEntity
  8
1
 62
     7
370
    35
100
AcDbCircle
 10
304.0109557424639
 20
439.2543571780873
 30
0.0
 40
27.12355802955142
  0
CIRCLE
  5
A1
330
70
100
AcDbEntity
  8
1
 62
     7
370
    35
100
AcDbCircle
 10
304.0109557424639
 20
439.2543571780861
 30
0.0
 40
27.22504864285293
  0
SPLINE
  5
A2
330
70
100
AcDbEntity
  8
1
 62
     7
370
    35
100
AcDbSpline
210
0.0
220
0.0
230
1.0
 70
     8
 71
     3
 72
     8
 73
     4
 74
     0
 42
0.0000000001
 43
0.0000000001
 40
0.0
 40
0.0
 40
0.0
 40
0.0
 40
1.0
 40
1.0
 40
1.0
 40
1.0
 10
275.8500728735871
 20
445.4066842179554
 30
0.0
 10
275.4085436051555
 20
443.3856840450271
 30
0.0
 10
275.1858546678777
 20
441.3230257822515
 30
0.0
 10
275.1858546678777
 20
439.254357178087
 30
0.0
  0
SPLINE
  5
A3
330
70
100
AcDbEntity
  8
1
 62
     7
370
    35
100
AcDbSpline
210
0.0
220
0.0
230
1.0
 70
     8
 71
     3
 72
     8
 73
     4
 74
     0
 42
0.0000000001
 43
0.0000000001
 40
0.0
 40
0.0
 40
0.0
 40
0.0
 40
1.0
 40
1.0
 40
1.0
 40
1.0
 10
332.8360700255307
 20
439.254357178087
 30
0.0
 10
332.8360700255307
 20
441.3230267301742
 30
0.0
 10
332.6133809862113
 20
443.3856859381185
 30
0.0
 10
332.1718515154571
 20
445.4066870371288
 30
0.0
  0
SPLINE
  5
A4
330
70
100
AcDbEntity
  8
1
 62
     7
370
    35
100
AcDbSpline
210
0.0
220
0.0
230
1.0
 70
     8
 71
     3
 72
     8
 73
     4
 74
     0
 42
0.0000000001
 43
0.0000000001
 40
0.0
 40
0.0
 40
0.0
 40
0.0
 40
1.0
 40
1.0
 40
1.0
 40
1.0
 10
280.2827768428106
 20
422.8956598114609
 30
0.0
 10
280.8999498162229
 20
422.000454625072
 30
0.0
 10
281.5672890257792
 20
421.1408933309367
 30
0.0
 10
282.2815937940358
 20
420.3210985377745
 30
0.0
  0
SPLINE
  5
A5
330
70
100
AcDbEntity
  8
1
 62
     7
370
    35
100
AcDbSpline
210
0.0
220
0.0
230
1.0
 70
     8
 71
     3
 72
     8
 73
     4
 74
     0
 42
0.0000000001
 43
0.0000000001
 40
0.0
 40
0.0
 40
0.0
 40
0.0
 40
1.0
 40
1.0
 40
1.0
 40
1.0
 10
325.7403172389695
 20
420.3210989315439
 30
0.0
 10
326.4546219923668
 20
421.1408937076567
 30
0.0
 10
327.121961188046
 20
422.000454983915
 30
0.0
 10
327.7391341486236
 20
422.8956601516865
 30
0.0
  0
SPLINE
  5
A6
330
70
100
AcDbEntity
  8
1
 62
     7
370
    35
100
AcDbSpline
210
0.0
220
0.0
230
1.0
 70
     8
 71
     3
 72
     8
 73
     4
 74
     0
 42
0.0000000001
 43
0.0000000001
 40
0.0
 40
0.0
 40
0.0
 40
0.0
 40
1.0
 40
1.0
 40
1.0
 40
1.0
 10
332.1715869077652
 20
445.4066292281067
 30
0.0
 10
331.9656110623473
 20
446.3494369850787
 30
0.0
 10
331.7124178903159
 20
447.2813059378759
 30
0.0
 10
331.4129640128503
 20
448.1987152744159
 30
0.0
  0
SPLINE
  5
A7
330
70
100
AcDbEntity
  8
1
 62
     7
370
    35
100
AcDbSpline
210
0.0
220
0.0
230
1.0
 70
     8
 71
     3
 72
     8
 73
     4
 74
     0
 42
0.0000000001
 43
0.0000000001
 40
0.0
 40
0.0
 40
0.0
 40
0.0
 40
1.0
 40
1.0
 40
1.0
 40
1.0
 10
276.6089476934467
 20
448.1987152021601
 30
0.0
 10
276.3094938183986
 20
447.2813058730308
 30
0.0
 10
276.0563006484117
 20
446.3494369277623
 30
0.0
 10
275.8503248046582
 20
445.4066291784065
 30
0.0
  0
SPLINE
  5
A8
330
70
100
AcDbEntity
  8
1
 62
     7
370
    35
100
AcDbSpline
210
0.0
220
0.0
230
1.0
 70
     8
 71
     3
 72
     8
 73
     4
 74
     0
 42
0.0000000001
 43
0.0000000001
 40
0.0
 40
0.0
 40
0.0
 40
0.0
 40
1.0
 40
1.0
 40
1.0
 40
1.0
 10
469.4340027918115
 20
488.8812712928911
 30
0.0
 10
469.4340027918115
 20
492.7967266995729
 30
0.0
 10
466.2598990392344
 20
495.9708304521491
 30
0.0
 10
462.3444436325553
 20
495.9708304521491
 30
0.0
  0
SPLINE
  5
A9
330
70
100
AcDbEntity
  8
1
 62
     7
370
    35
100
AcDbSpline
210
0.0
220
0.0
230
1.0
 70
     8
 71
     3
 72
     8
 73
     4
 74
     0
 42
0.0000000001
 43
0.0000000001
 40
0.0
 40
0.0
 40
0.0
 40
0.0
 40
1.0
 40
1.0
 40
1.0
 40
1.0
 10
479.3593856147708
 20
294.2965042351279
 30
0.0
 10
480.9255677774453
 20
294.2965042351279
 30
0.0
 10
482.1952092784759
 20
295.5661457361602
 30
0.0
 10
482.1952092784759
 20
297.1323278988311
 30
0.0
  0
SPLINE
  5
AA
330
70
100
AcDbEntity
  8
1
 62
     7
370
    35
100
AcDbSpline
210
0.0
220
0.0
230
1.0
 70
     8
 71
     3
 72
     8
 73
     4
 74
     0
 42
0.0000000001
 43
0.0000000001
 40
0.0
 40
0.0
 40
0.0
 40
0.0
 40
1.0
 40
1.0
 40
1.0
 40
1.0
 10
482.1952092784759
 20
532.5056919861899
 30
0.0
 10
482.1952092784759
 20
534.0718741488635
 30
0.0
 10
480.9255677774453
 20
535.3415156498922
 30
0.0
 10
479.3593856147708
 20
535.3415156498922
 30
0.0
  0
SPLINE
  5
AB
330
70
100
AcDbEntity
  8
1
 62
     7
370
    35
100
AcDbSpline
210
0.0
220
0.0
230
1.0
 70
     8
 71
     3
 72
     8
 73
     4
 74
     0
 42
0.0000000001
 43
0.0000000001
 40
0.0
 40
0.0
 40
0.0
 40
0.0
 40
1.0
 40
1.0
 40
1.0
 40
1.0
 10
125.8267022064519
 20
297.1323278988311
 30
0.0
 10
125.8267022064519
 20
295.5661457361602
 30
0.0
 10
127.0963437074824
 20
294.2965042351279
 30
0.0
 10
128.6625258701551
 20
294.2965042351279
 30
0.0
  0
SPLINE
  5
AC
330
70
100
AcDbEntity
  8
1
 62
     7
370
    35
100
AcDbSpline
210
0.0
220
0.0
230
1.0
 70
     8
 71
     3
 72
     8
 73
     4
 74
     0
 42
0.0000000001
 43
0.0000000001
 40
0.0
 40
0.0
 40
0.0
 40
0.0
 40
1.0
 40
1.0
 40
1.0
 40
1.0
 10
128.6625258701551
 20
535.3415156498922
 30
0.0
 10
127.0963437074824
 20
535.3415156498922
 30
0.0
 10
125.8267022064519
 20
534.0718741488635
 30
0.0
 10
125.8267022064519
 20
532.5056919861899
 30
0.0
  0
SPLINE
  5
AD
330
70
100
AcDbEntity
  8
1
 62
     7
370
    35
100
AcDbSpline
210
0.0
220
0.0
230
1.0
 70
     8
 71
     3
 72
     8
 73
     4
 74
     0
 42
0.0000000001
 43
0.0000000001
 40
0.0
 40
0.0
 40
0.0
 40
0.0
 40
1.0
 40
1.0
 40
1.0
 40
1.0
 10
462.3444436325553
 20
306.9159195386055
 30
0.0
 10
466.2598990392344
 20
306.9159195386055
 30
0.0
 10
469.4340027918115
 20
310.0900232911881
 30
0.0
 10
469.4340027918115
 20
314.0054786978653
 30
0.0
  0
SPLINE
  5
AE
330
70
100
AcDbEntity
  8
1
 62
     7
370
    35
100
AcDbSpline
210
0.0
220
0.0
230
1.0
 70
     8
 71
     3
 72
     8
 73
     4
 74
     0
 42
0.0000000001
 43
0.0000000001
 40
0.0
 40
0.0
 40
0.0
 40
0.0
 40
1.0
 40
1.0
 40
1.0
 40
1.0
 10
138.5879086931154
 20
314.0054786978653
 30
0.0
 10
138.5879086931154
 20
310.0900232911881
 30
0.0
 10
141.7620124456916
 20
306.9159195386055
 30
0.0
 10
145.6774678523734
 20
306.9159195386055
 30
0.0
  0
CIRCLE
  5
AF
330
70
100
AcDbEntity
  8
1
 62
     7
370
    35
100
AcDbCircle
 10
304.0109557424635
 20
439.2543571780868
 30
0.0
 40
21.26867747777385
  0
SPLINE
  5
B0
330
70
100
AcDbEntity
  8
1
 62
     7
370
    35
100
AcDbSpline
210
0.0
220
0.0
230
1.0
 70
     8
 71
     3
 72
     8
 73
     4
 74
     0
 42
0.0000000001
 43
0.0000000001
 40
0.0
 40
0.0
 40
0.0
 40
0.0
 40
1.0
 40
1.0
 40
1.0
 40
1.0
 10
145.6774678523734
 20
495.9708304521491
 30
0.0
 10
141.7620124456916
 20
495.9708304521491
 30
0.0
 10
138.5879086931154
 20
492.7967266995729
 30
0.0
 10
138.5879086931154
 20
488.8812712928911
 30
0.0
  0
CIRCLE
  5
B1
330
70
100
AcDbEntity
  8
1
 62
     7
370
    35
100
AcDbCircle
 10
304.0109557424635
 20
515.963387281256
 30
0.0
 40
8.271152352468105
  0
CIRCLE
  5
B2
330
70
100
AcDbEntity
  8
1
 62
     7
370
    35
100
AcDbCircle
 10
151.8217524570636
 20
515.963387281256
 30
0.0
 40
8.271152352467877
  0
SPLINE
  5
B3
330
70
100
AcDbEntity
  8
1
 62
     7
370
    35
100
AcDbSpline
210
0.0
220
0.0
230
1.0
 70
     8
 71
     3
 72
     8
 73
     4
 74
     0
 42
0.0000000001
 43
0.0000000001
 40
0.0
 40
0.0
 40
0.0
 40
0.0
 40
1.0
 40
1.0
 40
1.0
 40
1.0
 10
331.256841535318
 20
686.473918689795
 30
0.0
 10
331.3273844360701
 20
686.4928206030845
 30
0.0
 10
331.3954991941064
 20
686.5198339070438
 30
0.0
 10
331.459822760231
 20
686.5544180365541
 30
0.0
  0
SPLINE
  5
B4
330
70
100
AcDbEntity
  8
1
 62
     7
370
    35
100
AcDbSpline
210
0.0
220
0.0
230
1.0
 70
     8
 71
     3
 72
     8
 73
     4
 74
     0
 42
0.0000000001
 43
0.0000000001
 40
0.0
 40
0.0
 40
0.0
 40
0.0
 40
1.0
 40
1.0
 40
1.0
 40
1.0
 10
276.5620891973358
 20
686.5544180365541
 30
0.0
 10
276.6264127634586
 20
686.5198339070438
 30
0.0
 10
276.694527521493
 20
686.4928206030845
 30
0.0
 10
276.7650704222488
 20
686.473918689795
 30
0.0
  0
SPLINE
  5
B5
330
70
100
AcDbEntity
  8
1
 62
     7
370
    35
100
AcDbSpline
210
0.0
220
0.0
230
1.0
 70
     8
 71
     3
 72
     8
 73
     4
 74
     0
 42
0.0000000001
 43
0.0000000001
 40
0.0
 40
0.0
 40
0.0
 40
0.0
 40
1.0
 40
1.0
 40
1.0
 40
1.0
 10
138.1152714158315
 20
697.4138914682953
 30
0.0
 10
138.1152714158315
 20
693.2374057011684
 30
0.0
 10
141.5009820852456
 20
689.8516950317516
 30
0.0
 10
145.6774678523734
 20
689.8516950317516
 30
0.0
  0
SPLINE
  5
B6
330
70
100
AcDbEntity
  8
1
 62
     7
370
    35
100
AcDbSpline
210
0.0
220
0.0
230
1.0
 70
     8
 71
     3
 72
     8
 73
     4
 74
     0
 42
0.0000000001
 43
0.0000000001
 40
0.0
 40
0.0
 40
0.0
 40
0.0
 40
1.0
 40
1.0
 40
1.0
 40
1.0
 10
462.3444436325553
 20
689.8516950317516
 30
0.0
 10
466.5209293996813
 20
689.8516950317516
 30
0.0
 10
469.9066400690953
 20
693.2374057011684
 30
0.0
 10
469.9066400690953
 20
697.4138914682953
 30
0.0
  0
SPLINE
  5
B7
330
70
100
AcDbEntity
  8
1
 62
     7
370
    35
100
AcDbSpline
210
0.0
220
0.0
230
1.0
 70
     8
 71
     3
 72
     8
 73
     4
 74
     0
 42
0.0000000001
 43
0.0000000001
 40
0.0
 40
0.0
 40
0.0
 40
0.0
 40
1.0
 40
1.0
 40
1.0
 40
1.0
 10
138.1152714158315
 20
784.001040666697
 30
0.0
 10
138.1152714158315
 20
784.2098649550535
 30
0.0
 10
137.9459858823611
 20
784.3791504885221
 30
0.0
 10
137.7371615940046
 20
784.3791504885221
 30
0.0
  0
SPLINE
  5
B8
330
70
100
AcDbEntity
  8
1
 62
     7
370
    35
100
AcDbSpline
210
0.0
220
0.0
230
1.0
 70
     8
 71
     3
 72
     8
 73
     4
 74
     0
 42
0.0000000001
 43
0.0000000001
 40
0.0
 40
0.0
 40
0.0
 40
0.0
 40
1.0
 40
1.0
 40
1.0
 40
1.0
 10
470.2847498909213
 20
784.3791504885221
 30
0.0
 10
470.0759256025667
 20
784.3791504885221
 30
0.0
 10
469.9066400690953
 20
784.2098649550535
 30
0.0
 10
469.9066400690953
 20
784.001040666697
 30
0.0
  0
SPLINE
  5
B9
330
70
100
AcDbEntity
  8
1
 62
     7
370
    35
100
AcDbSpline
210
0.0
220
0.0
230
1.0
 70
     8
 71
     3
 72
     8
 73
     4
 74
     0
 42
0.0000000001
 43
0.0000000001
 40
0.0
 40
0.0
 40
0.0
 40
0.0
 40
1.0
 40
1.0
 40
1.0
 40
1.0
 10
327.7391338442576
 20
422.8956597416099
 30
0.0
 10
327.8725524048041
 20
422.8036377177223
 30
0.0
 10
328.0208847452541
 20
422.701334395565
 30
0.0
 10
328.1723110955245
 20
422.5969017515844
 30
0.0
  0
SPLINE
  5
BA
330
70
100
AcDbEntity
  8
1
 62
     7
370
    35
100
AcDbSpline
210
0.0
220
0.0
230
1.0
 70
     8
 71
     3
 72
     8
 73
     4
 74
     0
 42
0.0000000001
 43
0.0000000001
 40
0.0
 40
0.0
 40
0.0
 40
0.0
 40
1.0
 40
1.0
 40
1.0
 40
1.0
 10
333.3521555945063
 20
439.2544182514657
 30
0.0
 10
333.1713566881372
 20
439.2543981038953
 30
0.0
 10
332.9945210586575
 20
439.25437594497
 30
0.0
 10
332.8352818638687
 20
439.254353483032
 30
0.0
  0
SPLINE
  5
BB
330
70
100
AcDbEntity
  8
1
 62
     7
370
    35
100
AcDbSpline
210
0.0
220
0.0
230
1.0
 70
     8
 71
     3
 72
     8
 73
     4
 74
     0
 42
0.0000000001
 43
0.0000000001
 40
0.0
 40
0.0
 40
0.0
 40
0.0
 40
1.0
 40
1.0
 40
1.0
 40
1.0
 10
275.1874448350191
 20
439.2543588441194
 30
0.0
 10
275.0280021626695
 20
439.2543863559012
 30
0.0
 10
274.8508775953378
 20
439.2544135069138
 30
0.0
 10
274.6697717779571
 20
439.2544381970119
 30
0.0
  0
SPLINE
  5
BC
330
70
100
AcDbEntity
  8
1
 62
     7
370
    35
100
AcDbSpline
210
0.0
220
0.0
230
1.0
 70
     8
 71
     3
 72
     8
 73
     4
 74
     0
 42
0.0000000001
 43
0.0000000001
 40
0.0
 40
0.0
 40
0.0
 40
0.0
 40
1.0
 40
1.0
 40
1.0
 40
1.0
 10
279.8495976209597
 20
422.5969057946959
 30
0.0
 10
280.0001417176954
 20
422.7007268914812
 30
0.0
 10
280.1476403925262
 20
422.8024517728508
 30
0.0
 10
280.2804734954752
 20
422.8940664116953
 30
0.0
  0
SPLINE
  5
BD
330
70
100
AcDbEntity
  8
1
 62
     7
370
    35
100
AcDbSpline
210
0.0
220
0.0
230
1.0
 70
     8
 71
     3
 72
     8
 73
     4
 74
     0
 42
0.0000000001
 43
0.0000000001
 40
0.0
 40
0.0
 40
0.0
 40
0.0
 40
1.0
 40
1.0
 40
1.0
 40
1.0
 10
332.6770612454857
 20
445.5171384373743
 30
0.0
 10
332.5004088886981
 20
445.4785219751329
 30
0.0
 10
332.3275629069922
 20
445.4407347829119
 30
0.0
 10
332.1718509021575
 20
445.4066905104546
 30
0.0
  0
SPLINE
  5
BE
330
70
100
AcDbEntity
  8
1
 62
     7
370
    35
100
AcDbSpline
210
0.0
220
0.0
230
1.0
 70
     8
 71
     3
 72
     8
 73
     4
 74
     0
 42
0.0000000001
 43
0.0000000001
 40
0.0
 40
0.0
 40
0.0
 40
0.0
 40
1.0
 40
1.0
 40
1.0
 40
1.0
 10
275.8503248011748
 20
445.406628671807
 30
0.0
 10
275.6945456884205
 20
445.440690097258
 30
0.0
 10
275.5216044759054
 20
445.4785005702515
 30
0.0
 10
275.3448510488634
 20
445.5171413794587
 30
0.0
  0
SPLINE
  5
BF
330
70
100
AcDbEntity
  8
1
 62
     7
370
    35
100
AcDbSpline
210
0.0
220
0.0
230
1.0
 70
     8
 71
     3
 72
     8
 73
     4
 74
     0
 42
0.0000000001
 43
0.0000000001
 40
0.0
 40
0.0
 40
0.0
 40
0.0
 40
1.0
 40
1.0
 40
1.0
 40
1.0
 10
282.2815951423963
 20
420.3211001491281
 30
0.0
 10
282.1593796458692
 20
420.2146630499182
 30
0.0
 10
282.0235080379825
 20
420.096326350117
 30
0.0
 10
281.8848061244935
 20
419.9755187313021
 30
0.0
  0
SPLINE
  5
C0
330
70
100
AcDbEntity
  8
1
 62
     7
370
    35
100
AcDbSpline
210
0.0
220
0.0
230
1.0
 70
     8
 71
     3
 72
     8
 73
     4
 74
     0
 42
0.0000000001
 43
0.0000000001
 40
0.0
 40
0.0
 40
0.0
 40
0.0
 40
1.0
 40
1.0
 40
1.0
 40
1.0
 10
331.4129636352518
 20
448.1987158480905
 30
0.0
 10
331.5645016754497
 20
448.248111271846
 30
0.0
 10
331.732734350875
 20
448.3029569282162
 30
0.0
 10
331.9046844847744
 20
448.3590221184012
 30
0.0
  0
SPLINE
  5
C1
330
70
100
AcDbEntity
  8
1
 62
     7
370
    35
100
AcDbSpline
210
0.0
220
0.0
230
1.0
 70
     8
 71
     3
 72
     8
 73
     4
 74
     0
 42
0.0000000001
 43
0.0000000001
 40
0.0
 40
0.0
 40
0.0
 40
0.0
 40
1.0
 40
1.0
 40
1.0
 40
1.0
 10
276.1172273576503
 20
448.3590230689197
 30
0.0
 10
276.2891205130763
 20
448.3029757479753
 30
0.0
 10
276.4572993972087
 20
448.2481468446231
 30
0.0
 10
276.608799327003
 20
448.1987630449666
 30
0.0
  0
SPLINE
  5
C2
330
70
100
AcDbEntity
  8
1
 62
     7
370
    35
100
AcDbSpline
210
0.0
220
0.0
230
1.0
 70
     8
 71
     3
 72
     8
 73
     4
 74
     0
 42
0.0000000001
 43
0.0000000001
 40
0.0
 40
0.0
 40
0.0
 40
0.0
 40
1.0
 40
1.0
 40
1.0
 40
1.0
 10
328.1833178186298
 20
687.4966035180359
 30
0.0
 10
328.0924586205729
 20
687.4934861445445
 30
0.0
 10
328.0034560227814
 20
687.4646318950835
 30
0.0
 10
327.9234026641734
 20
687.4123401718953
 30
0.0
  0
SPLINE
  5
C3
330
70
100
AcDbEntity
  8
1
 62
     7
370
    35
100
AcDbSpline
210
0.0
220
0.0
230
1.0
 70
     8
 71
     3
 72
     8
 73
     4
 74
     0
 42
0.0000000001
 43
0.0000000001
 40
0.0
 40
0.0
 40
0.0
 40
0.0
 40
1.0
 40
1.0
 40
1.0
 40
1.0
 10
280.0961896165663
 20
687.4138470583402
 30
0.0
 10
280.0167267011548
 20
687.465192413927
 30
0.0
 10
279.9285632215287
 20
687.4935155433131
 30
0.0
 10
279.8385917552532
 20
687.4966021581403
 30
0.0
  0
SPLINE
  5
C4
330
70
100
AcDbEntity
  8
1
 62
     7
370
    35
100
AcDbSpline
210
0.0
220
0.0
230
1.0
 70
     8
 71
     3
 72
     8
 73
     4
 74
     0
 42
0.0000000001
 43
0.0000000001
 40
0.0
 40
0.0
 40
0.0
 40
0.0
 40
1.0
 40
1.0
 40
1.0
 40
1.0
 10
282.1128474894631
 20
687.4123435800911
 30
0.0
 10
282.0395140906276
 20
687.4646373684091
 30
0.0
 10
281.9579853850009
 20
687.4934946923194
 30
0.0
 10
281.8747582315864
 20
687.496615969565
 30
0.0
  0
SPLINE
  5
C5
330
70
100
AcDbEntity
  8
1
 62
     7
370
    35
100
AcDbSpline
210
0.0
220
0.0
230
1.0
 70
     8
 71
     3
 72
    29
 73
    25
 74
     0
 42
0.0000000001
 43
0.0000000001
 40
0.0
 40
0.0
 40
0.0
 40
0.0
 40
1.0
 40
1.0
 40
1.0
 40
2.0
 40
2.0
 40
2.0
 40
3.0
 40
3.0
 40
3.0
 40
4.0
 40
4.0
 40
4.0
 40
5.0
 40
5.0
 40
5.0
 40
6.0
 40
6.0
 40
6.0
 40
7.0
 40
7.0
 40
7.0
 40
8.0
 40
8.0
 40
8.0
 40
8.0
 10
327.7414042747059
 20
422.8940953102673
 30
0.0
 10
328.1528583156632
 20
423.4909065973688
 30
0.0
 10
328.5417871124391
 20
424.103246778136
 30
0.0
 10
328.9070846167015
 20
424.729374459689
 30
0.0
 10
329.2723821209656
 20
425.3555021412439
 30
0.0
 10
329.6140479382393
 20
425.9954166474499
 30
0.0
 10
329.9311104281823
 20
426.6472981686611
 30
0.0
 10
330.2481729181291
 20
427.299179689874
 30
0.0
 10
330.5406317383604
 20
427.9630275221506
 30
0.0
 10
330.8076551849918
 20
428.6369537934706
 30
0.0
 10
331.0746786316231
 20
429.3108800647924
 30
0.0
 10
331.3162664163028
 20
429.9948840474126
 30
0.0
 10
331.5317315038483
 20
430.6870205486002
 30
0.0
 10
331.7471965913938
 20
431.379157049786
 30
0.0
 10
331.9365387491343
 20
432.0794253221293
 30
0.0
 10
332.0992195196923
 20
432.785833919982
 30
0.0
 10
332.2619002902484
 20
433.4922425178347
 30
0.0
 10
332.3979194979511
 20
434.2047906783709
 30
0.0
 10
332.5068903269585
 20
434.9214520340001
 30
0.0
 10
332.6158611559677
 20
435.6381133896311
 30
0.0
 10
332.6977834886075
 20
436.3588871664569
 30
0.0
 10
332.7524243514927
 20
437.0817236046159
 30
0.0
 10
332.8070652143761
 20
437.8045600427749
 30
0.0
 10
332.8344245484986
 20
438.5294583617024
 30
0.0
 10
332.8344245484986
 20
439.2543570720254
 30
0.0
  0
SPLINE
  5
C6
330
70
100
AcDbEntity
  8
1
 62
     7
370
    35
100
AcDbSpline
210
0.0
220
0.0
230
1.0
 70
     8
 71
     3
 72
    29
 73
    25
 74
     0
 42
0.0000000001
 43
0.0000000001
 40
0.0
 40
0.0
 40
0.0
 40
0.0
 40
1.0
 40
1.0
 40
1.0
 40
2.0
 40
2.0
 40
2.0
 40
3.0
 40
3.0
 40
3.0
 40
4.0
 40
4.0
 40
4.0
 40
5.0
 40
5.0
 40
5.0
 40
6.0
 40
6.0
 40
6.0
 40
7.0
 40
7.0
 40
7.0
 40
8.0
 40
8.0
 40
8.0
 40
8.0
 10
275.187445046402
 20
439.2543570720254
 30
0.0
 10
275.187445046402
 20
438.5294573004948
 30
0.0
 10
275.2148044205787
 20
437.8045579203617
 30
0.0
 10
275.269445363454
 20
437.0817204240147
 30
0.0
 10
275.3240863063293
 20
436.3588829276641
 30
0.0
 10
275.4060087588987
 20
435.6381080956698
 30
0.0
 10
275.5149797474333
 20
434.9214456908912
 30
0.0
 10
275.6239507359678
 20
434.2047832861108
 30
0.0
 10
275.7599701427916
 20
433.4922340824496
 30
0.0
 10
275.9226511515044
 20
432.7858244504577
 30
0.0
 10
276.0853321602153
 20
432.0794148184659
 30
0.0
 10
276.274674595139
 20
431.3791455209748
 30
0.0
 10
276.4901399981118
 20
430.6870080065391
 30
0.0
 10
276.7056054010863
 20
429.9948704921052
 30
0.0
 10
276.9471935394358
 20
429.3108655081478
 30
0.0
 10
277.2142173769716
 20
428.6369382502389
 30
0.0
 10
277.4812412145075
 20
427.9630109923282
 30
0.0
 10
277.7737004628798
 20
427.2991621882201
 30
0.0
 10
278.0907634169853
 20
426.6472797126925
 30
0.0
 10
278.407826371089
 20
425.9953972371667
 30
0.0
 10
278.7494926885411
 20
425.3554817941648
 30
0.0
 10
279.1147907275754
 20
424.7293531959958
 30
0.0
 10
279.4800887666097
 20
424.1032245978285
 30
0.0
 10
279.8690181327529
 20
423.4908835206306
 30
0.0
 10
280.2804727760486
 20
422.8940713598358
 30
0.0
  0
SPLINE
  5
C7
330
70
100
AcDbEntity
  8
1
 62
     7
370
    35
100
AcDbSpline
210
0.0
220
0.0
230
1.0
 70
     8
 71
     3
 72
     8
 73
     4
 74
     0
 42
0.0000000001
 43
0.0000000001
 40
0.0
 40
0.0
 40
0.0
 40
0.0
 40
1.0
 40
1.0
 40
1.0
 40
1.0
 10
325.7403586273649
 20
420.3210671651386
 30
0.0
 10
325.8631198490366
 20
420.214151826668
 30
0.0
 10
325.9977839482926
 20
420.0968639365846
 30
0.0
 10
326.1371033254527
 20
419.9755159097221
 30
0.0
  0
SPLINE
  5
C8
330
70
100
AcDbEntity
  8
1
 62
     7
370
    35
100
AcDbSpline
210
0.0
220
0.0
230
1.0
 70
     8
 71
     3
 72
    92
 73
    88
 74
     0
 42
0.0000000001
 43
0.0000000001
 40
0.0
 40
0.0
 40
0.0
 40
0.0
 40
1.0
 40
1.0
 40
1.0
 40
2.0
 40
2.0
 40
2.0
 40
3.0
 40
3.0
 40
3.0
 40
4.0
 40
4.0
 40
4.0
 40
5.0
 40
5.0
 40
5.0
 40
6.0
 40
6.0
 40
6.0
 40
7.0
 40
7.0
 40
7.0
 40
8.0
 40
8.0
 40
8.0
 40
9.0
 40
9.0
 40
9.0
 40
10.0
 40
10.0
 40
10.0
 40
11.0
 40
11.0
 40
11.0
 40
12.0
 40
12.0
 40
12.0
 40
13.0
 40
13.0
 40
13.0
 40
14.0
 40
14.0
 40
14.0
 40
15.0
 40
15.0
 40
15.0
 40
16.0
 40
16.0
 40
16.0
 40
17.0
 40
17.0
 40
17.0
 40
18.0
 40
18.0
 40
18.0
 40
19.0
 40
19.0
 40
19.0
 40
20.0
 40
20.0
 40
20.0
 40
21.0
 40
21.0
 40
21.0
 40
22.0
 40
22.0
 40
22.0
 40
23.0
 40
23.0
 40
23.0
 40
24.0
 40
24.0
 40
24.0
 40
25.0
 40
25.0
 40
25.0
 40
26.0
 40
26.0
 40
26.0
 40
27.0
 40
27.0
 40
27.0
 40
28.0
 40
28.0
 40
28.0
 40
29.0
 40
29.0
 40
29.0
 40
29.0
 10
282.2815551488147
 20
420.3210648944686
 30
0.0
 10
282.5441784799277
 20
420.0266868188236
 30
0.0
 10
282.8068018110407
 20
419.7323087431832
 30
0.0
 10
283.0769396386495
 20
419.4449166059857
 30
0.0
 10
283.3470793748274
 20
419.1575224383195
 30
0.0
 10
283.6247337136847
 20
418.8771143078083
 30
0.0
 10
283.9075962189836
 20
418.6021225995646
 30
0.0
 10
284.1904611202226
 20
418.3271285620503
 30
0.0
 10
284.478534276137
 20
418.057551038557
 30
0.0
 10
284.772128625902
 20
417.7941006163491
 30
0.0
 10
285.0657258750398
 20
417.5306475924481
 30
0.0
 10
285.3648444270802
 20
417.2733217908499
 30
0.0
 10
285.6690837021142
 20
417.0222100475657
 30
0.0
 10
285.9733264091246
 20
416.771095471613
 30
0.0
 10
286.2826899546599
 20
416.5261950941713
 30
0.0
 10
286.5969538313275
 20
416.2877496551663
 30
0.0
 10
286.9112216946032
 20
416.0493011913494
 30
0.0
 10
287.2303900133374
 20
415.8173078297404
 30
0.0
 10
287.5541794637484
 20
415.5919553938693
 30
0.0
 10
287.8779734765212
 20
415.366599782661
 30
0.0
 10
288.2063887511977
 20
415.1478852843393
 30
0.0
 10
288.5391517285498
 20
414.9359983382455
 30
0.0
 10
288.871919862213
 20
414.7241081088723
 30
0.0
 10
289.2090358332934
 20
414.5190456433192
 30
0.0
 10
289.5502151289238
 20
414.320982718309
 30
0.0
 10
289.8914001905851
 20
414.12291644598
 30
0.0
 10
290.2366487141407
 20
413.9318499507862
 30
0.0
 10
290.5856703152167
 20
413.7479440668503
 30
0.0
 10
290.9346983051655
 20
413.5640348164961
 30
0.0
 10
291.2874995107686
 20
413.3872864395561
 30
0.0
 10
291.6437769315308
 20
413.2178474816901
 30
0.0
 10
292.0000613744523
 20
413.048405184214
 30
0.0
 10
292.3598221695666
 20
412.8862725939507
 30
0.0
 10
292.7227565310259
 20
412.7315860057024
 30
0.0
 10
293.0856985556384
 20
412.5768961513313
 30
0.0
 10
293.4518142806155
 20
412.4296526134093
 30
0.0
 10
293.8207955550552
 20
412.2899791273339
 30
0.0
 10
294.1897851385784
 20
412.1503024959529
 30
0.0
 10
294.5616404006232
 20
412.0181962573552
 30
0.0
 10
294.9360483711899
 20
411.893771404124
 30
0.0
 10
295.3104652988804
 20
411.7693435742258
 30
0.0
 10
295.6874350572325
 20
411.6525974972209
 30
0.0
 10
296.0666403650103
 20
411.5436312115489
 30
0.0
 10
296.4458552772194
 20
411.4346621660042
 30
0.0
 10
296.8273058520972
 20
411.33347330588
 30
0.0
 10
297.210671080551
 20
411.2401496192505
 30
0.0
 10
297.5940465571366
 20
411.1468234378881
 30
0.0
 10
297.9793367896655
 20
411.0613628505197
 30
0.0
 10
298.3662174041219
 20
410.983839396562
 30
0.0
 10
298.7531089039148
 20
410.9063137613921
 30
0.0
 10
299.1415908751315
 20
410.8367257062745
 30
0.0
 10
299.5313367862145
 20
410.7751341490001
 30
0.0
 10
299.9210942104637
 20
410.7135407722998
 30
0.0
 10
300.3121156492562
 20
410.6599443658888
 30
0.0
 10
300.7040704960964
 20
410.6143875871384
 30
0.0
 10
301.0960374716233
 20
410.568829398675
 30
0.0
 10
301.488937912969
 20
410.5313113354386
 30
0.0
 10
301.8824469036699
 20
410.5018729291405
 30
0.0
 10
302.2759686235422
 20
410.4724335705759
 30
0.0
 10
302.6700989321398
 20
410.4510743916762
 30
0.0
 10
303.0644847831027
 20
410.437782437908
 30
0.0
 10
303.4588839451753
 20
410.4244900355151
 30
0.0
 10
303.8535386668591
 20
410.4192654028229
 30
0.0
 10
304.2481966327432
 20
410.4222270936625
 30
0.0
 10
305.8516955075884
 20
410.4342604702724
 30
0.0
 10
307.4552479377835
 20
410.5814340220058
 30
0.0
 10
309.0378099577465
 20
410.8629523206218
 30
0.0
 10
311.5675662984068
 20
411.312964826895
 30
0.0
 10
314.0436865831416
 20
412.1062637329051
 30
0.0
 10
316.3604923575676
 20
413.2067587147466
 30
0.0
 10
316.8951916040223
 20
413.4607436814621
 30
0.0
 10
317.4214050029659
 20
413.7310913702604
 30
0.0
 10
317.9389919090372
 20
414.0173697888276
 30
0.0
 10
318.4800385087165
 20
414.3166238138292
 30
0.0
 10
319.0116588997207
 20
414.6332854209613
 30
0.0
 10
319.5326072740663
 20
414.9666038421637
 30
0.0
 10
320.0761450018599
 20
415.3143756103745
 30
0.0
 10
320.6080651272532
 20
415.6802800567275
 30
0.0
 10
321.1268175197165
 20
416.063875784137
 30
0.0
 10
321.667130741831
 20
416.4634148445402
 30
0.0
 10
322.19315890703
 20
416.8821463474196
 30
0.0
 10
322.705275276403
 20
417.3175910228929
 30
0.0
 10
323.2378292310877
 20
417.770413462953
 30
0.0
 10
323.7553388468914
 20
418.2413096754826
 30
0.0
 10
324.2497908634359
 20
418.7348396006854
 30
0.0
 10
324.7632204663878
 20
419.2473117214576
 30
0.0
 10
325.2517885541875
 20
419.7841883079527
 30
0.0
 10
325.7403566419889
 20
420.321064894445
 30
0.0
  0
SPLINE
  5
C9
330
70
100
AcDbEntity
  8
1
 62
     7
370
    35
100
AcDbSpline
210
0.0
220
0.0
230
1.0
 70
     8
 71
     3
 72
    86
 73
    82
 74
     0
 42
0.0000000001
 43
0.0000000001
 40
0.0
 40
0.0
 40
0.0
 40
0.0
 40
1.0
 40
1.0
 40
1.0
 40
2.0
 40
2.0
 40
2.0
 40
3.0
 40
3.0
 40
3.0
 40
4.0
 40
4.0
 40
4.0
 40
5.0
 40
5.0
 40
5.0
 40
6.0
 40
6.0
 40
6.0
 40
7.0
 40
7.0
 40
7.0
 40
8.0
 40
8.0
 40
8.0
 40
9.0
 40
9.0
 40
9.0
 40
10.0
 40
10.0
 40
10.0
 40
11.0
 40
11.0
 40
11.0
 40
12.0
 40
12.0
 40
12.0
 40
13.0
 40
13.0
 40
13.0
 40
14.0
 40
14.0
 40
14.0
 40
15.0
 40
15.0
 40
15.0
 40
16.0
 40
16.0
 40
16.0
 40
17.0
 40
17.0
 40
17.0
 40
18.0
 40
18.0
 40
18.0
 40
19.0
 40
19.0
 40
19.0
 40
20.0
 40
20.0
 40
20.0
 40
21.0
 40
21.0
 40
21.0
 40
22.0
 40
22.0
 40
22.0
 40
23.0
 40
23.0
 40
23.0
 40
24.0
 40
24.0
 40
24.0
 40
25.0
 40
25.0
 40
25.0
 40
26.0
 40
26.0
 40
26.0
 40
27.0
 40
27.0
 40
27.0
 40
27.0
 10
331.4131120798174
 20
448.1987636416643
 30
0.0
 10
331.2392562281093
 20
448.704369691085
 30
0.0
 10
331.065400376403
 20
449.2099757405058
 30
0.0
 10
330.8738627815892
 20
449.7089465063318
 30
0.0
 10
330.6882122926345
 20
450.1925808901769
 30
0.0
 10
330.4859502898453
 20
450.669981606642
 30
0.0
 10
330.2719633411871
 20
451.1419560982294
 30
0.0
 10
330.0647615697672
 20
451.5989650482433
 30
0.0
 10
329.8465666218126
 20
452.0508864312241
 30
0.0
 10
329.6165057985745
 20
452.4967260196818
 30
0.0
 10
329.39397825784
 20
452.9279667054479
 30
0.0
 10
329.1603492090908
 20
453.3535173692753
 30
0.0
 10
328.9162170707896
 20
453.7729371893665
 30
0.0
 10
328.6803492116869
 20
454.1781589504908
 30
0.0
 10
328.4346773212983
 20
454.5776579208623
 30
0.0
 10
328.1794198834414
 20
454.9709380254308
 30
0.0
 10
327.9331057877716
 20
455.3504389485596
 30
0.0
 10
327.6778660669898
 20
455.7241491471641
 30
0.0
 10
327.4140034664997
 20
456.0916663336438
 30
0.0
 10
327.1597211708849
 20
456.4458397317767
 30
0.0
 10
326.8974307861408
 20
456.7942616646514
 30
0.0
 10
326.6274031068715
 20
457.1365736714551
 30
0.0
 10
326.3675488734916
 20
457.4659888793567
 30
0.0
 10
326.1005293768121
 20
457.7897458783182
 30
0.0
 10
325.8265876453079
 20
458.1075528074697
 30
0.0
 10
325.5633709494195
 20
458.4129173437895
 30
0.0
 10
325.2937634303616
 20
458.7127885900072
 30
0.0
 10
325.0180540159326
 20
459.0068687573157
 30
0.0
 10
324.7535788710083
 20
459.2889661061844
 30
0.0
 10
324.4834889648609
 20
459.5657346967954
 30
0.0
 10
324.2078279501766
 20
459.8370937513418
 30
0.0
 10
322.891770120581
 20
461.13261320946
 30
0.0
 10
321.4487306705251
 20
462.3048337493528
 30
0.0
 10
319.908763047737
 20
463.3286982499639
 30
0.0
 10
318.6060337724139
 20
464.1948322122416
 30
0.0
 10
317.2339403275346
 20
464.9547989666425
 30
0.0
 10
315.8119514922382
 20
465.6017125941607
 30
0.0
 10
315.1902521705906
 20
465.8845458720352
 30
0.0
 10
314.5590154743877
 20
466.1457693377133
 30
0.0
 10
313.9190451146423
 20
466.3844318459723
 30
0.0
 10
312.5699752487581
 20
466.8875370181186
 30
0.0
 10
311.182095206208
 20
467.2903870407944
 30
0.0
 10
309.7719785289391
 20
467.5871884191929
 30
0.0
 10
308.370498401704
 20
467.8821719764182
 30
0.0
 10
306.9470531913103
 20
468.0724019447979
 30
0.0
 10
305.5181143839764
 20
468.1544488040008
 30
0.0
 10
304.7177652192913
 20
468.2004032807717
 30
0.0
 10
303.9156926449487
 20
468.2124193712288
 30
0.0
 10
303.1146393053132
 20
468.1867867330793
 30
0.0
 10
302.0126272251018
 20
468.1515238167512
 30
0.0
 10
300.9125441085471
 20
468.0450083925934
 30
0.0
 10
299.8225671497348
 20
467.8755169819469
 30
0.0
 10
298.7355249494449
 20
467.7064819262359
 30
0.0
 10
297.6585345585881
 20
467.4748095526574
 30
0.0
 10
296.5977389051023
 20
467.1854437432366
 30
0.0
 10
295.9593927467886
 20
467.0113144920633
 30
0.0
 10
295.3269109798257
 20
466.8162934611491
 30
0.0
 10
294.7017084179643
 20
466.5994465983476
 30
0.0
 10
293.4324349364979
 20
466.1592085230713
 30
0.0
 10
292.1931636391292
 20
465.6290124623729
 30
0.0
 10
290.9965478819049
 20
465.0170078005467
 30
0.0
 10
289.8191505430895
 20
464.4148323270719
 30
0.0
 10
288.6830495963732
 20
463.7334549478755
 30
0.0
 10
287.5973675630812
 20
462.977213655824
 30
0.0
 10
286.0514011820633
 20
461.9003572857272
 30
0.0
 10
284.6076671338961
 20
460.6717024745766
 30
0.0
 10
283.2995693792982
 20
459.3174232994852
 30
0.0
 10
282.7962958944936
 20
458.7963821177754
 30
0.0
 10
282.3130996313248
 20
458.2567457051636
 30
0.0
 10
281.8505178079613
 20
457.6997058853075
 30
0.0
 10
281.3405510157608
 20
457.0856052101162
 30
0.0
 10
280.8556382887891
 20
456.4503530457596
 30
0.0
 10
280.3985528500598
 20
455.7959245520023
 30
0.0
 10
279.8990033787904
 20
455.0806985125372
 30
0.0
 10
279.4326917726594
 20
454.3425676091547
 30
0.0
 10
278.9977686439633
 20
453.5857207290255
 30
0.0
 10
278.5258802634835
 20
452.7645474573119
 30
0.0
 10
278.0909426799881
 20
451.9213415700132
 30
0.0
 10
277.7108492871303
 20
451.0550249059897
 30
0.0
 10
277.3009846857422
 20
450.1208530923004
 30
0.0
 10
276.954892198366
 20
449.1598083669823
 30
0.0
 10
276.608799710988
 20
448.1987636416643
 30
0.0
  0
SPLINE
  5
CA
330
70
100
AcDbEntity
  8
1
 62
     7
370
    35
100
AcDbSpline
210
0.0
220
0.0
230
1.0
 70
     8
 71
     3
 72
    59
 73
    55
 74
     0
 42
0.0000000001
 43
0.0000000001
 40
0.0
 40
0.0
 40
0.0
 40
0.0
 40
1.0
 40
1.0
 40
1.0
 40
2.0
 40
2.0
 40
2.0
 40
3.0
 40
3.0
 40
3.0
 40
4.0
 40
4.0
 40
4.0
 40
5.0
 40
5.0
 40
5.0
 40
6.0
 40
6.0
 40
6.0
 40
7.0
 40
7.0
 40
7.0
 40
8.0
 40
8.0
 40
8.0
 40
9.0
 40
9.0
 40
9.0
 40
10.0
 40
10.0
 40
10.0
 40
11.0
 40
11.0
 40
11.0
 40
12.0
 40
12.0
 40
12.0
 40
13.0
 40
13.0
 40
13.0
 40
14.0
 40
14.0
 40
14.0
 40
15.0
 40
15.0
 40
15.0
 40
16.0
 40
16.0
 40
16.0
 40
17.0
 40
17.0
 40
17.0
 40
18.0
 40
18.0
 40
18.0
 40
18.0
 10
275.3448512004052
 20
445.5171413997186
 30
0.0
 10
275.3269576424009
 20
445.4341756305084
 30
0.0
 10
275.3090640843948
 20
445.3512098612963
 30
0.0
 10
275.2916299718654
 20
445.2681470983707
 30
0.0
 10
275.2741950606414
 20
445.1850805301683
 30
0.0
 10
275.2572196369893
 20
445.1019169593628
 30
0.0
 10
275.2405809671636
 20
445.0186864789111
 30
0.0
 10
275.2239417048532
 20
444.9354530347091
 30
0.0
 10
275.2076392203508
 20
444.852152676095
 30
0.0
 10
275.1917068011189
 20
444.768781426751
 30
0.0
 10
275.1757739800214
 20
444.6854080745224
 30
0.0
 10
275.1602112428627
 20
444.6019638279858
 30
0.0
 10
275.1450100860274
 20
444.5184538272542
 30
0.0
 10
275.1298087060932
 20
444.4349426009075
 30
0.0
 10
275.1149689170961
 20
444.3513656184377
 30
0.0
 10
275.1004934316552
 20
444.2677255657226
 30
0.0
 10
275.0860178884559
 20
444.1840851792794
 30
0.0
 10
275.0719066517231
 20
444.1003817220908
 30
0.0
 10
275.0581594452542
 20
444.016618527331
 30
0.0
 10
275.0444123324578
 20
443.9328559033319
 30
0.0
 10
275.0310292449667
 20
443.8490335425731
 30
0.0
 10
275.0180107315591
 20
443.7651545971248
 30
0.0
 10
275.004992448763
 20
443.6812771375125
 30
0.0
 10
274.9923387271356
 20
443.5973430952099
 30
0.0
 10
274.9800498927907
 20
443.513355659953
 30
0.0
 10
274.967761396123
 20
443.4293705325081
 30
0.0
 10
274.9558377666835
 20
443.3453320150392
 30
0.0
 10
274.9442794772749
 20
443.2612432963423
 30
0.0
 10
274.9327214927435
 20
443.1771567956903
 30
0.0
 10
274.921528828967
 20
443.0930200964603
 30
0.0
 10
274.9107015672834
 20
443.008836343476
 30
0.0
 10
274.8998745171102
 20
442.9246542350202
 30
0.0
 10
274.8894128547509
 20
442.8404250746471
 30
0.0
 10
274.8793179968325
 20
442.7561521844499
 30
0.0
 10
274.8692232668727
 20
442.6718803624817
 30
0.0
 10
274.8594953320553
 20
442.5875648117989
 30
0.0
 10
274.8501305951668
 20
442.5032081894341
 30
0.0
 10
274.820408212272
 20
442.235471908164
 30
0.0
 10
274.7943444674947
 20
441.967321895424
 30
0.0
 10
274.7718651554442
 20
441.6988706143356
 30
0.0
 10
274.7493841552659
 20
441.4303991734077
 30
0.0
 10
274.7304881261935
 20
441.1616264188769
 30
0.0
 10
274.7154098242136
 20
440.8926477561135
 30
0.0
 10
274.7109850833695
 20
440.8137157333376
 30
0.0
 10
274.7068891000381
 20
440.7347659791002
 30
0.0
 10
274.7031208130957
 20
440.6558002207829
 30
0.0
 10
274.6939203284455
 20
440.4630008776412
 30
0.0
 10
274.6866733065599
 20
440.2701061310172
 30
0.0
 10
274.6812252412583
 20
440.0771598709006
 30
0.0
 10
274.6766121574419
 20
439.9137849441003
 30
0.0
 10
274.6732888629085
 20
439.7503730839153
 30
0.0
 10
274.6716224843894
 20
439.5869465082514
 30
0.0
 10
274.6704923777488
 20
439.4761136715633
 30
0.0
 10
274.6701243361349
 20
439.3652740667866
 30
0.0
 10
274.6697562945192
 20
439.25443446201
 30
0.0
  0
SPLINE
  5
CB
330
70
100
AcDbEntity
  8
1
 62
     7
370
    35
100
AcDbSpline
210
0.0
220
0.0
230
1.0
 70
     8
 71
     3
 72
    98
 73
    94
 74
     0
 42
0.0000000001
 43
0.0000000001
 40
0.0
 40
0.0
 40
0.0
 40
0.0
 40
1.0
 40
1.0
 40
1.0
 40
2.0
 40
2.0
 40
2.0
 40
3.0
 40
3.0
 40
3.0
 40
4.0
 40
4.0
 40
4.0
 40
5.0
 40
5.0
 40
5.0
 40
6.0
 40
6.0
 40
6.0
 40
7.0
 40
7.0
 40
7.0
 40
8.0
 40
8.0
 40
8.0
 40
9.0
 40
9.0
 40
9.0
 40
10.0
 40
10.0
 40
10.0
 40
11.0
 40
11.0
 40
11.0
 40
12.0
 40
12.0
 40
12.0
 40
13.0
 40
13.0
 40
13.0
 40
14.0
 40
14.0
 40
14.0
 40
15.0
 40
15.0
 40
15.0
 40
16.0
 40
16.0
 40
16.0
 40
17.0
 40
17.0
 40
17.0
 40
18.0
 40
18.0
 40
18.0
 40
19.0
 40
19.0
 40
19.0
 40
20.0
 40
20.0
 40
20.0
 40
21.0
 40
21.0
 40
21.0
 40
22.0
 40
22.0
 40
22.0
 40
23.0
 40
23.0
 40
23.0
 40
24.0
 40
24.0
 40
24.0
 40
25.0
 40
25.0
 40
25.0
 40
26.0
 40
26.0
 40
26.0
 40
27.0
 40
27.0
 40
27.0
 40
28.0
 40
28.0
 40
28.0
 40
29.0
 40
29.0
 40
29.0
 40
30.0
 40
30.0
 40
30.0
 40
31.0
 40
31.0
 40
31.0
 40
31.0
 10
274.6697561317105
 20
439.2544344617826
 30
0.0
 10
274.6699989323279
 20
439.1645715686163
 30
0.0
 10
274.6702417329434
 20
439.0747086754499
 30
0.0
 10
274.6710085407103
 20
438.9848496078184
 30
0.0
 10
274.6717707384778
 20
438.8955307669866
 30
0.0
 10
274.6730506617423
 20
438.8062157058311
 30
0.0
 10
274.6747086981486
 20
438.7169081360452
 30
0.0
 10
274.6763566845002
 20
438.628141896862
 30
0.0
 10
274.678378214081
 20
438.5393830585043
 30
0.0
 10
274.6808099213231
 20
438.4506352678409
 30
0.0
 10
274.6832267677637
 20
438.3624298382137
 30
0.0
 10
274.6860487937774
 20
438.2742353216626
 30
0.0
 10
274.689265871435
 20
438.1860552905518
 30
0.0
 10
274.6924631272486
 20
438.0984185757451
 30
0.0
 10
274.6960505815277
 20
438.010796168427
 30
0.0
 10
274.7000305524143
 20
437.9231915720892
 30
0.0
 10
274.7039857999425
 20
437.8361311706603
 30
0.0
 10
274.7083287026417
 20
437.7490883596156
 30
0.0
 10
274.7130583097642
 20
437.6620665754517
 30
0.0
 10
274.7177583040448
 20
437.5755896488708
 30
0.0
 10
274.7228401754728
 20
437.489133486687
 30
0.0
 10
274.7283038363439
 20
437.4027014583434
 30
0.0
 10
274.733733076755
 20
437.3168139422296
 30
0.0
 10
274.7395393113002
 20
437.2309502568286
 30
0.0
 10
274.7457222110715
 20
437.1451137056074
 30
0.0
 10
274.7518659444631
 20
437.0598208971214
 30
0.0
 10
274.7583815861271
 20
436.9745548801319
 30
0.0
 10
274.7652688685284
 20
436.889318894383
 30
0.0
 10
274.7721122792118
 20
436.8046258585446
 30
0.0
 10
274.7793226110407
 20
436.7199624725717
 30
0.0
 10
274.7868995777317
 20
436.6353319126528
 30
0.0
 10
274.7944280071842
 20
436.5512434870516
 30
0.0
 10
274.8023183892946
 20
436.467187468289
 30
0.0
 10
274.8105704410027
 20
436.3831669743895
 30
0.0
 10
274.8187693295295
 20
436.2996877757677
 30
0.0
 10
274.8273252426116
 20
436.2162436457484
 30
0.0
 10
274.8362378929341
 20
436.1328376306073
 30
0.0
 10
274.8450927934191
 20
436.0499720477427
 30
0.0
 10
274.8542998231406
 20
435.9671440874254
 30
0.0
 10
274.8638586993602
 20
435.8843567802987
 30
0.0
 10
274.8733552780996
 20
435.802109017829
 30
0.0
 10
274.883199132144
 20
435.7199013803865
 30
0.0
 10
274.893389956318
 20
435.637736681353
 30
0.0
 10
274.9035139742791
 20
435.5561106151262
 30
0.0
 10
274.9139804281331
 20
435.474526926183
 30
0.0
 10
274.9247890890365
 20
435.3929889613655
 30
0.0
 10
274.9355264733513
 20
435.3119886901668
 30
0.0
 10
274.9466015662965
 20
435.2310335420361
 30
0.0
 10
274.9580138509191
 20
435.1501246284105
 30
0.0
 10
275.0120142401574
 20
434.7672816681433
 30
0.0
 10
275.0735642554118
 20
434.3854738853033
 30
0.0
 10
275.1425175426284
 20
434.0050095363394
 30
0.0
 10
275.2114535582514
 20
433.6246404870389
 30
0.0
 10
275.2877891375192
 20
433.2456141986849
 30
0.0
 10
275.3716907003982
 20
432.8682879510352
 30
0.0
 10
275.4106455293695
 20
432.6930983724442
 30
0.0
 10
275.4512313355753
 20
432.5182752667179
 30
0.0
 10
275.4934874682112
 20
432.3438556685132
 30
0.0
 10
275.5477633963364
 20
432.1198222564298
 30
0.0
 10
275.604795052639
 20
431.8964545567714
 30
0.0
 10
275.6644686398977
 20
431.6737910303173
 30
0.0
 10
275.7736805805907
 20
431.2662821648018
 30
0.0
 10
275.8917415870037
 20
430.8611319055881
 30
0.0
 10
276.0179706262424
 20
430.4585448254811
 30
0.0
 10
276.1442144411758
 20
430.0559106206846
 30
0.0
 10
276.2786282012585
 20
429.655840195096
 30
0.0
 10
276.4218686262666
 20
429.2589497132767
 30
0.0
 10
276.5610178305433
 20
428.8733951833501
 30
0.0
 10
276.7084966874936
 20
428.4908415407763
 30
0.0
 10
276.864005940035
 20
428.1115779373822
 30
0.0
 10
277.0331203346505
 20
427.6991334452332
 30
0.0
 10
277.2117317114353
 20
427.2905798502478
 30
0.0
 10
277.399420431957
 20
426.886259690581
 30
0.0
 10
277.5339738955899
 20
426.5964038177854
 30
0.0
 10
277.6731925799613
 20
426.3087236817218
 30
0.0
 10
277.8171068773882
 20
426.0234140267029
 30
0.0
 10
277.9470685934684
 20
425.7657653215765
 30
0.0
 10
278.080859573407
 20
425.5100497394059
 30
0.0
 10
278.2184553658499
 20
425.2563851138811
 30
0.0
 10
278.411440202377
 20
424.9006080554436
 30
0.0
 10
278.6119096514922
 20
424.5488655232629
 30
0.0
 10
278.8194983408248
 20
424.2014195979509
 30
0.0
 10
278.9010246781963
 20
424.0649671071341
 30
0.0
 10
278.9836490656198
 20
423.9291773119466
 30
0.0
 10
279.0673749813923
 20
423.7940695371917
 30
0.0
 10
279.1510925696784
 20
423.6589752004247
 30
0.0
 10
279.235911467209
 20
423.5245627484245
 30
0.0
 10
279.3217292021109
 20
423.390788489095
 30
0.0
 10
279.4075361927098
 20
423.2570309781721
 30
0.0
 10
279.4943417705908
 20
423.1239115001308
 30
0.0
 10
279.5824935082674
 20
422.9916936002528
 30
0.0
 10
279.670632021518
 20
422.8594955355574
 30
0.0
 10
279.7601162906958
 20
422.7281987785363
 30
0.0
 10
279.8496005598736
 20
422.596902021517
 30
0.0
  0
SPLINE
  5
CC
330
70
100
AcDbEntity
  8
1
 62
     7
370
    35
100
AcDbSpline
210
0.0
220
0.0
230
1.0
 70
     8
 71
     3
 72
    17
 73
    13
 74
     0
 42
0.0000000001
 43
0.0000000001
 40
0.0
 40
0.0
 40
0.0
 40
0.0
 40
1.0
 40
1.0
 40
1.0
 40
2.0
 40
2.0
 40
2.0
 40
3.0
 40
3.0
 40
3.0
 40
4.0
 40
4.0
 40
4.0
 40
4.0
 10
333.352155547047
 20
439.2544344618663
 30
0.0
 10
333.3521545665735
 20
439.8102144659451
 30
0.0
 10
333.3364168254775
 20
440.360457609323
 30
0.0
 10
333.3056618255632
 20
440.9059305038709
 30
0.0
 10
333.2749068256489
 20
441.4514033984187
 30
0.0
 10
333.2291345669164
 20
441.9921060441311
 30
0.0
 10
333.1699781972875
 20
442.5213229685787
 30
0.0
 10
333.1108218276586
 20
443.0505398930245
 30
0.0
 10
333.0382813471369
 20
443.5682710962037
 30
0.0
 10
332.955162967437
 20
444.0689326274923
 30
0.0
 10
332.8720445877334
 20
444.5695941587792
 30
0.0
 10
332.7783483088497
 20
445.0531860181736
 30
0.0
 10
332.6770605995862
 20
445.5171414017031
 30
0.0
  0
SPLINE
  5
CD
330
70
100
AcDbEntity
  8
1
 62
     7
370
    35
100
AcDbSpline
210
0.0
220
0.0
230
1.0
 70
     8
 71
     3
 72
    77
 73
    73
 74
     0
 42
0.0000000001
 43
0.0000000001
 40
0.0
 40
0.0
 40
0.0
 40
0.0
 40
1.0
 40
1.0
 40
1.0
 40
2.0
 40
2.0
 40
2.0
 40
3.0
 40
3.0
 40
3.0
 40
4.0
 40
4.0
 40
4.0
 40
5.0
 40
5.0
 40
5.0
 40
6.0
 40
6.0
 40
6.0
 40
7.0
 40
7.0
 40
7.0
 40
8.0
 40
8.0
 40
8.0
 40
9.0
 40
9.0
 40
9.0
 40
10.0
 40
10.0
 40
10.0
 40
11.0
 40
11.0
 40
11.0
 40
12.0
 40
12.0
 40
12.0
 40
13.0
 40
13.0
 40
13.0
 40
14.0
 40
14.0
 40
14.0
 40
15.0
 40
15.0
 40
15.0
 40
16.0
 40
16.0
 40
16.0
 40
17.0
 40
17.0
 40
17.0
 40
18.0
 40
18.0
 40
18.0
 40
19.0
 40
19.0
 40
19.0
 40
20.0
 40
20.0
 40
20.0
 40
21.0
 40
21.0
 40
21.0
 40
22.0
 40
22.0
 40
22.0
 40
23.0
 40
23.0
 40
23.0
 40
24.0
 40
24.0
 40
24.0
 40
24.0
 10
328.1723112351738
 20
422.5969020185939
 30
0.0
 10
328.2061633262383
 20
422.6462357334157
 30
0.0
 10
328.240015417301
 20
422.6955694482412
 30
0.0
 10
328.2736819695456
 20
422.7450296562137
 30
0.0
 10
328.3313747105804
 20
422.8297872206248
 30
0.0
 10
328.3885225979902
 20
422.9149162450475
 30
0.0
 10
328.4452406342807
 20
423.0003305397031
 30
0.0
 10
328.5255818977912
 20
423.1213201367218
 30
0.0
 10
328.6050606734116
 20
423.2428821229031
 30
0.0
 10
328.6836280483603
 20
423.3650309645136
 30
0.0
 10
328.7752346277321
 20
423.5074518811079
 30
0.0
 10
328.8656021874595
 20
423.6506706086229
 30
0.0
 10
328.9547489544566
 20
423.7946446538034
 30
0.0
 10
329.0355505347234
 20
423.9251410336537
 30
0.0
 10
329.1153491853947
 20
424.0562579368897
 30
0.0
 10
329.1941437310943
 20
424.1879747201482
 30
0.0
 10
329.2529951690631
 20
424.2863536375034
 30
0.0
 10
329.3112864613886
 20
424.385067201324
 30
0.0
 10
329.3690025941069
 20
424.4841166500255
 30
0.0
 10
329.4798623698934
 20
424.6743684766379
 30
0.0
 10
329.588600162564
 20
424.8658595106453
 30
0.0
 10
329.6951622487868
 20
425.0585589049141
 30
0.0
 10
329.862553937317
 20
425.3612582807354
 30
0.0
 10
330.0245770060246
 20
425.6669393211405
 30
0.0
 10
330.1809856811615
 20
425.975464940092
 30
0.0
 10
330.3435608448308
 20
426.2961543324954
 30
0.0
 10
330.5000701876597
 20
426.6199170227728
 30
0.0
 10
330.6505620935841
 20
426.9464514557721
 30
0.0
 10
330.8078749144297
 20
427.2877857783233
 30
0.0
 10
330.9586124666875
 20
427.6321487911855
 30
0.0
 10
331.1028098625411
 20
427.9792298445545
 30
0.0
 10
331.2529341445789
 20
428.3405768275379
 30
0.0
 10
331.3959695864178
 20
428.7048698799489
 30
0.0
 10
331.5316653855789
 20
429.0718805554288
 30
0.0
 10
331.6716651990919
 20
429.4505321160568
 30
0.0
 10
331.8038523867727
 20
429.8320764295231
 30
0.0
 10
331.9278519741747
 20
430.2162701466504
 30
0.0
 10
332.0545110136572
 20
430.6087037684583
 30
0.0
 10
332.1726274834109
 20
431.0039016575365
 30
0.0
 10
332.2825815966317
 20
431.4013193473938
 30
0.0
 10
332.3292892861027
 20
431.5701394260968
 30
0.0
 10
332.3745240887765
 20
431.7393600650111
 30
0.0
 10
332.418319562672
 20
431.9089543268192
 30
0.0
 10
332.4780210985464
 20
432.1401434658828
 30
0.0
 10
332.5350479499503
 20
432.3720269031264
 30
0.0
 10
332.5892317024882
 20
432.6045802086764
 30
0.0
 10
332.6815723932323
 20
433.000900726599
 30
0.0
 10
332.7656557463706
 20
433.399166772645
 30
0.0
 10
332.8412921483123
 20
433.7990269094543
 30
0.0
 10
332.9149363407432
 20
434.1883550121429
 30
0.0
 10
332.9805726953182
 20
434.5791943370577
 30
0.0
 10
333.0382458244094
 20
434.971194531131
 30
0.0
 10
333.0836286120721
 20
435.2796581406482
 30
0.0
 10
333.1240805210073
 20
435.5888405675641
 30
0.0
 10
333.1596664123535
 20
435.8985841912081
 30
0.0
 10
333.1928635991717
 20
436.1875362604305
 30
0.0
 10
333.2218261065282
 20
436.4769767142943
 30
0.0
 10
333.2465033835433
 20
436.7667744134624
 30
0.0
 10
333.2605923195242
 20
436.9322278882818
 30
0.0
 10
333.2732844495094
 20
437.0977978101391
 30
0.0
 10
333.2845711243735
 20
437.2634646327997
 30
0.0
 10
333.295857907071
 20
437.4291330382066
 30
0.0
 10
333.305739207788
 20
437.5948983462667
 30
0.0
 10
333.3141827826112
 20
437.7607354023775
 30
0.0
 10
333.322626174453
 20
437.9265688646164
 30
0.0
 10
333.3296319027159
 20
438.0924740717919
 30
0.0
 10
333.3353257798644
 20
438.2584273624006
 30
0.0
 10
333.3410193501022
 20
438.4243717078434
 30
0.0
 10
333.3454012106504
 20
438.5903641315335
 30
0.0
 10
333.3479875839966
 20
438.7563804146748
 30
0.0
 10
333.3505737365722
 20
438.9223825267645
 30
0.0
 10
333.3513647084583
 20
439.088408494229
 30
0.0
 10
333.3521556803443
 20
439.2544344616972
 30
0.0
  0
SPLINE
  5
CE
330
70
100
AcDbEntity
  8
1
 62
     7
370
    35
100
AcDbSpline
210
0.0
220
0.0
230
1.0
 70
     8
 71
     3
 72
    17
 73
    13
 74
     0
 42
0.0000000001
 43
0.0000000001
 40
0.0
 40
0.0
 40
0.0
 40
0.0
 40
1.0
 40
1.0
 40
1.0
 40
2.0
 40
2.0
 40
2.0
 40
3.0
 40
3.0
 40
3.0
 40
4.0
 40
4.0
 40
4.0
 40
4.0
 10
457.145433735368
 20
316.8413022555069
 30
0.0
 10
457.57648977616
 20
316.8413022555069
 30
0.0
 10
457.9083205862516
 20
316.9480448829381
 30
0.0
 10
458.1740803280754
 20
317.0769228769641
 30
0.0
 10
458.4398400698973
 20
317.2058008709864
 30
0.0
 10
458.6395287434552
 20
317.3568142316108
 30
0.0
 10
458.8151510253664
 20
317.5321567166065
 30
0.0
 10
458.9907733072796
 20
317.7074992015987
 30
0.0
 10
459.1423291975515
 20
317.9071708109623
 30
0.0
 10
459.2717909011789
 20
318.1733460230826
 30
0.0
 10
459.4012526048063
 20
318.4395212352065
 30
0.0
 10
459.5086201217891
 20
318.7722000500835
 30
0.0
 10
459.5086201217891
 20
319.204488641928
 30
0.0
  0
SPLINE
  5
CF
330
70
100
AcDbEntity
  8
1
 62
     7
370
    35
100
AcDbSpline
210
0.0
220
0.0
230
1.0
 70
     8
 71
     3
 72
    17
 73
    13
 74
     0
 42
0.0000000001
 43
0.0000000001
 40
0.0
 40
0.0
 40
0.0
 40
0.0
 40
1.0
 40
1.0
 40
1.0
 40
2.0
 40
2.0
 40
2.0
 40
3.0
 40
3.0
 40
3.0
 40
4.0
 40
4.0
 40
4.0
 40
4.0
 10
326.1371053347339
 20
419.9755182301742
 30
0.0
 10
326.2616210272227
 20
420.1174590368236
 30
0.0
 10
326.4283158529906
 20
420.3132457386245
 30
0.0
 10
326.6136610874273
 20
420.5370366565575
 30
0.0
 10
326.7990063218676
 20
420.7608275744924
 30
0.0
 10
327.0030019649748
 20
421.0126227085575
 30
0.0
 10
327.200929743638
 20
421.2676736090588
 30
0.0
 10
327.3988575223011
 20
421.522724509562
 30
0.0
 10
327.5907174365202
 20
421.7810311765015
 30
0.0
 10
327.7586871816438
 20
422.0125136131182
 30
0.0
 10
327.9266569267656
 20
422.2439960497331
 30
0.0
 10
328.0707365027938
 20
422.4486542560253
 30
0.0
 10
328.1723112554773
 20
422.5969020046878
 30
0.0
  0
SPLINE
  5
D0
330
70
100
AcDbEntity
  8
1
 62
     7
370
    35
100
AcDbSpline
210
0.0
220
0.0
230
1.0
 70
     8
 71
     3
 72
    17
 73
    13
 74
     0
 42
0.0000000001
 43
0.0000000001
 40
0.0
 40
0.0
 40
0.0
 40
0.0
 40
1.0
 40
1.0
 40
1.0
 40
2.0
 40
2.0
 40
2.0
 40
3.0
 40
3.0
 40
3.0
 40
4.0
 40
4.0
 40
4.0
 40
4.0
 10
148.5132916690154
 20
319.204488641928
 30
0.0
 10
148.5132916690154
 20
318.7722000500835
 30
0.0
 10
148.6206591859991
 20
318.4395212352065
 30
0.0
 10
148.7501208896265
 20
318.1733460230826
 30
0.0
 10
148.8795825932538
 20
317.9071708109623
 30
0.0
 10
149.0311384835249
 20
317.7074992015987
 30
0.0
 10
149.2067607654389
 20
317.5321567166065
 30
0.0
 10
149.3823830473511
 20
317.3568142316108
 30
0.0
 10
149.5820717209062
 20
317.2058008709864
 30
0.0
 10
149.84783146273
 20
317.0769228769641
 30
0.0
 10
150.1135912045538
 20
316.9480448829381
 30
0.0
 10
150.4454220146453
 20
316.8413022555069
 30
0.0
 10
150.8764780554356
 20
316.8413022555069
 30
0.0
  0
SPLINE
  5
D1
330
70
100
AcDbEntity
  8
1
 62
     7
370
    35
100
AcDbSpline
210
0.0
220
0.0
230
1.0
 70
     8
 71
     3
 72
    17
 73
    13
 74
     0
 42
0.0000000001
 43
0.0000000001
 40
0.0
 40
0.0
 40
0.0
 40
0.0
 40
1.0
 40
1.0
 40
1.0
 40
2.0
 40
2.0
 40
2.0
 40
3.0
 40
3.0
 40
3.0
 40
4.0
 40
4.0
 40
4.0
 40
4.0
 10
279.8496005371398
 20
422.5969020059446
 30
0.0
 10
279.9511752829294
 20
422.44865423801
 30
0.0
 10
280.0952481737095
 20
422.2439907622601
 30
0.0
 10
280.2632156880682
 20
422.01250656926
 30
0.0
 10
280.4311832024232
 20
421.7810223762598
 30
0.0
 10
280.6230453403568
 20
421.5227174660022
 30
0.0
 10
280.820973119211
 20
421.2676665722346
 30
0.0
 10
281.0189008980651
 20
421.0126156784672
 30
0.0
 10
281.2228943178397
 20
420.7608188011882
 30
0.0
 10
281.4082417790705
 20
420.5370296384162
 30
0.0
 10
281.5935892403031
 20
420.3132404756443
 30
0.0
 10
281.76029074299
 20
420.1174590273758
 30
0.0
 10
281.8848064562735
 20
419.9755182303561
 30
0.0
  0
SPLINE
  5
D2
330
70
100
AcDbEntity
  8
1
 62
     7
370
    35
100
AcDbSpline
210
0.0
220
0.0
230
1.0
 70
     8
 71
     3
 72
   125
 73
   121
 74
     0
 42
0.0000000001
 43
0.0000000001
 40
0.0
 40
0.0
 40
0.0
 40
0.0
 40
1.0
 40
1.0
 40
1.0
 40
2.0
 40
2.0
 40
2.0
 40
3.0
 40
3.0
 40
3.0
 40
4.0
 40
4.0
 40
4.0
 40
5.0
 40
5.0
 40
5.0
 40
6.0
 40
6.0
 40
6.0
 40
7.0
 40
7.0
 40
7.0
 40
8.0
 40
8.0
 40
8.0
 40
9.0
 40
9.0
 40
9.0
 40
10.0
 40
10.0
 40
10.0
 40
11.0
 40
11.0
 40
11.0
 40
12.0
 40
12.0
 40
12.0
 40
13.0
 40
13.0
 40
13.0
 40
14.0
 40
14.0
 40
14.0
 40
15.0
 40
15.0
 40
15.0
 40
16.0
 40
16.0
 40
16.0
 40
17.0
 40
17.0
 40
17.0
 40
18.0
 40
18.0
 40
18.0
 40
19.0
 40
19.0
 40
19.0
 40
20.0
 40
20.0
 40
20.0
 40
21.0
 40
21.0
 40
21.0
 40
22.0
 40
22.0
 40
22.0
 40
23.0
 40
23.0
 40
23.0
 40
24.0
 40
24.0
 40
24.0
 40
25.0
 40
25.0
 40
25.0
 40
26.0
 40
26.0
 40
26.0
 40
27.0
 40
27.0
 40
27.0
 40
28.0
 40
28.0
 40
28.0
 40
29.0
 40
29.0
 40
29.0
 40
30.0
 40
30.0
 40
30.0
 40
31.0
 40
31.0
 40
31.0
 40
32.0
 40
32.0
 40
32.0
 40
33.0
 40
33.0
 40
33.0
 40
34.0
 40
34.0
 40
34.0
 40
35.0
 40
35.0
 40
35.0
 40
36.0
 40
36.0
 40
36.0
 40
37.0
 40
37.0
 40
37.0
 40
38.0
 40
38.0
 40
38.0
 40
39.0
 40
39.0
 40
39.0
 40
40.0
 40
40.0
 40
40.0
 40
40.0
 10
281.8848064593331
 20
419.9755182330372
 30
0.0
 10
281.9521412024806
 20
419.8987513629872
 30
0.0
 10
282.0194759456263
 20
419.8219844929408
 30
0.0
 10
282.0873194258748
 20
419.7456685913858
 30
0.0
 10
282.1526031964095
 20
419.6722320609041
 30
0.0
 10
282.2183580393157
 20
419.5992131111307
 30
0.0
 10
282.2844505084286
 20
419.5265019727667
 30
0.0
 10
282.3479494425919
 20
419.4566440925882
 30
0.0
 10
282.4117600252721
 20
419.3870703401444
 30
0.0
 10
282.4759117372869
 20
419.3178122389144
 30
0.0
 10
282.5374413389145
 20
419.2513849645001
 30
0.0
 10
282.5992847534271
 20
419.1852480650522
 30
0.0
 10
282.6614308943008
 20
419.1193969988926
 30
0.0
 10
282.7209269335526
 20
419.0563540237053
 30
0.0
 10
282.7807004312981
 20
418.9935730239595
 30
0.0
 10
282.8407509817189
 20
418.9310581361205
 30
0.0
 10
282.8981252024023
 20
418.8713294084736
 30
0.0
 10
282.9557523307358
 20
418.8118436011827
 30
0.0
 10
283.0136297128374
 20
418.7526023137507
 30
0.0
 10
283.0688059440108
 20
418.6961258310256
 30
0.0
 10
283.1242096152273
 20
418.6398715771465
 30
0.0
 10
283.1798390244184
 20
418.5838414584504
 30
0.0
 10
283.2327439147521
 20
418.5305554838524
 30
0.0
 10
283.2858529729419
 20
418.4774722274669
 30
0.0
 10
283.3391646109103
 20
418.4245932225239
 30
0.0
 10
283.389729756489
 20
418.374438421717
 30
0.0
 10
283.4404771466252
 20
418.3244673693261
 30
0.0
 10
283.4914054804394
 20
418.2746814244382
 30
0.0
 10
283.5395667120229
 20
418.2276005120729
 30
0.0
 10
283.58788975893
 20
418.1806851386791
 30
0.0
 10
283.6363735325922
 20
418.1339364677223
 30
0.0
 10
283.682070920704
 20
418.0898744651385
 30
0.0
 10
283.7279110923428
 20
418.045960554642
 30
0.0
 10
283.7738931579879
 20
418.0021957382232
 30
0.0
 10
283.8170708470407
 20
417.9611000717195
 30
0.0
 10
283.8603736500882
 20
417.920135867811
 30
0.0
 10
283.9038008596217
 20
417.879303979771
 30
0.0
 10
283.9444069598139
 20
417.841124604336
 30
0.0
 10
283.9851218281528
 20
417.8030609121924
 30
0.0
 10
284.0259448959841
 20
417.765113648209
 30
0.0
 10
284.0639313486045
 20
417.7298031724931
 30
0.0
 10
284.102011486515
 20
417.6945935069234
 30
0.0
 10
284.1401849459799
 20
417.6594852438211
 30
0.0
 10
284.1755074764678
 20
417.6269989899846
 30
0.0
 10
284.2109099098561
 20
417.5945995580113
 30
0.0
 10
284.2463917956011
 20
417.5622876220987
 30
0.0
 10
284.2790096133904
 20
417.5325838784592
 30
0.0
 10
284.3116945745587
 20
417.5029540757495
 30
0.0
 10
284.3444470464001
 20
417.4733982829638
 30
0.0
 10
284.7290260242553
 20
417.1263546572263
 30
0.0
 10
285.1229129800758
 20
416.7895150883668
 30
0.0
 10
285.5255213141427
 20
416.463404318325
 30
0.0
 10
286.0513892506951
 20
416.037453876619
 30
0.0
 10
286.5921361612327
 20
415.6298071380515
 30
0.0
 10
287.1462345086002
 20
415.241355276059
 30
0.0
 10
287.5106346502962
 20
414.9858917573146
 30
0.0
 10
287.8808092518939
 20
414.7387299701732
 30
0.0
 10
288.2563570851453
 20
414.5000278476182
 30
0.0
 10
288.6467990356032
 20
414.2518588687162
 30
0.0
 10
289.0430488708207
 20
414.0128338761896
 30
0.0
 10
289.4447898709677
 20
413.7832914341015
 30
0.0
 10
290.2356677459756
 20
413.3314081591597
 30
0.0
 10
291.0478265717756
 20
412.9162744067579
 30
0.0
 10
291.8776494725316
 20
412.540025483875
 30
0.0
 10
292.8460462995536
 20
412.1009459371962
 30
0.0
 10
293.8384993131076
 20
411.7148225014171
 30
0.0
 10
294.8489677760281
 20
411.3837498553111
 30
0.0
 10
295.8592510331928
 20
411.052737890528
 30
0.0
 10
296.887543136334
 20
410.7767565370814
 30
0.0
 10
297.9276901685207
 20
410.5570406040897
 30
0.0
 10
298.9395459396364
 20
410.3433007885432
 30
0.0
 10
299.9626205187778
 20
410.1828072596799
 30
0.0
 10
300.9913319779916
 20
410.0766245817285
 30
0.0
 10
302.0743044929786
 20
409.9648411260678
 30
0.0
 10
303.1635242237808
 20
409.9132490532865
 30
0.0
 10
304.2523291737416
 20
409.9221865600884
 30
0.0
 10
305.3966498579448
 20
409.9315797704148
 30
0.0
 10
306.5405123854798
 20
410.0078324585702
 30
0.0
 10
307.6758348440526
 20
410.1504873809135
 30
0.0
 10
308.6474757267169
 20
410.2725754745733
 30
0.0
 10
309.6128615061752
 20
410.4432993379742
 30
0.0
 10
310.5674855296838
 20
410.6614038186926
 30
0.0
 10
311.603764840771
 20
410.8981642138424
 30
0.0
 10
312.6273626095153
 20
411.1907574402867
 30
0.0
 10
313.6321631492483
 20
411.5381177196686
 30
0.0
 10
314.6364042574696
 20
411.8852846031695
 30
0.0
 10
315.6218690618953
 20
412.2871575725111
 30
0.0
 10
316.581852967518
 20
412.7418182288347
 30
0.0
 10
317.0619061696307
 20
412.96917756545
 30
0.0
 10
317.535587521199
 20
413.2097371920099
 30
0.0
 10
318.0022706224609
 20
413.4632421710739
 30
0.0
 10
318.4681449321597
 20
413.7163078098455
 30
0.0
 10
318.9270452273631
 20
413.9822739697592
 30
0.0
 10
319.3785788979913
 20
414.2601266202145
 30
0.0
 10
319.7595634033132
 20
414.4945666220774
 30
0.0
 10
320.1353034232143
 20
414.7374689156822
 30
0.0
 10
320.5055119787194
 20
414.9885894669568
 30
0.0
 10
320.9976530328695
 20
415.322419495962
 30
0.0
 10
321.4800188699555
 20
415.670772849502
 30
0.0
 10
321.9512783116552
 20
416.0335050360772
 30
0.0
 10
322.347913057065
 20
416.3387979930848
 30
0.0
 10
322.736680343025
 20
416.6542765127306
 30
0.0
 10
323.1169301745286
 20
416.9797388190309
 30
0.0
 10
323.4894392625101
 20
417.2985756911257
 30
0.0
 10
323.8537741458858
 20
417.6269940074562
 30
0.0
 10
324.2095036886312
 20
417.9643942731273
 30
0.0
 10
324.3443121307137
 20
418.0922565918518
 30
0.0
 10
324.4778847324324
 20
418.2214088369219
 30
0.0
 10
324.6102278865874
 20
418.3518129622461
 30
0.0
 10
324.742572324807
 20
418.4822183528231
 30
0.0
 10
324.8736872916088
 20
418.6138756479522
 30
0.0
 10
325.0035102426191
 20
418.7467916215609
 30
0.0
 10
325.1333293035659
 20
418.8797036124233
 30
0.0
 10
325.2618564261466
 20
419.0138742063391
 30
0.0
 10
325.3891906875451
 20
419.149173442227
 30
0.0
 10
325.5165161062032
 20
419.2844632822525
 30
0.0
 10
325.6426488293491
 20
419.4208816075006
 30
0.0
 10
325.7671091047614
 20
419.5588013948072
 30
0.0
 10
325.8915559045308
 20
419.6967062491749
 30
0.0
 10
326.0143306187074
 20
419.8361122404894
 30
0.0
 10
326.1371053328858
 20
419.9755182318003
 30
0.0
  0
SPLINE
  5
D3
330
70
100
AcDbEntity
  8
1
 62
     7
370
    35
100
AcDbSpline
210
0.0
220
0.0
230
1.0
 70
     8
 71
     3
 72
    17
 73
    13
 74
     0
 42
0.0000000001
 43
0.0000000001
 40
0.0
 40
0.0
 40
0.0
 40
0.0
 40
1.0
 40
1.0
 40
1.0
 40
2.0
 40
2.0
 40
2.0
 40
3.0
 40
3.0
 40
3.0
 40
4.0
 40
4.0
 40
4.0
 40
4.0
 10
150.8764780554356
 20
486.0454475231263
 30
0.0
 10
150.4635081023352
 20
486.0454475231263
 30
0.0
 10
150.1378102948783
 20
485.9464350648003
 30
0.0
 10
149.8720159166787
 20
485.8213510620753
 30
0.0
 10
149.6062215384791
 20
485.696267059352
 30
0.0
 10
149.4003305895367
 20
485.5451115122332
 30
0.0
 10
149.2189635312343
 20
485.3666884871954
 30
0.0
 10
149.037596472931
 20
485.1882654621613
 30
0.0
 10
148.8807533052659
 20
484.9825749592073
 30
0.0
 10
148.7496771042861
 20
484.7124881073932
 30
0.0
 10
148.6186009033081
 20
484.4424012555792
 30
0.0
 10
148.5132916690154
 20
484.1079180549022
 30
0.0
 10
148.5132916690154
 20
483.6822611367079
 30
0.0
  0
SPLINE
  5
D4
330
70
100
AcDbEntity
  8
1
 62
     7
370
    35
100
AcDbSpline
210
0.0
220
0.0
230
1.0
 70
     8
 71
     3
 72
    17
 73
    13
 74
     0
 42
0.0000000001
 43
0.0000000001
 40
0.0
 40
0.0
 40
0.0
 40
0.0
 40
1.0
 40
1.0
 40
1.0
 40
2.0
 40
2.0
 40
2.0
 40
3.0
 40
3.0
 40
3.0
 40
4.0
 40
4.0
 40
4.0
 40
4.0
 10
276.1172270502393
 20
448.3590215338672
 30
0.0
 10
276.0556501357696
 20
448.1731433672584
 30
0.0
 10
275.98402963829
 20
447.9424969083765
 30
0.0
 10
275.908756824394
 20
447.6913870765939
 30
0.0
 10
275.8334840104981
 20
447.4402772448129
 30
0.0
 10
275.7545588801859
 20
447.1687040401329
 30
0.0
 10
275.6815667456885
 20
446.8998518248599
 30
0.0
 10
275.6085746111894
 20
446.6309996095851
 30
0.0
 10
275.5415154725033
 20
446.3648683837227
 30
0.0
 10
275.4841903286287
 20
446.1261543998452
 30
0.0
 10
275.4268651847524
 20
445.887440415966
 30
0.0
 10
275.3792740356876
 20
445.6761436740753
 30
0.0
 10
275.3448511877687
 20
445.5171414024525
 30
0.0
  0
SPLINE
  5
D5
330
70
100
AcDbEntity
  8
1
 62
     7
370
    35
100
AcDbSpline
210
0.0
220
0.0
230
1.0
 70
     8
 71
     3
 72
    17
 73
    13
 74
     0
 42
0.0000000001
 43
0.0000000001
 40
0.0
 40
0.0
 40
0.0
 40
0.0
 40
1.0
 40
1.0
 40
1.0
 40
2.0
 40
2.0
 40
2.0
 40
3.0
 40
3.0
 40
3.0
 40
4.0
 40
4.0
 40
4.0
 40
4.0
 10
459.5086201217891
 20
483.6822611367079
 30
0.0
 10
459.5086201217891
 20
484.1079180549022
 30
0.0
 10
459.4033108874973
 20
484.4424012555792
 30
0.0
 10
459.2722346865266
 20
484.7124881073932
 30
0.0
 10
459.1411584855559
 20
484.9825749592073
 30
0.0
 10
458.9843153179063
 20
485.1882654621613
 30
0.0
 10
458.8029482595629
 20
485.3666884871954
 30
0.0
 10
458.6215812012214
 20
485.5451115122332
 30
0.0
 10
458.4156902521863
 20
485.696267059352
 30
0.0
 10
458.1498958741267
 20
485.8213510620753
 30
0.0
 10
457.8841014960707
 20
485.9464350648003
 30
0.0
 10
457.5584036889904
 20
486.0454475231263
 30
0.0
 10
457.1454337358882
 20
486.0454475231263
 30
0.0
  0
SPLINE
  5
D6
330
70
100
AcDbEntity
  8
1
 62
     7
370
    35
100
AcDbSpline
210
0.0
220
0.0
230
1.0
 70
     8
 71
     3
 72
    44
 73
    40
 74
     0
 42
0.0000000001
 43
0.0000000001
 40
0.0
 40
0.0
 40
0.0
 40
0.0
 40
1.0
 40
1.0
 40
1.0
 40
2.0
 40
2.0
 40
2.0
 40
3.0
 40
3.0
 40
3.0
 40
4.0
 40
4.0
 40
4.0
 40
5.0
 40
5.0
 40
5.0
 40
6.0
 40
6.0
 40
6.0
 40
7.0
 40
7.0
 40
7.0
 40
8.0
 40
8.0
 40
8.0
 40
9.0
 40
9.0
 40
9.0
 40
10.0
 40
10.0
 40
10.0
 40
11.0
 40
11.0
 40
11.0
 40
12.0
 40
12.0
 40
12.0
 40
13.0
 40
13.0
 40
13.0
 40
13.0
 10
332.6770605995862
 20
445.5171414017031
 30
0.0
 10
332.6615984505315
 20
445.5879894417967
 30
0.0
 10
332.6445478527585
 20
445.6647405814756
 30
0.0
 10
332.6273465445065
 20
445.7407052057469
 30
0.0
 10
332.6101452362546
 20
445.8166698300146
 30
0.0
 10
332.5927932175182
 20
445.8918479388748
 30
0.0
 10
332.5751581484183
 20
445.9668985798043
 30
0.0
 10
332.5575230793256
 20
446.0419492207392
 30
0.0
 10
332.5396049598676
 20
446.1168723937435
 30
0.0
 10
332.5215414666509
 20
446.191112357631
 30
0.0
 10
332.5034779734342
 20
446.2653523215167
 30
0.0
 10
332.4852691064589
 20
446.3389090762766
 30
0.0
 10
332.4669074353642
 20
446.4118839261545
 30
0.0
 10
332.4485457642713
 20
446.4848587760343
 30
0.0
 10
332.4300312890591
 20
446.557251721023
 30
0.0
 10
332.4113467342868
 20
446.6291792257043
 30
0.0
 10
332.3926621795126
 20
446.7011067303838
 30
0.0
 10
332.3738075451802
 20
446.7725687947576
 30
0.0
 10
332.3547351765519
 20
446.8437830934444
 30
0.0
 10
332.3356628079237
 20
446.9149973921312
 30
0.0
 10
332.3163727050014
 20
446.9859639251289
 30
0.0
 10
332.2967996968491
 20
447.0569207548587
 30
0.0
 10
332.2772266886968
 20
447.1278775845848
 30
0.0
 10
332.2573707753163
 20
447.1988247110448
 30
0.0
 10
332.2371708802948
 20
447.269955344721
 30
0.0
 10
332.2169709852715
 20
447.3410859783989
 30
0.0
 10
332.1964271086035
 20
447.4124001192931
 30
0.0
 10
332.1754887083698
 20
447.4840411638133
 30
0.0
 10
332.1545503081361
 20
447.5556822083335
 30
0.0
 10
332.1332173843366
 20
447.6276501564743
 30
0.0
 10
332.1114344860762
 20
447.7000825312707
 30
0.0
 10
332.0896515878121
 20
447.7725149060634
 30
0.0
 10
332.0674187150871
 20
447.8454117075115
 30
0.0
 10
332.0448133921218
 20
447.918491655947
 30
0.0
 10
332.0222080691565
 20
447.9915716043824
 30
0.0
 10
331.9992302959454
 20
448.064834699805
 30
0.0
 10
331.9757027904288
 20
448.1387885822669
 30
0.0
 10
331.952175284905
 20
448.2127424647323
 30
0.0
 10
331.9280980470703
 20
448.2873871342389
 30
0.0
 10
331.9046847368609
 20
448.3590215326375
 30
0.0
  0
SPLINE
  5
D7
330
70
100
AcDbEntity
  8
1
 62
     7
370
    35
100
AcDbSpline
210
0.0
220
0.0
230
1.0
 70
     8
 71
     3
 72
   113
 73
   109
 74
     0
 42
0.0000000001
 43
0.0000000001
 40
0.0
 40
0.0
 40
0.0
 40
0.0
 40
1.0
 40
1.0
 40
1.0
 40
2.0
 40
2.0
 40
2.0
 40
3.0
 40
3.0
 40
3.0
 40
4.0
 40
4.0
 40
4.0
 40
5.0
 40
5.0
 40
5.0
 40
6.0
 40
6.0
 40
6.0
 40
7.0
 40
7.0
 40
7.0
 40
8.0
 40
8.0
 40
8.0
 40
9.0
 40
9.0
 40
9.0
 40
10.0
 40
10.0
 40
10.0
 40
11.0
 40
11.0
 40
11.0
 40
12.0
 40
12.0
 40
12.0
 40
13.0
 40
13.0
 40
13.0
 40
14.0
 40
14.0
 40
14.0
 40
15.0
 40
15.0
 40
15.0
 40
16.0
 40
16.0
 40
16.0
 40
17.0
 40
17.0
 40
17.0
 40
18.0
 40
18.0
 40
18.0
 40
19.0
 40
19.0
 40
19.0
 40
20.0
 40
20.0
 40
20.0
 40
21.0
 40
21.0
 40
21.0
 40
22.0
 40
22.0
 40
22.0
 40
23.0
 40
23.0
 40
23.0
 40
24.0
 40
24.0
 40
24.0
 40
25.0
 40
25.0
 40
25.0
 40
26.0
 40
26.0
 40
26.0
 40
27.0
 40
27.0
 40
27.0
 40
28.0
 40
28.0
 40
28.0
 40
29.0
 40
29.0
 40
29.0
 40
30.0
 40
30.0
 40
30.0
 40
31.0
 40
31.0
 40
31.0
 40
32.0
 40
32.0
 40
32.0
 40
33.0
 40
33.0
 40
33.0
 40
34.0
 40
34.0
 40
34.0
 40
35.0
 40
35.0
 40
35.0
 40
36.0
 40
36.0
 40
36.0
 40
36.0
 10
331.9046847373593
 20
448.3590215328013
 30
0.0
 10
331.7886279916856
 20
448.701689090175
 30
0.0
 10
331.6725712460157
 20
449.0443566475469
 30
0.0
 10
331.5484998869961
 20
449.3841431494174
 30
0.0
 10
331.4275630711327
 20
449.7153452732191
 30
0.0
 10
331.2990114893673
 20
450.043810076796
 30
0.0
 10
331.1650100565894
 20
450.3700032850019
 30
0.0
 10
331.034499493564
 20
450.6876988377653
 30
0.0
 10
330.8988193289679
 20
451.0032396081378
 30
0.0
 10
330.7575185970818
 20
451.3162556016077
 30
0.0
 10
330.6199978756649
 20
451.6208979389984
 30
0.0
 10
330.4771532821578
 20
451.9231487759252
 30
0.0
 10
330.3292050967775
 20
452.2228753972185
 30
0.0
 10
330.1853187226916
 20
452.5143732391379
 30
0.0
 10
330.0366051408764
 20
452.8034835638837
 30
0.0
 10
329.8831077245814
 20
453.0900323147098
 30
0.0
 10
329.7339406240153
 20
453.3684972385099
 30
0.0
 10
329.5802557952211
 20
453.6445430788635
 30
0.0
 10
329.4221461267516
 20
453.9180298497512
 30
0.0
 10
329.2686274079169
 20
454.1835755250549
 30
0.0
 10
329.1109370823579
 20
454.4467085860824
 30
0.0
 10
328.9491475168179
 20
454.7072963750861
 30
0.0
 10
328.7921977243841
 20
454.9600889409003
 30
0.0
 10
328.6313902731072
 20
455.2104862355945
 30
0.0
 10
328.4667947950529
 20
455.4583677933305
 30
0.0
 10
328.3072757564078
 20
455.698604209635
 30
0.0
 10
328.1441987477101
 20
455.9364776762349
 30
0.0
 10
327.9776384317083
 20
456.1718861159288
 30
0.0
 10
327.8163788631155
 20
456.3998027309999
 30
0.0
 10
327.6518541703226
 20
456.6254087204806
 30
0.0
 10
327.4841315641733
 20
456.8486113541303
 30
0.0
 10
327.3219226038291
 20
457.0644765137667
 30
0.0
 10
327.1567225280742
 20
457.2780937342422
 30
0.0
 10
326.9885920836168
 20
457.4893786435195
 30
0.0
 10
326.8261770503104
 20
457.6934811526634
 30
0.0
 10
326.661027491391
 20
457.8954072241749
 30
0.0
 10
326.4931976358621
 20
458.0950806942955
 30
0.0
 10
326.3312739098656
 20
458.2877274207267
 30
0.0
 10
326.1668552134925
 20
458.478277299474
 30
0.0
 10
326.0
 20
458.6666666666669
 30
0.0
 10
325.8392306774021
 20
458.8481847044631
 30
0.0
 10
325.6761993356922
 20
459.0276969618034
 30
0.0
 10
325.5109501257775
 20
459.2051513392243
 30
0.0
 10
325.3519565836723
 20
459.3758880104733
 30
0.0
 10
325.1909099140648
 20
459.544719658762
 30
0.0
 10
325.0278757067772
 20
459.7115810239565
 30
0.0
 10
324.8712564964772
 20
459.8718768028675
 30
0.0
 10
324.7128030808217
 20
460.0303542998708
 30
0.0
 10
324.55247982742
 20
460.187019402686
 30
0.0
 10
323.1869220686294
 20
461.521418762395
 30
0.0
 10
321.6857107998021
 20
462.7243320433254
 30
0.0
 10
320.0825960212151
 20
463.7668323524512
 30
0.0
 10
318.7786335630935
 20
464.6147948837952
 30
0.0
 10
317.4072508978043
 20
465.356626862651
 30
0.0
 10
315.9853277940292
 20
465.982631517033
 30
0.0
 10
315.0385223537796
 20
466.3994646149794
 30
0.0
 10
314.0693086463925
 20
466.7649430015972
 30
0.0
 10
313.0830134628904
 20
467.0765231701916
 30
0.0
 10
312.0188830649204
 20
467.4126922343348
 30
0.0
 10
310.9348687805959
 20
467.6861204653769
 30
0.0
 10
309.839272766696
 20
467.8989940992514
 30
0.0
 10
308.7327514414446
 20
468.1139905144245
 30
0.0
 10
307.6144162483124
 20
468.2672186068294
 30
0.0
 10
306.4910063830975
 20
468.3593033662809
 30
0.0
 10
305.3652871733921
 20
468.4515774203418
 30
0.0
 10
304.2344724066006
 20
468.4824565037261
 30
0.0
 10
303.1054933819651
 20
468.4492449540011
 30
0.0
 10
301.9709879706643
 20
468.4158708327304
 30
0.0
 10
300.8383363175362
 20
468.3177770914544
 30
0.0
 10
299.7147738237654
 20
468.1570627666269
 30
0.0
 10
298.6344541980543
 20
468.0025338995537
 30
0.0
 10
297.5625375611053
 20
467.7901118831632
 30
0.0
 10
296.5050200145706
 20
467.5203252889605
 30
0.0
 10
295.4547853575387
 20
467.2523966553763
 30
0.0
 10
294.4187521471286
 20
466.9278908376309
 30
0.0
 10
293.4053238302586
 20
466.5441828715848
 30
0.0
 10
292.5180772963194
 20
466.2082503174506
 30
0.0
 10
291.6481570300275
 20
465.8269403203803
 30
0.0
 10
290.7989636661332
 20
465.4032684664279
 30
0.0
 10
289.3295778264473
 20
464.6701758053877
 30
0.0
 10
287.9222492929494
 20
463.8102497819517
 30
0.0
 10
286.5970116975386
 20
462.8381532559205
 30
0.0
 10
285.293714617399
 20
461.8821506731555
 30
0.0
 10
284.0698127958458
 20
460.817661011707
 30
0.0
 10
282.944364281926
 20
459.6603330457574
 30
0.0
 10
282.6264266064864
 20
459.3333894684538
 30
0.0
 10
282.3163460447195
 20
458.999036885506
 30
0.0
 10
282.0142122727339
 20
458.6575927345793
 30
0.0
 10
281.693340404594
 20
458.2949724890704
 30
0.0
 10
281.3814315997806
 20
457.9243537719003
 30
0.0
 10
281.078945064075
 20
457.5462077087859
 30
0.0
 10
280.7587956005318
 20
457.1459807731798
 30
0.0
 10
280.449200911622
 20
456.737321745567
 30
0.0
 10
280.1505719407123
 20
456.3208001835327
 30
0.0
 10
279.8354695618855
 20
455.8813018500959
 30
0.0
 10
279.5325760837604
 20
455.4330496072407
 30
0.0
 10
279.2422695877649
 20
454.9767625766898
 30
0.0
 10
278.9367890580561
 20
454.4966258738831
 30
0.0
 10
278.6452457169762
 20
454.0075924911116
 30
0.0
 10
278.3685276774322
 20
453.5103720071702
 30
0.0
 10
278.0780707289578
 20
452.9884647808748
 30
0.0
 10
277.8039477647071
 20
452.4575373008565
 30
0.0
 10
277.5450122877992
 20
451.9191267995275
 30
0.0
 10
277.2738217325023
 20
451.3552340314317
 30
0.0
 10
277.0192902925355
 20
450.7831331567404
 30
0.0
 10
276.788580326016
 20
450.2018284904652
 30
0.0
 10
276.5474476005602
 20
449.5942622868251
 30
0.0
 10
276.3323373272251
 20
448.9766419097422
 30
0.0
 10
276.11722705389
 20
448.3590215326576
 30
0.0
  0
SPLINE
  5
D8
330
70
100
AcDbEntity
  8
1
 62
     7
370
    35
100
AcDbSpline
210
0.0
220
0.0
230
1.0
 70
     8
 71
     3
 72
     8
 73
     4
 74
     0
 42
0.0000000001
 43
0.0000000001
 40
0.0
 40
0.0
 40
0.0
 40
0.0
 40
1.0
 40
1.0
 40
1.0
 40
1.0
 10
333.0378785837693
 20
687.4128582667845
 30
0.0
 10
333.1384876853863
 20
687.4672335453724
 30
0.0
 10
333.2459568867216
 20
687.4960577234515
 30
0.0
 10
333.3602861877771
 20
687.4993308010235
 30
0.0
  0
SPLINE
  5
D9
330
70
100
AcDbEntity
  8
1
 62
     7
370
    35
100
AcDbSpline
210
0.0
220
0.0
230
1.0
 70
     8
 71
     3
 72
     8
 73
     4
 74
     0
 42
0.0000000001
 43
0.0000000001
 40
0.0
 40
0.0
 40
0.0
 40
0.0
 40
1.0
 40
1.0
 40
1.0
 40
1.0
 10
274.6612647003294
 20
687.4993485700861
 30
0.0
 10
274.7758201418164
 20
687.4961529898
 30
0.0
 10
274.8835008681254
 20
687.4673150513144
 30
0.0
 10
274.9843068792598
 20
687.4128347546266
 30
0.0
  0
SPLINE
  5
DA
330
70
100
AcDbEntity
  8
1
 62
     7
370
    35
100
AcDbSpline
210
0.0
220
0.0
230
1.0
 70
     8
 71
     3
 72
   131
 73
   127
 74
     0
 42
0.0000000001
 43
0.0000000001
 40
0.0
 40
0.0
 40
0.0
 40
0.0
 40
1.0
 40
1.0
 40
1.0
 40
2.0
 40
2.0
 40
2.0
 40
3.0
 40
3.0
 40
3.0
 40
4.0
 40
4.0
 40
4.0
 40
5.0
 40
5.0
 40
5.0
 40
6.0
 40
6.0
 40
6.0
 40
7.0
 40
7.0
 40
7.0
 40
8.0
 40
8.0
 40
8.0
 40
9.0
 40
9.0
 40
9.0
 40
10.0
 40
10.0
 40
10.0
 40
11.0
 40
11.0
 40
11.0
 40
12.0
 40
12.0
 40
12.0
 40
13.0
 40
13.0
 40
13.0
 40
14.0
 40
14.0
 40
14.0
 40
15.0
 40
15.0
 40
15.0
 40
16.0
 40
16.0
 40
16.0
 40
17.0
 40
17.0
 40
17.0
 40
18.0
 40
18.0
 40
18.0
 40
19.0
 40
19.0
 40
19.0
 40
20.0
 40
20.0
 40
20.0
 40
21.0
 40
21.0
 40
21.0
 40
22.0
 40
22.0
 40
22.0
 40
23.0
 40
23.0
 40
23.0
 40
24.0
 40
24.0
 40
24.0
 40
25.0
 40
25.0
 40
25.0
 40
26.0
 40
26.0
 40
26.0
 40
27.0
 40
27.0
 40
27.0
 40
28.0
 40
28.0
 40
28.0
 40
29.0
 40
29.0
 40
29.0
 40
30.0
 40
30.0
 40
30.0
 40
31.0
 40
31.0
 40
31.0
 40
32.0
 40
32.0
 40
32.0
 40
33.0
 40
33.0
 40
33.0
 40
34.0
 40
34.0
 40
34.0
 40
35.0
 40
35.0
 40
35.0
 40
36.0
 40
36.0
 40
36.0
 40
37.0
 40
37.0
 40
37.0
 40
38.0
 40
38.0
 40
38.0
 40
39.0
 40
39.0
 40
39.0
 40
40.0
 40
40.0
 40
40.0
 40
41.0
 40
41.0
 40
41.0
 40
42.0
 40
42.0
 40
42.0
 40
42.0
 10
333.3699349549406
 20
687.4982517962953
 30
0.0
 10
335.6262500232915
 20
687.582823276587
 30
0.0
 10
337.8827110773382
 20
687.6650359404602
 30
0.0
 10
340.1393261629819
 20
687.7448098187159
 30
0.0
 10
342.5642362501439
 20
687.8305331143356
 30
0.0
 10
344.9893242005073
 20
687.9134402979071
 30
0.0
 10
347.4145627866401
 20
687.9938019864976
 30
0.0
 10
349.7349118338043
 20
688.0706880993193
 30
0.0
 10
352.0553987687526
 20
688.1452441368919
 30
0.0
 10
354.376022083321
 20
688.2174008568999
 30
0.0
 10
356.5917941164916
 20
688.2862973646579
 30
0.0
 10
358.8076904837854
 20
688.3530064705219
 30
0.0
 10
361.0237039839212
 20
688.4175443314116
 30
0.0
 10
363.1349008376528
 20
688.4790295745497
 30
0.0
 10
365.2462040056034
 20
688.5385441133067
 30
0.0
 10
367.3576083881453
 20
688.5960829631776
 30
0.0
 10
369.3642275942366
 20
688.6507662641115
 30
0.0
 10
371.3709382180113
 20
688.7036651098469
 30
0.0
 10
373.3777351709487
 20
688.7547799570338
 30
0.0
 10
375.1739088587001
 20
688.8005300482118
 30
0.0
 10
376.9701517052308
 20
688.8448509680711
 30
0.0
 10
378.7664598930933
 20
688.8877420624749
 30
0.0
 10
380.4696632152773
 20
688.9284100586346
 30
0.0
 10
382.1729252808873
 20
688.9677926073718
 30
0.0
 10
383.8762424534852
 20
689.0058894263002
 30
0.0
 10
385.4864744294537
 20
689.0419042783832
 30
0.0
 10
387.096755653869
 20
689.076770089383
 30
0.0
 10
388.7070827127573
 20
689.1104865673778
 30
0.0
 10
390.2243424187727
 20
689.1422544329234
 30
0.0
 10
391.7416428144352
 20
689.1730019757769
 30
0.0
 10
393.2589805273638
 20
689.2027289745656
 30
0.0
 10
394.6832670682252
 20
689.2306329565944
 30
0.0
 10
396.1075864897102
 20
689.2576377268214
 30
0.0
 10
397.531935752435
 20
689.2837431066872
 30
0.0
 10
398.9409443398981
 20
689.3095673236639
 30
0.0
 10
400.3499821292644
 20
689.3345114193662
 30
0.0
 10
401.7590445027726
 20
689.3585752157541
 30
0.0
 10
403.0634673303993
 20
689.3808519906615
 30
0.0
 10
404.3679112264162
 20
689.4023743568332
 30
0.0
 10
405.672374529673
 20
689.4231422054863
 30
0.0
 10
406.8722125115073
 20
689.4422443554267
 30
0.0
 10
408.0720669122857
 20
689.4607081672075
 30
0.0
 10
409.2719256734471
 20
689.4785334509124
 30
0.0
 10
410.3671725620661
 20
689.4948046047793
 30
0.0
 10
411.4624230838726
 20
689.5105437192396
 30
0.0
 10
412.5576977839937
 20
689.5257509786752
 30
0.0
 10
413.5483711773049
 20
689.5395059091097
 30
0.0
 10
414.5390643512764
 20
689.5528257204359
 30
0.0
 10
415.5296907228766
 20
689.5657094669786
 30
0.0
 10
416.4157320949161
 20
689.5772330169184
 30
0.0
 10
417.3017200252743
 20
689.58840771644
 30
0.0
 10
418.1879043650715
 20
689.5992362455908
 30
0.0
 10
418.9276514829743
 20
689.6082754182243
 30
0.0
 10
419.6675354622129
 20
689.6170733736335
 30
0.0
 10
420.4068237645424
 20
689.6256222610746
 30
0.0
 10
421.0541743005069
 20
689.6331080103391
 30
0.0
 10
421.701068103759
 20
689.6404027878079
 30
0.0
 10
422.3499448850488
 20
689.6475328500637
 30
0.0
 10
422.9507897036292
 20
689.6541351220021
 30
0.0
 10
423.5533347929413
 20
689.6605961616878
 30
0.0
 10
424.1559023504196
 20
689.6668958992932
 30
0.0
 10
424.7380022974557
 20
689.6729816516362
 30
0.0
 10
425.3201232122137
 20
689.6789168737932
 30
0.0
 10
425.8990170820707
 20
689.6846708383399
 30
0.0
 10
426.4634829320748
 20
689.6902813943643
 30
0.0
 10
427.0248805906503
 20
689.6957196153062
 30
0.0
 10
427.5792665610351
 20
689.7009547877415
 30
0.0
 10
428.0976741552676
 20
689.7058502095078
 30
0.0
 10
428.6099506150185
 20
689.7105680823488
 30
0.0
 10
429.1124290894113
 20
689.7150855324143
 30
0.0
 10
429.6156648251107
 20
689.7196097905152
 30
0.0
 10
430.1090730210508
 20
689.7239330212896
 30
0.0
 10
430.5891535135978
 20
689.7280398233179
 30
0.0
 10
431.0772484969857
 20
689.7322151845319
 30
0.0
 10
431.5515670758014
 20
689.7361668305348
 30
0.0
 10
432.0094025694925
 20
689.7398914577679
 30
0.0
 10
432.4820195824304
 20
689.7437363370354
 30
0.0
 10
432.9370719944472
 20
689.7473393019945
 30
0.0
 10
433.3731379197324
 20
689.7507114193349
 30
0.0
 10
433.8296448456658
 20
689.7542416078513
 30
0.0
 10
434.2653435459724
 20
689.7575187990951
 30
0.0
 10
434.6803219017674
 20
689.7605678778091
 30
0.0
 10
435.1199059329628
 20
689.7637977482172
 30
0.0
 10
435.536239592715
 20
689.766771652753
 30
0.0
 10
435.9309188973038
 20
689.7695261891585
 30
0.0
 10
436.4407589935072
 20
689.7730844530205
 30
0.0
 10
436.9144643840245
 20
689.7762766564392
 30
0.0
 10
437.356894841454
 20
689.779178469841
 30
0.0
 10
437.8401839545513
 20
689.7823482670437
 30
0.0
 10
438.2861548941091
 20
689.7851715623009
 30
0.0
 10
438.7012894560156
 20
689.7877300551654
 30
0.0
 10
439.1566724160056
 20
689.7905366007043
 30
0.0
 10
439.574949804637
 20
689.7930245081643
 30
0.0
 10
439.964061366405
 20
689.7952778348317
 30
0.0
 10
440.3912702372836
 20
689.7977517812123
 30
0.0
 10
440.7833225341273
 20
689.7999429632127
 30
0.0
 10
441.1451765269048
 20
689.8019128639616
 30
0.0
 10
441.5418413994611
 20
689.8040722720252
 30
0.0
 10
441.9022182496791
 20
689.8059657757849
 30
0.0
 10
442.2446065027815
 20
689.8077203632055
 30
0.0
 10
442.6067950347133
 20
689.8095764182435
 30
0.0
 10
442.9488542527269
 20
689.8112770253228
 30
0.0
 10
443.3294918047613
 20
689.8130995964739
 30
0.0
 10
443.7033395546568
 20
689.8148896566535
 30
0.0
 10
444.1144015954287
 20
689.8167973685276
 30
0.0
 10
444.5516895492964
 20
689.8187339100786
 30
0.0
 10
444.9801228389733
 20
689.8206312385073
 30
0.0
 10
445.4337306955258
 20
689.8225562408897
 30
0.0
 10
445.9173000112677
 20
689.8244977717904
 30
0.0
 10
446.3914583891619
 20
689.826401517771
 30
0.0
 10
446.8944233899183
 20
689.8283211551998
 30
0.0
 10
447.4266073454328
 20
689.8302184108042
 30
0.0
 10
447.9490861913728
 20
689.832081067334
 30
0.0
 10
448.499728013292
 20
689.8339221509267
 30
0.0
 10
449.07984041921
 20
689.8357050835711
 30
0.0
 10
449.7915089830658
 20
689.8378923443515
 30
0.0
 10
450.5475302405593
 20
689.8399920890124
 30
0.0
 10
451.349029668283
 20
689.8419147326185
 30
0.0
 10
452.1364414088566
 20
689.8438035825611
 30
0.0
 10
452.9677466604989
 20
689.8455215024287
 30
0.0
 10
453.8435570764086
 20
689.8469842367403
 30
0.0
 10
454.7072929048153
 20
689.8484268046886
 30
0.0
 10
455.6143151928081
 20
689.8496211749452
 30
0.0
 10
456.5634602676381
 20
689.8504225812594
 30
0.0
 10
457.5037155097743
 20
689.8512164814847
 30
0.0
 10
458.4853081774944
 20
689.851624744414
 30
0.0
 10
459.5086201218127
 20
689.8516948740716
 30
0.0
  0
SPLINE
  5
DB
330
70
100
AcDbEntity
  8
1
 62
     7
370
    35
100
AcDbSpline
210
0.0
220
0.0
230
1.0
 70
     8
 71
     3
 72
   140
 73
   136
 74
     0
 42
0.0000000001
 43
0.0000000001
 40
0.0
 40
0.0
 40
0.0
 40
0.0
 40
1.0
 40
1.0
 40
1.0
 40
2.0
 40
2.0
 40
2.0
 40
3.0
 40
3.0
 40
3.0
 40
4.0
 40
4.0
 40
4.0
 40
5.0
 40
5.0
 40
5.0
 40
6.0
 40
6.0
 40
6.0
 40
7.0
 40
7.0
 40
7.0
 40
8.0
 40
8.0
 40
8.0
 40
9.0
 40
9.0
 40
9.0
 40
10.0
 40
10.0
 40
10.0
 40
11.0
 40
11.0
 40
11.0
 40
12.0
 40
12.0
 40
12.0
 40
13.0
 40
13.0
 40
13.0
 40
14.0
 40
14.0
 40
14.0
 40
15.0
 40
15.0
 40
15.0
 40
16.0
 40
16.0
 40
16.0
 40
17.0
 40
17.0
 40
17.0
 40
18.0
 40
18.0
 40
18.0
 40
19.0
 40
19.0
 40
19.0
 40
20.0
 40
20.0
 40
20.0
 40
21.0
 40
21.0
 40
21.0
 40
22.0
 40
22.0
 40
22.0
 40
23.0
 40
23.0
 40
23.0
 40
24.0
 40
24.0
 40
24.0
 40
25.0
 40
25.0
 40
25.0
 40
26.0
 40
26.0
 40
26.0
 40
27.0
 40
27.0
 40
27.0
 40
28.0
 40
28.0
 40
28.0
 40
29.0
 40
29.0
 40
29.0
 40
30.0
 40
30.0
 40
30.0
 40
31.0
 40
31.0
 40
31.0
 40
32.0
 40
32.0
 40
32.0
 40
33.0
 40
33.0
 40
33.0
 40
34.0
 40
34.0
 40
34.0
 40
35.0
 40
35.0
 40
35.0
 40
36.0
 40
36.0
 40
36.0
 40
37.0
 40
37.0
 40
37.0
 40
38.0
 40
38.0
 40
38.0
 40
39.0
 40
39.0
 40
39.0
 40
40.0
 40
40.0
 40
40.0
 40
41.0
 40
41.0
 40
41.0
 40
42.0
 40
42.0
 40
42.0
 40
43.0
 40
43.0
 40
43.0
 40
44.0
 40
44.0
 40
44.0
 40
45.0
 40
45.0
 40
45.0
 40
45.0
 10
148.5132916689617
 20
689.8516948740716
 30
0.0
 10
149.3075462597571
 20
689.8516556427621
 30
0.0
 10
150.0718459898999
 20
689.8514074822569
 30
0.0
 10
150.806597483619
 20
689.8509235544906
 30
0.0
 10
151.547055982508
 20
689.8504358679302
 30
0.0
 10
152.257505444707
 20
689.8497087373543
 30
0.0
 10
152.9367101566913
 20
689.8488237224946
 30
0.0
 10
153.624306434227
 20
689.8479277732895
 30
0.0
 10
154.2798811351913
 20
689.8468700143821
 30
0.0
 10
154.9035486509319
 20
689.8456992436012
 30
0.0
 10
155.5375216740949
 20
689.8445091269568
 30
0.0
 10
156.1385243287159
 20
689.8432022327533
 30
0.0
 10
156.7071032871063
 20
689.841830884232
 30
0.0
 10
157.2871867226386
 20
689.8404317882059
 30
0.0
 10
157.8335210824562
 20
689.8389656031704
 30
0.0
 10
158.3474354220043
 20
689.8374763119809
 30
0.0
 10
159.0068977704468
 20
689.8355652318859
 30
0.0
 10
159.6129760318281
 20
689.8336161042871
 30
0.0
 10
160.1685242407166
 20
689.8317045112862
 30
0.0
 10
160.7426207892549
 20
689.8297290950631
 30
0.0
 10
161.2627568188454
 20
689.8277937616467
 30
0.0
 10
161.7351853475147
 20
689.8259452121674
 30
0.0
 10
162.2247001510431
 20
689.8240298063846
 30
0.0
 10
162.6629941853816
 20
689.8222075754647
 30
0.0
 10
163.0479620355272
 20
689.8205494066896
 30
0.0
 10
163.4473913007477
 20
689.8188289483787
 30
0.0
 10
163.7894127073096
 20
689.8172851098033
 30
0.0
 10
164.1075198887984
 20
689.8158116900604
 30
0.0
 10
164.3160285365957
 20
689.8148459125622
 30
0.0
 10
164.5142627598097
 20
689.8139103895673
 30
0.0
 10
164.7363748974576
 20
689.8128396119418
 30
0.0
 10
164.9389391879831
 20
689.8118630722865
 30
0.0
 10
165.1613634025152
 20
689.8107740376035
 30
0.0
 10
165.4010315345176
 20
689.8095735022971
 30
0.0
 10
165.6183698759742
 20
689.8084848204189
 30
0.0
 10
165.8498886033685
 20
689.8073044469701
 30
0.0
 10
166.1019227245697
 20
689.8059900094168
 30
0.0
 10
166.3293134196892
 20
689.8048040951152
 30
0.0
 10
166.5734037334914
 20
689.8035090520561
 30
0.0
 10
166.8390023901602
 20
689.8020668365598
 30
0.0
 10
167.0775219359193
 20
689.8007716621441
 30
0.0
 10
167.3333876337674
 20
689.7993577953902
 30
0.0
 10
167.6122225268272
 20
689.7977805540149
 30
0.0
 10
167.8616971820092
 20
689.7963693900683
 30
0.0
 10
168.129558563055
 20
689.7948274455538
 30
0.0
 10
168.4215333876045
 20
689.7931065990833
 30
0.0
 10
168.6822385749983
 20
689.7915700501644
 30
0.0
 10
168.9621688251864
 20
689.7898908670613
 30
0.0
 10
169.2668840127726
 20
689.7880192760712
 30
0.0
 10
169.5392373469485
 20
689.7863464548081
 30
0.0
 10
169.8313906732373
 20
689.784519924272
 30
0.0
 10
170.1482231090112
 20
689.7824917562893
 30
0.0
 10
170.4330903862301
 20
689.7806682097498
 30
0.0
 10
170.7379082349771
 20
689.7786816596644
 30
0.0
 10
171.0655002791909
 20
689.7764960780532
 30
0.0
 10
171.2917104328953
 20
689.774986881599
 30
0.0
 10
171.5287798543477
 20
689.7733827822676
 30
0.0
 10
171.7770135443979
 20
689.7716746307451
 30
0.0
 10
172.0112233232976
 20
689.7700629808914
 30
0.0
 10
172.2553715572567
 20
689.7683587035617
 30
0.0
 10
172.5086962365412
 20
689.7665608092893
 30
0.0
 10
172.7514965825139
 20
689.7648376082497
 30
0.0
 10
173.0027267442046
 20
689.7630284072893
 30
0.0
 10
173.2605315755108
 20
689.7611415627143
 30
0.0
 10
173.512296916474
 20
689.7592989204922
 30
0.0
 10
173.7703324909707
 20
689.7573822299
 30
0.0
 10
174.0325053295691
 20
689.7554034816021
 30
0.0
 10
174.3812183035088
 20
689.7527715720307
 30
0.0
 10
174.7372506535475
 20
689.7500298740478
 30
0.0
 10
175.0931113458855
 20
689.7472328940548
 30
0.0
 10
175.462243046155
 20
689.7443316071112
 30
0.0
 10
175.8311900468334
 20
689.7413708380436
 30
0.0
 10
176.1993372352945
 20
689.7383566788839
 30
0.0
 10
176.6459885121103
 20
689.7346997773001
 30
0.0
 10
177.0914625022842
 20
689.7309642879727
 30
0.0
 10
177.5372360927613
 20
689.7271381139762
 30
0.0
 10
178.0837125348589
 20
689.7224475849789
 30
0.0
 10
178.630639229802
 20
689.7176207709726
 30
0.0
 10
179.1774667842037
 20
689.7126621551069
 30
0.0
 10
179.8250664356183
 20
689.706789740886
 30
0.0
 10
180.4725270393619
 20
689.7007324704855
 30
0.0
 10
181.1200292524299
 20
689.6944888609578
 30
0.0
 10
181.8682940378785
 20
689.6872736375171
 30
0.0
 10
182.6166143905602
 20
689.6798095672193
 30
0.0
 10
183.3649234259483
 20
689.6720971990035
 30
0.0
 10
184.2140078429047
 20
689.6633461999363
 30
0.0
 10
185.0630776890966
 20
689.6542755228038
 30
0.0
 10
185.9121492194626
 20
689.6448850455417
 30
0.0
 10
186.8620027763345
 20
689.6343799492033
 30
0.0
 10
187.8118584409185
 20
689.6234746286317
 30
0.0
 10
188.7617065345284
 20
689.6121691857088
 30
0.0
 10
189.8123456899829
 20
689.5996640903312
 30
0.0
 10
190.8629755824595
 20
689.5866694510277
 30
0.0
 10
191.9135952603792
 20
689.5731853135067
 30
0.0
 10
193.0650153127235
 20
689.5584074574863
 30
0.0
 10
194.2164230964363
 20
689.5430416687486
 30
0.0
 10
195.3678152749216
 20
689.5270880318276
 30
0.0
 10
196.6200182713783
 20
689.5097375648656
 30
0.0
 10
197.8722028103284
 20
689.4916918045027
 30
0.0
 10
199.1243664459162
 20
689.4729508524924
 30
0.0
 10
200.4773524652992
 20
689.4527009064459
 30
0.0
 10
201.8303140795824
 20
689.4316393100307
 30
0.0
 10
203.1832486323428
 20
689.4097661962651
 30
0.0
 10
204.8182478383433
 20
689.3833328972022
 30
0.0
 10
206.4532075228144
 20
689.3557144317555
 30
0.0
 10
208.0881238794218
 20
689.3269110449555
 30
0.0
 10
209.8495484666519
 20
689.2958788802234
 30
0.0
 10
211.6109227612597
 20
689.2634713232901
 30
0.0
 10
213.3722427499906
 20
689.2296886882313
 30
0.0
 10
215.2600940176571
 20
689.1934791460553
 30
0.0
 10
217.1478828966356
 20
689.1556898610287
 30
0.0
 10
219.0356050228875
 20
689.1163212619312
 30
0.0
 10
221.0498844517015
 20
689.0743132999523
 30
0.0
 10
223.0640878772401
 20
689.0305071635848
 30
0.0
 10
225.0782104760128
 20
688.9849033037235
 30
0.0
 10
227.2189196987865
 20
688.9364332634877
 30
0.0
 10
229.3595376156809
 20
688.8859324265458
 30
0.0
 10
231.500058890897
 20
688.8334017531424
 30
0.0
 10
233.7671997491852
 20
688.7777637002236
 30
0.0
 10
236.0342321942208
 20
688.7198485637891
 30
0.0
 10
238.3011500578577
 20
688.6596559516138
 30
0.0
 10
240.5545359110001
 20
688.5998226497913
 30
0.0
 10
242.8078085466095
 20
688.5377389811464
 30
0.0
 10
245.060962670621
 20
688.4734102660959
 30
0.0
 10
247.4267463384531
 20
688.4058659193424
 30
0.0
 10
249.7923993503573
 20
688.3358464678604
 30
0.0
 10
252.1579140302238
 20
688.2633348641165
 30
0.0
 10
254.636096461114
 20
688.1873695852037
 30
0.0
 10
257.114127068844
 20
688.1086691016498
 30
0.0
 10
259.5920040122855
 20
688.0273070395478
 30
0.0
 10
262.1825911183259
 20
687.942244095012
 30
0.0
 10
264.7730102628139
 20
687.8542719328016
 30
0.0
 10
267.3632325206108
 20
687.7631032473637
 30
0.0
 10
269.7931463904806
 20
687.6775769754076
 30
0.0
 10
272.2228869900773
 20
687.5892376009133
 30
0.0
 10
274.6524629833348
 20
687.4981711803729
 30
0.0
  0
SPLINE
  5
DC
330
70
100
AcDbEntity
  8
1
 62
     7
370
    35
100
AcDbSpline
210
0.0
220
0.0
230
1.0
 70
     8
 71
     3
 72
    17
 73
    13
 74
     0
 42
0.0000000001
 43
0.0000000001
 40
0.0
 40
0.0
 40
0.0
 40
0.0
 40
1.0
 40
1.0
 40
1.0
 40
2.0
 40
2.0
 40
2.0
 40
3.0
 40
3.0
 40
3.0
 40
4.0
 40
4.0
 40
4.0
 40
4.0
 10
326.147152650361
 20
687.4966159884798
 30
0.0
 10
326.271742312374
 20
687.4966150274713
 30
0.0
 10
326.4384777781525
 20
687.496597374541
 30
0.0
 10
326.6238902230471
 20
687.4965910064847
 30
0.0
 10
326.809302667938
 20
687.4965846384238
 30
0.0
 10
327.0133920919452
 20
687.4965895552377
 30
0.0
 10
327.2114134791154
 20
687.4965904164582
 30
0.0
 10
327.4094348662802
 20
687.4965912776824
 30
0.0
 10
327.6013882166099
 20
687.496588083316
 30
0.0
 10
327.7694389988319
 20
687.4965907520954
 30
0.0
 10
327.9374897810558
 20
687.4965934208721
 30
0.0
 10
328.0816379951739
 20
687.4966019527974
 30
0.0
 10
328.1833178657598
 20
687.4966027718965
 30
0.0
  0
SPLINE
  5
DD
330
70
100
AcDbEntity
  8
1
 62
     7
370
    35
100
AcDbSpline
210
0.0
220
0.0
230
1.0
 70
     8
 71
     3
 72
   110
 73
   106
 74
     0
 42
0.0000000001
 43
0.0000000001
 40
0.0
 40
0.0
 40
0.0
 40
0.0
 40
1.0
 40
1.0
 40
1.0
 40
2.0
 40
2.0
 40
2.0
 40
3.0
 40
3.0
 40
3.0
 40
4.0
 40
4.0
 40
4.0
 40
5.0
 40
5.0
 40
5.0
 40
6.0
 40
6.0
 40
6.0
 40
7.0
 40
7.0
 40
7.0
 40
8.0
 40
8.0
 40
8.0
 40
9.0
 40
9.0
 40
9.0
 40
10.0
 40
10.0
 40
10.0
 40
11.0
 40
11.0
 40
11.0
 40
12.0
 40
12.0
 40
12.0
 40
13.0
 40
13.0
 40
13.0
 40
14.0
 40
14.0
 40
14.0
 40
15.0
 40
15.0
 40
15.0
 40
16.0
 40
16.0
 40
16.0
 40
17.0
 40
17.0
 40
17.0
 40
18.0
 40
18.0
 40
18.0
 40
19.0
 40
19.0
 40
19.0
 40
20.0
 40
20.0
 40
20.0
 40
21.0
 40
21.0
 40
21.0
 40
22.0
 40
22.0
 40
22.0
 40
23.0
 40
23.0
 40
23.0
 40
24.0
 40
24.0
 40
24.0
 40
25.0
 40
25.0
 40
25.0
 40
26.0
 40
26.0
 40
26.0
 40
27.0
 40
27.0
 40
27.0
 40
28.0
 40
28.0
 40
28.0
 40
29.0
 40
29.0
 40
29.0
 40
30.0
 40
30.0
 40
30.0
 40
31.0
 40
31.0
 40
31.0
 40
32.0
 40
32.0
 40
32.0
 40
33.0
 40
33.0
 40
33.0
 40
34.0
 40
34.0
 40
34.0
 40
35.0
 40
35.0
 40
35.0
 40
35.0
 10
327.9256776743296
 20
687.4138175876187
 30
0.0
 10
327.9771143146463
 20
687.4138175626476
 30
0.0
 10
328.0285509549649
 20
687.4138175376783
 30
0.0
 10
328.0795369286552
 20
687.4138167183919
 30
0.0
 10
328.1295891085101
 20
687.4138159141103
 30
0.0
 10
328.1792069782387
 20
687.4138143443424
 30
0.0
 10
328.2285057397876
 20
687.4138124096544
 30
0.0
 10
328.2768841474244
 20
687.4138105110842
 30
0.0
 10
328.324955250464
 20
687.4138082610934
 30
0.0
 10
328.3726869037
 20
687.4138057370455
 30
0.0
 10
328.4195099391418
 20
687.4138032610444
 30
0.0
 10
328.4660063252759
 20
687.4138005213244
 30
0.0
 10
328.5121824031739
 20
687.4137976680203
 30
0.0
 10
328.5574618981464
 20
687.4137948701164
 30
0.0
 10
328.6024334027243
 20
687.4137919629983
 30
0.0
 10
328.6470933447418
 20
687.413789066848
 30
0.0
 10
328.6908684993541
 20
687.4137862280731
 30
0.0
 10
328.7343443142599
 20
687.4137833998356
 30
0.0
 10
328.7775198968302
 20
687.4137806995058
 30
0.0
 10
328.8198223843592
 20
687.4137780537812
 30
0.0
 10
328.8618366593564
 20
687.4137755308447
 30
0.0
 10
328.9035612290882
 20
687.4137732384824
 30
0.0
 10
328.9444242499012
 20
687.4137709934548
 30
0.0
 10
328.9850094058802
 20
687.4137689695835
 30
0.0
 10
329.0253154529455
 20
687.4137672674851
 30
0.0
 10
329.0647713552917
 20
687.4137656012881
 30
0.0
 10
329.1039597986182
 20
687.4137642434352
 30
0.0
 10
329.1428795633492
 20
687.4137632860501
 30
0.0
 10
329.1809604372611
 20
687.4137623492988
 30
0.0
 10
329.2187840901424
 20
687.4137617959377
 30
0.0
 10
329.2563493817342
 20
687.4137617140577
 30
0.0
 10
329.2930869254269
 20
687.413761633983
 30
0.0
 10
329.3295773683276
 20
687.4137620048413
 30
0.0
 10
329.3658196077777
 20
687.4137627582103
 30
0.0
 10
329.4012452581028
 20
687.4137634946046
 30
0.0
 10
329.4364337637253
 20
687.4137645964638
 30
0.0
 10
329.4713840934473
 20
687.4137659950674
 30
0.0
 10
329.5055288386993
 20
687.4137673614332
 30
0.0
 10
329.5394462611475
 20
687.413769011021
 30
0.0
 10
329.5731353966803
 20
687.4137708788785
 30
0.0
 10
329.60602974018
 20
687.41377270267
 30
0.0
 10
329.6387064411665
 20
687.4137747345549
 30
0.0
 10
329.671164599411
 20
687.4137769120324
 30
0.0
 10
329.7028385433677
 20
687.4137790368986
 30
0.0
 10
329.7343043773326
 20
687.4137813004035
 30
0.0
 10
329.7655612616363
 20
687.4137836425725
 30
0.0
 10
329.7960442922104
 20
687.4137859267548
 30
0.0
 10
329.8263285913399
 20
687.4137882857549
 30
0.0
 10
329.8564133765685
 20
687.4137906617697
 30
0.0
 10
329.8857344489424
 20
687.4137929774697
 30
0.0
 10
329.9148660083047
 20
687.4137953093277
 30
0.0
 10
329.9438073268793
 20
687.4137976017528
 30
0.0
 10
329.9719948512993
 20
687.4137998344667
 30
0.0
 10
330.0000019157469
 20
687.4138020297732
 30
0.0
 10
330.0278278420137
 20
687.4138041331898
 30
0.0
 10
330.0549096682444
 20
687.4138061803559
 30
0.0
 10
330.0818199144887
 20
687.4138081404826
 30
0.0
 10
330.1085579566097
 20
687.41380996304
 30
0.0
 10
330.1345613656886
 20
687.4138117355205
 30
0.0
 10
330.1604019033384
 20
687.4138133778906
 30
0.0
 10
330.1860789699713
 20
687.4138148323599
 30
0.0
 10
330.2110306415307
 20
687.413816245742
 30
0.0
 10
330.2358279479504
 20
687.4138174816916
 30
0.0
 10
330.2604704066598
 20
687.4138185141628
 30
0.0
 10
330.2843964753447
 20
687.4138195166188
 30
0.0
 10
330.3081765687202
 20
687.4138203272532
 30
0.0
 10
330.3318099781482
 20
687.4138208113427
 30
0.0
 10
330.3547357733223
 20
687.4138212809375
 30
0.0
 10
330.3775235368557
 20
687.4138214432478
 30
0.0
 10
330.4001735455604
 20
687.4138215546564
 30
0.0
 10
330.5310006588407
 20
687.4138221981475
 30
0.0
 10
330.6572319247844
 20
687.4138211433837
 30
0.0
 10
330.7787943271051
 20
687.4138194376246
 30
0.0
 10
330.9003619005653
 20
687.4138177317945
 30
0.0
 10
331.0172602131788
 20
687.4138153749154
 30
0.0
 10
331.1294382106662
 20
687.4138136989722
 30
0.0
 10
331.2416205749905
 20
687.413812022969
 30
0.0
 10
331.3490822566728
 20
687.4138110279564
 30
0.0
 10
331.4517645093074
 20
687.4138121224286
 30
0.0
 10
331.5544501459699
 20
687.4138132169355
 30
0.0
 10
331.6523560385503
 20
687.4138164010673
 30
0.0
 10
331.7454350159715
 20
687.4138231223114
 30
0.0
 10
331.922716613255
 20
687.413835923834
 30
0.0
 10
332.0824879031225
 20
687.4138615567253
 30
0.0
 10
332.2244034839568
 20
687.4138784323823
 30
0.0
 10
332.3379349533698
 20
687.4138919327861
 30
0.0
 10
332.4400389693528
 20
687.4138998286598
 30
0.0
 10
332.530559447403
 20
687.413889735013
 30
0.0
 10
332.5984454292175
 20
687.4138821652677
 30
0.0
 10
332.6598165110299
 20
687.4138644777185
 30
0.0
 10
332.7146552778577
 20
687.4138482287362
 30
0.0
 10
332.7512106449376
 20
687.4138373972082
 30
0.0
 10
332.7848633661306
 20
687.4138272049103
 30
0.0
 10
332.8156158897727
 20
687.4138225143288
 30
0.0
 10
332.8496427928894
 20
687.413817324319
 30
0.0
 10
332.880119021118
 20
687.4138188699917
 30
0.0
 10
332.9070095201732
 20
687.4138178631283
 30
0.0
 10
332.9316520197008
 20
687.4138169404368
 30
0.0
 10
332.9532832521636
 20
687.4138138741409
 30
0.0
 10
332.9719178146643
 20
687.4138134257809
 30
0.0
 10
332.9888524334856
 20
687.4138130183255
 30
0.0
 10
333.0033121881625
 20
687.4138147729445
 30
0.0
 10
333.0152422162064
 20
687.4138167520059
 30
0.0
 10
333.0250762510587
 20
687.4138183833629
 30
0.0
 10
333.0331913719074
 20
687.4138201672222
 30
0.0
 10
333.0397087320562
 20
687.413821502254
 30
0.0
  0
SPLINE
  5
DE
330
70
100
AcDbEntity
  8
1
 62
     7
370
    35
100
AcDbSpline
210
0.0
220
0.0
230
1.0
 70
     8
 71
     3
 72
   122
 73
   118
 74
     0
 42
0.0000000001
 43
0.0000000001
 40
0.0
 40
0.0
 40
0.0
 40
0.0
 40
1.0
 40
1.0
 40
1.0
 40
2.0
 40
2.0
 40
2.0
 40
3.0
 40
3.0
 40
3.0
 40
4.0
 40
4.0
 40
4.0
 40
5.0
 40
5.0
 40
5.0
 40
6.0
 40
6.0
 40
6.0
 40
7.0
 40
7.0
 40
7.0
 40
8.0
 40
8.0
 40
8.0
 40
9.0
 40
9.0
 40
9.0
 40
10.0
 40
10.0
 40
10.0
 40
11.0
 40
11.0
 40
11.0
 40
12.0
 40
12.0
 40
12.0
 40
13.0
 40
13.0
 40
13.0
 40
14.0
 40
14.0
 40
14.0
 40
15.0
 40
15.0
 40
15.0
 40
16.0
 40
16.0
 40
16.0
 40
17.0
 40
17.0
 40
17.0
 40
18.0
 40
18.0
 40
18.0
 40
19.0
 40
19.0
 40
19.0
 40
20.0
 40
20.0
 40
20.0
 40
21.0
 40
21.0
 40
21.0
 40
22.0
 40
22.0
 40
22.0
 40
23.0
 40
23.0
 40
23.0
 40
24.0
 40
24.0
 40
24.0
 40
25.0
 40
25.0
 40
25.0
 40
26.0
 40
26.0
 40
26.0
 40
27.0
 40
27.0
 40
27.0
 40
28.0
 40
28.0
 40
28.0
 40
29.0
 40
29.0
 40
29.0
 40
30.0
 40
30.0
 40
30.0
 40
31.0
 40
31.0
 40
31.0
 40
32.0
 40
32.0
 40
32.0
 40
33.0
 40
33.0
 40
33.0
 40
34.0
 40
34.0
 40
34.0
 40
35.0
 40
35.0
 40
35.0
 40
36.0
 40
36.0
 40
36.0
 40
37.0
 40
37.0
 40
37.0
 40
38.0
 40
38.0
 40
38.0
 40
39.0
 40
39.0
 40
39.0
 40
39.0
 10
274.9823692185746
 20
687.4138458899405
 30
0.0
 10
274.9827490331572
 20
687.4138458074494
 30
0.0
 10
274.9831345926486
 20
687.4138457260423
 30
0.0
 10
274.9835258812236
 20
687.4138456458995
 30
0.0
 10
274.9870366818068
 20
687.4138449268193
 30
0.0
 10
274.991008697214
 20
687.4138443095207
 30
0.0
 10
274.995444562217
 20
687.4138439245198
 30
0.0
 10
274.9999772716655
 20
687.4138435311142
 30
0.0
 10
275.0049943054601
 20
687.4138433802627
 30
0.0
 10
275.0104945923267
 20
687.4138435981239
 30
0.0
 10
275.0161123588114
 20
687.4138438206373
 30
0.0
 10
275.0222342422512
 20
687.4138444277814
 30
0.0
 10
275.0288601083485
 20
687.4138453211535
 30
0.0
 10
275.0356245338462
 20
687.4138462332112
 30
0.0
 10
275.0429142408593
 20
687.4138474435913
 30
0.0
 10
275.0507287831824
 20
687.4138488680391
 30
0.0
 10
275.0587034032906
 20
687.4138503216673
 30
0.0
 10
275.0672245810274
 20
687.4138519982216
 30
0.0
 10
275.0762919141398
 20
687.4138538076149
 30
0.0
 10
275.0855412698693
 20
687.4138556533316
 30
0.0
 10
275.0953589287128
 20
687.4138576372724
 30
0.0
 10
275.1057444320831
 20
687.4138596687917
 30
0.0
 10
275.1163343300359
 20
687.4138617402913
 30
0.0
 10
275.1275146436801
 20
687.4138638612594
 30
0.0
 10
275.1392848842716
 20
687.413865938669
 30
0.0
 10
275.151282318091
 20
687.4138680561773
 30
0.0
 10
275.1638926725955
 20
687.4138701284346
 30
0.0
 10
275.1771154168892
 20
687.4138720606306
 30
0.0
 10
275.190588580057
 20
687.4138740294211
 30
0.0
 10
275.2046975481408
 20
687.4138758527969
 30
0.0
 10
275.2194417572155
 20
687.4138774323882
 30
0.0
 10
275.234460038695
 20
687.4138790413444
 30
0.0
 10
275.2501373969881
 20
687.413880397371
 30
0.0
 10
275.2664731954374
 20
687.4138814040025
 30
0.0
 10
275.2831071474338
 20
687.4138824290066
 30
0.0
 10
275.300423794024
 20
687.4138830917436
 30
0.0
 10
275.3184214692737
 20
687.4138834488467
 30
0.0
 10
275.3367417817499
 20
687.4138838123508
 30
0.0
 10
275.3557677588087
 20
687.4138838591652
 30
0.0
 10
275.3754976641921
 20
687.4138836474267
 30
0.0
 10
275.3955750713085
 20
687.4138834319592
 30
0.0
 10
275.4163814216208
 20
687.413882948751
 30
0.0
 10
275.4379148725475
 20
687.4138822627974
 30
0.0
 10
275.4598210683361
 20
687.4138815649676
 30
0.0
 10
275.4824797548863
 20
687.4138806573137
 30
0.0
 10
275.5058889871543
 20
687.413879610126
 30
0.0
 10
275.5296965832549
 20
687.4138785451187
 30
0.0
 10
275.5542804870729
 20
687.4138773357899
 30
0.0
 10
275.579638651574
 20
687.4138760592086
 30
0.0
 10
275.6054211727223
 20
687.4138747612633
 30
0.0
 10
275.6320040851388
 20
687.4138733937971
 30
0.0
 10
275.6593852095138
 20
687.4138720369947
 30
0.0
 10
275.6872170555998
 20
687.413870657856
 30
0.0
 10
275.7158736087258
 20
687.4138692897359
 30
0.0
 10
275.7453526533664
 20
687.4138680301757
 30
0.0
 10
275.7753091568338
 20
687.4138667502148
 30
0.0
 10
275.8061150106296
 20
687.4138655823599
 30
0.0
 10
275.8377675398879
 20
687.4138645839466
 30
0.0
 10
275.8699245716471
 20
687.4138635696226
 30
0.0
 10
275.9029554838999
 20
687.4138627301845
 30
0.0
 10
275.9368565915774
 20
687.4138620209305
 30
0.0
 10
275.9712894598324
 20
687.4138613005525
 30
0.0
 10
276.0066200367564
 20
687.4138607144768
 30
0.0
 10
276.042844760399
 20
687.4138602161011
 30
0.0
 10
276.0796287735284
 20
687.4138597100318
 30
0.0
 10
276.1173347567674
 20
687.4138592943945
 30
0.0
 10
276.1559584278766
 20
687.4138589932145
 30
0.0
 10
276.1951691869199
 20
687.4138586874523
 30
0.0
 10
276.2353257439591
 20
687.4138584996553
 30
0.0
 10
276.2764256779701
 20
687.4138581673114
 30
0.0
 10
276.3849991971492
 20
687.4138572893562
 30
0.0
 10
276.5001561255376
 20
687.4138554026649
 30
0.0
 10
276.6218178992076
 20
687.4138514870728
 30
0.0
 10
276.7434736727355
 20
687.4138475716745
 30
0.0
 10
276.8716336499492
 20
687.4138416275782
 30
0.0
 10
277.0061970672196
 20
687.4138362248323
 30
0.0
 10
277.1407534877035
 20
687.4138308223692
 30
0.0
 10
277.2817126823502
 20
687.4138259612018
 30
0.0
 10
277.4289658105626
 20
687.4138284100181
 30
0.0
 10
277.5762116046517
 20
687.4138308587125
 30
0.0
 10
277.7297507053663
 20
687.4138406166593
 30
0.0
 10
277.8894752267697
 20
687.4138507198249
 30
0.0
 10
277.9158085165709
 20
687.4138523855044
 30
0.0
 10
277.9423099329179
 20
687.4138540605636
 30
0.0
 10
277.9689810147593
 20
687.4138547216825
 30
0.0
 10
278.0006087624715
 20
687.4138555056661
 30
0.0
 10
278.0324750982982
 20
687.4138548638157
 30
0.0
 10
278.0645772045136
 20
687.4138538521329
 30
0.0
 10
278.1017102771875
 20
687.4138526818978
 30
0.0
 10
278.139158809634
 20
687.4138510168286
 30
0.0
 10
278.1769211414085
 20
687.4138490349478
 30
0.0
 10
278.219799675293
 20
687.4138467845523
 30
0.0
 10
278.2630827983503
 20
687.41384412569
 30
0.0
 10
278.3067678029183
 20
687.4138414256576
 30
0.0
 10
278.3556652512925
 20
687.4138384034613
 30
0.0
 10
278.4050662068257
 20
687.4138353296875
 30
0.0
 10
278.4549674557275
 20
687.4138324494452
 30
0.0
 10
278.5101882181043
 20
687.4138292621673
 30
0.0
 10
278.5660216224078
 20
687.4138263118811
 30
0.0
 10
278.6224629952885
 20
687.4138238441755
 30
0.0
 10
278.6843416007232
 20
687.4138211387453
 30
0.0
 10
278.7469509531366
 20
687.4138190133571
 30
0.0
 10
278.8102869678259
 20
687.4138177085651
 30
0.0
 10
278.8791885095871
 20
687.4138162891158
 30
0.0
 10
278.948950032689
 20
687.4138158408195
 30
0.0
 10
279.0195582737269
 20
687.4138165547638
 30
0.0
 10
279.0958697631304
 20
687.4138173263773
 30
0.0
 10
279.1731702788184
 20
687.4138194555698
 30
0.0
 10
279.2514769092668
 20
687.4138222222482
 30
0.0
 10
279.335633958779
 20
687.413825195631
 30
0.0
 10
279.42095307604
 20
687.4138289053144
 30
0.0
 10
279.5073154158745
 20
687.4138327275186
 30
0.0
 10
279.5996782809252
 20
687.413836815298
 30
0.0
 10
279.6932343726858
 20
687.4138410317773
 30
0.0
 10
279.7884163735762
 20
687.4138435451741
 30
0.0
 10
279.8897776276699
 20
687.4138462217424
 30
0.0
 10
279.992982752874
 20
687.4138469669142
 30
0.0
 10
280.0961878780782
 20
687.4138477120868
 30
0.0
  0
SPLINE
  5
DF
330
70
100
AcDbEntity
  8
1
 62
     7
370
    35
100
AcDbSpline
210
0.0
220
0.0
230
1.0
 70
     8
 71
     3
 72
     8
 73
     4
 74
     0
 42
0.0000000001
 43
0.0000000001
 40
0.0
 40
0.0
 40
0.0
 40
0.0
 40
1.0
 40
1.0
 40
1.0
 40
1.0
 10
455.8052545066039
 20
689.8496881430946
 30
0.0
 10
445.3298894512645
 20
689.838335634261
 30
0.0
 10
434.8545336766765
 20
689.7788154211548
 30
0.0
 10
424.3791617828374
 20
689.6711271020076
 30
0.0
  0
SPLINE
  5
E0
330
70
100
AcDbEntity
  8
1
 62
     7
370
    35
100
AcDbSpline
210
0.0
220
0.0
230
1.0
 70
     8
 71
     3
 72
     8
 73
     4
 74
     0
 42
0.0000000001
 43
0.0000000001
 40
0.0
 40
0.0
 40
0.0
 40
0.0
 40
1.0
 40
1.0
 40
1.0
 40
1.0
 10
152.2186387894917
 20
689.8496860006517
 30
0.0
 10
162.6907038565214
 20
689.8383310291383
 30
0.0
 10
173.1627788346322
 20
689.7788388403596
 30
0.0
 10
183.6348686032197
 20
689.6712088938575
 30
0.0
  0
SPLINE
  5
E1
330
70
100
AcDbEntity
  8
1
 62
     7
370
    35
100
AcDbSpline
210
0.0
220
0.0
230
1.0
 70
     8
 71
     3
 72
    14
 73
    10
 74
     0
 42
0.0000000001
 43
0.0000000001
 40
0.0
 40
0.0
 40
0.0
 40
0.0
 40
1.0
 40
1.0
 40
1.0
 40
2.0
 40
2.0
 40
2.0
 40
3.0
 40
3.0
 40
3.0
 40
3.0
 10
274.6521391881342
 20
687.4990648508392
 30
0.0
 10
274.6526882414564
 20
687.4990712919416
 30
0.0
 10
274.6532372947804
 20
687.4990777330431
 30
0.0
 10
274.6549209038076
 20
687.4990807293752
 30
0.0
 10
274.6568776012082
 20
687.4990842117249
 30
0.0
 10
274.6603667639756
 20
687.4990830411597
 30
0.0
 10
274.6649951318395
 20
687.4990800457135
 30
0.0
 10
274.6666423123333
 20
687.4990789796693
 30
0.0
 10
274.6684337802799
 20
687.4990776824915
 30
0.0
 10
274.6703741651418
 20
687.4990761480521
 30
0.0
  0
SPLINE
  5
E2
330
70
100
AcDbEntity
  8
1
 62
     7
370
    35
100
AcDbSpline
210
0.0
220
0.0
230
1.0
 70
     8
 71
     3
 72
    17
 73
    13
 74
     0
 42
0.0000000001
 43
0.0000000001
 40
0.0
 40
0.0
 40
0.0
 40
0.0
 40
1.0
 40
1.0
 40
1.0
 40
2.0
 40
2.0
 40
2.0
 40
3.0
 40
3.0
 40
3.0
 40
4.0
 40
4.0
 40
4.0
 40
4.0
 10
279.8385933724694
 20
687.4966028432181
 30
0.0
 10
279.9402732372564
 20
687.4966020241163
 30
0.0
 10
280.0844158183354
 20
687.4965936564812
 30
0.0
 10
280.252464718229
 20
687.4965910412802
 30
0.0
 10
280.4205136181226
 20
687.4965884260791
 30
0.0
 10
280.6124688368309
 20
687.4965915633147
 30
0.0
 10
280.8104902318646
 20
687.4965907056439
 30
0.0
 10
281.0085116268965
 20
687.4965898479749
 30
0.0
 10
281.2125991982539
 20
687.4965849954015
 30
0.0
 10
281.3980134913836
 20
687.4965912956704
 30
0.0
 10
281.5834277845151
 20
687.4965975959367
 30
0.0
 10
281.7501687994209
 20
687.4966150490426
 30
0.0
 10
281.8747584807134
 20
687.4966160100529
 30
0.0
  0
INSERT
  5
E4
330
70
100
AcDbEntity
  8
1
100
AcDbBlockReference
  2
Block_0
 10
0.0
 20
0.0
 30
0.0
  0
INSERT
  5
E9
330
70
100
AcDbEntity
  8
1
100
AcDbBlockReference
  2
Block_1
 10
0.0
 20
0.0
 30
0.0
  0
INSERT
  5
EF
330
70
100
AcDbEntity
  8
1
100
AcDbBlockReference
  2
Block_2
 10
0.0
 20
0.0
 30
0.0
  0
INSERT
  5
F4
330
70
100
AcDbEntity
  8
1
100
AcDbBlockReference
  2
Block_3
 10
0.0
 20
0.0
 30
0.0
  0
INSERT
  5
FA
330
70
100
AcDbEntity
  8
1
100
AcDbBlockReference
  2
Block_4
 10
0.0
 20
0.0
 30
0.0
  0
INSERT
  5
100
330
70
100
AcDbEntity
  8
1
100
AcDbBlockReference
  2
Block_5
 10
0.0
 20
0.0
 30
0.0
  0
INSERT
  5
106
330
70
100
AcDbEntity
  8
1
100
AcDbBlockReference
  2
Block_6
 10
0.0
 20
0.0
 30
0.0
  0
INSERT
  5
10C
330
70
100
AcDbEntity
  8
1
100
AcDbBlockReference
  2
Block_7
 10
0.0
 20
0.0
 30
0.0
  0
INSERT
  5
111
330
70
100
AcDbEntity
  8
1
100
AcDbBlockReference
  2
Block_8
 10
0.0
 20
0.0
 30
0.0
  0
INSERT
  5
116
330
70
100
AcDbEntity
  8
1
100
AcDbBlockReference
  2
Block_9
 10
0.0
 20
0.0
 30
0.0
  0
LINE
  5
11B
330
70
100
AcDbEntity
  8
1
 62
     7
370
    15
100
AcDbLine
 10
111.5626523487772
 20
785.5954466492184
 30
0.0
 11
111.5626523487772
 21
688.2980380408071
 31
0.0
  0
MTEXT
  5
11C
330
70
100
AcDbEntity
  8
1
100
AcDbMText
 10
108.2075805664071
 20
726.7900390624991
 30
0.0
 40
0.2
 41
0.0
 46
0.0
 71
     7
 72
     1
  1
\C7;\FTramontina SmCd Titulos|b0|i0|c1;\H8.496000;\W1.000000;206
 11
0.0000000000000001
 21
1.0
 31
0.0
 73
     1
 44
1.0
  0
MTEXT
  5
11D
330
70
100
AcDbEntity
  8
1
100
AcDbMText
 10
507.076416015625
 20
477.448242187499
 30
0.0
 40
0.2
 41
0.0
 46
0.0
 71
     7
 72
     1
  1
\C7;\FTramontina SmCd Titulos|b0|i0|c1;\H8.496000;\W1.000000;203
 11
0.0000000000000001
 21
1.0
 31
0.0
 73
     1
 44
1.0
  0
MTEXT
  5
11E
330
70
100
AcDbEntity
  8
1
100
AcDbMText
 10
218.1962432861328
 20
565.0931854248047
 30
0.0
 40
0.2
 41
0.0
 46
0.0
 71
     7
 72
     1
  1
\C7;\FTramontina SmCd Titulos|b0|i0|c1;\H8.496000;\W1.000000;322
 73
     1
 44
1.0
  0
MTEXT
  5
11F
330
70
100
AcDbEntity
  8
1
100
AcDbMText
 10
132.7201538085937
 20
565.0931854248047
 30
0.0
 40
0.2
 41
0.0
 46
0.0
 71
     7
 72
     1
  1
\C7;\FTramontina SmCd Titulos|b0|i0|c1;\H8.496000;\W1.000000;55
 73
     1
 44
1.0
  0
MTEXT
  5
120
330
70
100
AcDbEntity
  8
1
100
AcDbMText
 10
160.115787245857
 20
478.2725269295042
 30
0.0
 40
0.2
 41
0.0
 46
0.0
 71
     7
 72
     1
  1
\C7;\FTramontina SmCd Titulos|b0|i0|c1;\H8.496000;\W1.000000;R 12
 11
0.6815560092743961
 21
-0.7317659504390455
 31
0.0
 73
     1
 44
1.0
  0
MTEXT
  5
121
330
70
100
AcDbEntity
  8
1
100
AcDbMText
 10
88.80979919433684
 20
519.423828124999
 30
0.0
 40
0.2
 41
0.0
 46
0.0
 71
     7
 72
     1
  1
\C7;\FTramontina SmCd Titulos|b0|i0|c1;\H8.496000;\W1.000000;41
 11
0.0000000000000001
 21
1.0
 31
0.0
 73
     1
 44
1.0
  0
MTEXT
  5
122
330
70
100
AcDbEntity
  8
1
100
AcDbMText
 10
62.68682098388763
 20
405.6953124999999
 30
0.0
 40
0.2
 41
0.0
 46
0.0
 71
     7
 72
     1
  1
\C7;\FTramontina SmCd Titulos|b0|i0|c1;\H8.496000;\W1.000000;510
 11
0.0000000000000001
 21
1.0
 31
0.0
 73
     1
 44
1.0
  0
MTEXT
  5
123
330
70
100
AcDbEntity
  8
1
100
AcDbMText
 10
88.96349334716887
 20
390.9306640625
 30
0.0
 40
0.2
 41
0.0
 46
0.0
 71
     7
 72
     1
  1
\C7;\FTramontina SmCd Titulos|b0|i0|c1;\H8.496000;\W1.000000;400
 11
0.0000000000000001
 21
1.0
 31
0.0
 73
     1
 44
1.0
  0
MTEXT
  5
124
330
70
100
AcDbEntity
  8
1
100
AcDbMText
 10
293.8532409667969
 20
268.3316955566406
 30
0.0
 40
0.2
 41
0.0
 46
0.0
 71
     7
 72
     1
  1
\C7;\FTramontina SmCd Titulos|b0|i0|c1;\H8.496000;\W1.000000;700
 73
     1
 44
1.0
  0
MTEXT
  5
125
330
70
100
AcDbEntity
  8
1
100
AcDbMText
 10
293.8532409667969
 20
244.5737609863281
 30
0.0
 40
0.2
 41
0.0
 46
0.0
 71
     7
 72
     1
  1
\C7;\FTramontina SmCd Titulos|b0|i0|c1;\H8.496000;\W1.000000;754
 73
     1
 44
1.0
  0
LINE
  5
126
330
70
100
AcDbEntity
  8
1
 62
     7
370
    18
100
AcDbLine
 10
510.3368745349471
 20
439.254357178087
 30
0.0
 11
510.3368745349471
 21
535.3415156498922
 31
0.0
  0
LINE
  5
127
330
70
100
AcDbEntity
  8
1
 62
     7
370
    18
100
AcDbLine
 10
151.8217524570636
 20
561.8092031777887
 30
0.0
 11
304.0109557424639
 21
561.8092031777887
 31
0.0
  0
LINE
  5
128
330
70
100
AcDbEntity
  8
1
 62
     7
370
    15
100
AcDbLine
 10
151.6944444444434
 20
561.8092031777887
 30
0.0
 11
126.0
 21
561.8092031777887
 31
0.0
  0
LINE
  5
129
330
70
100
AcDbEntity
  8
1
 62
     7
370
    18
100
AcDbLine
 10
151.8217524570636
 20
516.4360245585385
 30
0.0
 11
151.8217524570636
 21
564.1481481481487
 31
0.0
  0
LINE
  5
12A
330
70
100
AcDbEntity
  8
1
 62
     7
370
    18
100
AcDbLine
 10
92.74209279658226
 20
535.25925925926
 30
0.0
 11
92.74209279658226
 21
516.0740740740748
 31
0.0
  0
LINE
  5
12B
330
70
100
AcDbEntity
  8
1
 62
     7
370
    18
100
AcDbLine
 10
66.27440526868577
 20
294.4243979907242
 30
0.0
 11
66.27440526868577
 21
535.4694094054893
 31
0.0
  0
LINE
  5
12C
330
70
100
AcDbEntity
  8
1
 62
     7
370
    18
100
AcDbLine
 10
92.74209279658226
 20
306.9405608892957
 30
0.0
 11
92.74209279658226
 21
495.9954718028402
 31
0.0
  0
LINE
  5
12D
330
70
100
AcDbEntity
  8
1
 62
     7
370
    18
100
AcDbLine
 10
469.5555555555547
 20
264.5203557662498
 30
0.0
 11
138.4662198843834
 21
264.5203557662498
 31
0.0
  0
LINE
  5
12E
330
70
100
AcDbEntity
  8
1
 62
     7
370
    18
100
AcDbLine
 10
482.1952092784759
 20
241.361129179335
 30
0.0
 11
125.8267022064519
 21
241.361129179335
 31
0.0
  0
ENDSEC
  0
SECTION
  2
OBJECTS
  0
DICTIONARY
  5
C
330
0
100
AcDbDictionary
281
     1
  3
ACAD_COLOR
350
63
  3
ACAD_DETAILVIEWSTYLE
350
6A
  3
ACAD_GROUP
350
D
  3
ACAD_LAYOUT
350
62
  3
ACAD_MATERIAL
350
10
  3
ACAD_MLEADERSTYLE
350
66
  3
ACAD_MLINESTYLE
350
5F
  3
ACAD_PLOTSETTINGS
350
61
  3
ACAD_PLOTSTYLENAME
350
E
  3
ACAD_SCALELIST
350
42
  3
ACAD_SECTIONVIEWSTYLE
350
68
  3
ACAD_TABLESTYLE
350
64
  3
ACAD_VISUALSTYLE
350
29
  3
ACDB_RECOMPOSE_DATA
350
137
  3
AcDbVariableDictionary
350
12F
  0
DICTIONARY
  5
63
102
{ACAD_REACTORS
330
C
102
}
330
C
100
AcDbDictionary
281
     1
  0
DICTIONARY
  5
6A
102
{ACAD_REACTORS
330
C
102
}
330
C
100
AcDbDictionary
281
     1
  3
Imperial24
350
6B
  0
DICTIONARY
  5
D
102
{ACAD_REACTORS
330
C
102
}
330
C
100
AcDbDictionary
281
     1
  0
DICTIONARY
  5
62
102
{ACAD_REACTORS
330
C
102
}
330
C
100
AcDbDictionary
281
     1
  3
Layout1
350
6F
  3
Layout2
350
77
  3
Model
350
73
  0
DICTIONARY
  5
10
102
{ACAD_REACTORS
330
C
102
}
330
C
100
AcDbDictionary
281
     1
  3
ByBlock
350
19
  3
ByLayer
350
11
  3
Global
350
21
  0
DICTIONARY
  5
66
102
{ACAD_REACTORS
330
C
102
}
330
C
100
AcDbDictionary
281
     1
  3
Standard
350
67
  0
DICTIONARY
  5
5F
102
{ACAD_REACTORS
330
C
102
}
330
C
100
AcDbDictionary
281
     1
  3
Standard
350
60
  0
DICTIONARY
  5
61
102
{ACAD_REACTORS
330
C
102
}
330
C
100
AcDbDictionary
281
     1
  0
ACDBDICTIONARYWDFLT
  5
E
102
{ACAD_REACTORS
330
C
102
}
330
C
100
AcDbDictionary
281
     1
  3
Normal
350
F
100
AcDbDictionaryWithDefault
340
F
  0
DICTIONARY
  5
42
102
{ACAD_REACTORS
330
C
102
}
330
C
100
AcDbDictionary
281
     1
  3
A0
350
43
  3
A1
350
44
  3
A2
350
45
  3
A3
350
46
  3
A4
350
47
  3
A5
350
48
  3
A6
350
49
  3
A7
350
4A
  3
A8
350
4B
  3
A9
350
4C
  3
B0
350
4D
  3
B1
350
4E
  3
B2
350
4F
  3
B3
350
50
  3
B4
350
51
  3
B5
350
52
  3
B6
350
53
  0
DICTIONARY
  5
68
102
{ACAD_REACTORS
330
C
102
}
330
C
100
AcDbDictionary
281
     1
  3
Imperial24
350
69
  0
DICTIONARY
  5
64
102
{ACAD_REACTORS
330
C
102
}
330
C
100
AcDbDictionary
281
     1
  3
Standard
350
65
  0
DICTIONARY
  5
29
102
{ACAD_REACTORS
330
C
102
}
330
C
100
AcDbDictionary
281
     1
  3
2dWireframe
350
2F
  3
Basic
350
2E
  3
Brighten
350
35
  3
ColorChange
350
39
  3
Conceptual
350
32
  3
Dim
350
34
  3
EdgeColorOff
350
41
  3
Facepattern
350
38
  3
Flat
350
2A
  3
FlatWithEdges
350
2B
  3
Gouraud
350
2C
  3
GouraudWithEdges
350
2D
  3
Hidden
350
31
  3
JitterOff
350
3F
  3
Linepattern
350
37
  3
OverhangOff
350
40
  3
Realistic
350
33
  3
Shaded
350
3E
  3
Shaded with edges
350
3D
  3
Shades of Gray
350
3A
  3
Sketchy
350
3B
  3
Thicken
350
36
  3
Wireframe
350
30
  3
X-Ray
350
3C
  0
XRECORD
  5
137
102
{ACAD_REACTORS
330
C
102
}
330
C
100
AcDbXrecord
280
     1
 90
        1
330
65
  0
DICTIONARY
  5
12F
102
{ACAD_REACTORS
330
C
102
}
330
C
100
AcDbDictionary
281
     1
  3
CANNOSCALE
350
134
  3
CMLEADERSTYLE
350
131
  3
CTABLESTYLE
350
130
  3
CVIEWDETAILSTYLE
350
132
  3
CVIEWSECTIONSTYLE
350
133
  0
ACDBDETAILVIEWSTYLE
  5
6B
102
{ACAD_REACTORS
330
6A
102
}
330
6A
100
AcDbModelDocViewStyle
 70
     0
  3
Imperial24
290
     1
300
Imperial24
 90
        0
100
AcDbDetailViewStyle
 70
     0
 71
     0
 90
        3
 71
     1
340
55
 62
   256
 40
0.24
340
0
 62
   256
 40
0.24
300

 40
0.36
280
     3
 71
     2
340
5D
 90
       25
 62
   256
 71
     3
340
55
 62
   256
 40
0.24
 90
        1
 40
0.75
 90
        1
300
%<\AcVar ViewType \f "%tc1">% %<\AcVar ViewDetailId>%\PSCALE %<\AcVar ViewScale \f "%sn">%
 71
     4
340
5D
 90
       25
 62
   256
340
5D
 90
       25
 62
   256
280
     0
  0
LAYOUT
  5
6F
102
{ACAD_REACTORS
330
62
102
}
330
62
100
AcDbPlotSettings
  1

  2

  4

  6

 40
0.0
 41
0.0
 42
0.0
 43
0.0
 44
0.0
 45
0.0
 46
0.0
 47
0.0
 48
0.0
 49
0.0
140
0.0
141
0.0
142
1.0
143
1.0
 70
   688
 72
     0
 73
     0
 74
     5
  7

 75
    16
147
1.0
 76
     0
 77
     2
 78
   300
148
0.0
149
0.0
100
AcDbLayout
  1
Layout1
 70
     1
 71
     1
 10
0.0
 20
0.0
 11
12.0
 21
9.0
 12
0.0
 22
0.0
 32
0.0
 14
0.0
 24
0.0
 34
0.0
 15
0.0
 25
0.0
 35
0.0
146
0.0
 13
0.0
 23
0.0
 33
0.0
 16
1.0
 26
0.0
 36
0.0
 17
0.0
 27
1.0
 37
0.0
 76
     0
330
6C
  0
LAYOUT
  5
77
102
{ACAD_REACTORS
330
62
102
}
330
62
100
AcDbPlotSettings
  1

  2

  4

  6

 40
0.0
 41
0.0
 42
0.0
 43
0.0
 44
0.0
 45
0.0
 46
0.0
 47
0.0
 48
0.0
 49
0.0
140
0.0
141
0.0
142
1.0
143
1.0
 70
   688
 72
     0
 73
     0
 74
     5
  7

 75
    16
147
1.0
 76
     0
 77
     2
 78
   300
148
0.0
149
0.0
100
AcDbLayout
  1
Layout2
 70
     1
 71
     2
 10
0.0
 20
0.0
 11
12.0
 21
9.0
 12
0.0
 22
0.0
 32
0.0
 14
0.0
 24
0.0
 34
0.0
 15
0.0
 25
0.0
 35
0.0
146
0.0
 13
0.0
 23
0.0
 33
0.0
 16
1.0
 26
0.0
 36
0.0
 17
0.0
 27
1.0
 37
0.0
 76
     0
330
74
  0
LAYOUT
  5
73
102
{ACAD_REACTORS
330
62
102
}
330
62
100
AcDbPlotSettings
  1

  2

  4

  6

 40
0.0
 41
0.0
 42
0.0
 43
0.0
 44
0.0
 45
0.0
 46
0.0
 47
0.0
 48
0.0
 49
0.0
140
0.0
141
0.0
142
1.0
143
1.0
 70
  1712
 72
     0
 73
     0
 74
     0
  7

 75
     0
147
1.0
 76
     0
 77
     2
 78
   300
148
0.0
149
0.0
100
AcDbLayout
  1
Model
 70
     1
 71
     0
 10
0.0
 20
0.0
 11
12.0
 21
9.0
 12
0.0
 22
0.0
 32
0.0
 14
0.0
 24
0.0
 34
0.0
 15
0.0
 25
0.0
 35
0.0
146
0.0
 13
0.0
 23
0.0
 33
0.0
 16
1.0
 26
0.0
 36
0.0
 17
0.0
 27
1.0
 37
0.0
 76
     0
330
70
  0
MATERIAL
  5
19
102
{ACAD_XDICTIONARY
360
1A
102
}
102
{ACAD_REACTORS
330
10
102
}
330
10
100
AcDbMaterial
  1
ByBlock
 72
     0
 43
0.0208333333333333
 43
0.0
 43
0.0
 43
0.0
 43
0.0
 43
0.0208333333333333
 43
0.0
 43
0.0
 43
0.0
 43
0.0
 43
1.0
 43
0.0
 43
0.0
 43
0.0
 43
0.0
 43
1.0
 77
     0
 47
0.0208333333333333
 47
0.0
 47
0.0
 47
0.0
 47
0.0
 47
0.0208333333333333
 47
0.0
 47
0.0
 47
0.0
 47
0.0
 47
1.0
 47
0.0
 47
0.0
 47
0.0
 47
0.0
 47
1.0
171
     0
 49
0.0208333333333333
 49
0.0
 49
0.0
 49
0.0
 49
0.0
 49
0.0208333333333333
 49
0.0
 49
0.0
 49
0.0
 49
0.0
 49
1.0
 49
0.0
 49
0.0
 49
0.0
 49
0.0
 49
1.0
175
     0
142
0.0208333333333333
142
0.0
142
0.0
142
0.0
142
0.0
142
0.0208333333333333
142
0.0
142
0.0
142
0.0
142
0.0
142
1.0
142
0.0
142
0.0
142
0.0
142
0.0
142
1.0
179
     0
144
0.0208333333333333
144
0.0
144
0.0
144
0.0
144
0.0
144
0.0208333333333333
144
0.0
144
0.0
144
0.0
144
0.0
144
1.0
144
0.0
144
0.0
144
0.0
144
0.0
144
1.0
147
0.0208333333333333
147
0.0
147
0.0
147
0.0
147
0.0
147
0.0208333333333333
147
0.0
147
0.0
147
0.0
147
0.0
147
1.0
147
0.0
147
0.0
147
0.0
147
0.0
147
1.0
  0
MATERIAL
  5
11
102
{ACAD_XDICTIONARY
360
12
102
}
102
{ACAD_REACTORS
330
10
102
}
330
10
100
AcDbMaterial
  1
ByLayer
 72
     0
 43
0.0208333333333333
 43
0.0
 43
0.0
 43
0.0
 43
0.0
 43
0.0208333333333333
 43
0.0
 43
0.0
 43
0.0
 43
0.0
 43
1.0
 43
0.0
 43
0.0
 43
0.0
 43
0.0
 43
1.0
 77
     0
 47
0.0208333333333333
 47
0.0
 47
0.0
 47
0.0
 47
0.0
 47
0.0208333333333333
 47
0.0
 47
0.0
 47
0.0
 47
0.0
 47
1.0
 47
0.0
 47
0.0
 47
0.0
 47
0.0
 47
1.0
171
     0
 49
0.0208333333333333
 49
0.0
 49
0.0
 49
0.0
 49
0.0
 49
0.0208333333333333
 49
0.0
 49
0.0
 49
0.0
 49
0.0
 49
1.0
 49
0.0
 49
0.0
 49
0.0
 49
0.0
 49
1.0
175
     0
142
0.0208333333333333
142
0.0
142
0.0
142
0.0
142
0.0
142
0.0208333333333333
142
0.0
142
0.0
142
0.0
142
0.0
142
1.0
142
0.0
142
0.0
142
0.0
142
0.0
142
1.0
179
     0
144
0.0208333333333333
144
0.0
144
0.0
144
0.0
144
0.0
144
0.0208333333333333
144
0.0
144
0.0
144
0.0
144
0.0
144
1.0
144
0.0
144
0.0
144
0.0
144
0.0
144
1.0
147
0.0208333333333333
147
0.0
147
0.0
147
0.0
147
0.0
147
0.0208333333333333
147
0.0
147
0.0
147
0.0
147
0.0
147
1.0
147
0.0
147
0.0
147
0.0
147
0.0
147
1.0
  0
MATERIAL
  5
21
102
{ACAD_XDICTIONARY
360
22
102
}
102
{ACAD_REACTORS
330
10
102
}
330
10
100
AcDbMaterial
  1
Global
 72
     0
 43
0.0208333333333333
 43
0.0
 43
0.0
 43
0.0
 43
0.0
 43
0.0208333333333333
 43
0.0
 43
0.0
 43
0.0
 43
0.0
 43
1.0
 43
0.0
 43
0.0
 43
0.0
 43
0.0
 43
1.0
 77
     0
 47
0.0208333333333333
 47
0.0
 47
0.0
 47
0.0
 47
0.0
 47
0.0208333333333333
 47
0.0
 47
0.0
 47
0.0
 47
0.0
 47
1.0
 47
0.0
 47
0.0
 47
0.0
 47
0.0
 47
1.0
171
     0
 49
0.0208333333333333
 49
0.0
 49
0.0
 49
0.0
 49
0.0
 49
0.0208333333333333
 49
0.0
 49
0.0
 49
0.0
 49
0.0
 49
1.0
 49
0.0
 49
0.0
 49
0.0
 49
0.0
 49
1.0
175
     0
142
0.0208333333333333
142
0.0
142
0.0
142
0.0
142
0.0
142
0.0208333333333333
142
0.0
142
0.0
142
0.0
142
0.0
142
1.0
142
0.0
142
0.0
142
0.0
142
0.0
142
1.0
179
     0
144
0.0208333333333333
144
0.0
144
0.0
144
0.0
144
0.0
144
0.0208333333333333
144
0.0
144
0.0
144
0.0
144
0.0
144
1.0
144
0.0
144
0.0
144
0.0
144
0.0
144
1.0
147
0.0208333333333333
147
0.0
147
0.0
147
0.0
147
0.0
147
0.0208333333333333
147
0.0
147
0.0
147
0.0
147
0.0
147
1.0
147
0.0
147
0.0
147
0.0
147
0.0
147
1.0
  0
MLEADERSTYLE
  5
67
102
{ACAD_REACTORS
330
66
102
}
330
66
100
AcDbMLeaderStyle
179
     2
170
     2
171
     1
172
     0
 90
        2
 40
0.0
 41
0.0
173
     1
 91
-1056964608
340
5B
 92
       -2
290
     1
 42
0.09
291
     1
 43
0.36
  3
Standard
 44
0.18
300

342
55
174
     1
178
     6
175
     1
176
     0
 93
-1056964608
 45
0.18
292
     0
297
     0
 46
0.18
 94
-1056964608
 47
1.0
 49
1.0
140
1.0
293
     1
141
0.0
294
     1
177
     0
142
1.0
295
     1
296
     0
143
0.125
271
     0
272
     9
273
     9
298
     1
  0
MLINESTYLE
  5
60
102
{ACAD_REACTORS
330
5F
102
}
330
5F
100
AcDbMlineStyle
  2
STANDARD
 70
     0
  3

 62
   256
 51
90.0
 52
90.0
 71
     2
 49
0.5
 62
   256
  6
BYLAYER
 49
-0.5
 62
   256
  6
BYLAYER
  0
ACDBPLACEHOLDER
  5
F
102
{ACAD_REACTORS
330
E
102
}
330
E
  0
SCALE
  5
43
102
{ACAD_REACTORS
330
42
102
}
330
42
100
AcDbScale
 70
     0
300
1:1
140
1.0
141
1.0
290
     1
  0
SCALE
  5
44
102
{ACAD_REACTORS
330
42
102
}
330
42
100
AcDbScale
 70
     0
300
1/128" = 1'-0"
140
0.0078125
141
12.0
290
     0
  0
SCALE
  5
45
102
{ACAD_REACTORS
330
42
102
}
330
42
100
AcDbScale
 70
     0
300
1/64" = 1'-0"
140
0.015625
141
12.0
290
     0
  0
SCALE
  5
46
102
{ACAD_REACTORS
330
42
102
}
330
42
100
AcDbScale
 70
     0
300
1/32" = 1'-0"
140
0.03125
141
12.0
290
     0
  0
SCALE
  5
47
102
{ACAD_REACTORS
330
42
102
}
330
42
100
AcDbScale
 70
     0
300
1/16" = 1'-0"
140
0.0625
141
12.0
290
     0
  0
SCALE
  5
48
102
{ACAD_REACTORS
330
42
102
}
330
42
100
AcDbScale
 70
     0
300
3/32" = 1'-0"
140
0.09375
141
12.0
290
     0
  0
SCALE
  5
49
102
{ACAD_REACTORS
330
42
102
}
330
42
100
AcDbScale
 70
     0
300
1/8" = 1'-0"
140
0.125
141
12.0
290
     0
  0
SCALE
  5
4A
102
{ACAD_REACTORS
330
42
102
}
330
42
100
AcDbScale
 70
     0
300
3/16" = 1'-0"
140
0.1875
141
12.0
290
     0
  0
SCALE
  5
4B
102
{ACAD_REACTORS
330
42
102
}
330
42
100
AcDbScale
 70
     0
300
1/4" = 1'-0"
140
0.25
141
12.0
290
     0
  0
SCALE
  5
4C
102
{ACAD_REACTORS
330
42
102
}
330
42
100
AcDbScale
 70
     0
300
3/8" = 1'-0"
140
0.375
141
12.0
290
     0
  0
SCALE
  5
4D
102
{ACAD_REACTORS
330
42
102
}
330
42
100
AcDbScale
 70
     0
300
1/2" = 1'-0"
140
0.5
141
12.0
290
     0
  0
SCALE
  5
4E
102
{ACAD_REACTORS
330
42
102
}
330
42
100
AcDbScale
 70
     0
300
3/4" = 1'-0"
140
0.75
141
12.0
290
     0
  0
SCALE
  5
4F
102
{ACAD_REACTORS
330
42
102
}
330
42
100
AcDbScale
 70
     0
300
1" = 1'-0"
140
1.0
141
12.0
290
     0
  0
SCALE
  5
50
102
{ACAD_REACTORS
330
42
102
}
330
42
100
AcDbScale
 70
     0
300
1-1/2" = 1'-0"
140
1.5
141
12.0
290
     0
  0
SCALE
  5
51
102
{ACAD_REACTORS
330
42
102
}
330
42
100
AcDbScale
 70
     0
300
3" = 1'-0"
140
3.0
141
12.0
290
     0
  0
SCALE
  5
52
102
{ACAD_REACTORS
330
42
102
}
330
42
100
AcDbScale
 70
     0
300
6" = 1'-0"
140
6.0
141
12.0
290
     0
  0
SCALE
  5
53
102
{ACAD_REACTORS
330
42
102
}
330
42
100
AcDbScale
 70
     0
300
1'-0" = 1'-0"
140
12.0
141
12.0
290
     0
  0
ACDBSECTIONVIEWSTYLE
  5
69
102
{ACAD_REACTORS
330
68
102
}
330
68
100
AcDbModelDocViewStyle
 70
     0
  3
Imperial24
290
     1
300
Imperial24
 90
        0
100
AcDbSectionViewStyle
 70
     0
 71
     0
 90
       78
 71
     1
340
55
 62
   256
 40
0.24
340
0
340
0
 62
   256
 40
0.24
300
I, O, Q, S, X, Z
 40
0.48
 90
        3
 40
0.18
 90
        1
 71
     2
340
5D
 90
       25
 62
   256
340
5D
 90
       50
 62
   256
 40
0.24
 40
0.0
 40
0.24
 71
     3
340
55
 62
   256
 40
0.24
 90
        1
 40
0.75
 90
        1
300
%<\AcVar ViewType \f "%tc1">% %<\AcVar ViewSectionStartId>%-%<\AcVar ViewSectionEndId>%\PSCALE %<\AcVar ViewScale \f "%sn">%
 71
     4
 62
   256
 62
   257
300
ANSI31
 40
1.0
 90
        0
290
     0
290
     0
 90
        6
 40
0.0
 40
1.570796326794896
 40
0.2617993877991494
 40
1.308996938995747
 40
-0.2617993877991494
 40
1.832595714594046
  0
TABLESTYLE
  5
65
102
{ACAD_XDICTIONARY
360
135
102
}
102
{ACAD_REACTORS
330
64
102
}
330
64
100
AcDbTableStyle
280
     0
  3
Standard
 70
     0
 71
     0
 40
0.06
 41
0.06
280
     0
281
     0
  7
Standard
140
0.18
170
     2
 62
     0
 63
     7
283
     0
 90
      512
 91
        0
  1

274
    -2
284
     1
 64
     0
275
    -2
285
     1
 65
     0
276
    -2
286
     1
 66
     0
277
    -2
287
     1
 67
     0
278
    -2
288
     1
 68
     0
279
    -2
289
     1
 69
     0
  7
Standard
140
0.25
170
     5
 62
     0
 63
     7
283
     0
 90
      512
 91
        0
  1

274
    -2
284
     1
 64
     0
275
    -2
285
     1
 65
     0
276
    -2
286
     1
 66
     0
277
    -2
287
     1
 67
     0
278
    -2
288
     1
 68
     0
279
    -2
289
     1
 69
     0
  7
Standard
140
0.18
170
     5
 62
     0
 63
     7
283
     0
 90
      512
 91
        0
  1

274
    -2
284
     1
 64
     0
275
    -2
285
     1
 65
     0
276
    -2
286
     1
 66
     0
277
    -2
287
     1
 67
     0
278
    -2
288
     1
 68
     0
279
    -2
289
     1
 69
     0
  0
VISUALSTYLE
  5
2F
102
{ACAD_REACTORS
330
29
102
}
330
29
100
AcDbVisualStyle
  2
2dWireframe
 70
     4
177
     3
291
     0
 70
    58
 90
        0
176
     1
 90
        2
176
     1
 90
        0
176
     1
 90
        0
176
     1
 40
0.6
176
     1
 40
30.0
176
     1
 62
     7
420
 16777215
176
     1
 90
        1
176
     1
 90
        4
176
     1
 62
     7
176
     1
 62
   257
176
     1
 90
        1
176
     1
 90
        1
176
     1
 40
1.0
176
     1
 90
        0
176
     1
 62
   257
176
     1
 40
1.0
176
     1
 90
        1
176
     1
 90
        6
176
     1
 90
        2
176
     1
 62
     7
176
     1
 90
        5
176
     1
 90
        0
176
     1
 90
        0
176
     1
290
     0
176
     1
 90
        1
176
     1
 40
0.0
176
     1
 90
        0
176
     1
290
     1
176
     1
290
     1
176
     1
290
     0
176
     1
290
     0
176
     1
290
     0
176
     1
290
     0
176
     1
290
     0
176
     1
290
     0
176
     1
290
     0
176
     1
 90
       50
176
     1
 40
0.0
176
     1
 40
1.0
176
     1
 90
        0
176
     1
 62
    18
420
        0
176
     1
 90
       50
176
     1
 90
        3
176
     1
 62
     5
420
      255
176
     1
290
     0
176
     1
 90
       50
176
     1
 90
       50
176
     1
 90
       50
176
     1
290
     0
176
     1
 90
       50
176
     1
 62
   256
176
     0
 40
1.0
176
     0
 90
        2
176
     1
  1
strokes_ogs.tif
176
     1
290
     0
176
     1
 40
1.0
176
     1
 40
1.0
176
     1
  0
VISUALSTYLE
  5
2E
102
{ACAD_REACTORS
330
29
102
}
330
29
100
AcDbVisualStyle
  2
Basic
 70
     7
177
     3
291
     1
 70
    58
 90
        1
176
     1
 90
        0
176
     1
 90
        1
176
     1
 90
        0
176
     1
 40
0.6
176
     1
 40
30.0
176
     1
 62
     7
420
 16777215
176
     1
 90
        0
176
     1
 90
        4
176
     1
 62
     7
176
     1
 62
   257
176
     1
 90
        1
176
     1
 90
        1
176
     1
 40
1.0
176
     1
 90
        8
176
     1
 62
     7
176
     1
 40
1.0
176
     1
 90
        1
176
     1
 90
        6
176
     1
 90
        2
176
     1
 62
     7
176
     1
 90
        5
176
     1
 90
        0
176
     1
 90
        0
176
     1
290
     0
176
     1
 90
        1
176
     1
 40
0.0
176
     1
 90
        0
176
     1
290
     0
176
     1
290
     1
176
     1
290
     1
176
     1
290
     0
176
     1
290
     0
176
     1
290
     0
176
     1
290
     0
176
     1
290
     0
176
     1
290
     0
176
     1
 90
       50
176
     1
 40
0.0
176
     1
 40
1.0
176
     1
 90
        0
176
     1
 62
    18
420
        0
176
     1
 90
       50
176
     1
 90
        3
176
     1
 62
     5
420
      255
176
     1
290
     0
176
     1
 90
       50
176
     1
 90
       50
176
     1
 90
       50
176
     1
290
     0
176
     1
 90
       50
176
     1
 62
   256
176
     0
 40
1.0
176
     0
 90
        2
176
     1
  1
strokes_ogs.tif
176
     1
290
     0
176
     1
 40
1.0
176
     1
 40
1.0
176
     1
  0
VISUALSTYLE
  5
35
102
{ACAD_REACTORS
330
29
102
}
330
29
100
AcDbVisualStyle
  2
Brighten
 70
    12
177
     3
291
     1
 70
    58
 90
        2
176
     1
 90
        2
176
     1
 90
        0
176
     1
 90
        0
176
     1
 40
0.6
176
     1
 40
30.0
176
     1
 62
     7
420
 16777215
176
     1
 90
        1
176
     1
 90
        4
176
     1
 62
     7
176
     1
 62
   257
176
     1
 90
        1
176
     1
 90
        1
176
     1
 40
1.0
176
     1
 90
        8
176
     1
 62
     7
176
     1
 40
1.0
176
     1
 90
        1
176
     1
 90
        6
176
     1
 90
        2
176
     1
 62
     7
176
     1
 90
        5
176
     1
 90
        0
176
     1
 90
        0
176
     1
290
     0
176
     1
 90
        1
176
     1
 40
50.0
176
     1
 90
        0
176
     1
290
     0
176
     1
290
     1
176
     1
290
     1
176
     1
290
     0
176
     1
290
     0
176
     1
290
     0
176
     1
290
     0
176
     1
290
     0
176
     1
290
     0
176
     1
 90
       50
176
     1
 40
0.0
176
     1
 40
1.0
176
     1
 90
        0
176
     1
 62
    18
420
        0
176
     1
 90
       50
176
     1
 90
        3
176
     1
 62
     5
420
      255
176
     1
290
     0
176
     1
 90
       50
176
     1
 90
       50
176
     1
 90
       50
176
     1
290
     0
176
     1
 90
       50
176
     1
 62
   256
176
     0
 40
1.0
176
     0
 90
        2
176
     1
  1
strokes_ogs.tif
176
     1
290
     0
176
     1
 40
1.0
176
     1
 40
1.0
176
     1
  0
VISUALSTYLE
  5
39
102
{ACAD_REACTORS
330
29
102
}
330
29
100
AcDbVisualStyle
  2
ColorChange
 70
    16
177
     3
291
     1
 70
    58
 90
        2
176
     1
 90
        2
176
     1
 90
        3
176
     1
 90
        0
176
     1
 40
0.6
176
     1
 40
30.0
176
     1
 62
     8
420
  8421504
176
     1
 90
        1
176
     1
 90
        4
176
     1
 62
     7
176
     1
 62
   257
176
     1
 90
        1
176
     1
 90
        1
176
     1
 40
1.0
176
     1
 90
        8
176
     1
 62
     8
420
  8421504
176
     1
 40
1.0
176
     1
 90
        1
176
     1
 90
        6
176
     1
 90
        2
176
     1
 62
     7
176
     1
 90
        5
176
     1
 90
        0
176
     1
 90
        0
176
     1
290
     0
176
     1
 90
        1
176
     1
 40
0.0
176
     1
 90
        0
176
     1
290
     0
176
     1
290
     1
176
     1
290
     1
176
     1
290
     0
176
     1
290
     0
176
     1
290
     0
176
     1
290
     0
176
     1
290
     0
176
     1
290
     0
176
     1
 90
       50
176
     1
 40
0.0
176
     1
 40
1.0
176
     1
 90
        0
176
     1
 62
    18
420
        0
176
     1
 90
       50
176
     1
 90
        3
176
     1
 62
     5
420
      255
176
     1
290
     0
176
     1
 90
       50
176
     1
 90
       50
176
     1
 90
       50
176
     1
290
     0
176
     1
 90
       50
176
     1
 62
   256
176
     0
 40
1.0
176
     0
 90
        2
176
     1
  1
strokes_ogs.tif
176
     1
290
     0
176
     1
 40
1.0
176
     1
 40
1.0
176
     1
  0
VISUALSTYLE
  5
32
102
{ACAD_REACTORS
330
29
102
}
330
29
100
AcDbVisualStyle
  2
Conceptual
 70
     9
177
     3
291
     0
 70
    58
 90
        3
176
     1
 90
        2
176
     1
 90
        0
176
     1
 90
        0
176
     1
 40
0.6
176
     1
 40
30.0
176
     1
 62
     7
420
 16777215
176
     1
 90
        2
176
     1
 90
        2
176
     1
 62
     7
176
     1
 62
   257
176
     1
 90
        1
176
     1
 90
        1
176
     1
 40
179.0
176
     1
 90
        8
176
     1
 62
     7
176
     1
 40
1.0
176
     1
 90
        1
176
     1
 90
        6
176
     1
 90
        2
176
     1
 62
     7
176
     1
 90
        3
176
     1
 90
        0
176
     1
 90
        0
176
     1
290
     0
176
     1
 90
        1
176
     1
 40
0.0
176
     1
 90
        0
176
     1
290
     0
176
     1
290
     1
176
     1
290
     1
176
     1
290
     0
176
     1
290
     0
176
     1
290
     0
176
     1
290
     0
176
     1
290
     0
176
     1
290
     0
176
     1
 90
       50
176
     1
 40
0.0
176
     1
 40
1.0
176
     1
 90
        0
176
     1
 62
    18
420
        0
176
     1
 90
       50
176
     1
 90
        3
176
     1
 62
     5
420
      255
176
     1
290
     0
176
     1
 90
       50
176
     1
 90
       50
176
     1
 90
       50
176
     1
290
     0
176
     1
 90
       50
176
     1
 62
   256
176
     0
 40
1.0
176
     0
 90
        2
176
     1
  1
strokes_ogs.tif
176
     1
290
     0
176
     1
 40
1.0
176
     1
 40
1.0
176
     1
  0
VISUALSTYLE
  5
34
102
{ACAD_REACTORS
330
29
102
}
330
29
100
AcDbVisualStyle
  2
Dim
 70
    11
177
     3
291
     1
 70
    58
 90
        2
176
     1
 90
        2
176
     1
 90
        0
176
     1
 90
        0
176
     1
 40
0.6
176
     1
 40
30.0
176
     1
 62
     7
420
 16777215
176
     1
 90
        1
176
     1
 90
        4
176
     1
 62
     7
176
     1
 62
   257
176
     1
 90
        1
176
     1
 90
        1
176
     1
 40
1.0
176
     1
 90
        8
176
     1
 62
     7
176
     1
 40
1.0
176
     1
 90
        1
176
     1
 90
        6
176
     1
 90
        2
176
     1
 62
     7
176
     1
 90
        5
176
     1
 90
        0
176
     1
 90
        0
176
     1
290
     0
176
     1
 90
        1
176
     1
 40
-50.0
176
     1
 90
        0
176
     1
290
     0
176
     1
290
     1
176
     1
290
     1
176
     1
290
     0
176
     1
290
     0
176
     1
290
     0
176
     1
290
     0
176
     1
290
     0
176
     1
290
     0
176
     1
 90
       50
176
     1
 40
0.0
176
     1
 40
1.0
176
     1
 90
        0
176
     1
 62
    18
420
        0
176
     1
 90
       50
176
     1
 90
        3
176
     1
 62
     5
420
      255
176
     1
290
     0
176
     1
 90
       50
176
     1
 90
       50
176
     1
 90
       50
176
     1
290
     0
176
     1
 90
       50
176
     1
 62
   256
176
     0
 40
1.0
176
     0
 90
        2
176
     1
  1
strokes_ogs.tif
176
     1
290
     0
176
     1
 40
1.0
176
     1
 40
1.0
176
     1
  0
VISUALSTYLE
  5
41
102
{ACAD_REACTORS
330
29
102
}
330
29
100
AcDbVisualStyle
  2
EdgeColorOff
 70
    22
177
     3
291
     1
 70
    58
 90
        2
176
     0
 90
        2
176
     0
 90
        0
176
     0
 90
        0
176
     0
 40
0.6
176
     0
 40
30.0
176
     0
 62
     7
420
 16777215
176
     0
 90
        1
176
     0
 90
        4
176
     0
 62
     7
176
     0
 62
   257
176
     0
 90
        1
176
     0
 90
        1
176
     0
 40
1.0
176
     0
 90
        8
176
     2
 62
     7
176
     0
 40
1.0
176
     0
 90
        1
176
     0
 90
        6
176
     0
 90
        2
176
     0
 62
     7
176
     0
 90
        5
176
     0
 90
        0
176
     0
 90
        0
176
     0
290
     0
176
     0
 90
        1
176
     0
 40
0.0
176
     0
 90
        0
176
     0
290
     0
176
     0
290
     1
176
     0
290
     1
176
     0
290
     0
176
     0
290
     0
176
     0
290
     0
176
     0
290
     0
176
     0
290
     0
176
     0
290
     0
176
     0
 90
       50
176
     0
 40
0.0
176
     0
 40
1.0
176
     0
 90
        0
176
     0
 62
    18
420
        0
176
     0
 90
       50
176
     0
 90
        3
176
     0
 62
     5
420
      255
176
     0
290
     0
176
     0
 90
       50
176
     0
 90
       50
176
     0
 90
       50
176
     0
290
     0
176
     0
 90
       50
176
     0
 62
   256
176
     0
 40
1.0
176
     0
 90
        2
176
     0
  1
strokes_ogs.tif
176
     0
290
     0
176
     0
 40
1.0
176
     0
 40
1.0
176
     0
  0
VISUALSTYLE
  5
38
102
{ACAD_REACTORS
330
29
102
}
330
29
100
AcDbVisualStyle
  2
Facepattern
 70
    15
177
     3
291
     1
 70
    58
 90
        2
176
     1
 90
        2
176
     1
 90
        0
176
     1
 90
        0
176
     1
 40
0.6
176
     1
 40
30.0
176
     1
 62
     7
420
 16777215
176
     1
 90
        1
176
     1
 90
        4
176
     1
 62
     7
176
     1
 62
   257
176
     1
 90
        1
176
     1
 90
        1
176
     1
 40
1.0
176
     1
 90
        8
176
     1
 62
     7
176
     1
 40
1.0
176
     1
 90
        1
176
     1
 90
        6
176
     1
 90
        2
176
     1
 62
     7
176
     1
 90
        5
176
     1
 90
        0
176
     1
 90
        0
176
     1
290
     0
176
     1
 90
        1
176
     1
 40
0.0
176
     1
 90
        0
176
     1
290
     0
176
     1
290
     1
176
     1
290
     1
176
     1
290
     0
176
     1
290
     0
176
     1
290
     0
176
     1
290
     0
176
     1
290
     0
176
     1
290
     0
176
     1
 90
       50
176
     1
 40
0.0
176
     1
 40
1.0
176
     1
 90
        0
176
     1
 62
    18
420
        0
176
     1
 90
       50
176
     1
 90
        3
176
     1
 62
     5
420
      255
176
     1
290
     0
176
     1
 90
       50
176
     1
 90
       50
176
     1
 90
       50
176
     1
290
     0
176
     1
 90
       50
176
     1
 62
   256
176
     0
 40
1.0
176
     0
 90
        2
176
     1
  1
strokes_ogs.tif
176
     1
290
     0
176
     1
 40
1.0
176
     1
 40
1.0
176
     1
  0
VISUALSTYLE
  5
2A
102
{ACAD_REACTORS
330
29
102
}
330
29
100
AcDbVisualStyle
  2
Flat
 70
     0
177
     3
291
     1
 70
    58
 90
        2
176
     1
 90
        1
176
     1
 90
        1
176
     1
 90
        2
176
     1
 40
0.6
176
     1
 40
30.0
176
     1
 62
     7
420
 16777215
176
     1
 90
        0
176
     1
 90
        0
176
     1
 62
     7
176
     1
 62
   257
176
     1
 90
        1
176
     1
 90
        1
176
     1
 40
1.0
176
     1
 90
        8
176
     1
 62
     7
176
     1
 40
1.0
176
     1
 90
        1
176
     1
 90
        6
176
     1
 90
        2
176
     1
 62
     7
176
     1
 90
        5
176
     1
 90
        0
176
     1
 90
        0
176
     1
290
     0
176
     1
 90
       13
176
     1
 40
0.0
176
     1
 90
        0
176
     1
290
     0
176
     1
290
     1
176
     1
290
     1
176
     1
290
     0
176
     1
290
     0
176
     1
290
     0
176
     1
290
     0
176
     1
290
     0
176
     1
290
     0
176
     1
 90
       50
176
     1
 40
0.0
176
     1
 40
1.0
176
     1
 90
        0
176
     1
 62
    18
420
        0
176
     1
 90
       50
176
     1
 90
        3
176
     1
 62
     5
420
      255
176
     1
290
     0
176
     1
 90
       50
176
     1
 90
       50
176
     1
 90
       50
176
     1
290
     0
176
     1
 90
       50
176
     1
 62
   256
176
     0
 40
1.0
176
     0
 90
        2
176
     1
  1
strokes_ogs.tif
176
     1
290
     0
176
     1
 40
1.0
176
     1
 40
1.0
176
     1
  0
VISUALSTYLE
  5
2B
102
{ACAD_REACTORS
330
29
102
}
330
29
100
AcDbVisualStyle
  2
FlatWithEdges
 70
     1
177
     3
291
     1
 70
    58
 90
        2
176
     1
 90
        1
176
     1
 90
        1
176
     1
 90
        2
176
     1
 40
0.6
176
     1
 40
30.0
176
     1
 62
     7
420
 16777215
176
     1
 90
        1
176
     1
 90
        0
176
     1
 62
     7
176
     1
 62
   257
176
     1
 90
        1
176
     1
 90
        1
176
     1
 40
1.0
176
     1
 90
        0
176
     1
 62
   257
176
     1
 40
1.0
176
     1
 90
        1
176
     1
 90
        6
176
     1
 90
        2
176
     1
 62
     7
176
     1
 90
        5
176
     1
 90
        0
176
     1
 90
        0
176
     1
290
     0
176
     1
 90
       13
176
     1
 40
0.0
176
     1
 90
        0
176
     1
290
     0
176
     1
290
     1
176
     1
290
     1
176
     1
290
     0
176
     1
290
     0
176
     1
290
     0
176
     1
290
     0
176
     1
290
     0
176
     1
290
     0
176
     1
 90
       50
176
     1
 40
0.0
176
     1
 40
1.0
176
     1
 90
        0
176
     1
 62
    18
420
        0
176
     1
 90
       50
176
     1
 90
        3
176
     1
 62
     5
420
      255
176
     1
290
     0
176
     1
 90
       50
176
     1
 90
       50
176
     1
 90
       50
176
     1
290
     0
176
     1
 90
       50
176
     1
 62
   256
176
     0
 40
1.0
176
     0
 90
        2
176
     1
  1
strokes_ogs.tif
176
     1
290
     0
176
     1
 40
1.0
176
     1
 40
1.0
176
     1
  0
VISUALSTYLE
  5
2C
102
{ACAD_REACTORS
330
29
102
}
330
29
100
AcDbVisualStyle
  2
Gouraud
 70
     2
177
     3
291
     1
 70
    58
 90
        2
176
     1
 90
        2
176
     1
 90
        1
176
     1
 90
        2
176
     1
 40
0.6
176
     1
 40
30.0
176
     1
 62
     7
420
 16777215
176
     1
 90
        0
176
     1
 90
        0
176
     1
 62
     7
176
     1
 62
   257
176
     1
 90
        1
176
     1
 90
        1
176
     1
 40
1.0
176
     1
 90
        0
176
     1
 62
     7
176
     1
 40
1.0
176
     1
 90
        1
176
     1
 90
        6
176
     1
 90
        2
176
     1
 62
     7
176
     1
 90
        5
176
     1
 90
        0
176
     1
 90
        0
176
     1
290
     0
176
     1
 90
       13
176
     1
 40
0.0
176
     1
 90
        0
176
     1
290
     0
176
     1
290
     1
176
     1
290
     1
176
     1
290
     0
176
     1
290
     0
176
     1
290
     0
176
     1
290
     0
176
     1
290
     0
176
     1
290
     0
176
     1
 90
       50
176
     1
 40
0.0
176
     1
 40
1.0
176
     1
 90
        0
176
     1
 62
    18
420
        0
176
     1
 90
       50
176
     1
 90
        3
176
     1
 62
     5
420
      255
176
     1
290
     0
176
     1
 90
       50
176
     1
 90
       50
176
     1
 90
       50
176
     1
290
     0
176
     1
 90
       50
176
     1
 62
   256
176
     0
 40
1.0
176
     0
 90
        2
176
     1
  1
strokes_ogs.tif
176
     1
290
     0
176
     1
 40
1.0
176
     1
 40
1.0
176
     1
  0
VISUALSTYLE
  5
2D
102
{ACAD_REACTORS
330
29
102
}
330
29
100
AcDbVisualStyle
  2
GouraudWithEdges
 70
     3
177
     3
291
     1
 70
    58
 90
        2
176
     1
 90
        2
176
     1
 90
        1
176
     1
 90
        2
176
     1
 40
0.6
176
     1
 40
30.0
176
     1
 62
     7
420
 16777215
176
     1
 90
        1
176
     1
 90
        0
176
     1
 62
     7
176
     1
 62
   257
176
     1
 90
        1
176
     1
 90
        1
176
     1
 40
1.0
176
     1
 90
        0
176
     1
 62
   257
176
     1
 40
1.0
176
     1
 90
        1
176
     1
 90
        6
176
     1
 90
        2
176
     1
 62
     7
176
     1
 90
        5
176
     1
 90
        0
176
     1
 90
        0
176
     1
290
     0
176
     1
 90
       13
176
     1
 40
0.0
176
     1
 90
        0
176
     1
290
     0
176
     1
290
     1
176
     1
290
     1
176
     1
290
     0
176
     1
290
     0
176
     1
290
     0
176
     1
290
     0
176
     1
290
     0
176
     1
290
     0
176
     1
 90
       50
176
     1
 40
0.0
176
     1
 40
1.0
176
     1
 90
        0
176
     1
 62
    18
420
        0
176
     1
 90
       50
176
     1
 90
        3
176
     1
 62
     5
420
      255
176
     1
290
     0
176
     1
 90
       50
176
     1
 90
       50
176
     1
 90
       50
176
     1
290
     0
176
     1
 90
       50
176
     1
 62
   256
176
     0
 40
1.0
176
     0
 90
        2
176
     1
  1
strokes_ogs.tif
176
     1
290
     0
176
     1
 40
1.0
176
     1
 40
1.0
176
     1
  0
VISUALSTYLE
  5
31
102
{ACAD_REACTORS
330
29
102
}
330
29
100
AcDbVisualStyle
  2
Hidden
 70
     6
177
     3
291
     0
 70
    58
 90
        1
176
     1
 90
        2
176
     1
 90
        2
176
     1
 90
        0
176
     1
 40
0.6
176
     1
 40
30.0
176
     1
 62
     7
420
 16777215
176
     1
 90
        2
176
     1
 90
        2
176
     1
 62
     7
176
     1
 62
   257
176
     1
 90
        2
176
     1
 90
        1
176
     1
 40
40.0
176
     1
 90
        0
176
     1
 62
   257
176
     1
 40
1.0
176
     1
 90
        1
176
     1
 90
        6
176
     1
 90
        2
176
     1
 62
     7
176
     1
 90
        3
176
     1
 90
        0
176
     1
 90
        0
176
     1
290
     0
176
     1
 90
        1
176
     1
 40
0.0
176
     1
 90
        0
176
     1
290
     0
176
     1
290
     1
176
     1
290
     1
176
     1
290
     0
176
     1
290
     0
176
     1
290
     0
176
     1
290
     0
176
     1
290
     0
176
     1
290
     0
176
     1
 90
       50
176
     1
 40
0.0
176
     1
 40
1.0
176
     1
 90
        0
176
     1
 62
    18
420
        0
176
     1
 90
       50
176
     1
 90
        3
176
     1
 62
     5
420
      255
176
     1
290
     0
176
     1
 90
       50
176
     1
 90
       50
176
     1
 90
       50
176
     1
290
     0
176
     1
 90
       50
176
     1
 62
   256
176
     0
 40
1.0
176
     0
 90
        2
176
     1
  1
strokes_ogs.tif
176
     1
290
     0
176
     1
 40
1.0
176
     1
 40
1.0
176
     1
  0
VISUALSTYLE
  5
3F
102
{ACAD_REACTORS
330
29
102
}
330
29
100
AcDbVisualStyle
  2
JitterOff
 70
    20
177
     3
291
     1
 70
    58
 90
        2
176
     0
 90
        2
176
     0
 90
        0
176
     0
 90
        0
176
     0
 40
0.6
176
     0
 40
30.0
176
     0
 62
     7
420
 16777215
176
     0
 90
        1
176
     0
 90
        4
176
     0
 62
     7
176
     0
 62
   257
176
     0
 90
        1
176
     0
 90
        1
176
     0
 40
1.0
176
     0
 90
       10
176
     2
 62
     7
176
     0
 40
1.0
176
     0
 90
        1
176
     0
 90
        6
176
     0
 90
        2
176
     0
 62
     7
176
     0
 90
        5
176
     0
 90
        0
176
     0
 90
        0
176
     0
290
     0
176
     0
 90
        1
176
     0
 40
0.0
176
     0
 90
        0
176
     0
290
     0
176
     0
290
     1
176
     0
290
     1
176
     0
290
     0
176
     0
290
     0
176
     0
290
     0
176
     0
290
     0
176
     0
290
     0
176
     0
290
     0
176
     0
 90
       50
176
     0
 40
0.0
176
     0
 40
1.0
176
     0
 90
        0
176
     0
 62
    18
420
        0
176
     0
 90
       50
176
     0
 90
        3
176
     0
 62
     5
420
      255
176
     0
290
     0
176
     0
 90
       50
176
     0
 90
       50
176
     0
 90
       50
176
     0
290
     0
176
     0
 90
       50
176
     0
 62
   256
176
     0
 40
1.0
176
     0
 90
        2
176
     0
  1
strokes_ogs.tif
176
     0
290
     0
176
     0
 40
1.0
176
     0
 40
1.0
176
     0
  0
VISUALSTYLE
  5
37
102
{ACAD_REACTORS
330
29
102
}
330
29
100
AcDbVisualStyle
  2
Linepattern
 70
    14
177
     3
291
     1
 70
    58
 90
        2
176
     1
 90
        2
176
     1
 90
        0
176
     1
 90
        0
176
     1
 40
0.6
176
     1
 40
30.0
176
     1
 62
     7
420
 16777215
176
     1
 90
        1
176
     1
 90
        4
176
     1
 62
     7
176
     1
 62
   257
176
     1
 90
        7
176
     1
 90
        7
176
     1
 40
1.0
176
     1
 90
        8
176
     1
 62
     7
176
     1
 40
1.0
176
     1
 90
        1
176
     1
 90
        6
176
     1
 90
        2
176
     1
 62
     7
176
     1
 90
        5
176
     1
 90
        0
176
     1
 90
        0
176
     1
290
     0
176
     1
 90
        1
176
     1
 40
0.0
176
     1
 90
        0
176
     1
290
     0
176
     1
290
     1
176
     1
290
     1
176
     1
290
     0
176
     1
290
     0
176
     1
290
     0
176
     1
290
     0
176
     1
290
     0
176
     1
290
     0
176
     1
 90
       50
176
     1
 40
0.0
176
     1
 40
1.0
176
     1
 90
        0
176
     1
 62
    18
420
        0
176
     1
 90
       50
176
     1
 90
        3
176
     1
 62
     5
420
      255
176
     1
290
     0
176
     1
 90
       50
176
     1
 90
       50
176
     1
 90
       50
176
     1
290
     0
176
     1
 90
       50
176
     1
 62
   256
176
     0
 40
1.0
176
     0
 90
        2
176
     1
  1
strokes_ogs.tif
176
     1
290
     0
176
     1
 40
1.0
176
     1
 40
1.0
176
     1
  0
VISUALSTYLE
  5
40
102
{ACAD_REACTORS
330
29
102
}
330
29
100
AcDbVisualStyle
  2
OverhangOff
 70
    21
177
     3
291
     1
 70
    58
 90
        2
176
     0
 90
        2
176
     0
 90
        0
176
     0
 90
        0
176
     0
 40
0.6
176
     0
 40
30.0
176
     0
 62
     7
420
 16777215
176
     0
 90
        1
176
     0
 90
        4
176
     0
 62
     7
176
     0
 62
   257
176
     0
 90
        1
176
     0
 90
        1
176
     0
 40
1.0
176
     0
 90
        9
176
     2
 62
     7
176
     0
 40
1.0
176
     0
 90
        1
176
     0
 90
        6
176
     0
 90
        2
176
     0
 62
     7
176
     0
 90
        5
176
     0
 90
        0
176
     0
 90
        0
176
     0
290
     0
176
     0
 90
        1
176
     0
 40
0.0
176
     0
 90
        0
176
     0
290
     0
176
     0
290
     1
176
     0
290
     1
176
     0
290
     0
176
     0
290
     0
176
     0
290
     0
176
     0
290
     0
176
     0
290
     0
176
     0
290
     0
176
     0
 90
       50
176
     0
 40
0.0
176
     0
 40
1.0
176
     0
 90
        0
176
     0
 62
    18
420
        0
176
     0
 90
       50
176
     0
 90
        3
176
     0
 62
     5
420
      255
176
     0
290
     0
176
     0
 90
       50
176
     0
 90
       50
176
     0
 90
       50
176
     0
290
     0
176
     0
 90
       50
176
     0
 62
   256
176
     0
 40
1.0
176
     0
 90
        2
176
     0
  1
strokes_ogs.tif
176
     0
290
     0
176
     0
 40
1.0
176
     0
 40
1.0
176
     0
  0
VISUALSTYLE
  5
33
102
{ACAD_REACTORS
330
29
102
}
330
29
100
AcDbVisualStyle
  2
Realistic
 70
     8
177
     3
291
     0
 70
    58
 90
        2
176
     1
 90
        3
176
     1
 90
        0
176
     1
 90
        2
176
     1
 40
0.6
176
     1
 40
30.0
176
     1
 62
     7
420
 16777215
176
     1
 90
        0
176
     1
 90
        0
176
     1
 62
     7
176
     1
 62
   257
176
     1
 90
        1
176
     1
 90
        1
176
     1
 40
1.0
176
     1
 90
        8
176
     1
 62
   257
176
     1
 40
1.0
176
     1
 90
        1
176
     1
 90
        6
176
     1
 90
        2
176
     1
 62
     7
176
     1
 90
        3
176
     1
 90
        0
176
     1
 90
        0
176
     1
290
     0
176
     1
 90
       13
176
     1
 40
0.0
176
     1
 90
        0
176
     1
290
     0
176
     1
290
     1
176
     1
290
     1
176
     1
290
     0
176
     1
290
     0
176
     1
290
     0
176
     1
290
     0
176
     1
290
     0
176
     1
290
     0
176
     1
 90
       50
176
     1
 40
0.0
176
     1
 40
1.0
176
     1
 90
        0
176
     1
 62
    18
420
        0
176
     1
 90
       50
176
     1
 90
        3
176
     1
 62
     5
420
      255
176
     1
290
     0
176
     1
 90
       50
176
     1
 90
       50
176
     1
 90
       50
176
     1
290
     0
176
     1
 90
       50
176
     1
 62
   256
176
     0
 40
1.0
176
     0
 90
        2
176
     1
  1
strokes_ogs.tif
176
     1
290
     0
176
     1
 40
1.0
176
     1
 40
1.0
176
     1
  0
VISUALSTYLE
  5
3E
102
{ACAD_REACTORS
330
29
102
}
330
29
100
AcDbVisualStyle
  2
Shaded
 70
    27
177
     3
291
     0
 70
    58
 90
        2
176
     1
 90
        2
176
     1
 90
        1
176
     1
 90
        2
176
     1
 40
0.6
176
     1
 40
30.0
176
     1
 62
     7
420
 16777215
176
     1
 90
        0
176
     1
 90
        4
176
     1
 62
     7
176
     1
 62
   257
176
     1
 90
        1
176
     1
 90
        1
176
     1
 40
1.0
176
     1
 90
        8
176
     1
 62
   257
176
     1
 40
1.0
176
     1
 90
        1
176
     1
 90
        6
176
     1
 90
        2
176
     1
 62
     8
420
  7895160
176
     1
 90
        3
176
     1
 90
        0
176
     1
 90
        0
176
     1
290
     0
176
     1
 90
        5
176
     1
 40
0.0
176
     1
 90
        0
176
     1
290
     0
176
     1
290
     1
176
     1
290
     1
176
     1
290
     0
176
     1
290
     0
176
     1
290
     0
176
     1
290
     0
176
     1
290
     0
176
     1
290
     0
176
     1
 90
       50
176
     1
 40
0.0
176
     1
 40
1.0
176
     1
 90
        0
176
     1
 62
    18
420
        0
176
     1
 90
       50
176
     1
 90
        3
176
     1
 62
     5
420
      255
176
     1
290
     0
176
     1
 90
       50
176
     1
 90
       50
176
     1
 90
       50
176
     1
290
     0
176
     1
 90
       50
176
     1
 62
   256
176
     0
 40
1.0
176
     0
 90
        2
176
     1
  1
strokes_ogs.tif
176
     1
290
     0
176
     1
 40
1.0
176
     1
 40
1.0
176
     1
  0
VISUALSTYLE
  5
3D
102
{ACAD_REACTORS
330
29
102
}
330
29
100
AcDbVisualStyle
  2
Shaded with edges
 70
    26
177
     3
291
     0
 70
    58
 90
        2
176
     1
 90
        2
176
     1
 90
        1
176
     1
 90
        2
176
     1
 40
0.6
176
     1
 40
30.0
176
     1
 62
     7
420
 16777215
176
     1
 90
        1
176
     1
 90
        2
176
     1
 62
     7
176
     1
 62
   257
176
     1
 90
        2
176
     1
 90
        1
176
     1
 40
1.0
176
     1
 90
        8
176
     1
 62
   257
176
     1
 40
1.0
176
     1
 90
        1
176
     1
 90
        6
176
     1
 90
        2
176
     1
 62
     7
176
     1
 90
        3
176
     1
 90
        0
176
     1
 90
        0
176
     1
290
     0
176
     1
 90
        5
176
     1
 40
0.0
176
     1
 90
        0
176
     1
290
     0
176
     1
290
     1
176
     1
290
     1
176
     1
290
     0
176
     1
290
     0
176
     1
290
     0
176
     1
290
     0
176
     1
290
     0
176
     1
290
     0
176
     1
 90
       50
176
     1
 40
0.0
176
     1
 40
1.0
176
     1
 90
        0
176
     1
 62
    18
420
        0
176
     1
 90
       50
176
     1
 90
        3
176
     1
 62
     5
420
      255
176
     1
290
     0
176
     1
 90
       50
176
     1
 90
       50
176
     1
 90
       50
176
     1
290
     0
176
     1
 90
       50
176
     1
 62
   256
176
     0
 40
1.0
176
     0
 90
        2
176
     1
  1
strokes_ogs.tif
176
     1
290
     0
176
     1
 40
1.0
176
     1
 40
1.0
176
     1
  0
VISUALSTYLE
  5
3A
102
{ACAD_REACTORS
330
29
102
}
330
29
100
AcDbVisualStyle
  2
Shades of Gray
 70
    23
177
     3
291
     0
 70
    58
 90
        2
176
     1
 90
        2
176
     1
 90
        3
176
     1
 90
        0
176
     1
 40
0.6
176
     1
 40
30.0
176
     1
 62
     7
420
 16777215
176
     1
 90
        2
176
     1
 90
        2
176
     1
 62
     7
176
     1
 62
     7
176
     1
 90
        1
176
     1
 90
        1
176
     1
 40
40.0
176
     1
 90
        8
176
     1
 62
     7
176
     1
 40
1.0
176
     1
 90
        1
176
     1
 90
        6
176
     1
 90
        2
176
     1
 62
     7
176
     1
 90
        3
176
     1
 90
        0
176
     1
 90
        0
176
     1
290
     0
176
     1
 90
        1
176
     1
 40
0.0
176
     1
 90
        0
176
     1
290
     0
176
     1
290
     1
176
     1
290
     1
176
     1
290
     0
176
     1
290
     0
176
     1
290
     0
176
     1
290
     0
176
     1
290
     0
176
     1
290
     0
176
     1
 90
       50
176
     1
 40
0.0
176
     1
 40
1.0
176
     1
 90
        0
176
     1
 62
    18
420
        0
176
     1
 90
       50
176
     1
 90
        3
176
     1
 62
     5
420
      255
176
     1
290
     0
176
     1
 90
       50
176
     1
 90
       50
176
     1
 90
       50
176
     1
290
     0
176
     1
 90
       50
176
     1
 62
   256
176
     0
 40
1.0
176
     0
 90
        2
176
     1
  1
strokes_ogs.tif
176
     1
290
     0
176
     1
 40
1.0
176
     1
 40
1.0
176
     1
  0
VISUALSTYLE
  5
3B
102
{ACAD_REACTORS
330
29
102
}
330
29
100
AcDbVisualStyle
  2
Sketchy
 70
    24
177
     3
291
     0
 70
    58
 90
        1
176
     1
 90
        2
176
     1
 90
        2
176
     1
 90
        0
176
     1
 40
0.6
176
     1
 40
30.0
176
     1
 62
     7
420
 16777215
176
     1
 90
        2
176
     1
 90
        2
176
     1
 62
     7
176
     1
 62
     7
176
     1
 90
        1
176
     1
 90
        1
176
     1
 40
40.0
176
     1
 90
       11
176
     1
 62
     7
176
     1
 40
1.0
176
     1
 90
        1
176
     1
 90
        6
176
     1
 90
        2
176
     1
 62
     7
176
     1
 90
        6
176
     1
 90
        0
176
     1
 90
        0
176
     1
290
     0
176
     1
 90
        1
176
     1
 40
0.0
176
     1
 90
        0
176
     1
290
     0
176
     1
290
     1
176
     1
290
     1
176
     1
290
     0
176
     1
290
     0
176
     1
290
     0
176
     1
290
     0
176
     1
290
     0
176
     1
290
     0
176
     1
 90
       50
176
     1
 40
0.0
176
     1
 40
1.0
176
     1
 90
        0
176
     1
 62
    18
420
        0
176
     1
 90
       50
176
     1
 90
        3
176
     1
 62
     5
420
      255
176
     1
290
     0
176
     1
 90
       50
176
     1
 90
       50
176
     1
 90
       50
176
     1
290
     0
176
     1
 90
       50
176
     1
 62
   256
176
     0
 40
1.0
176
     0
 90
        2
176
     1
  1
strokes_ogs.tif
176
     1
290
     0
176
     1
 40
1.0
176
     1
 40
1.0
176
     1
  0
VISUALSTYLE
  5
36
102
{ACAD_REACTORS
330
29
102
}
330
29
100
AcDbVisualStyle
  2
Thicken
 70
    13
177
     3
291
     1
 70
    58
 90
        2
176
     1
 90
        2
176
     1
 90
        0
176
     1
 90
        0
176
     1
 40
0.6
176
     1
 40
30.0
176
     1
 62
     7
420
 16777215
176
     1
 90
        1
176
     1
 90
        4
176
     1
 62
     7
176
     1
 62
   257
176
     1
 90
        1
176
     1
 90
        1
176
     1
 40
1.0
176
     1
 90
       12
176
     1
 62
     7
176
     1
 40
1.0
176
     1
 90
        1
176
     1
 90
        6
176
     1
 90
        2
176
     1
 62
     7
176
     1
 90
        5
176
     1
 90
        0
176
     1
 90
        0
176
     1
290
     0
176
     1
 90
        1
176
     1
 40
0.0
176
     1
 90
        0
176
     1
290
     0
176
     1
290
     1
176
     1
290
     1
176
     1
290
     0
176
     1
290
     0
176
     1
290
     0
176
     1
290
     0
176
     1
290
     0
176
     1
290
     0
176
     1
 90
       50
176
     1
 40
0.0
176
     1
 40
1.0
176
     1
 90
        0
176
     1
 62
    18
420
        0
176
     1
 90
       50
176
     1
 90
        3
176
     1
 62
     5
420
      255
176
     1
290
     0
176
     1
 90
       50
176
     1
 90
       50
176
     1
 90
       50
176
     1
290
     0
176
     1
 90
       50
176
     1
 62
   256
176
     0
 40
1.0
176
     0
 90
        2
176
     1
  1
strokes_ogs.tif
176
     1
290
     0
176
     1
 40
1.0
176
     1
 40
1.0
176
     1
  0
VISUALSTYLE
  5
30
102
{ACAD_REACTORS
330
29
102
}
330
29
100
AcDbVisualStyle
  2
Wireframe
 70
     5
177
     3
291
     0
 70
    58
 90
        0
176
     1
 90
        2
176
     1
 90
        0
176
     1
 90
        0
176
     1
 40
0.6
176
     1
 40
30.0
176
     1
 62
     7
420
 16777215
176
     1
 90
        1
176
     1
 90
        4
176
     1
 62
     7
176
     1
 62
   257
176
     1
 90
        1
176
     1
 90
        1
176
     1
 40
1.0
176
     1
 90
        0
176
     1
 62
   257
176
     1
 40
1.0
176
     1
 90
        1
176
     1
 90
        6
176
     1
 90
        2
176
     1
 62
     7
176
     1
 90
        3
176
     1
 90
        0
176
     1
 90
        0
176
     1
290
     0
176
     1
 90
        1
176
     1
 40
0.0
176
     1
 90
        0
176
     1
290
     0
176
     1
290
     1
176
     1
290
     1
176
     1
290
     0
176
     1
290
     0
176
     1
290
     0
176
     1
290
     0
176
     1
290
     0
176
     1
290
     0
176
     1
 90
       50
176
     1
 40
0.0
176
     1
 40
1.0
176
     1
 90
        0
176
     1
 62
    18
420
        0
176
     1
 90
       50
176
     1
 90
        3
176
     1
 62
     5
420
      255
176
     1
290
     0
176
     1
 90
       50
176
     1
 90
       50
176
     1
 90
       50
176
     1
290
     0
176
     1
 90
       50
176
     1
 62
   256
176
     0
 40
1.0
176
     0
 90
        2
176
     1
  1
strokes_ogs.tif
176
     1
290
     0
176
     1
 40
1.0
176
     1
 40
1.0
176
     1
  0
VISUALSTYLE
  5
3C
102
{ACAD_REACTORS
330
29
102
}
330
29
100
AcDbVisualStyle
  2
X-Ray
 70
    25
177
     3
291
     0
 70
    58
 90
        2
176
     1
 90
        2
176
     1
 90
        1
176
     1
 90
        1
176
     1
 40
0.5
176
     1
 40
30.0
176
     1
 62
     7
420
 16777215
176
     1
 90
        1
176
     1
 90
        0
176
     1
 62
     7
176
     1
 62
   257
176
     1
 90
        1
176
     1
 90
        1
176
     1
 40
1.0
176
     1
 90
        8
176
     1
 62
     7
176
     1
 40
1.0
176
     1
 90
        1
176
     1
 90
        6
176
     1
 90
        2
176
     1
 62
     7
176
     1
 90
        3
176
     1
 90
        0
176
     1
 90
        0
176
     1
290
     0
176
     1
 90
       13
176
     1
 40
0.0
176
     1
 90
        0
176
     1
290
     0
176
     1
290
     1
176
     1
290
     1
176
     1
290
     0
176
     1
290
     0
176
     1
290
     0
176
     1
290
     0
176
     1
290
     0
176
     1
290
     0
176
     1
 90
       50
176
     1
 40
0.0
176
     1
 40
1.0
176
     1
 90
        0
176
     1
 62
    18
420
        0
176
     1
 90
       50
176
     1
 90
        3
176
     1
 62
     5
420
      255
176
     1
290
     0
176
     1
 90
       50
176
     1
 90
       50
176
     1
 90
       50
176
     1
290
     0
176
     1
 90
       50
176
     1
 62
   256
176
     0
 40
1.0
176
     0
 90
        2
176
     1
  1
strokes_ogs.tif
176
     1
290
     0
176
     1
 40
1.0
176
     1
 40
1.0
176
     1
  0
DICTIONARYVAR
  5
134
102
{ACAD_REACTORS
330
12F
102
}
330
12F
100
DictionaryVariables
280
     0
  1
1:1
  0
DICTIONARYVAR
  5
131
102
{ACAD_REACTORS
330
12F
102
}
330
12F
100
DictionaryVariables
280
     0
  1
STANDARD
  0
DICTIONARYVAR
  5
130
102
{ACAD_REACTORS
330
12F
102
}
330
12F
100
DictionaryVariables
280
     0
  1
STANDARD
  0
DICTIONARYVAR
  5
132
102
{ACAD_REACTORS
330
12F
102
}
330
12F
100
DictionaryVariables
280
     0
  1
Imperial24
  0
DICTIONARYVAR
  5
133
102
{ACAD_REACTORS
330
12F
102
}
330
12F
100
DictionaryVariables
280
     0
  1
Imperial24
  0
DICTIONARY
  5
1A
330
19
100
AcDbDictionary
280
     1
281
     1
  3
BUMPTILE
360
1C
  3
DIFFUSETILE
360
1B
  3
OPACITYTILE
360
1F
  3
REFLECTIONTILE
360
1E
  3
REFRACTIONTILE
360
20
  3
SPECULARTILE
360
1D
  0
DICTIONARY
  5
12
330
11
100
AcDbDictionary
280
     1
281
     1
  3
BUMPTILE
360
14
  3
DIFFUSETILE
360
13
  3
OPACITYTILE
360
17
  3
REFLECTIONTILE
360
16
  3
REFRACTIONTILE
360
18
  3
SPECULARTILE
360
15
  0
DICTIONARY
  5
22
330
21
100
AcDbDictionary
280
     1
281
     1
  3
BUMPTILE
360
24
  3
DIFFUSETILE
360
23
  3
OPACITYTILE
360
27
  3
REFLECTIONTILE
360
26
  3
REFRACTIONTILE
360
28
  3
SPECULARTILE
360
25
  0
DICTIONARY
  5
135
330
65
100
AcDbDictionary
280
     1
281
     1
  3
ACAD_ROUNDTRIP_2008_TABLESTYLE_CELLSTYLEMAP
360
136
  0
XRECORD
  5
1C
102
{ACAD_REACTORS
330
1A
102
}
330
1A
100
AcDbXrecord
280
     1
270
     1
271
     1
  0
XRECORD
  5
1B
102
{ACAD_REACTORS
330
1A
102
}
330
1A
100
AcDbXrecord
280
     1
270
     1
271
     1
  0
XRECORD
  5
1F
102
{ACAD_REACTORS
330
1A
102
}
330
1A
100
AcDbXrecord
280
     1
270
     1
271
     1
  0
XRECORD
  5
1E
102
{ACAD_REACTORS
330
1A
102
}
330
1A
100
AcDbXrecord
280
     1
270
     1
271
     1
  0
XRECORD
  5
20
102
{ACAD_REACTORS
330
1A
102
}
330
1A
100
AcDbXrecord
280
     1
270
     1
271
     1
  0
XRECORD
  5
1D
102
{ACAD_REACTORS
330
1A
102
}
330
1A
100
AcDbXrecord
280
     1
270
     1
271
     1
  0
XRECORD
  5
14
102
{ACAD_REACTORS
330
12
102
}
330
12
100
AcDbXrecord
280
     1
270
     1
271
     1
  0
XRECORD
  5
13
102
{ACAD_REACTORS
330
12
102
}
330
12
100
AcDbXrecord
280
     1
270
     1
271
     1
  0
XRECORD
  5
17
102
{ACAD_REACTORS
330
12
102
}
330
12
100
AcDbXrecord
280
     1
270
     1
271
     1
  0
XRECORD
  5
16
102
{ACAD_REACTORS
330
12
102
}
330
12
100
AcDbXrecord
280
     1
270
     1
271
     1
  0
XRECORD
  5
18
102
{ACAD_REACTORS
330
12
102
}
330
12
100
AcDbXrecord
280
     1
270
     1
271
     1
  0
XRECORD
  5
15
102
{ACAD_REACTORS
330
12
102
}
330
12
100
AcDbXrecord
280
     1
270
     1
271
     1
  0
XRECORD
  5
24
102
{ACAD_REACTORS
330
22
102
}
330
22
100
AcDbXrecord
280
     1
270
     1
271
     1
  0
XRECORD
  5
23
102
{ACAD_REACTORS
330
22
102
}
330
22
100
AcDbXrecord
280
     1
270
     1
271
     1
  0
XRECORD
  5
27
102
{ACAD_REACTORS
330
22
102
}
330
22
100
AcDbXrecord
280
     1
270
     1
271
     1
  0
XRECORD
  5
26
102
{ACAD_REACTORS
330
22
102
}
330
22
100
AcDbXrecord
280
     1
270
     1
271
     1
  0
XRECORD
  5
28
102
{ACAD_REACTORS
330
22
102
}
330
22
100
AcDbXrecord
280
     1
270
     1
271
     1
  0
XRECORD
  5
25
102
{ACAD_REACTORS
330
22
102
}
330
22
100
AcDbXrecord
280
     1
270
     1
271
     1
  0
CELLSTYLEMAP
  5
136
102
{ACAD_REACTORS
330
135
102
}
330
135
100
AcDbCellStyleMap
 90
        3
300
CELLSTYLE
  1
TABLEFORMAT_BEGIN
 90
        5
170
     1
 91
        0
 92
    32768
 62
   257
 93
        1
300
CONTENTFORMAT
  1
CONTENTFORMAT_BEGIN
 90
        0
 91
        0
 92
      512
 93
        0
300

 40
0.0
140
1.0
 94
        5
 62
     0
340
55
144
0.25
309
CONTENTFORMAT_END
171
     0
 94
        0
309
TABLEFORMAT_END
  1
CELLSTYLE_BEGIN
 90
        1
 91
        1
300
_TITLE
309
CELLSTYLE_END
300
CELLSTYLE
  1
TABLEFORMAT_BEGIN
 90
        5
170
     1
 91
        0
 92
        0
 62
   257
 93
        1
300
CONTENTFORMAT
  1
CONTENTFORMAT_BEGIN
 90
        0
 91
        0
 92
      512
 93
        0
300

 40
0.0
140
1.0
 94
        5
 62
     0
340
55
144
0.18
309
CONTENTFORMAT_END
171
     0
 94
        0
309
TABLEFORMAT_END
  1
CELLSTYLE_BEGIN
 90
        2
 91
        1
300
_HEADER
309
CELLSTYLE_END
300
CELLSTYLE
  1
TABLEFORMAT_BEGIN
 90
        5
170
     1
 91
        0
 92
        0
 62
   257
 93
        1
300
CONTENTFORMAT
  1
CONTENTFORMAT_BEGIN
 90
        0
 91
        0
 92
      512
 93
        0
300

 40
0.0
140
1.0
 94
        2
 62
     0
340
55
144
0.18
309
CONTENTFORMAT_END
171
     0
 94
        0
309
TABLEFORMAT_END
  1
CELLSTYLE_BEGIN
 90
        3
 91
        2
300
_DATA
309
CELLSTYLE_END
  0
ENDSEC
  0
EOF
