  0
SECTION
  2
HEADER
  9
$ACADVER
  1
AC1015
  9
$ACADMAINTVER
 70
     6
  9
$DWGCODEPAGE
  3
UNDEFINED
  9
$INSBASE
 10
0.0
 20
0.0
 30
0.0
  9
$EXTMIN
 10
-32.05
 20
-32.05
 30
0.0
  9
$EXTMAX
 10
1258.45
 20
893.05
 30
0.0
  9
$LIMMIN
 10
-32.05
 20
-32.05
  9
$LIMMAX
 10
1258.45
 20
893.05
  9
$ORTHOMODE
 70
     0
  9
$REGENMODE
 70
     1
  9
$FILLMODE
 70
     1
  9
$QTEXTMODE
 70
     0
  9
$MIRRTEXT
 70
     1
  9
$LTSCALE
 40
1.0
  9
$ATTMODE
 70
     1
  9
$TEXTSIZE
 40
30.0000019073486
  9
$TRACEWID
 40
0.05
  9
$TEXTSTYLE
  7
STANDARD
  9
$CLAYER
  8
0
  9
$CELTYPE
  6
ByBlock
  9
$CECOLOR
 62
   256
  9
$CELTSCALE
 40
1.0
  9
$DISPSILH
 70
     0
  9
$DIMSCALE
 40
1.0
  9
$DIMASZ
 40
1.23783508592696
  9
$DIMEXO
 40
1.0
  9
$DIMDLI
 40
0.38
  9
$DIMRND
 40
0.0
  9
$DIMDLE
 40
0.0
  9
$DIMEXE
 40
1.0
  9
$DIMTP
 40
0.0
  9
$DIMTM
 40
0.0
  9
$DIMTXT
 40
30.0000019073486
  9
$DIMCEN
 40
1.0
  9
$DIMTSZ
 40
0.0
  9
$DIMTOL
 70
     0
  9
$DIMLIM
 70
     0
  9
$DIMTIH
 70
     1
  9
$DIMTOH
 70
     1
  9
$DIMSE1
 70
     0
  9
$DIMSE2
 70
     0
  9
$DIMTAD
 70
     0
  9
$DIMZIN
 70
     0
  9
$DIMBLK
  1

  9
$DIMASO
 70
     1
  9
$DIMSHO
 70
     1
  9
$DIMPOST
  1

  9
$DIMAPOST
  1

  9
$DIMALT
 70
     0
  9
$DIMALTD
 70
     2
  9
$DIMALTF
 40
25.4
  9
$DIMLFAC
 40
1.0
  9
$DIMTOFL
 70
     0
  9
$DIMTVP
 40
0.0
  9
$DIMTIX
 70
     0
  9
$DIMSOXD
 70
     0
  9
$DIMSAH
 70
     0
  9
$DIMBLK1
  1

  9
$DIMBLK2
  1

  9
$DIMSTYLE
  2
Standard
  9
$DIMCLRD
 70
     0
  9
$DIMCLRE
 70
     0
  9
$DIMCLRT
 70
     0
  9
$DIMTFAC
 40
1.0
  9
$DIMGAP
 40
0.09
  9
$DIMJUST
 70
     0
  9
$DIMSD1
 70
     0
  9
$DIMSD2
 70
     0
  9
$DIMTOLJ
 70
     1
  9
$DIMTZIN
 70
     0
  9
$DIMALTZ
 70
     0
  9
$DIMALTTZ
 70
     0
  9
$DIMUPT
 70
     0
  9
$DIMDEC
 70
     4
  9
$DIMTDEC
 70
     4
  9
$DIMALTU
 70
     2
  9
$DIMALTTD
 70
     2
  9
$DIMTXSTY
  7
STANDARD
  9
$DIMAUNIT
 70
     0
  9
$DIMADEC
 70
     0
  9
$DIMALTRND
 40
0.0
  9
$DIMAZIN
 70
     0
  9
$DIMDSEP
 70
    46
  9
$DIMATFIT
 70
     3
  9
$DIMFRAC
 70
     0
  9
$DIMLDRBLK
  1

  9
$DIMLUNIT
 70
     2
  9
$DIMLWD
 70
    -2
  9
$DIMLWE
 70
    -2
  9
$DIMTMOVE
 70
     0
  9
$LUNITS
 70
     2
  9
$LUPREC
 70
     4
  9
$SKETCHINC
 40
0.1
  9
$FILLETRAD
 40
0.0
  9
$AUNITS
 70
     0
  9
$AUPREC
 70
     4
  9
$MENU
  1
acad
  9
$ELEVATION
 40
0.0
  9
$PELEVATION
 40
0.0
  9
$THICKNESS
 40
0.0
  9
$LIMCHECK
 70
     0
  9
$CHAMFERA
 40
0.0
  9
$CHAMFERB
 40
0.0
  9
$CHAMFERC
 40
1.0
  9
$CHAMFERD
 40
0.0
  9
$SKPOLY
 70
     0
  9
$TDCREATE
 40
2454908.591431562
  9
$TDUCREATE
 40
2454908.716431562
  9
$TDUPDATE
 40
2454908.591431574
  9
$TDUUPDATE
 40
2454908.716431574
  9
$TDINDWG
 40
0.0000000116
  9
$TDUSRTIMER
 40
0.0000000116
  9
$USRTIMER
 70
     1
  9
$ANGBASE
 50
0.0
  9
$ANGDIR
 70
     0
  9
$PDMODE
 70
     0
  9
$PDSIZE
 40
0.0
  9
$PLINEWID
 40
0.0
  9
$SPLFRAME
 70
     0
  9
$SPLINETYPE
 70
     6
  9
$SPLINESEGS
 70
     8
  9
$HANDSEED
  5
A8
  9
$SURFTAB1
 70
     6
  9
$SURFTAB2
 70
     6
  9
$SURFTYPE
 70
     6
  9
$SURFU
 70
     6
  9
$SURFV
 70
     6
  9
$UCSBASE
  2

  9
$UCSNAME
  2

  9
$UCSORG
 10
0.0
 20
0.0
 30
0.0
  9
$UCSXDIR
 10
1.0
 20
0.0
 30
0.0
  9
$UCSYDIR
 10
0.0
 20
1.0
 30
0.0
  9
$UCSORTHOREF
  2

  9
$UCSORTHOVIEW
 70
     0
  9
$UCSORGTOP
 10
0.0
 20
0.0
 30
0.0
  9
$UCSORGBOTTOM
 10
0.0
 20
0.0
 30
0.0
  9
$UCSORGLEFT
 10
0.0
 20
0.0
 30
0.0
  9
$UCSORGRIGHT
 10
0.0
 20
0.0
 30
0.0
  9
$UCSORGFRONT
 10
0.0
 20
0.0
 30
0.0
  9
$UCSORGBACK
 10
0.0
 20
0.0
 30
0.0
  9
$PUCSBASE
  2

  9
$PUCSNAME
  2

  9
$PUCSORG
 10
0.0
 20
0.0
 30
0.0
  9
$PUCSXDIR
 10
1.0
 20
0.0
 30
0.0
  9
$PUCSYDIR
 10
0.0
 20
1.0
 30
0.0
  9
$PUCSORTHOREF
  2

  9
$PUCSORTHOVIEW
 70
     0
  9
$PUCSORGTOP
 10
0.0
 20
0.0
 30
0.0
  9
$PUCSORGBOTTOM
 10
0.0
 20
0.0
 30
0.0
  9
$PUCSORGLEFT
 10
0.0
 20
0.0
 30
0.0
  9
$PUCSORGRIGHT
 10
0.0
 20
0.0
 30
0.0
  9
$PUCSORGFRONT
 10
0.0
 20
0.0
 30
0.0
  9
$PUCSORGBACK
 10
0.0
 20
0.0
 30
0.0
  9
$USERI1
 70
     0
  9
$USERI2
 70
     0
  9
$USERI3
 70
     0
  9
$USERI4
 70
     0
  9
$USERI5
 70
     0
  9
$USERR1
 40
0.0
  9
$USERR2
 40
0.0
  9
$USERR3
 40
0.0
  9
$USERR4
 40
0.0
  9
$USERR5
 40
0.0
  9
$WORLDVIEW
 70
     1
  9
$SHADEDGE
 70
     3
  9
$SHADEDIF
 70
    70
  9
$TILEMODE
 70
     1
  9
$MAXACTVP
 70
    64
  9
$PINSBASE
 10
0.0
 20
0.0
 30
0.0
  9
$PLIMCHECK
 70
     0
  9
$PEXTMIN
 10
1.000000000000000E+20
 20
1.000000000000000E+20
 30
1.000000000000000E+20
  9
$PEXTMAX
 10
-1.000000000000000E+20
 20
-1.000000000000000E+20
 30
-1.000000000000000E+20
  9
$PLIMMIN
 10
0.0
 20
0.0
  9
$PLIMMAX
 10
12.0
 20
9.0
  9
$UNITMODE
 70
     0
  9
$VISRETAIN
 70
     1
  9
$PLINEGEN
 70
     0
  9
$PSLTSCALE
 70
     1
  9
$TREEDEPTH
 70
  3020
  9
$CMLSTYLE
  2
Standard
  9
$CMLJUST
 70
     0
  9
$CMLSCALE
 40
1.0
  9
$PROXYGRAPHICS
 70
     1
  9
$MEASUREMENT
 70
     0
  9
$CELWEIGHT
370
    -1
  9
$ENDCAPS
280
     0
  9
$JOINSTYLE
280
     0
  9
$LWDISPLAY
290
     0
  9
$INSUNITS
 70
     0
  9
$HYPERLINKBASE
  1

  9
$STYLESHEET
  1

  9
$XEDIT
290
     1
  9
$CEPSNTYPE
380
     0
  9
$PSTYLEMODE
290
     0
  9
$FINGERPRINTGUID
  2
{FAEB1C30-E019-11D5-929B-00C0DF256EC4}
  9
$VERSIONGUID
  2
{FAEB1C32-E019-11D5-929B-00C0DF256EC4}
  9
$EXTNAMES
290
     1
  9
$PSVPSCALE
 40
0.0
  9
$OLESTARTUP
290
     0
  0
ENDSEC
  0
SECTION
  2
CLASSES
  0
CLASS
  1
ACDBDICTIONARYWDFLT
  2
AcDbDictionaryWithDefault
  3
ObjectDBX Classes
 90
        0
280
     0
281
     0
  0
CLASS
  1
TABLESTYLE
  2
AcDbTableStyle
  3
ObjectDBX Classes
 90
     2047
280
     0
281
     0
  0
CLASS
  1
DICTIONARYVAR
  2
AcDbDictionaryVar
  3
ObjectDBX Classes
 90
        0
280
     0
281
     0
  0
CLASS
  1
ACDBPLACEHOLDER
  2
AcDbPlaceHolder
  3
ObjectDBX Classes
 90
        0
280
     0
281
     0
  0
CLASS
  1
LAYOUT
  2
AcDbLayout
  3
ObjectDBX Classes
 90
        0
280
     0
281
     0
  0
ENDSEC
  0
SECTION
  2
TABLES
  0
TABLE
  2
VPORT
  5
8
330
0
100
AcDbSymbolTable
 70
     1
  0
VPORT
  5
9F
330
8
100
AcDbSymbolTableRecord
100
AcDbViewportTableRecord
  2
*Active
 70
     0
 10
0.0
 20
0.0
 11
1.0
 21
1.0
 12
10.42990654205607
 22
4.5
 13
0.0
 23
0.0
 14
0.5
 24
0.5
 15
0.5
 25
0.5
 16
0.0
 26
0.0
 36
1.0
 17
0.0
 27
0.0
 37
0.0
 40
9.0
 41
1.972972972850329
 42
50.0
 43
0.0
 44
0.0
 50
0.0
 51
0.0
 71
     0
 72
   100
 73
     1
 74
     3
 75
     0
 76
     0
 77
     0
 78
     0
281
     0
 65
     1
110
0.0
120
0.0
130
0.0
111
1.0
121
0.0
131
0.0
112
0.0
122
1.0
132
0.0
 79
     0
146
0.0
  0
ENDTAB
  0
TABLE
  2
LTYPE
  5
5
330
0
100
AcDbSymbolTable
 70
     9
  0
LTYPE
  5
10
330
5
100
AcDbSymbolTableRecord
100
AcDbLinetypeTableRecord
  2
ByBlock
 70
     0
  3

 72
    65
 73
     0
 40
0.0
  0
LTYPE
  5
11
330
5
100
AcDbSymbolTableRecord
100
AcDbLinetypeTableRecord
  2
ByLayer
 70
     0
  3

 72
    65
 73
     0
 40
0.0
  0
LTYPE
  5
1B
330
5
100
AcDbSymbolTableRecord
100
AcDbLinetypeTableRecord
  2
CONTINUOUS
 70
     0
  3
Solid line
 72
    65
 73
     0
 40
0.0
  0
LTYPE
  5
1C
330
5
100
AcDbSymbolTableRecord
100
AcDbLinetypeTableRecord
  2
HIDDEN
 70
     0
  3
_ _ _ _ _ _ _ _ _ _ _ _ _ _ _ _ _ _ _ _ 
 72
    65
 73
     2
 40
0.375
 49
0.25
 74
     0
 49
-0.125
 74
     0
  0
LTYPE
  5
1D
330
5
100
AcDbSymbolTableRecord
100
AcDbLinetypeTableRecord
  2
DASHED
 70
     0
  3
__ __ __ __ __ __ __ __ __ __ __ __ __  
 72
    65
 73
     2
 40
0.75
 49
0.5
 74
     0
 49
-0.25
 74
     0
  0
LTYPE
  5
1E
330
5
100
AcDbSymbolTableRecord
100
AcDbLinetypeTableRecord
  2
CENTER
 70
     0
  3
____ _ ____ _ ____ _ ____ _ ____ _ ____ 
 72
    65
 73
     4
 40
2.0
 49
1.25
 74
     0
 49
-0.25
 74
     0
 49
0.25
 74
     0
 49
-0.25
 74
     0
  0
LTYPE
  5
1F
330
5
100
AcDbSymbolTableRecord
100
AcDbLinetypeTableRecord
  2
PHANTOM
 70
     0
  3
_____ _ _ _____ _ _ _____ _ _ _____ _ _ 
 72
    65
 73
     6
 40
2.5
 49
1.25
 74
     0
 49
-0.25
 74
     0
 49
0.25
 74
     0
 49
-0.25
 74
     0
 49
0.25
 74
     0
 49
-0.25
 74
     0
  0
LTYPE
  5
20
330
5
100
AcDbSymbolTableRecord
100
AcDbLinetypeTableRecord
  2
DOT
 70
     0
  3
........................................
 72
    65
 73
     2
 40
0.25
 49
0.0
 74
     0
 49
-0.25
 74
     0
  0
LTYPE
  5
21
330
5
100
AcDbSymbolTableRecord
100
AcDbLinetypeTableRecord
  2
DASHDOT
 70
     0
  3
__ . __ . __ . __ . __ . __ . __ . __ . 
 72
    65
 73
     4
 40
1.0
 49
0.5
 74
     0
 49
-0.25
 74
     0
 49
0.0
 74
     0
 49
-0.25
 74
     0
  0
LTYPE
  5
22
330
5
100
AcDbSymbolTableRecord
100
AcDbLinetypeTableRecord
  2
BORDER
 70
     0
  3
__ __ . __ __ . __ __ . __ __ . __ __ . 
 72
    65
 73
     6
 40
1.75
 49
0.5
 74
     0
 49
-0.25
 74
     0
 49
0.5
 74
     0
 49
-0.25
 74
     0
 49
0.0
 74
     0
 49
-0.25
 74
     0
  0
LTYPE
  5
23
330
5
100
AcDbSymbolTableRecord
100
AcDbLinetypeTableRecord
  2
DIVIDE
 70
     0
  3
__ . . __ . . __ . . __ . . __ . . __ . 
 72
    65
 73
     6
 40
1.25
 49
0.5
 74
     0
 49
-0.25
 74
     0
 49
0.0
 74
     0
 49
-0.25
 74
     0
 49
0.0
 74
     0
 49
-0.25
 74
     0
  0
ENDTAB
  0
TABLE
  2
LAYER
  5
2
330
0
100
AcDbSymbolTable
 70
     5
  0
LAYER
  5
24
330
2
100
AcDbSymbolTableRecord
100
AcDbLayerTableRecord
  2
0
 70
     0
 62
     7
  6
CONTINUOUS
370
    -3
390
F
  0
LAYER
  5
25
330
2
100
AcDbSymbolTableRecord
100
AcDbLayerTableRecord
  2
0020010007
 70
     0
 62
     7
  6
CONTINUOUS
370
    -3
390
F
  0
LAYER
  5
26
330
2
100
AcDbSymbolTableRecord
100
AcDbLayerTableRecord
  2
0020010004
 70
     0
 62
     4
  6
CONTINUOUS
370
    -3
390
F
  0
LAYER
  5
27
330
2
100
AcDbSymbolTableRecord
100
AcDbLayerTableRecord
  2
0010010002
 70
     0
 62
     2
  6
CONTINUOUS
370
    -3
390
F
  0
LAYER
  5
28
330
2
100
AcDbSymbolTableRecord
100
AcDbLayerTableRecord
  2
0010010007
 70
     0
 62
     7
  6
CONTINUOUS
370
    -3
390
F
  0
ENDTAB
  0
TABLE
  2
STYLE
  5
3
330
0
100
AcDbSymbolTable
 70
     1
  0
STYLE
  5
29
330
3
100
AcDbSymbolTableRecord
100
AcDbTextStyleTableRecord
  2
STANDARD
 70
     0
 40
0.0
 41
1.0
 50
0.0
 71
     0
 42
0.2
  3
txt
  4

  0
ENDTAB
  0
TABLE
  2
VIEW
  5
6
330
0
100
AcDbSymbolTable
 70
     1
  0
VIEW
  5
2A
330
6
100
AcDbSymbolTableRecord
100
AcDbViewTableRecord
  2
1
 70
     0
 40
20600.0
 10
29641.0
 20
34500.0
 41
1.0
 11
0.0
 21
0.0
 31
1.0
 12
0.0
 22
0.0
 32
0.0
 42
50.0
 43
0.0
 44
0.0
 50
0.0
 71
     0
281
     0
 72
     0
  0
ENDTAB
  0
TABLE
  2
UCS
  5
7
330
0
100
AcDbSymbolTable
 70
     0
  0
ENDTAB
  0
TABLE
  2
APPID
  5
9
330
0
100
AcDbSymbolTable
 70
     1
  0
APPID
  5
2B
330
9
100
AcDbSymbolTableRecord
100
AcDbRegAppTableRecord
  2
ACAD
 70
     0
  0
ENDTAB
  0
TABLE
  2
DIMSTYLE
  5
A
330
0
100
AcDbSymbolTable
 70
     1
100
AcDbDimStyleTable
  0
DIMSTYLE
105
2C
330
A
100
AcDbSymbolTableRecord
100
AcDbDimStyleTableRecord
  2
Standard
 70
     0
340
29
  0
ENDTAB
  0
TABLE
  2
BLOCK_RECORD
  5
1
330
0
100
AcDbSymbolTable
 70
     0
  0
BLOCK_RECORD
  5
18
330
1
100
AcDbSymbolTableRecord
100
AcDbBlockTableRecord
  2
*Model_Space
340
19
  0
BLOCK_RECORD
  5
16
330
1
100
AcDbSymbolTableRecord
100
AcDbBlockTableRecord
  2
*Paper_Space
340
17
  0
ENDTAB
  0
ENDSEC
  0
SECTION
  2
BLOCKS
  0
BLOCK
  5
A4
330
18
100
AcDbEntity
  8
0
100
AcDbBlockBegin
  2
*Model_Space
 70
     0
 71
     0
 10
0.0
 20
0.0
 30
0.0
  3
*Model_Space
  1

  0
ENDBLK
  5
A5
330
18
100
AcDbEntity
  8
0
100
AcDbBlockEnd
  0
BLOCK
  5
A6
330
16
100
AcDbEntity
 67
     1
  8
0
100
AcDbBlockBegin
  2
*Paper_Space
 70
     0
 71
     0
 10
0.0
 20
0.0
 30
0.0
  3
*Paper_Space
  1

  0
ENDBLK
  5
A7
330
16
100
AcDbEntity
 67
     1
  8
0
100
AcDbBlockEnd
  0
ENDSEC
  0
SECTION
  2
ENTITIES
  0
CIRCLE
  5
2D
330
18
100
AcDbEntity
  8
0020010007
100
AcDbCircle
 10
288.75000576142
 20
249.99999999999
 30
0.0
 40
44.8499999999992
  0
LINE
  5
2E
330
18
100
AcDbEntity
  8
0020010007
100
AcDbLine
 10
-10.0
 20
10.0
 30
0.0
 11
-10.0
 21
489.999999999996
 31
0.0
  0
LINE
  5
2F
330
18
100
AcDbEntity
  8
0020010007
100
AcDbLine
 10
13.0000000000109
 20
52.9999999999925
 30
0.0
 11
13.0000000000109
 21
446.99999999999
 31
0.0
  0
LINE
  5
30
330
18
100
AcDbEntity
  8
0020010007
100
AcDbLine
 10
0.0
 20
0.0
 30
0.0
 11
840.0
 21
0.0
 31
0.0
  0
LINE
  5
31
330
18
100
AcDbEntity
  8
0020010007
100
AcDbLine
 10
43.000000000011
 20
22.999999999993
 30
0.0
 11
797.000000000008
 21
22.9999999999928
 31
0.0
  0
LINE
  5
32
330
18
100
AcDbEntity
  8
0020010007
100
AcDbLine
 10
43.000000000011
 20
476.999999999996
 30
0.0
 11
797.000000000008
 21
476.999999999996
 31
0.0
  0
LINE
  5
33
330
18
100
AcDbEntity
  8
0020010007
100
AcDbLine
 10
0.0
 20
499.99999999999
 30
0.0
 11
840.0
 21
499.999999999988
 31
0.0
  0
LINE
  5
34
330
18
100
AcDbEntity
  8
0020010007
100
AcDbLine
 10
827.000000000008
 20
446.999999999996
 30
0.0
 11
827.000000000008
 21
52.99999999999943
 31
0.0
  0
LINE
  5
35
330
18
100
AcDbEntity
  8
0020010007
100
AcDbLine
 10
850.0
 20
10.0
 30
0.0
 11
850.0
 21
489.999999999996
 31
0.0
  0
ARC
  5
36
330
18
100
AcDbEntity
  8
0020010007
100
AcDbCircle
 10
43.000000000011
 20
52.9999999999925
 30
0.0
 40
29.9999999999998
100
AcDbArc
 50
180.0
 51
270.0
  0
ARC
  5
37
330
18
100
AcDbEntity
  8
0020010007
100
AcDbCircle
 10
43.000000000011
 20
446.999999999996
 30
0.0
 40
29.9999999999998
100
AcDbArc
 50
90.0
 51
180.0
  0
ARC
  5
38
330
18
100
AcDbEntity
  8
0020010007
100
AcDbCircle
 10
797.000000000008
 20
446.999999999996
 30
0.0
 40
29.9999999999998
100
AcDbArc
 50
0.0
 51
90.0
  0
ARC
  5
39
330
18
100
AcDbEntity
  8
0020010007
100
AcDbCircle
 10
797.000000000008
 20
52.9999999999925
 30
0.0
 40
29.9999999999998
100
AcDbArc
 50
270.0
 51
0.0
  0
ARC
  5
3A
330
18
100
AcDbEntity
  8
0020010007
100
AcDbCircle
 10
0.0
 20
489.99999999999
 30
0.0
 40
9.99999999999994
100
AcDbArc
 50
90.0
 51
180.0
  0
ARC
  5
3B
330
18
100
AcDbEntity
  8
0020010007
100
AcDbCircle
 10
840.0
 20
489.99999999999
 30
0.0
 40
9.99999999999994
100
AcDbArc
 50
0.0
 51
90.0
  0
ARC
  5
3C
330
18
100
AcDbEntity
  8
0020010007
100
AcDbCircle
 10
840.0
 20
10.0
 30
0.0
 40
9.99999999999994
100
AcDbArc
 50
270.0
 51
0.0
  0
ARC
  5
3D
330
18
100
AcDbEntity
  8
0020010007
100
AcDbCircle
 10
0.0
 20
10.0
 30
0.0
 40
9.99999999999994
100
AcDbArc
 50
180.0
 51
270.0
  0
ARC
  5
3E
330
18
100
AcDbEntity
  8
0020010007
100
AcDbCircle
 10
140.999991021154
 20
370.000011971768
 30
0.0
 40
80.00000798120161
100
AcDbArc
 50
90.0
 51
180.0
  0
LINE
  5
3F
330
18
100
AcDbEntity
  8
0020010007
100
AcDbLine
 10
60.9999830399374
 20
370.000011971768
 30
0.0
 11
60.9999830399374
 21
129.999988028164
 31
0.0
  0
ARC
  5
40
330
18
100
AcDbEntity
  8
0020010007
100
AcDbCircle
 10
140.999991021154
 20
129.999988028175
 30
0.0
 40
80.00000798120161
100
AcDbArc
 50
180.0
 51
270.0
  0
LINE
  5
41
330
18
100
AcDbEntity
  8
0020010007
100
AcDbLine
 10
145.872491021137
 20
49.9999800469775
 30
0.0
 11
325.87250897884
 21
49.9999800469775
 31
0.0
  0
ARC
  5
42
330
18
100
AcDbEntity
  8
0020010007
100
AcDbCircle
 10
321.000008978852
 20
129.999988028175
 30
0.0
 40
80.00000798120161
100
AcDbArc
 50
270.0
 51
0.0
  0
LINE
  5
43
330
18
100
AcDbEntity
  8
0020010007
100
AcDbLine
 10
401.00001696005
 20
129.999988028175
 30
0.0
 11
401.00001696005
 21
370.00001197178
 31
0.0
  0
ARC
  5
44
330
18
100
AcDbEntity
  8
0020010007
100
AcDbCircle
 10
321.000008978852
 20
370.000011971768
 30
0.0
 40
80.00000798120161
100
AcDbArc
 50
0.0
 51
90.0
  0
LINE
  5
45
330
18
100
AcDbEntity
  8
0020010007
100
AcDbLine
 10
321.000008978852
 20
450.000019952966
 30
0.0
 11
140.999991021148
 21
450.000019952966
 31
0.0
  0
CIRCLE
  5
46
330
18
100
AcDbEntity
  8
0020010007
100
AcDbCircle
 10
551.249994238562
 20
249.99999999999
 30
0.0
 40
44.8499999999992
  0
ARC
  5
47
330
18
100
AcDbEntity
  8
0020010007
100
AcDbCircle
 10
699.000008978848
 20
370.000011971768
 30
0.0
 40
80.00000798120161
100
AcDbArc
 50
0.0
 51
90.0
  0
LINE
  5
48
330
18
100
AcDbEntity
  8
0020010007
100
AcDbLine
 10
779.000016960064
 20
370.000011971768
 30
0.0
 11
779.000016960064
 21
129.999988028164
 31
0.0
  0
ARC
  5
49
330
18
100
AcDbEntity
  8
0020010007
100
AcDbCircle
 10
699.000008978848
 20
129.999988028175
 30
0.0
 40
80.00000798120161
100
AcDbArc
 50
270.0
 51
0.0
  0
LINE
  5
4A
330
18
100
AcDbEntity
  8
0020010007
100
AcDbLine
 10
694.127508978848
 20
49.9999800469775
 30
0.0
 11
514.127491021144
 21
49.9999800469775
 31
0.0
  0
ARC
  5
4B
330
18
100
AcDbEntity
  8
0020010007
100
AcDbCircle
 10
518.9999910211481
 20
129.999988028175
 30
0.0
 40
80.00000798120161
100
AcDbArc
 50
180.0
 51
270.0
  0
LINE
  5
4C
330
18
100
AcDbEntity
  8
0020010007
100
AcDbLine
 10
438.99998303995
 20
129.999988028175
 30
0.0
 11
438.99998303995
 21
370.00001197178
 31
0.0
  0
ARC
  5
4D
330
18
100
AcDbEntity
  8
0020010007
100
AcDbCircle
 10
518.9999910211481
 20
370.000011971768
 30
0.0
 40
80.00000798120161
100
AcDbArc
 50
90.0
 51
180.0
  0
LINE
  5
4E
330
18
100
AcDbEntity
  8
0020010007
100
AcDbLine
 10
518.9999910211481
 20
450.000019952966
 30
0.0
 11
699.000008978852
 21
450.000019952966
 31
0.0
  0
CIRCLE
  5
4F
330
18
100
AcDbEntity
  8
0020010004
100
AcDbCircle
 10
551.249994238562
 20
249.99999999999
 30
0.0
 40
61.5000061355485
  0
CIRCLE
  5
50
330
18
100
AcDbEntity
  8
0020010004
100
AcDbCircle
 10
288.75000576142
 20
249.99999999999
 30
0.0
 40
61.5000061355485
  0
LINE
  5
51
330
18
100
AcDbEntity
  8
0010010002
100
AcDbLine
 10
-10.0000000000016
 20
490.999999999998
 30
0.0
 11
-10.0000000000016
 21
570.99999999999
 31
0.0
  0
LINE
  5
52
330
18
100
AcDbEntity
  8
0010010002
100
AcDbLine
 10
850.0
 20
490.999999999998
 30
0.0
 11
850.0
 21
570.99999999999
 31
0.0
  0
SOLID
  5
53
330
18
100
AcDbEntity
  8
0010010002
100
AcDbTrace
 10
-8.76216491407463
 20
569.82603362379
 30
0.0
 11
-8.76216491407463
 21
570.17396637619
 31
0.0
 12
-10.0000000000016
 22
569.99999999999
 32
0.0
 13
-10.0000000000016
 23
569.99999999999
 33
0.0
  0
SOLID
  5
54
330
18
100
AcDbEntity
  8
0010010002
100
AcDbTrace
 10
848.762164914073
 20
570.17396637619
 30
0.0
 11
848.762164914073
 21
569.82603362379
 31
0.0
 12
850.0
 22
569.99999999999
 32
0.0
 13
850.0
 23
569.99999999999
 33
0.0
  0
LINE
  5
55
330
18
100
AcDbEntity
  8
0010010002
100
AcDbLine
 10
-10.0000000000016
 20
569.99999999999
 30
0.0
 11
850.0
 21
569.99999999999
 31
0.0
  0
TEXT
  5
56
330
18
100
AcDbEntity
  8
0010010002
100
AcDbText
 10
390.00000059265
 20
585.000000953665
 30
0.0
 40
30.0000019073486
  1
860
 41
0.75
100
AcDbText
  0
LINE
  5
57
330
18
100
AcDbEntity
  8
0010010002
100
AcDbLine
 10
841.0
 20
499.99999999999
 30
0.0
 11
921.0
 21
499.99999999999
 31
0.0
  0
LINE
  5
58
330
18
100
AcDbEntity
  8
0010010002
100
AcDbLine
 10
841.0
 20
0.0
 30
0.0
 11
921.0
 21
0.0
 31
0.0
  0
SOLID
  5
59
330
18
100
AcDbEntity
  8
0010010002
100
AcDbTrace
 10
919.8260336238
 20
498.762164914063
 30
0.0
 11
920.1739663762
 21
498.762164914063
 31
0.0
 12
920.0
 22
499.99999999999
 32
0.0
 13
920.0
 23
499.99999999999
 33
0.0
  0
SOLID
  5
5A
330
18
100
AcDbEntity
  8
0010010002
100
AcDbTrace
 10
920.1739663762
 20
1.23783508592696
 30
0.0
 11
919.8260336238
 21
1.23783508592696
 31
0.0
 12
920.0
 22
0.0
 32
0.0
 13
920.0
 23
0.0
 33
0.0
  0
LINE
  5
5B
330
18
100
AcDbEntity
  8
0010010002
100
AcDbLine
 10
920.0
 20
499.99999999999
 30
0.0
 11
920.0
 21
0.0
 31
0.0
  0
TEXT
  5
5C
330
18
100
AcDbEntity
  8
0010010002
100
AcDbText
 10
904.999999046325
 20
219.999995592647
 30
0.0
 40
30.0000019073486
  1
500
 50
90.0
 41
0.75
100
AcDbText
  0
LINE
  5
5D
330
18
100
AcDbEntity
  8
0010010007
100
AcDbLine
 10
396.000005761423
 20
891.919535313336
 30
0.0
 11
396.000005761423
 21
891.219535313336
 31
0.0
  0
LINE
  5
5E
330
18
100
AcDbEntity
  8
0010010007
100
AcDbLine
 10
326.454790761418
 20
721.839271313336
 30
0.0
 11
330.376032761418
 21
723.189463313336
 31
0.0
  0
LINE
  5
5F
330
18
100
AcDbEntity
  8
0010010007
100
AcDbLine
 10
396.000005761423
 20
891.219535313339
 30
0.0
 11
26.00000576142708
 21
891.219535313339
 31
0.0
  0
LINE
  5
60
330
18
100
AcDbEntity
  8
0010010007
100
AcDbLine
 10
381.550051761413
 20
889.039908313338
 30
0.0
 11
375.127495761413
 21
766.4902533133391
 31
0.0
  0
LINE
  5
61
330
18
100
AcDbEntity
  8
0010010007
100
AcDbLine
 10
330.376032761414
 20
723.189463313341
 30
0.0
 11
330.996652761414
 21
723.205714313341
 31
0.0
  0
LINE
  5
62
330
18
100
AcDbEntity
  8
0010010007
100
AcDbLine
 10
330.376032761414
 20
723.189463313341
 30
0.0
 11
207.123978761416
 21
723.189463313341
 31
0.0
  0
LINE
  5
63
330
18
100
AcDbEntity
  8
0010010007
100
AcDbLine
 10
313.692162761421
 20
718.41953531334
 30
0.0
 11
326.454790761421
 21
721.83927131334
 31
0.0
  0
LINE
  5
64
330
18
100
AcDbEntity
  8
0010010007
100
AcDbLine
 10
326.454790761418
 20
721.839271313336
 30
0.0
 11
211.045220761419
 21
721.839271313336
 31
0.0
  0
LINE
  5
65
330
18
100
AcDbEntity
  8
0010010007
100
AcDbLine
 10
313.692162761421
 20
718.41953531334
 30
0.0
 11
223.807848761422
 21
718.41953531334
 31
0.0
  0
LINE
  5
66
330
18
100
AcDbEntity
  8
0010010007
100
AcDbLine
 10
207.123978761417
 20
723.189463313341
 30
0.0
 11
90.6752887614187
 21
726.238779313341
 31
0.0
  0
LINE
  5
67
330
18
100
AcDbEntity
  8
0010010007
100
AcDbLine
 10
223.807848761425
 20
718.41953531334
 30
0.0
 11
211.045220761426
 21
721.83927131334
 31
0.0
  0
LINE
  5
68
330
18
100
AcDbEntity
  8
0010010007
100
AcDbLine
 10
211.045220761414
 20
721.839271313336
 30
0.0
 11
207.123978761414
 21
723.189463313336
 31
0.0
  0
LINE
  5
69
330
18
100
AcDbEntity
  8
0010010007
100
AcDbLine
 10
46.7137867614217
 20
769.518970313336
 30
0.0
 11
40.4499597614218
 21
889.039908313335
 31
0.0
  0
LINE
  5
6A
330
18
100
AcDbEntity
  8
0010010007
100
AcDbLine
 10
26.0000057614232
 20
891.919535313336
 30
0.0
 11
26.0000057614232
 21
891.219535313336
 31
0.0
  0
ARC
  5
6B
330
18
100
AcDbEntity
  8
0010010007
100
AcDbCircle
 10
329.490122761417
 20
768.881942313339
 30
0.0
 40
45.7000002606338
100
AcDbArc
 50
271.500000571282
 51
357.000000267955
  0
ARC
  5
6C
330
18
100
AcDbEntity
  8
0010010007
100
AcDbCircle
 10
92.3511647614212
 20
771.910560313339
 30
0.0
 40
45.6999992522443
100
AcDbArc
 50
182.99999979766
 51
268.500000649206
  0
ARC
  5
6D
330
18
100
AcDbEntity
  8
0010010007
100
AcDbCircle
 10
38.1531117614211
 20
888.919535313336
 30
0.0
 40
2.30000008570298
100
AcDbArc
 50
3.00000738772457
 51
68.2500027210211
  0
ARC
  5
6E
330
18
100
AcDbEntity
  8
0010010007
100
AcDbCircle
 10
383.846899761411
 20
888.919535313336
 30
0.0
 40
2.30000035755057
100
AcDbArc
 50
111.750020416741
 51
176.999992612275
  0
LINE
  5
6F
330
18
100
AcDbEntity
  8
0010010007
100
AcDbLine
 10
-10.0000000000016
 20
900.114505313337
 30
0.0
 11
-6.75148000000155
 21
903.363035313337
 31
0.0
  0
LINE
  5
70
330
18
100
AcDbEntity
  8
0010010007
100
AcDbLine
 10
-9.01006000000211
 20
899.124565313337
 30
0.0
 11
-5.76153000000215
 21
902.373085313337
 31
0.0
  0
LINE
  5
71
330
18
100
AcDbEntity
  8
0010010007
100
AcDbLine
 10
4.79497000000106
 20
882.919535313336
 30
0.0
 11
4.79497000000106
 21
901.019535313336
 31
0.0
  0
LINE
  5
72
330
18
100
AcDbEntity
  8
0010010007
100
AcDbLine
 10
16.8364199999908
 20
896.919535313336
 30
0.0
 11
13.9785399999907
 21
901.869535313336
 31
0.0
  0
LINE
  5
73
330
18
100
AcDbEntity
  8
0010010007
100
AcDbLine
 10
-5.4079700000018
 20
902.519535313338
 30
0.0
 11
3.294969999998219
 21
902.519535313338
 31
0.0
  0
ARC
  5
74
330
18
100
AcDbEntity
  8
0010010007
100
AcDbCircle
 10
3.29497000000106
 20
901.019535313338
 30
0.0
 40
1.5
100
AcDbArc
 50
0.0
 51
90.0
  0
ARC
  5
75
330
18
100
AcDbEntity
  8
0010010007
100
AcDbCircle
 10
-5.4079700000018
 20
902.019535313338
 30
0.0
 40
1.9
100
AcDbArc
 50
90.0
 51
135.0
  0
ARC
  5
76
330
18
100
AcDbEntity
  8
0010010007
100
AcDbCircle
 10
-9.505030000001851
 20
899.619535313337
 30
0.0
 40
0.7
100
AcDbArc
 50
135.0
 51
315.0
  0
ARC
  5
77
330
18
100
AcDbEntity
  8
0010010007
100
AcDbCircle
 10
-5.4079700000018
 20
902.019535313338
 30
0.0
 40
0.5
100
AcDbArc
 50
90.0
 51
135.0
  0
ARC
  5
78
330
18
100
AcDbEntity
  8
0010010007
100
AcDbCircle
 10
25.496679999995
 20
901.919535313336
 30
0.0
 40
10.0
100
AcDbArc
 50
210.0
 51
270.0
  0
ARC
  5
79
330
18
100
AcDbEntity
  8
0010010007
100
AcDbCircle
 10
10.4278299999989
 20
899.819535313338
 30
0.0
 40
4.1
100
AcDbArc
 50
30.0
 51
90.0
  0
LINE
  5
7A
330
18
100
AcDbEntity
  8
0010010007
100
AcDbLine
 10
850.0
 20
900.114505313337
 30
0.0
 11
846.75148
 21
903.363035313337
 31
0.0
  0
LINE
  5
7B
330
18
100
AcDbEntity
  8
0010010007
100
AcDbLine
 10
849.01006
 20
899.124565313337
 30
0.0
 11
845.76153
 21
902.373085313337
 31
0.0
  0
LINE
  5
7C
330
18
100
AcDbEntity
  8
0010010007
100
AcDbLine
 10
835.205029999997
 20
882.919535313336
 30
0.0
 11
835.205029999997
 21
901.019535313336
 31
0.0
  0
LINE
  5
7D
330
18
100
AcDbEntity
  8
0010010007
100
AcDbLine
 10
823.163580000007
 20
896.919535313336
 30
0.0
 11
826.021460000007
 21
901.869535313336
 31
0.0
  0
LINE
  5
7E
330
18
100
AcDbEntity
  8
0010010007
100
AcDbLine
 10
845.40797
 20
902.519535313338
 30
0.0
 11
836.70503
 21
902.519535313338
 31
0.0
  0
ARC
  5
7F
330
18
100
AcDbEntity
  8
0010010007
100
AcDbCircle
 10
836.705029999997
 20
901.019535313338
 30
0.0
 40
1.5
100
AcDbArc
 50
90.0
 51
180.0
  0
ARC
  5
80
330
18
100
AcDbEntity
  8
0010010007
100
AcDbCircle
 10
845.40797
 20
902.019535313338
 30
0.0
 40
1.9
100
AcDbArc
 50
45.0
 51
90.0
  0
ARC
  5
81
330
18
100
AcDbEntity
  8
0010010007
100
AcDbCircle
 10
849.50503
 20
899.619535313337
 30
0.0
 40
0.7
100
AcDbArc
 50
225.0
 51
45.0
  0
ARC
  5
82
330
18
100
AcDbEntity
  8
0010010007
100
AcDbCircle
 10
845.40797
 20
902.019535313338
 30
0.0
 40
0.5
100
AcDbArc
 50
45.0
 51
90.0
  0
ARC
  5
83
330
18
100
AcDbEntity
  8
0010010007
100
AcDbCircle
 10
814.503320000003
 20
901.919535313336
 30
0.0
 40
10.0
100
AcDbArc
 50
270.0
 51
330.0
  0
ARC
  5
84
330
18
100
AcDbEntity
  8
0010010007
100
AcDbCircle
 10
829.572169999999
 20
899.819535313338
 30
0.0
 40
4.1
100
AcDbArc
 50
90.0
 51
150.0
  0
LINE
  5
85
330
18
100
AcDbEntity
  8
0010010007
100
AcDbLine
 10
25.496679999995
 20
891.919535313336
 30
0.0
 11
814.503320000003
 21
891.919535313336
 31
0.0
  0
LINE
  5
86
330
18
100
AcDbEntity
  8
0010010007
100
AcDbLine
 10
-5.4079700000018
 20
903.919535313336
 30
0.0
 11
845.40797
 21
903.919535313336
 31
0.0
  0
LINE
  5
87
330
18
100
AcDbEntity
  8
0010010002
100
AcDbLine
 10
-6.4079700000018
 20
903.919535313336
 30
0.0
 11
-80.20649433723931
 21
903.919535313336
 31
0.0
  0
LINE
  5
88
330
18
100
AcDbEntity
  8
0010010002
100
AcDbLine
 10
206.123978761417
 20
723.189463313341
 30
0.0
 11
-80.20649433723929
 21
723.189463313341
 31
0.0
  0
SOLID
  5
89
330
18
100
AcDbEntity
  8
0010010002
100
AcDbTrace
 10
-79.38046071343941
 20
902.681700227409
 30
0.0
 11
-79.03252796103931
 21
902.681700227409
 31
0.0
 12
-79.20649433723931
 22
903.919535313336
 32
0.0
 13
-79.20649433723931
 23
903.919535313336
 33
0.0
  0
SOLID
  5
8A
330
18
100
AcDbEntity
  8
0010010002
100
AcDbTrace
 10
-79.03252796103931
 20
724.427298399268
 30
0.0
 11
-79.38046071343941
 21
724.427298399268
 31
0.0
 12
-79.20649433723931
 22
723.189463313341
 32
0.0
 13
-79.20649433723931
 23
723.189463313341
 33
0.0
  0
LINE
  5
8B
330
18
100
AcDbEntity
  8
0010010002
100
AcDbLine
 10
-79.20649433723931
 20
903.919535313336
 30
0.0
 11
-79.20649433723931
 21
723.189463313341
 31
0.0
  0
TEXT
  5
8C
330
18
100
AcDbEntity
  8
0010010002
100
AcDbText
 10
-94.20649529091359
 20
783.5544949059901
 30
0.0
 40
30.0000019073486
  1
180
 50
90.0
 41
0.75
100
AcDbText
  0
LINE
  5
8D
330
18
100
AcDbEntity
  8
0010010007
100
AcDbLine
 10
443.999994238596
 20
891.919535313336
 30
0.0
 11
443.999994238596
 21
891.219535313336
 31
0.0
  0
LINE
  5
8E
330
18
100
AcDbEntity
  8
0010010007
100
AcDbLine
 10
513.5452092386011
 20
721.839271313336
 30
0.0
 11
509.623967238601
 21
723.189463313336
 31
0.0
  0
LINE
  5
8F
330
18
100
AcDbEntity
  8
0010010007
100
AcDbLine
 10
443.999994238596
 20
891.219535313339
 30
0.0
 11
813.999994238592
 21
891.219535313339
 31
0.0
  0
LINE
  5
90
330
18
100
AcDbEntity
  8
0010010007
100
AcDbLine
 10
458.449948238607
 20
889.039908313338
 30
0.0
 11
464.872504238607
 21
766.4902533133391
 31
0.0
  0
LINE
  5
91
330
18
100
AcDbEntity
  8
0010010007
100
AcDbLine
 10
509.623967238605
 20
723.189463313341
 30
0.0
 11
509.003347238605
 21
723.205714313341
 31
0.0
  0
LINE
  5
92
330
18
100
AcDbEntity
  8
0010010007
100
AcDbLine
 10
509.623967238605
 20
723.189463313341
 30
0.0
 11
632.876021238603
 21
723.189463313341
 31
0.0
  0
LINE
  5
93
330
18
100
AcDbEntity
  8
0010010007
100
AcDbLine
 10
526.307837238598
 20
718.41953531334
 30
0.0
 11
513.545209238598
 21
721.83927131334
 31
0.0
  0
LINE
  5
94
330
18
100
AcDbEntity
  8
0010010007
100
AcDbLine
 10
513.5452092386011
 20
721.839271313336
 30
0.0
 11
628.9547792386001
 21
721.839271313336
 31
0.0
  0
LINE
  5
95
330
18
100
AcDbEntity
  8
0010010007
100
AcDbLine
 10
526.307837238598
 20
718.41953531334
 30
0.0
 11
616.192151238597
 21
718.41953531334
 31
0.0
  0
LINE
  5
96
330
18
100
AcDbEntity
  8
0010010007
100
AcDbLine
 10
632.876021238601
 20
723.189463313341
 30
0.0
 11
749.3247112386
 21
726.238779313341
 31
0.0
  0
LINE
  5
97
330
18
100
AcDbEntity
  8
0010010007
100
AcDbLine
 10
616.1921512385931
 20
718.41953531334
 30
0.0
 11
628.954779238593
 21
721.83927131334
 31
0.0
  0
LINE
  5
98
330
18
100
AcDbEntity
  8
0010010007
100
AcDbLine
 10
628.9547792386051
 20
721.839271313336
 30
0.0
 11
632.876021238605
 21
723.189463313336
 31
0.0
  0
LINE
  5
99
330
18
100
AcDbEntity
  8
0010010007
100
AcDbLine
 10
793.286213238597
 20
769.518970313336
 30
0.0
 11
799.550040238597
 21
889.039908313335
 31
0.0
  0
LINE
  5
9A
330
18
100
AcDbEntity
  8
0010010007
100
AcDbLine
 10
813.999994238596
 20
891.919535313336
 30
0.0
 11
813.999994238596
 21
891.219535313336
 31
0.0
  0
ARC
  5
9B
330
18
100
AcDbEntity
  8
0010010007
100
AcDbCircle
 10
510.509877238602
 20
768.881942313339
 30
0.0
 40
45.7000002606338
100
AcDbArc
 50
182.999999732045
 51
268.499999428718
  0
ARC
  5
9C
330
18
100
AcDbEntity
  8
0010010007
100
AcDbCircle
 10
747.6488352385981
 20
771.910560313339
 30
0.0
 40
45.6999992522443
100
AcDbArc
 50
271.499999350794
 51
357.00000020234
  0
ARC
  5
9D
330
18
100
AcDbEntity
  8
0010010007
100
AcDbCircle
 10
801.846888238598
 20
888.919535313336
 30
0.0
 40
2.30000008570298
100
AcDbArc
 50
111.749997278979
 51
176.999992612275
  0
ARC
  5
9E
330
18
100
AcDbEntity
  8
0010010007
100
AcDbCircle
 10
456.153100238608
 20
888.919535313336
 30
0.0
 40
2.30000035755057
100
AcDbArc
 50
3.00000738772485
 51
68.24997958325861
  0
ENDSEC
  0
SECTION
  2
OBJECTS
  0
DICTIONARY
  5
C
330
0
100
AcDbDictionary
281
     1
  3
ACAD_GROUP
350
D
  3
ACAD_LAYOUT
350
15
  3
ACAD_MLINESTYLE
350
12
  3
ACAD_PLOTSETTINGS
350
14
  3
ACAD_PLOTSTYLENAME
350
E
  3
ACAD_TABLESTYLE
350
A0
  3
AcDbVariableDictionary
350
A2
  0
DICTIONARY
  5
D
102
{ACAD_REACTORS
330
C
102
}
330
C
100
AcDbDictionary
281
     1
  0
DICTIONARY
  5
15
102
{ACAD_REACTORS
330
C
102
}
330
C
100
AcDbDictionary
281
     1
  3
Layout1
350
17
  3
Model
350
19
  0
DICTIONARY
  5
12
102
{ACAD_REACTORS
330
C
102
}
330
C
100
AcDbDictionary
281
     1
  3
Standard
350
13
  0
DICTIONARY
  5
14
102
{ACAD_REACTORS
330
C
102
}
330
C
100
AcDbDictionary
281
     1
  0
ACDBDICTIONARYWDFLT
  5
E
102
{ACAD_REACTORS
330
C
102
}
330
C
100
AcDbDictionary
281
     1
  3
Normal
350
F
100
AcDbDictionaryWithDefault
340
F
  0
DICTIONARY
  5
A0
102
{ACAD_REACTORS
330
C
102
}
330
C
100
AcDbDictionary
281
     1
  3
Standard
350
A1
  0
DICTIONARY
  5
A2
102
{ACAD_REACTORS
330
C
102
}
330
C
100
AcDbDictionary
281
     1
  3
CTABLESTYLE
350
A3
  0
LAYOUT
  5
17
102
{ACAD_REACTORS
330
15
102
}
330
15
100
AcDbPlotSettings
  1

  2

  4

  6

 40
0.0
 41
0.0
 42
0.0
 43
0.0
 44
0.0
 45
0.0
 46
0.0
 47
0.0
 48
0.0
 49
0.0
140
0.0
141
0.0
142
1.0
143
1.0
 70
   688
 72
     0
 73
     0
 74
     5
  7

 75
    16
147
1.0
148
0.0
149
0.0
100
AcDbLayout
  1
Layout1
 70
     1
 71
     1
 10
0.0
 20
0.0
 11
12.0
 21
9.0
 12
0.0
 22
0.0
 32
0.0
 14
1.000000000000000E+20
 24
1.000000000000000E+20
 34
1.000000000000000E+20
 15
-1.000000000000000E+20
 25
-1.000000000000000E+20
 35
-1.000000000000000E+20
146
0.0
 13
0.0
 23
0.0
 33
0.0
 16
1.0
 26
0.0
 36
0.0
 17
0.0
 27
1.0
 37
0.0
 76
     0
330
16
  0
LAYOUT
  5
19
102
{ACAD_REACTORS
330
15
102
}
330
15
100
AcDbPlotSettings
  1

  2

  4

  6

 40
0.0
 41
0.0
 42
0.0
 43
0.0
 44
0.0
 45
0.0
 46
0.0
 47
0.0
 48
0.0
 49
0.0
140
0.0
141
0.0
142
1.0
143
1.0
 70
  1712
 72
     0
 73
     0
 74
     0
  7

 75
     0
147
1.0
148
0.0
149
0.0
100
AcDbLayout
  1
Model
 70
     1
 71
     0
 10
0.0
 20
0.0
 11
0.0
 21
0.0
 12
0.0
 22
0.0
 32
0.0
 14
-32.05
 24
-32.05
 34
0.0
 15
1258.45
 25
893.05
 35
0.0
146
0.0
 13
0.0
 23
0.0
 33
0.0
 16
1.0
 26
0.0
 36
0.0
 17
0.0
 27
1.0
 37
0.0
 76
     0
330
18
  0
MLINESTYLE
  5
13
102
{ACAD_REACTORS
330
12
102
}
330
12
100
AcDbMlineStyle
  2
Standard
 70
     0
  3

 62
   256
 51
90.0
 52
90.0
 71
     2
 49
0.5
 62
   256
  6
BYLAYER
 49
-0.5
 62
   256
  6
BYLAYER
  0
ACDBPLACEHOLDER
  5
F
102
{ACAD_REACTORS
330
E
102
}
330
E
  0
TABLESTYLE
  5
A1
102
{ACAD_REACTORS
330
A0
102
}
330
A0
100
AcDbTableStyle
  3
Standard
 70
     0
 71
     0
 40
0.06
 41
0.06
280
     0
281
     0
  7
STANDARD
140
0.18
170
     2
 62
     0
 63
     7
283
     0
274
    -2
284
     1
 64
     0
275
    -2
285
     1
 65
     0
276
    -2
286
     1
 66
     0
277
    -2
287
     1
 67
     0
278
    -2
288
     1
 68
     0
279
    -2
289
     1
 69
     0
  7
STANDARD
140
0.25
170
     5
 62
     0
 63
     7
283
     0
274
    -2
284
     1
 64
     0
275
    -2
285
     1
 65
     0
276
    -2
286
     1
 66
     0
277
    -2
287
     1
 67
     0
278
    -2
288
     1
 68
     0
279
    -2
289
     1
 69
     0
  7
STANDARD
140
0.18
170
     5
 62
     0
 63
     7
283
     0
274
    -2
284
     1
 64
     0
275
    -2
285
     1
 65
     0
276
    -2
286
     1
 66
     0
277
    -2
287
     1
 67
     0
278
    -2
288
     1
 68
     0
279
    -2
289
     1
 69
     0
  0
DICTIONARYVAR
  5
A3
102
{ACAD_REACTORS
330
A2
102
}
330
A2
100
DictionaryVariables
280
     0
  1
Standard
  0
ENDSEC
  0
EOF
