  0
SECTION
  2
HEADER
  9
$ACADVER
  1
AC1032
  9
$ACADMAINTVER
 90
      228
  9
$DWGCODEPAGE
  3
ANSI_1252
  9
$REQUIREDVERSIONS
160
                 0
  9
$INSBASE
 10
0.0
 20
0.0
 30
0.0
  9
$EXTMIN
 10
1.000000000000000E+20
 20
1.000000000000000E+20
 30
1.000000000000000E+20
  9
$EXTMAX
 10
-1.000000000000000E+20
 20
-1.000000000000000E+20
 30
-1.000000000000000E+20
  9
$LIMMIN
 10
0.0
 20
0.0
  9
$LIMMAX
 10
12.0
 20
9.0
  9
$ORTHOMODE
 70
     0
  9
$REGENMODE
 70
     1
  9
$FILLMODE
 70
     1
  9
$QTEXTMODE
 70
     0
  9
$MIRRTEXT
 70
     0
  9
$LTSCALE
 40
1.0
  9
$ATTMODE
 70
     1
  9
$TEXTSIZE
 40
0.2
  9
$TRACEWID
 40
0.05
  9
$TEXTSTYLE
  7
Standard
  9
$CLAYER
  8
0
  9
$CELTYPE
  6
ByLayer
  9
$CECOLOR
 62
   256
  9
$CELTSCALE
 40
1.0
  9
$DISPSILH
 70
     0
  9
$DIMSCALE
 40
1.0
  9
$DIMASZ
 40
0.18
  9
$DIMEXO
 40
0.0625
  9
$DIMDLI
 40
0.38
  9
$DIMRND
 40
0.0
  9
$DIMDLE
 40
0.0
  9
$DIMEXE
 40
0.18
  9
$DIMTP
 40
0.0
  9
$DIMTM
 40
0.0
  9
$DIMTXT
 40
0.18
  9
$DIMCEN
 40
0.09
  9
$DIMTSZ
 40
0.0
  9
$DIMTOL
 70
     0
  9
$DIMLIM
 70
     0
  9
$DIMTIH
 70
     1
  9
$DIMTOH
 70
     1
  9
$DIMSE1
 70
     0
  9
$DIMSE2
 70
     0
  9
$DIMTAD
 70
     0
  9
$DIMZIN
 70
     0
  9
$DIMBLK
  1

  9
$DIMASO
 70
     1
  9
$DIMSHO
 70
     1
  9
$DIMPOST
  1

  9
$DIMAPOST
  1

  9
$DIMALT
 70
     0
  9
$DIMALTD
 70
     2
  9
$DIMALTF
 40
25.4
  9
$DIMLFAC
 40
1.0
  9
$DIMTOFL
 70
     0
  9
$DIMTVP
 40
0.0
  9
$DIMTIX
 70
     0
  9
$DIMSOXD
 70
     0
  9
$DIMSAH
 70
     0
  9
$DIMBLK1
  1

  9
$DIMBLK2
  1

  9
$DIMSTYLE
  2
Standard
  9
$DIMCLRD
 70
     0
  9
$DIMCLRE
 70
     0
  9
$DIMCLRT
 70
     0
  9
$DIMTFAC
 40
1.0
  9
$DIMGAP
 40
0.09
  9
$DIMJUST
 70
     0
  9
$DIMSD1
 70
     0
  9
$DIMSD2
 70
     0
  9
$DIMTOLJ
 70
     1
  9
$DIMTZIN
 70
     0
  9
$DIMALTZ
 70
     0
  9
$DIMALTTZ
 70
     0
  9
$DIMUPT
 70
     0
  9
$DIMDEC
 70
     4
  9
$DIMTDEC
 70
     4
  9
$DIMALTU
 70
     2
  9
$DIMALTTD
 70
     2
  9
$DIMTXSTY
  7
Standard
  9
$DIMAUNIT
 70
     0
  9
$DIMADEC
 70
     0
  9
$DIMALTRND
 40
0.0
  9
$DIMAZIN
 70
     0
  9
$DIMDSEP
 70
    46
  9
$DIMATFIT
 70
     3
  9
$DIMFRAC
 70
     0
  9
$DIMLDRBLK
  1

  9
$DIMLUNIT
 70
     2
  9
$DIMLWD
 70
    -2
  9
$DIMLWE
 70
    -2
  9
$DIMTMOVE
 70
     0
  9
$DIMFXL
 40
1.0
  9
$DIMFXLON
 70
     0
  9
$DIMJOGANG
 40
0.7853981633974483
  9
$DIMTFILL
 70
     0
  9
$DIMTFILLCLR
 70
     0
  9
$DIMARCSYM
 70
     0
  9
$DIMLTYPE
  6

  9
$DIMLTEX1
  6

  9
$DIMLTEX2
  6

  9
$DIMTXTDIRECTION
 70
     0
  9
$LUNITS
 70
     2
  9
$LUPREC
 70
     4
  9
$SKETCHINC
 40
0.1
  9
$FILLETRAD
 40
0.0
  9
$AUNITS
 70
     0
  9
$AUPREC
 70
     0
  9
$MENU
  1
.
  9
$ELEVATION
 40
0.0
  9
$PELEVATION
 40
0.0
  9
$THICKNESS
 40
0.0
  9
$LIMCHECK
 70
     0
  9
$CHAMFERA
 40
0.0
  9
$CHAMFERB
 40
0.0
  9
$CHAMFERC
 40
0.0
  9
$CHAMFERD
 40
0.0
  9
$SKPOLY
 70
     0
  9
$TDCREATE
 40
2459821.354085648
  9
$TDUCREATE
 40
2459821.479085648
  9
$TDUPDATE
 40
2459821.354085648
  9
$TDUUPDATE
 40
2459821.479085648
  9
$TDINDWG
 40
0.0000000000
  9
$TDUSRTIMER
 40
0.0000000000
  9
$USRTIMER
 70
     1
  9
$ANGBASE
 50
0.0
  9
$ANGDIR
 70
     0
  9
$PDMODE
 70
     0
  9
$PDSIZE
 40
0.0
  9
$PLINEWID
 40
0.0
  9
$SPLFRAME
 70
     0
  9
$SPLINETYPE
 70
     6
  9
$SPLINESEGS
 70
     8
  9
$HANDSEED
  5
231
  9
$SURFTAB1
 70
     6
  9
$SURFTAB2
 70
     6
  9
$SURFTYPE
 70
     6
  9
$SURFU
 70
     6
  9
$SURFV
 70
     6
  9
$UCSBASE
  2

  9
$UCSNAME
  2

  9
$UCSORG
 10
0.0
 20
0.0
 30
0.0
  9
$UCSXDIR
 10
1.0
 20
0.0
 30
0.0
  9
$UCSYDIR
 10
0.0
 20
1.0
 30
0.0
  9
$UCSORTHOREF
  2

  9
$UCSORTHOVIEW
 70
     0
  9
$UCSORGTOP
 10
0.0
 20
0.0
 30
0.0
  9
$UCSORGBOTTOM
 10
0.0
 20
0.0
 30
0.0
  9
$UCSORGLEFT
 10
0.0
 20
0.0
 30
0.0
  9
$UCSORGRIGHT
 10
0.0
 20
0.0
 30
0.0
  9
$UCSORGFRONT
 10
0.0
 20
0.0
 30
0.0
  9
$UCSORGBACK
 10
0.0
 20
0.0
 30
0.0
  9
$PUCSBASE
  2

  9
$PUCSNAME
  2

  9
$PUCSORG
 10
0.0
 20
0.0
 30
0.0
  9
$PUCSXDIR
 10
1.0
 20
0.0
 30
0.0
  9
$PUCSYDIR
 10
0.0
 20
1.0
 30
0.0
  9
$PUCSORTHOREF
  2

  9
$PUCSORTHOVIEW
 70
     0
  9
$PUCSORGTOP
 10
0.0
 20
0.0
 30
0.0
  9
$PUCSORGBOTTOM
 10
0.0
 20
0.0
 30
0.0
  9
$PUCSORGLEFT
 10
0.0
 20
0.0
 30
0.0
  9
$PUCSORGRIGHT
 10
0.0
 20
0.0
 30
0.0
  9
$PUCSORGFRONT
 10
0.0
 20
0.0
 30
0.0
  9
$PUCSORGBACK
 10
0.0
 20
0.0
 30
0.0
  9
$USERI1
 70
     0
  9
$USERI2
 70
     0
  9
$USERI3
 70
     0
  9
$USERI4
 70
     0
  9
$USERI5
 70
     0
  9
$USERR1
 40
0.0
  9
$USERR2
 40
0.0
  9
$USERR3
 40
0.0
  9
$USERR4
 40
0.0
  9
$USERR5
 40
0.0
  9
$WORLDVIEW
 70
     1
  9
$SHADEDGE
 70
     3
  9
$SHADEDIF
 70
    70
  9
$TILEMODE
 70
     1
  9
$MAXACTVP
 70
    64
  9
$PINSBASE
 10
0.0
 20
0.0
 30
0.0
  9
$PLIMCHECK
 70
     0
  9
$PEXTMIN
 10
1.000000000000000E+20
 20
1.000000000000000E+20
 30
1.000000000000000E+20
  9
$PEXTMAX
 10
-1.000000000000000E+20
 20
-1.000000000000000E+20
 30
-1.000000000000000E+20
  9
$PLIMMIN
 10
0.0
 20
0.0
  9
$PLIMMAX
 10
12.0
 20
9.0
  9
$UNITMODE
 70
     0
  9
$VISRETAIN
 70
     1
  9
$PLINEGEN
 70
     0
  9
$PSLTSCALE
 70
     1
  9
$TREEDEPTH
 70
  3020
  9
$CMLSTYLE
  2
Standard
  9
$CMLJUST
 70
     0
  9
$CMLSCALE
 40
1.0
  9
$PROXYGRAPHICS
 70
     1
  9
$MEASUREMENT
 70
     0
  9
$CELWEIGHT
370
    -1
  9
$ENDCAPS
280
     0
  9
$JOINSTYLE
280
     0
  9
$LWDISPLAY
290
     1
  9
$INSUNITS
 70
     0
  9
$HYPERLINKBASE
  1

  9
$STYLESHEET
  1

  9
$XEDIT
290
     1
  9
$CEPSNTYPE
380
     0
  9
$PSTYLEMODE
290
     1
  9
$FINGERPRINTGUID
  2
{C659B31C-F798-794F-8150-F23B4D609B09}
  9
$VERSIONGUID
  2
{3B6D3158-6ED0-094C-9EDB-3455B92079C4}
  9
$EXTNAMES
290
     1
  9
$PSVPSCALE
 40
0.0
  9
$OLESTARTUP
290
     0
  9
$SORTENTS
280
   127
  9
$INDEXCTL
280
     0
  9
$HIDETEXT
280
     1
  9
$XCLIPFRAME
280
     2
  9
$HALOGAP
280
     0
  9
$OBSCOLOR
 70
   257
  9
$OBSLTYPE
280
     0
  9
$INTERSECTIONDISPLAY
280
     0
  9
$INTERSECTIONCOLOR
 70
   257
  9
$DIMASSOC
280
     2
  9
$PROJECTNAME
  1

  9
$CAMERADISPLAY
290
     0
  9
$LENSLENGTH
 40
50.0
  9
$CAMERAHEIGHT
 40
0.0
  9
$STEPSPERSEC
 40
2.0
  9
$STEPSIZE
 40
6.0
  9
$3DDWFPREC
 40
2.0
  9
$PSOLWIDTH
 40
0.25
  9
$PSOLHEIGHT
 40
4.0
  9
$LOFTANG1
 40
1.570796326794896
  9
$LOFTANG2
 40
1.570796326794896
  9
$LOFTMAG1
 40
0.0
  9
$LOFTMAG2
 40
0.0
  9
$LOFTPARAM
 70
     7
  9
$LOFTNORMALS
280
     1
  9
$LATITUDE
 40
37.795
  9
$LONGITUDE
 40
-122.394
  9
$NORTHDIRECTION
 40
0.0
  9
$TIMEZONE
 70
 -8000
  9
$LIGHTGLYPHDISPLAY
280
     1
  9
$TILEMODELIGHTSYNCH
280
     1
  9
$CMATERIAL
347
11
  9
$SOLIDHIST
280
     0
  9
$SHOWHIST
280
     1
  9
$DWFFRAME
280
     2
  9
$DGNFRAME
280
     0
  9
$REALWORLDSCALE
290
     1
  9
$INTERFERECOLOR
 62
     1
  9
$INTERFEREOBJVS
345
33
  9
$INTERFEREVPVS
346
30
  9
$CSHADOW
280
     0
  9
$SHADOWPLANELOCATION
 40
0.0
  0
ENDSEC
  0
SECTION
  2
CLASSES
  0
CLASS
  1
ACDBDICTIONARYWDFLT
  2
AcDbDictionaryWithDefault
  3
ObjectDBX Classes
 90
        0
 91
        1
280
     0
281
     0
  0
CLASS
  1
MATERIAL
  2
AcDbMaterial
  3
ObjectDBX Classes
 90
     1153
 91
        3
280
     0
281
     0
  0
CLASS
  1
VISUALSTYLE
  2
AcDbVisualStyle
  3
ObjectDBX Classes
 90
     4095
 91
       24
280
     0
281
     0
  0
CLASS
  1
SCALE
  2
AcDbScale
  3
ObjectDBX Classes
 90
     1153
 91
       17
280
     0
281
     0
  0
CLASS
  1
TABLESTYLE
  2
AcDbTableStyle
  3
ObjectDBX Classes
 90
     4095
 91
        1
280
     0
281
     0
  0
CLASS
  1
MLEADERSTYLE
  2
AcDbMLeaderStyle
  3
ACDB_MLEADERSTYLE_CLASS
 90
     4095
 91
        1
280
     0
281
     0
  0
CLASS
  1
ACDBSECTIONVIEWSTYLE
  2
AcDbSectionViewStyle
  3
ObjectDBX Classes
 90
     1025
 91
        1
280
     0
281
     0
  0
CLASS
  1
ACDBDETAILVIEWSTYLE
  2
AcDbDetailViewStyle
  3
ObjectDBX Classes
 90
     1025
 91
        1
280
     0
281
     0
  0
CLASS
  1
DICTIONARYVAR
  2
AcDbDictionaryVar
  3
ObjectDBX Classes
 90
        0
 91
        5
280
     0
281
     0
  0
CLASS
  1
CELLSTYLEMAP
  2
AcDbCellStyleMap
  3
ObjectDBX Classes
 90
     1152
 91
        1
280
     0
281
     0
  0
ENDSEC
  0
SECTION
  2
TABLES
  0
TABLE
  2
VPORT
  5
8
330
0
100
AcDbSymbolTable
 70
     1
  0
VPORT
  5
57
330
8
100
AcDbSymbolTableRecord
100
AcDbViewportTableRecord
  2
*Active
 70
     0
 10
0.0
 20
0.0
 11
1.0
 21
1.0
 12
0.0
 22
0.0
 13
0.0
 23
0.0
 14
1.0
 24
1.0
 15
0.0
 25
0.0
 16
0.0
 26
0.0
 36
1.0
 17
297.6379999999999
 27
420.9450000000002
 37
0.0
 40
858.7278000000003
 41
0.7070709950231024
 42
50.0
 43
0.0
 44
0.0
 50
0.0
 51
0.0
 71
     0
 72
   100
 73
     1
 74
     1
 75
     0
 76
     0
 77
     0
 78
     0
281
     0
 65
     1
110
0.0
120
0.0
130
0.0
111
1.0
121
0.0
131
0.0
112
0.0
122
1.0
132
0.0
 79
     0
146
0.0
 60
     3
 61
     5
292
     1
282
     1
141
0.0
142
0.0
 63
   250
421
  3355443
  0
ENDTAB
  0
TABLE
  2
LTYPE
  5
5
330
0
100
AcDbSymbolTable
 70
     1
  0
LTYPE
  5
5B
330
5
100
AcDbSymbolTableRecord
100
AcDbLinetypeTableRecord
  2
ByBlock
 70
     0
  3

 72
    65
 73
     0
 40
0.0
  0
LTYPE
  5
5C
330
5
100
AcDbSymbolTableRecord
100
AcDbLinetypeTableRecord
  2
ByLayer
 70
     0
  3

 72
    65
 73
     0
 40
0.0
  0
LTYPE
  5
5D
330
5
100
AcDbSymbolTableRecord
100
AcDbLinetypeTableRecord
  2
Continuous
 70
     0
  3
Solid line
 72
    65
 73
     0
 40
0.0
  0
ENDTAB
  0
TABLE
  2
LAYER
  5
2
330
0
100
AcDbSymbolTable
 70
     2
  0
LAYER
  5
54
330
2
100
AcDbSymbolTableRecord
100
AcDbLayerTableRecord
  2
0
 70
     0
 62
     7
  6
Continuous
370
    -3
390
F
347
21
348
0
  0
LAYER
  5
78
330
2
100
AcDbSymbolTableRecord
100
AcDbLayerTableRecord
  2
1
 70
     0
 62
     7
  6
Continuous
370
     0
390
F
347
21
348
0
  0
ENDTAB
  0
TABLE
  2
STYLE
  5
3
330
0
100
AcDbSymbolTable
 70
     2
  0
STYLE
  5
55
330
3
100
AcDbSymbolTableRecord
100
AcDbTextStyleTableRecord
  2
Standard
 70
     0
 40
0.0
 41
1.0
 50
0.0
 71
     0
 42
0.2
  3
txt
  4

  0
STYLE
  5
5A
330
3
100
AcDbSymbolTableRecord
100
AcDbTextStyleTableRecord
  2
Annotative
 70
     0
 40
0.0
 41
1.0
 50
0.0
 71
     0
 42
0.2
  3
txt
  4

1001
AcadAnnotative
1000
AnnotativeData
1002
{
1070
     1
1070
     1
1002
}
  0
ENDTAB
  0
TABLE
  2
VIEW
  5
6
330
0
100
AcDbSymbolTable
 70
     0
  0
ENDTAB
  0
TABLE
  2
UCS
  5
7
330
0
100
AcDbSymbolTable
 70
     0
  0
ENDTAB
  0
TABLE
  2
APPID
  5
9
330
0
100
AcDbSymbolTable
 70
     2
  0
APPID
  5
56
330
9
100
AcDbSymbolTableRecord
100
AcDbRegAppTableRecord
  2
ACAD
 70
     0
  0
APPID
  5
5E
330
9
100
AcDbSymbolTableRecord
100
AcDbRegAppTableRecord
  2
AcadAnnotative
 70
     0
  0
ENDTAB
  0
TABLE
  2
DIMSTYLE
  5
A
330
0
100
AcDbSymbolTable
 70
     2
100
AcDbDimStyleTable
 71
     0
  0
DIMSTYLE
105
58
330
A
100
AcDbSymbolTableRecord
100
AcDbDimStyleTableRecord
  2
Standard
 70
     0
340
55
  0
DIMSTYLE
105
59
330
A
100
AcDbSymbolTableRecord
100
AcDbDimStyleTableRecord
  2
Annotative
 70
     0
340
55
1001
AcadAnnotative
1000
AnnotativeData
1002
{
1070
     1
1070
     1
1002
}
  0
ENDTAB
  0
TABLE
  2
BLOCK_RECORD
  5
1
330
0
100
AcDbSymbolTable
 70
    13
  0
BLOCK_RECORD
  5
70
330
1
100
AcDbSymbolTableRecord
100
AcDbBlockTableRecord
  2
*Model_Space
340
73
 70
     0
280
     1
281
     0
  0
BLOCK_RECORD
  5
6C
330
1
100
AcDbSymbolTableRecord
100
AcDbBlockTableRecord
  2
*Paper_Space
340
6F
 70
     0
280
     1
281
     0
  0
BLOCK_RECORD
  5
74
330
1
100
AcDbSymbolTableRecord
100
AcDbBlockTableRecord
  2
*Paper_Space0
340
77
 70
     0
280
     1
281
     0
  0
BLOCK_RECORD
  5
1D0
330
1
100
AcDbSymbolTableRecord
100
AcDbBlockTableRecord
  2
Block_0
340
0
102
{BLKREFS
331
1D1
102
}
 70
     0
280
     1
281
     0
  0
BLOCK_RECORD
  5
1D6
330
1
100
AcDbSymbolTableRecord
100
AcDbBlockTableRecord
  2
Block_1
340
0
102
{BLKREFS
331
1D7
102
}
 70
     0
280
     1
281
     0
  0
BLOCK_RECORD
  5
1DC
330
1
100
AcDbSymbolTableRecord
100
AcDbBlockTableRecord
  2
Block_2
340
0
102
{BLKREFS
331
1DD
102
}
 70
     0
280
     1
281
     0
  0
BLOCK_RECORD
  5
1E1
330
1
100
AcDbSymbolTableRecord
100
AcDbBlockTableRecord
  2
Block_3
340
0
102
{BLKREFS
331
1E2
102
}
 70
     0
280
     1
281
     0
  0
BLOCK_RECORD
  5
1E6
330
1
100
AcDbSymbolTableRecord
100
AcDbBlockTableRecord
  2
Block_4
340
0
102
{BLKREFS
331
1E7
102
}
 70
     0
280
     1
281
     0
  0
BLOCK_RECORD
  5
1EC
330
1
100
AcDbSymbolTableRecord
100
AcDbBlockTableRecord
  2
Block_5
340
0
102
{BLKREFS
331
1ED
102
}
 70
     0
280
     1
281
     0
  0
BLOCK_RECORD
  5
1F2
330
1
100
AcDbSymbolTableRecord
100
AcDbBlockTableRecord
  2
Block_6
340
0
102
{BLKREFS
331
1F3
102
}
 70
     0
280
     1
281
     0
  0
BLOCK_RECORD
  5
1F8
330
1
100
AcDbSymbolTableRecord
100
AcDbBlockTableRecord
  2
Block_7
340
0
102
{BLKREFS
331
1F9
102
}
 70
     0
280
     1
281
     0
  0
BLOCK_RECORD
  5
1FE
330
1
100
AcDbSymbolTableRecord
100
AcDbBlockTableRecord
  2
Block_8
340
0
102
{BLKREFS
331
1FF
102
}
 70
     0
280
     1
281
     0
  0
BLOCK_RECORD
  5
204
330
1
100
AcDbSymbolTableRecord
100
AcDbBlockTableRecord
  2
Block_9
340
0
102
{BLKREFS
331
205
102
}
 70
     0
280
     1
281
     0
  0
BLOCK_RECORD
  5
21B
330
1
100
AcDbSymbolTableRecord
100
AcDbBlockTableRecord
  2
Block_10
340
0
102
{BLKREFS
331
21C
102
}
 70
     0
280
     1
281
     0
  0
BLOCK_RECORD
  5
220
330
1
100
AcDbSymbolTableRecord
100
AcDbBlockTableRecord
  2
Block_11
340
0
102
{BLKREFS
331
221
102
}
 70
     0
280
     1
281
     0
  0
ENDTAB
  0
ENDSEC
  0
SECTION
  2
BLOCKS
  0
BLOCK
  5
71
330
70
100
AcDbEntity
  8
0
100
AcDbBlockBegin
  2
*Model_Space
 70
     0
 10
0.0
 20
0.0
 30
0.0
  3
*Model_Space
  1

  0
ENDBLK
  5
72
330
70
100
AcDbEntity
  8
0
100
AcDbBlockEnd
  0
BLOCK
  5
6D
330
6C
100
AcDbEntity
 67
     1
  8
0
100
AcDbBlockBegin
  2
*Paper_Space
 70
     0
 10
0.0
 20
0.0
 30
0.0
  3
*Paper_Space
  1

  0
ENDBLK
  5
6E
330
6C
100
AcDbEntity
 67
     1
  8
0
100
AcDbBlockEnd
  0
BLOCK
  5
75
330
74
100
AcDbEntity
 67
     1
  8
0
100
AcDbBlockBegin
  2
*Paper_Space0
 70
     0
 10
0.0
 20
0.0
 30
0.0
  3
*Paper_Space0
  1

  0
ENDBLK
  5
76
330
74
100
AcDbEntity
 67
     1
  8
0
100
AcDbBlockEnd
  0
BLOCK
  5
1D2
330
1D0
100
AcDbEntity
  8
0
100
AcDbBlockBegin
  2
Block_0
 70
     0
 10
0.0
 20
0.0
 30
0.0
  3
Block_0
  1

  0
LINE
  5
1D4
330
1D0
100
AcDbEntity
  8
1
 62
     7
370
     5
100
AcDbLine
 10
132.7909542569205
 20
649.3236284955555
 30
0.0
 11
119.5458984375
 21
649.3236284955555
 31
0.0
  0
LINE
  5
1D5
330
1D0
100
AcDbEntity
  8
1
 62
     7
370
     5
100
AcDbLine
 10
152.5185185185182
 20
567.2731265392612
 30
0.0
 11
119.5458984375
 21
567.2731265392612
 31
0.0
  0
ENDBLK
  5
1D3
330
1D0
100
AcDbEntity
  8
0
100
AcDbBlockEnd
  0
BLOCK
  5
1D8
330
1D6
100
AcDbEntity
  8
0
100
AcDbBlockBegin
  2
Block_1
 70
     0
 10
0.0
 20
0.0
 30
0.0
  3
Block_1
  1

  0
LINE
  5
1DA
330
1D6
100
AcDbEntity
  8
1
 62
     7
370
     5
100
AcDbLine
 10
133.833333333333
 20
523.4667299801658
 30
0.0
 11
88.4970703125
 21
523.4667299801658
 31
0.0
  0
LINE
  5
1DB
330
1D6
100
AcDbEntity
  8
1
 62
     7
370
     5
100
AcDbLine
 10
133.0806457508561
 20
329.5855816902476
 30
0.0
 11
88.4970703125
 21
329.5855816902476
 31
0.0
  0
ENDBLK
  5
1D9
330
1D6
100
AcDbEntity
  8
0
100
AcDbBlockEnd
  0
BLOCK
  5
1DE
330
1DC
100
AcDbEntity
  8
0
100
AcDbBlockBegin
  2
Block_2
 70
     0
 10
0.0
 20
0.0
 30
0.0
  3
Block_2
  1

  0
LINE
  5
1E0
330
1DC
100
AcDbEntity
  8
1
 62
     7
370
     5
100
AcDbLine
 10
289.3611111111104
 20
457.5471395615941
 30
0.0
 11
122.2222222222217
 21
457.5471395615941
 31
0.0
  0
ENDBLK
  5
1DF
330
1DC
100
AcDbEntity
  8
0
100
AcDbBlockEnd
  0
BLOCK
  5
1E3
330
1E1
100
AcDbEntity
  8
0
100
AcDbBlockBegin
  2
Block_3
 70
     0
 10
0.0
 20
0.0
 30
0.0
  3
Block_3
  1

  0
LINE
  5
1E5
330
1E1
100
AcDbEntity
  8
1
 62
     7
370
     5
100
AcDbLine
 10
443.2339227844932
 20
493.64238845627
 30
0.0
 11
495.2592592592591
 21
493.64238845627
 31
0.0
  0
ENDBLK
  5
1E4
330
1E1
100
AcDbEntity
  8
0
100
AcDbBlockEnd
  0
BLOCK
  5
1E8
330
1E6
100
AcDbEntity
  8
0
100
AcDbBlockBegin
  2
Block_4
 70
     0
 10
0.0
 20
0.0
 30
0.0
  3
Block_4
  1

  0
LINE
  5
1EA
330
1E6
100
AcDbEntity
  8
1
 62
     7
370
     5
100
AcDbLine
 10
470.3929027893009
 20
523.4667299801658
 30
0.0
 11
508.3333333333339
 21
523.4667299801658
 31
0.0
  0
LINE
  5
1EB
330
1E6
100
AcDbEntity
  8
1
 62
     7
370
     5
100
AcDbLine
 10
443.2339227844932
 20
426.5261558352067
 30
0.0
 11
508.3333333333339
 21
426.5261558352067
 31
0.0
  0
ENDBLK
  5
1E9
330
1E6
100
AcDbEntity
  8
0
100
AcDbBlockEnd
  0
BLOCK
  5
1EE
330
1EC
100
AcDbEntity
  8
0
100
AcDbBlockBegin
  2
Block_5
 70
     0
 10
0.0
 20
0.0
 30
0.0
  3
Block_5
  1

  0
LINE
  5
1F0
330
1EC
100
AcDbEntity
  8
1
 62
     7
370
     5
100
AcDbLine
 10
153.4074074074069
 20
504.0786151511747
 30
0.0
 11
107.111328125
 21
504.0786151511747
 31
0.0
  0
LINE
  5
1F1
330
1EC
100
AcDbEntity
  8
1
 62
     7
370
     5
100
AcDbLine
 10
153.4074074074069
 20
348.9736965192387
 30
0.0
 11
107.111328125
 21
348.9736965192387
 31
0.0
  0
ENDBLK
  5
1EF
330
1EC
100
AcDbEntity
  8
0
100
AcDbBlockEnd
  0
BLOCK
  5
1F4
330
1F2
100
AcDbEntity
  8
0
100
AcDbBlockBegin
  2
Block_6
 70
     0
 10
0.0
 20
0.0
 30
0.0
  3
Block_6
  1

  0
LINE
  5
1F6
330
1F2
100
AcDbEntity
  8
1
 62
     7
370
     5
100
AcDbLine
 10
468.79287904601
 20
525.4140356341103
 30
0.0
 11
468.79287904601
 21
536.0000000000009
 31
0.0
  0
LINE
  5
1F7
330
1F2
100
AcDbEntity
  8
1
 62
     7
370
     5
100
AcDbLine
 10
442.8461604879121
 20
494.0301507528501
 30
0.0
 11
442.8461604879121
 21
536.0000000000009
 31
0.0
  0
ENDBLK
  5
1F5
330
1F2
100
AcDbEntity
  8
0
100
AcDbBlockEnd
  0
BLOCK
  5
1FA
330
1F8
100
AcDbEntity
  8
0
100
AcDbBlockBegin
  2
Block_7
 70
     0
 10
0.0
 20
0.0
 30
0.0
  3
Block_7
  1

  0
LINE
  5
1FC
330
1F8
100
AcDbEntity
  8
1
 62
     7
370
     5
100
AcDbLine
 10
135.3173039873472
 20
326.3703703703722
 30
0.0
 11
135.3173039873472
 21
293.1851851851861
 31
0.0
  0
LINE
  5
1FD
330
1F8
100
AcDbEntity
  8
1
 62
     7
370
     5
100
AcDbLine
 10
468.79287904601
 20
326.3703703703722
 30
0.0
 11
468.79287904601
 21
293.1851851851861
 31
0.0
  0
ENDBLK
  5
1FB
330
1F8
100
AcDbEntity
  8
0
100
AcDbBlockEnd
  0
BLOCK
  5
200
330
1FE
100
AcDbEntity
  8
0
100
AcDbBlockBegin
  2
Block_8
 70
     0
 10
0.0
 20
0.0
 30
0.0
  3
Block_8
  1

  0
LINE
  5
202
330
1FE
100
AcDbEntity
  8
1
 62
     7
370
     5
100
AcDbLine
 10
154.6720635035881
 20
347.1111111111113
 30
0.0
 11
154.6720635035881
 21
309.5555555555566
 31
0.0
  0
LINE
  5
203
330
1FE
100
AcDbEntity
  8
1
 62
     7
370
     5
100
AcDbLine
 10
426.1056711094751
 20
347.1111111111113
 30
0.0
 11
426.1056711094751
 21
309.5555555555566
 31
0.0
  0
ENDBLK
  5
201
330
1FE
100
AcDbEntity
  8
0
100
AcDbBlockEnd
  0
BLOCK
  5
206
330
204
100
AcDbEntity
  8
0
100
AcDbBlockBegin
  2
Block_9
 70
     0
 10
0.0
 20
0.0
 30
0.0
  3
Block_9
  1

  0
LINE
  5
208
330
204
100
AcDbEntity
  8
1
 62
     7
370
     5
100
AcDbLine
 10
135.3173039873472
 20
525.7225425970773
 30
0.0
 11
135.3173039873472
 21
536.0615234375
 31
0.0
  0
LINE
  5
209
330
204
100
AcDbEntity
  8
1
 62
     7
370
     5
100
AcDbLine
 10
290.3888673065321
 20
458.5277777777783
 30
0.0
 11
290.3888673065321
 21
536.0615234375
 31
0.0
  0
ENDBLK
  5
207
330
204
100
AcDbEntity
  8
0
100
AcDbBlockEnd
  0
BLOCK
  5
21D
330
21B
100
AcDbEntity
  8
0
100
AcDbBlockBegin
  2
Block_10
 70
     0
 10
0.0
 20
0.0
 30
0.0
  3
Block_10
  1

  0
LINE
  5
21F
330
21B
100
AcDbEntity
  8
1
 62
     7
370
     5
100
AcDbLine
 10
444.1111111111113
 20
436.8195592917227
 30
0.0
 11
447.8058671021117
 21
465.2891383698524
 31
0.0
  0
ENDBLK
  5
21E
330
21B
100
AcDbEntity
  8
0
100
AcDbBlockEnd
  0
BLOCK
  5
222
330
220
100
AcDbEntity
  8
0
100
AcDbBlockBegin
  2
Block_11
 70
     0
 10
0.0
 20
0.0
 30
0.0
  3
Block_11
  1

  0
LINE
  5
224
330
220
100
AcDbEntity
  8
1
 62
     7
370
     5
100
AcDbLine
 10
440.2405228758161
 20
407.1826010978566
 30
0.0
 11
441.3797233112618
 21
415.9605980648448
 31
0.0
  0
ENDBLK
  5
223
330
220
100
AcDbEntity
  8
0
100
AcDbBlockEnd
  0
ENDSEC
  0
SECTION
  2
ENTITIES
  0
LINE
  5
79
330
70
100
AcDbEntity
  8
1
 62
     7
370
     5
100
AcDbLine
 10
121.7456236070529
 20
649.3236284955555
 30
0.0
 11
121.7456236070529
 21
567.2731265392612
 31
0.0
  0
LINE
  5
7A
330
70
100
AcDbEntity
  8
1
 62
     7
370
    25
100
AcDbLine
 10
137.0765838535035
 20
649.3236284955555
 30
0.0
 11
137.0765838535035
 21
649.3236284955555
 31
0.0
  0
LINE
  5
7B
330
70
100
AcDbEntity
  8
1
 62
     7
370
    25
100
AcDbLine
 10
159.3252110625462
 20
504.0786151511747
 30
0.0
 11
159.3252110625462
 21
504.0786151511747
 31
0.0
  0
LINE
  5
7C
330
70
100
AcDbEntity
  8
1
 62
     7
370
    25
100
AcDbLine
 10
159.3252110625462
 20
348.9736965192387
 30
0.0
 11
159.3252110625462
 21
348.9736965192387
 31
0.0
  0
LINE
  5
7D
330
70
100
AcDbEntity
  8
1
 62
     7
370
    25
100
AcDbLine
 10
154.6720635035881
 20
353.6268440781969
 30
0.0
 11
154.6720635035881
 21
353.6268440781969
 31
0.0
  0
LINE
  5
7E
330
70
100
AcDbEntity
  8
1
 62
     7
370
    25
100
AcDbLine
 10
426.1056711094751
 20
353.6268440781969
 30
0.0
 11
426.1056711094751
 21
353.6268440781969
 31
0.0
  0
LINE
  5
7F
330
70
100
AcDbEntity
  8
1
 62
     7
370
    13
100
AcDbLine
 10
135.3173039873472
 20
518.7166418470633
 30
0.0
 11
135.3173039873472
 21
334.3356698233492
 31
0.0
  0
LINE
  5
80
330
70
100
AcDbEntity
  8
1
 62
     7
370
    13
100
AcDbLine
 10
140.0673921204506
 20
329.5855816902476
 30
0.0
 11
464.0427909129066
 21
329.5855816902476
 31
0.0
  0
LINE
  5
81
330
70
100
AcDbEntity
  8
1
 62
     7
370
    13
100
AcDbLine
 10
468.79287904601
 20
334.3356698233492
 30
0.0
 11
468.79287904601
 21
518.7166418470633
 31
0.0
  0
LINE
  5
82
330
70
100
AcDbEntity
  8
1
 62
     7
370
    13
100
AcDbLine
 10
464.0427909129066
 20
523.4667299801658
 30
0.0
 11
140.0673921204506
 21
523.4667299801658
 31
0.0
  0
LINE
  5
83
330
70
100
AcDbEntity
  8
1
 62
     7
370
    13
100
AcDbLine
 10
333.3040232479216
 20
348.2757243853957
 30
0.0
 11
247.4737113651418
 21
348.2757243853957
 31
0.0
  0
LINE
  5
84
330
70
100
AcDbEntity
  8
1
 62
     7
370
    13
100
AcDbLine
 10
162.8150717317639
 20
493.9967954400981
 30
0.0
 11
162.8150717317639
 21
359.0555162303135
 31
0.0
  0
LINE
  5
85
330
70
100
AcDbEntity
  8
1
 62
     7
370
    13
100
AcDbLine
 10
417.9626628812984
 20
359.0555162303135
 30
0.0
 11
417.9626628812984
 21
493.9967954400981
 31
0.0
  0
LINE
  5
86
330
70
100
AcDbEntity
  8
1
 62
     7
370
    13
100
AcDbLine
 10
164.7538832146638
 20
357.1167047474155
 30
0.0
 11
416.0238513984004
 21
357.1167047474155
 31
0.0
  0
LINE
  5
87
330
70
100
AcDbEntity
  8
1
 62
     7
370
    13
100
AcDbLine
 10
416.0238513984004
 20
495.9356069229979
 30
0.0
 11
164.7538832146638
 21
495.9356069229979
 31
0.0
  0
LINE
  5
88
330
70
100
AcDbEntity
  8
1
 62
     7
370
    13
100
AcDbLine
 10
160.4884979522848
 20
498.262180702477
 30
0.0
 11
160.4884979522848
 21
354.7901309679364
 31
0.0
  0
LINE
  5
89
330
70
100
AcDbEntity
  8
1
 62
     7
370
    13
100
AcDbLine
 10
425.9986223477826
 20
499.4040576847728
 30
0.0
 11
420.2892366607775
 21
498.262180702477
 31
0.0
  0
LINE
  5
8A
330
70
100
AcDbEntity
  8
1
 62
     7
370
    13
100
AcDbLine
 10
420.2892366607775
 20
354.7901309679364
 30
0.0
 11
420.2892366607775
 21
498.262180702477
 31
0.0
  0
LINE
  5
8B
330
70
100
AcDbEntity
  8
1
 62
     7
370
    13
100
AcDbLine
 10
154.7791126530419
 20
499.4040576847728
 30
0.0
 11
160.4884979522848
 21
498.262180702477
 31
0.0
  0
LINE
  5
8C
330
70
100
AcDbEntity
  8
1
 62
     7
370
    13
100
AcDbLine
 10
421.4367885442843
 20
503.999939344485
 30
0.0
 11
420.2892366607775
 21
498.262180702477
 31
0.0
  0
LINE
  5
8D
330
70
100
AcDbEntity
  8
1
 62
     7
370
    13
100
AcDbLine
 10
159.3409464565411
 20
503.999939344485
 30
0.0
 11
160.4884979522848
 21
498.262180702477
 31
0.0
  0
LINE
  5
8E
330
70
100
AcDbEntity
  8
1
 62
     7
370
    13
100
AcDbLine
 10
420.2892366607775
 20
498.262180702477
 30
0.0
 11
160.4884979522848
 21
498.262180702477
 31
0.0
  0
LINE
  5
8F
330
70
100
AcDbEntity
  8
1
 62
     7
370
    13
100
AcDbLine
 10
425.9986223477826
 20
353.6482535978775
 30
0.0
 11
420.2892366607775
 21
354.7901309679364
 31
0.0
  0
LINE
  5
90
330
70
100
AcDbEntity
  8
1
 62
     7
370
    13
100
AcDbLine
 10
421.4367885442843
 20
349.0523723259284
 30
0.0
 11
420.2892366607775
 21
354.7901309679364
 31
0.0
  0
LINE
  5
91
330
70
100
AcDbEntity
  8
1
 62
     7
370
    13
100
AcDbLine
 10
160.4884979522848
 20
354.7901309679364
 30
0.0
 11
420.2892366607775
 21
354.7901309679364
 31
0.0
  0
LINE
  5
92
330
70
100
AcDbEntity
  8
1
 62
     7
370
    13
100
AcDbLine
 10
159.3409464565411
 20
349.0523723259284
 30
0.0
 11
160.4884979522848
 21
354.7901309679364
 31
0.0
  0
LINE
  5
93
330
70
100
AcDbEntity
  8
1
 62
     7
370
    13
100
AcDbLine
 10
140.0673921204506
 20
329.5855816902476
 30
0.0
 11
140.0673921204506
 21
329.6650826551031
 31
0.0
  0
LINE
  5
94
330
70
100
AcDbEntity
  8
1
 62
     7
370
    13
100
AcDbLine
 10
135.3173039873472
 20
334.3356698233492
 30
0.0
 11
135.3968049522036
 21
334.3356698233492
 31
0.0
  0
LINE
  5
95
330
70
100
AcDbEntity
  8
1
 62
     7
370
    13
100
AcDbLine
 10
155.8687057060788
 20
340.2166930622625
 30
0.0
 11
155.8687057060788
 21
341.0450293291688
 31
0.0
  0
LINE
  5
96
330
70
100
AcDbEntity
  8
1
 62
     7
370
    13
100
AcDbLine
 10
448.2414773272794
 20
341.0450293291688
 30
0.0
 11
155.8687057060788
 21
341.0450293291688
 31
0.0
  0
LINE
  5
97
330
70
100
AcDbEntity
  8
1
 62
     7
370
    13
100
AcDbLine
 10
457.3334314070889
 20
502.9153282614352
 30
0.0
 11
457.3334314070889
 21
350.1369834089782
 31
0.0
  0
LINE
  5
98
330
70
100
AcDbEntity
  8
1
 62
     7
370
    13
100
AcDbLine
 10
145.9484153593648
 20
502.9153282614352
 30
0.0
 11
146.7767516262693
 21
502.9153282614352
 31
0.0
  0
LINE
  5
99
330
70
100
AcDbEntity
  8
1
 62
     7
370
    13
100
AcDbLine
 10
145.9484153593648
 20
350.1369834089782
 30
0.0
 11
146.7767516262693
 21
350.1369834089782
 31
0.0
  0
LINE
  5
9A
330
70
100
AcDbEntity
  8
1
 62
     7
370
    13
100
AcDbLine
 10
146.7767516262693
 20
350.1369834089782
 30
0.0
 11
146.7767516262693
 21
502.9153282614352
 31
0.0
  0
LINE
  5
9B
330
70
100
AcDbEntity
  8
1
 62
     7
370
    13
100
AcDbLine
 10
155.8687057060788
 20
512.8356186081491
 30
0.0
 11
155.8687057060788
 21
512.0072823412447
 31
0.0
  0
LINE
  5
9C
330
70
100
AcDbEntity
  8
1
 62
     7
370
    13
100
AcDbLine
 10
155.8687057060788
 20
512.0072823412447
 30
0.0
 11
448.2414773272794
 21
512.0072823412447
 31
0.0
  0
LINE
  5
9D
330
70
100
AcDbEntity
  8
1
 62
     7
370
    13
100
AcDbLine
 10
458.1617676739916
 20
502.9153282614352
 30
0.0
 11
457.3334314070889
 21
502.9153282614352
 31
0.0
  0
LINE
  5
9E
330
70
100
AcDbEntity
  8
1
 62
     7
370
    13
100
AcDbLine
 10
448.2414773272794
 20
512.8356186081491
 30
0.0
 11
448.2414773272794
 21
512.0072823412447
 31
0.0
  0
LINE
  5
9F
330
70
100
AcDbEntity
  8
1
 62
     7
370
    13
100
AcDbLine
 10
448.2414773272794
 20
340.2166930622625
 30
0.0
 11
448.2414773272794
 21
341.0450293291688
 31
0.0
  0
LINE
  5
A0
330
70
100
AcDbEntity
  8
1
 62
     7
370
    13
100
AcDbLine
 10
458.1617676739916
 20
350.1369834089782
 30
0.0
 11
457.3334314070889
 21
350.1369834089782
 31
0.0
  0
LINE
  5
A1
330
70
100
AcDbEntity
  8
1
 62
     7
370
    13
100
AcDbLine
 10
468.7133780811527
 20
334.3356698233492
 30
0.0
 11
468.7133780811527
 21
518.7166418470633
 31
0.0
  0
LINE
  5
A2
330
70
100
AcDbEntity
  8
1
 62
     7
370
    13
100
AcDbLine
 10
467.5545589885951
 20
518.7166418470633
 30
0.0
 11
468.7133780811527
 21
518.7166418470633
 31
0.0
  0
LINE
  5
A3
330
70
100
AcDbEntity
  8
1
 62
     7
370
    13
100
AcDbLine
 10
464.0427909129066
 20
522.2284099227517
 30
0.0
 11
464.0427909129066
 21
523.3872290153104
 31
0.0
  0
LINE
  5
A4
330
70
100
AcDbEntity
  8
1
 62
     7
370
    13
100
AcDbLine
 10
464.0427909129066
 20
523.3872290153104
 30
0.0
 11
140.0673921204506
 21
523.3872290153104
 31
0.0
  0
LINE
  5
A5
330
70
100
AcDbEntity
  8
1
 62
     7
370
    13
100
AcDbLine
 10
135.3968049522036
 20
518.7166418470633
 30
0.0
 11
135.3968049522036
 21
334.3356698233492
 31
0.0
  0
LINE
  5
A6
330
70
100
AcDbEntity
  8
1
 62
     7
370
    13
100
AcDbLine
 10
140.0673921204506
 20
522.2284099227517
 30
0.0
 11
140.0673921204506
 21
523.3872290153104
 31
0.0
  0
LINE
  5
A7
330
70
100
AcDbEntity
  8
1
 62
     7
370
    13
100
AcDbLine
 10
136.5556240447622
 20
518.7166418470633
 30
0.0
 11
135.3968049522036
 21
518.7166418470633
 31
0.0
  0
LINE
  5
A8
330
70
100
AcDbEntity
  8
1
 62
     7
370
    13
100
AcDbLine
 10
140.0673921204506
 20
329.6650826551031
 30
0.0
 11
464.0427909129066
 21
329.6650826551031
 31
0.0
  0
LINE
  5
A9
330
70
100
AcDbEntity
  8
1
 62
     7
370
    13
100
AcDbLine
 10
136.5556240447622
 20
334.3356698233492
 30
0.0
 11
135.3968049522036
 21
334.3356698233492
 31
0.0
  0
LINE
  5
AA
330
70
100
AcDbEntity
  8
1
 62
     7
370
    13
100
AcDbLine
 10
140.0673921204506
 20
330.8239017476608
 30
0.0
 11
140.0673921204506
 21
329.6650826551031
 31
0.0
  0
LINE
  5
AB
330
70
100
AcDbEntity
  8
1
 62
     7
370
    13
100
AcDbLine
 10
464.0427909129066
 20
330.8239017476608
 30
0.0
 11
464.0427909129066
 21
329.6650826551031
 31
0.0
  0
LINE
  5
AC
330
70
100
AcDbEntity
  8
1
 62
     7
370
    13
100
AcDbLine
 10
467.5545589885951
 20
334.3356698233492
 30
0.0
 11
468.7133780811527
 21
334.3356698233492
 31
0.0
  0
LINE
  5
AD
330
70
100
AcDbEntity
  8
1
 62
     7
370
    13
100
AcDbLine
 10
448.2414773272794
 20
512.8356186081491
 30
0.0
 11
155.8687057060788
 21
512.8356186081491
 31
0.0
  0
LINE
  5
AE
330
70
100
AcDbEntity
  8
1
 62
     7
370
    13
100
AcDbLine
 10
155.8687057060788
 20
512.8356186081491
 30
0.0
 11
155.8687057060788
 21
514.2124477456636
 31
0.0
  0
LINE
  5
AF
330
70
100
AcDbEntity
  8
1
 62
     7
370
    13
100
AcDbLine
 10
464.0427909129066
 20
330.8239017476608
 30
0.0
 11
140.0673921204506
 21
330.8239017476608
 31
0.0
  0
LINE
  5
B0
330
70
100
AcDbEntity
  8
1
 62
     7
370
    13
100
AcDbLine
 10
136.5556240447622
 20
334.3356698233492
 30
0.0
 11
136.5556240447622
 21
518.7166418470633
 31
0.0
  0
LINE
  5
B1
330
70
100
AcDbEntity
  8
1
 62
     7
370
    13
100
AcDbLine
 10
448.2414773272794
 20
512.8356186081491
 30
0.0
 11
448.2414773272794
 21
514.2124477456636
 31
0.0
  0
LINE
  5
B2
330
70
100
AcDbEntity
  8
1
 62
     7
370
    13
100
AcDbLine
 10
136.5556240447622
 20
518.7166418470633
 30
0.0
 11
137.0765838535035
 21
518.7166418470633
 31
0.0
  0
LINE
  5
B3
330
70
100
AcDbEntity
  8
1
 62
     7
370
    13
100
AcDbLine
 10
458.1617676739916
 20
502.9153282614352
 30
0.0
 11
459.5385968115079
 21
502.9153282614352
 31
0.0
  0
LINE
  5
B4
330
70
100
AcDbEntity
  8
1
 62
     7
370
    13
100
AcDbLine
 10
458.1617676739916
 20
350.1369834089782
 30
0.0
 11
458.1617676739916
 21
502.9153282614352
 31
0.0
  0
LINE
  5
B5
330
70
100
AcDbEntity
  8
1
 62
     7
370
    13
100
AcDbLine
 10
140.0673921204506
 20
330.8239017476608
 30
0.0
 11
140.0673921204506
 21
331.344861556403
 31
0.0
  0
LINE
  5
B6
330
70
100
AcDbEntity
  8
1
 62
     7
370
    13
100
AcDbLine
 10
136.5556240447622
 20
334.3356698233492
 30
0.0
 11
137.0765838535035
 21
334.3356698233492
 31
0.0
  0
LINE
  5
B7
330
70
100
AcDbEntity
  8
1
 62
     7
370
    13
100
AcDbLine
 10
155.8687057060788
 20
340.2166930622625
 30
0.0
 11
448.2414773272794
 21
340.2166930622625
 31
0.0
  0
LINE
  5
B8
330
70
100
AcDbEntity
  8
1
 62
     7
370
    13
100
AcDbLine
 10
467.5545589885951
 20
518.7166418470633
 30
0.0
 11
467.0335991798529
 21
518.7166418470633
 31
0.0
  0
LINE
  5
B9
330
70
100
AcDbEntity
  8
1
 62
     7
370
    13
100
AcDbLine
 10
467.5545589885951
 20
518.7166418470633
 30
0.0
 11
467.5545589885951
 21
334.3356698233492
 31
0.0
  0
LINE
  5
BA
330
70
100
AcDbEntity
  8
1
 62
     7
370
    13
100
AcDbLine
 10
448.2414773272794
 20
340.2166930622625
 30
0.0
 11
448.2414773272794
 21
338.8398639247498
 31
0.0
  0
LINE
  5
BB
330
70
100
AcDbEntity
  8
1
 62
     7
370
    13
100
AcDbLine
 10
458.1617676739916
 20
350.1369834089782
 30
0.0
 11
459.5385968115079
 21
350.1369834089782
 31
0.0
  0
LINE
  5
BC
330
70
100
AcDbEntity
  8
1
 62
     7
370
    13
100
AcDbLine
 10
140.0673921204506
 20
522.2284099227517
 30
0.0
 11
140.0673921204506
 21
521.7074501140095
 31
0.0
  0
LINE
  5
BD
330
70
100
AcDbEntity
  8
1
 62
     7
370
    13
100
AcDbLine
 10
464.0427909129066
 20
522.2284099227517
 30
0.0
 11
464.0427909129066
 21
521.7074501140095
 31
0.0
  0
LINE
  5
BE
330
70
100
AcDbEntity
  8
1
 62
     7
370
    13
100
AcDbLine
 10
140.0673921204506
 20
522.2284099227517
 30
0.0
 11
464.0427909129066
 21
522.2284099227517
 31
0.0
  0
LINE
  5
BF
330
70
100
AcDbEntity
  8
1
 62
     7
370
    13
100
AcDbLine
 10
467.5545589885951
 20
334.3356698233492
 30
0.0
 11
467.0335991798529
 21
334.3356698233492
 31
0.0
  0
LINE
  5
C0
330
70
100
AcDbEntity
  8
1
 62
     7
370
    13
100
AcDbLine
 10
464.0427909129066
 20
330.8239017476608
 30
0.0
 11
464.0427909129066
 21
331.344861556403
 31
0.0
  0
LINE
  5
C1
330
70
100
AcDbEntity
  8
1
 62
     7
370
    13
100
AcDbLine
 10
467.0335991798529
 20
518.7166418470633
 30
0.0
 11
467.0335991798529
 21
334.3356698233492
 31
0.0
  0
LINE
  5
C2
330
70
100
AcDbEntity
  8
1
 62
     7
370
    13
100
AcDbLine
 10
140.0673921204506
 20
521.7074501140095
 30
0.0
 11
464.0427909129066
 21
521.7074501140095
 31
0.0
  0
LINE
  5
C3
330
70
100
AcDbEntity
  8
1
 62
     7
370
    13
100
AcDbLine
 10
137.0765838535035
 20
334.3356698233492
 30
0.0
 11
137.0765838535035
 21
518.7166418470633
 31
0.0
  0
LINE
  5
C4
330
70
100
AcDbEntity
  8
1
 62
     7
370
    13
100
AcDbLine
 10
464.0427909129066
 20
331.344861556403
 30
0.0
 11
140.0673921204506
 21
331.344861556403
 31
0.0
  0
LINE
  5
C5
330
70
100
AcDbEntity
  8
1
 62
     7
370
    13
100
AcDbLine
 10
448.2414773272794
 20
514.2124477456636
 30
0.0
 11
155.8687057060788
 21
514.2124477456636
 31
0.0
  0
LINE
  5
C6
330
70
100
AcDbEntity
  8
1
 62
     7
370
    13
100
AcDbLine
 10
459.5385968115079
 20
350.1369834089782
 30
0.0
 11
459.5385968115079
 21
502.9153282614352
 31
0.0
  0
LINE
  5
C7
330
70
100
AcDbEntity
  8
1
 62
     7
370
    13
100
AcDbLine
 10
155.8687057060788
 20
338.8398639247498
 30
0.0
 11
448.2414773272794
 21
338.8398639247498
 31
0.0
  0
LINE
  5
C8
330
70
100
AcDbEntity
  8
1
 62
     7
370
    13
100
AcDbLine
 10
247.4737113651418
 20
504.7765872850177
 30
0.0
 11
333.3040232479216
 21
504.7765872850177
 31
0.0
  0
LINE
  5
C9
330
70
100
AcDbEntity
  8
1
 62
     7
370
    13
100
AcDbLine
 10
421.014279643834
 20
348.9736965192387
 30
0.0
 11
159.7634553569924
 21
348.9736965192387
 31
0.0
  0
LINE
  5
CA
330
70
100
AcDbEntity
  8
1
 62
     7
370
    13
100
AcDbLine
 10
159.7634553569924
 20
504.0786151511747
 30
0.0
 11
421.014279643834
 21
504.0786151511747
 31
0.0
  0
LINE
  5
CB
330
70
100
AcDbEntity
  8
1
 62
     7
370
    13
100
AcDbLine
 10
426.1056711094751
 20
498.7192555095698
 30
0.0
 11
426.1056711094751
 21
354.3330561608418
 31
0.0
  0
LINE
  5
CC
330
70
100
AcDbEntity
  8
1
 62
     7
370
    13
100
AcDbLine
 10
154.6720635035881
 20
354.3330561608418
 30
0.0
 11
154.6720635035881
 21
498.7192555095698
 31
0.0
  0
LINE
  5
CD
330
70
100
AcDbEntity
  8
1
 62
     7
370
    13
100
AcDbLine
 10
464.0427909129066
 20
523.4667299801658
 30
0.0
 11
464.0427909129066
 21
523.3872290153104
 31
0.0
  0
LINE
  5
CE
330
70
100
AcDbEntity
  8
1
 62
     7
370
    13
100
AcDbLine
 10
468.79287904601
 20
518.7166418470633
 30
0.0
 11
468.7133780811527
 21
518.7166418470633
 31
0.0
  0
LINE
  5
CF
330
70
100
AcDbEntity
  8
1
 62
     7
370
    13
100
AcDbLine
 10
468.79287904601
 20
334.3356698233492
 30
0.0
 11
468.7133780811527
 21
334.3356698233492
 31
0.0
  0
LINE
  5
D0
330
70
100
AcDbEntity
  8
1
 62
     7
370
    13
100
AcDbLine
 10
135.3173039873472
 20
518.7166418470633
 30
0.0
 11
135.3968049522036
 21
518.7166418470633
 31
0.0
  0
LINE
  5
D1
330
70
100
AcDbEntity
  8
1
 62
     7
370
    13
100
AcDbLine
 10
140.0673921204506
 20
523.4667299801658
 30
0.0
 11
140.0673921204506
 21
523.3872290153104
 31
0.0
  0
LINE
  5
D2
330
70
100
AcDbEntity
  8
1
 62
     7
370
    13
100
AcDbLine
 10
464.0427909129066
 20
329.5855816902476
 30
0.0
 11
464.0427909129066
 21
329.6650826551031
 31
0.0
  0
LINE
  5
D3
330
70
100
AcDbEntity
  8
1
 62
     7
370
    13
100
AcDbLine
 10
454.4790293853075
 20
502.9153282614352
 30
0.0
 11
454.4790293853075
 21
350.1369834089782
 31
0.0
  0
LINE
  5
D4
330
70
100
AcDbEntity
  8
1
 62
     7
370
    13
100
AcDbLine
 10
149.6311536480498
 20
350.1369834089782
 30
0.0
 11
149.6311536480498
 21
502.9153282614352
 31
0.0
  0
LINE
  5
D5
330
70
100
AcDbEntity
  8
1
 62
     7
370
    13
100
AcDbLine
 10
448.2414773272794
 20
343.8994313509484
 30
0.0
 11
155.8687057060788
 21
343.8994313509484
 31
0.0
  0
LINE
  5
D6
330
70
100
AcDbEntity
  8
1
 62
     7
370
    13
100
AcDbLine
 10
448.2414773272794
 20
343.8994313509484
 30
0.0
 11
448.2414773272794
 21
341.0450293291688
 31
0.0
  0
LINE
  5
D7
330
70
100
AcDbEntity
  8
1
 62
     7
370
    13
100
AcDbLine
 10
454.4790293853075
 20
350.1369834089782
 30
0.0
 11
457.3334314070889
 21
350.1369834089782
 31
0.0
  0
LINE
  5
D8
330
70
100
AcDbEntity
  8
1
 62
     7
370
    13
100
AcDbLine
 10
454.4790293853075
 20
502.9153282614352
 30
0.0
 11
457.3334314070889
 21
502.9153282614352
 31
0.0
  0
LINE
  5
D9
330
70
100
AcDbEntity
  8
1
 62
     7
370
    13
100
AcDbLine
 10
149.6311536480498
 20
502.9153282614352
 30
0.0
 11
146.7767516262693
 21
502.9153282614352
 31
0.0
  0
LINE
  5
DA
330
70
100
AcDbEntity
  8
1
 62
     7
370
    13
100
AcDbLine
 10
448.2414773272794
 20
509.1528803194641
 30
0.0
 11
448.2414773272794
 21
512.0072823412447
 31
0.0
  0
LINE
  5
DB
330
70
100
AcDbEntity
  8
1
 62
     7
370
    13
100
AcDbLine
 10
155.8687057060788
 20
509.1528803194641
 30
0.0
 11
155.8687057060788
 21
512.0072823412447
 31
0.0
  0
LINE
  5
DC
330
70
100
AcDbEntity
  8
1
 62
     7
370
    13
100
AcDbLine
 10
155.8687057060788
 20
509.1528803194641
 30
0.0
 11
448.2414773272794
 21
509.1528803194641
 31
0.0
  0
LINE
  5
DD
330
70
100
AcDbEntity
  8
1
 62
     7
370
    13
100
AcDbLine
 10
149.6311536480498
 20
350.1369834089782
 30
0.0
 11
146.7767516262693
 21
350.1369834089782
 31
0.0
  0
LINE
  5
DE
330
70
100
AcDbEntity
  8
1
 62
     7
370
    13
100
AcDbLine
 10
155.8687057060788
 20
343.8994313509484
 30
0.0
 11
155.8687057060788
 21
341.0450293291688
 31
0.0
  0
LINE
  5
DF
330
70
100
AcDbEntity
  8
1
 62
     7
370
    13
100
AcDbLine
 10
145.9484153593648
 20
502.9153282614352
 30
0.0
 11
144.5715862218494
 21
502.9153282614352
 31
0.0
  0
LINE
  5
E0
330
70
100
AcDbEntity
  8
1
 62
     7
370
    13
100
AcDbLine
 10
144.5715862218494
 20
502.9153282614352
 30
0.0
 11
144.5715862218494
 21
350.1369834089782
 31
0.0
  0
LINE
  5
E1
330
70
100
AcDbEntity
  8
1
 62
     7
370
    13
100
AcDbLine
 10
145.9484153593648
 20
502.9153282614352
 30
0.0
 11
145.9484153593648
 21
350.1369834089782
 31
0.0
  0
LINE
  5
E2
330
70
100
AcDbEntity
  8
1
 62
     7
370
    13
100
AcDbLine
 10
145.9484153593648
 20
350.1369834089782
 30
0.0
 11
144.5715862218494
 21
350.1369834089782
 31
0.0
  0
LINE
  5
E3
330
70
100
AcDbEntity
  8
1
 62
     7
370
    13
100
AcDbLine
 10
155.8687057060788
 20
340.2166930622625
 30
0.0
 11
155.8687057060788
 21
338.8398639247498
 31
0.0
  0
LINE
  5
E4
330
70
100
AcDbEntity
  8
1
 62
     7
370
    13
100
AcDbLine
 10
154.7791126530419
 20
353.6482535978775
 30
0.0
 11
160.4884979522848
 21
354.7901309679364
 31
0.0
  0
LINE
  5
E5
330
70
100
AcDbEntity
  8
1
 62
     7
370
    13
100
AcDbLine
 10
140.0673921204506
 20
647.485654985644
 30
0.0
 11
464.0427909129066
 21
647.485654985644
 31
0.0
  0
LINE
  5
E6
330
70
100
AcDbEntity
  8
1
 62
     7
370
    13
100
AcDbLine
 10
135.5887375949532
 20
647.485654985644
 30
0.0
 11
140.0673921204506
 21
647.485654985644
 31
0.0
  0
LINE
  5
E7
330
70
100
AcDbEntity
  8
1
 62
     7
370
    13
100
AcDbLine
 10
307.9385309024619
 20
563.2148354254296
 30
0.0
 11
312.7420073118465
 21
564.5019227958355
 31
0.0
  0
LINE
  5
E8
330
70
100
AcDbEntity
  8
1
 62
     7
370
    13
100
AcDbLine
 10
268.0357276889799
 20
564.5019227958355
 30
0.0
 11
272.8392037106005
 21
563.2148354254296
 31
0.0
  0
LINE
  5
E9
330
70
100
AcDbEntity
  8
1
 62
     7
370
    13
100
AcDbLine
 10
312.9085376465464
 20
564.5679664701892
 30
0.0
 11
314.221255329232
 21
565.2737605450793
 31
0.0
  0
LINE
  5
EA
330
70
100
AcDbEntity
  8
1
 62
     7
370
    13
100
AcDbLine
 10
266.5577705322785
 20
565.2730664505688
 30
0.0
 11
267.869196966516
 21
564.5679664701892
 31
0.0
  0
LINE
  5
EB
330
70
100
AcDbEntity
  8
1
 62
     7
370
    13
100
AcDbLine
 10
468.521445438404
 20
647.485654985644
 30
0.0
 11
464.0427909129066
 21
647.485654985644
 31
0.0
  0
LINE
  5
EC
330
70
100
AcDbEntity
  8
1
 62
     7
370
    13
100
AcDbLine
 10
462.8485222034323
 20
644.2827186400172
 30
0.0
 11
462.8485222034323
 21
641.1806202673788
 31
0.0
  0
LINE
  5
ED
330
70
100
AcDbEntity
  8
1
 62
     7
370
    13
100
AcDbLine
 10
462.6158648254858
 20
641.1806202673788
 30
0.0
 11
462.6158648254858
 21
644.2827186400172
 31
0.0
  0
LINE
  5
EE
330
70
100
AcDbEntity
  8
1
 62
     7
370
    13
100
AcDbLine
 10
462.8485222034323
 20
641.1806202673788
 30
0.0
 11
462.6158648254858
 21
641.1806202673788
 31
0.0
  0
LINE
  5
EF
330
70
100
AcDbEntity
  8
1
 62
     7
370
    13
100
AcDbLine
 10
462.8485222034323
 20
644.2827186400172
 30
0.0
 11
462.8485222034323
 21
647.4856352097667
 31
0.0
  0
LINE
  5
F0
330
70
100
AcDbEntity
  8
1
 62
     7
370
    13
100
AcDbLine
 10
462.6158648254858
 20
644.2827186400172
 30
0.0
 11
462.6158648254858
 21
647.4856352097667
 31
0.0
  0
LINE
  5
F1
330
70
100
AcDbEntity
  8
1
 62
     7
370
    13
100
AcDbLine
 10
462.8485222034323
 20
644.2827186400172
 30
0.0
 11
462.6158648254858
 21
644.2827186400172
 31
0.0
  0
LINE
  5
F2
330
70
100
AcDbEntity
  8
1
 62
     7
370
    13
100
AcDbLine
 10
141.4943182078723
 20
641.1806202673788
 30
0.0
 11
141.2616608299249
 21
641.1806202673788
 31
0.0
  0
LINE
  5
F3
330
70
100
AcDbEntity
  8
1
 62
     7
370
    13
100
AcDbLine
 10
141.4943182078723
 20
644.2827186400172
 30
0.0
 11
141.4943182078723
 21
641.1806202673788
 31
0.0
  0
LINE
  5
F4
330
70
100
AcDbEntity
  8
1
 62
     7
370
    13
100
AcDbLine
 10
141.2616608299249
 20
641.1806202673788
 30
0.0
 11
141.2616608299249
 21
644.2827186400172
 31
0.0
  0
LINE
  5
F5
330
70
100
AcDbEntity
  8
1
 62
     7
370
    13
100
AcDbLine
 10
141.4943182078723
 20
644.2827186400172
 30
0.0
 11
141.4943182078723
 21
647.4856352097667
 31
0.0
  0
LINE
  5
F6
330
70
100
AcDbEntity
  8
1
 62
     7
370
    13
100
AcDbLine
 10
141.2616608299249
 20
644.2827186400172
 30
0.0
 11
141.2616608299249
 21
647.4856352097667
 31
0.0
  0
LINE
  5
F7
330
70
100
AcDbEntity
  8
1
 62
     7
370
    13
100
AcDbLine
 10
141.4943182078723
 20
644.2827186400172
 30
0.0
 11
141.2616608299249
 21
644.2827186400172
 31
0.0
  0
LINE
  5
F8
330
70
100
AcDbEntity
  8
1
 62
     7
370
    13
100
AcDbLine
 10
448.2414773272794
 20
645.2133481518094
 30
0.0
 11
444.3995164721346
 21
645.2133481518094
 31
0.0
  0
LINE
  5
F9
330
70
100
AcDbEntity
  8
1
 62
     7
370
    13
100
AcDbLine
 10
392.7546074569236
 20
645.2133481518094
 30
0.0
 11
388.1725778297332
 21
645.2133481518094
 31
0.0
  0
LINE
  5
FA
330
70
100
AcDbEntity
  8
1
 62
     7
370
    13
100
AcDbLine
 10
315.2027297843997
 20
645.2133481518094
 30
0.0
 11
310.6207001572093
 21
645.2133481518094
 31
0.0
  0
LINE
  5
FB
330
70
100
AcDbEntity
  8
1
 62
     7
370
    13
100
AcDbLine
 10
237.6508521118776
 20
645.2133481518094
 30
0.0
 11
233.0733907123022
 21
645.2133481518094
 31
0.0
  0
LINE
  5
FC
330
70
100
AcDbEntity
  8
1
 62
     7
370
    13
100
AcDbLine
 10
173.6714664061355
 20
645.2133481518094
 30
0.0
 11
169.0894371667063
 21
645.2133481518094
 31
0.0
  0
LINE
  5
FD
330
70
100
AcDbEntity
  8
1
 62
     7
370
    13
100
AcDbLine
 10
448.2414773272794
 20
645.2133481518094
 30
0.0
 11
448.2414773272794
 21
646.2215169389992
 31
0.0
  0
LINE
  5
FE
330
70
100
AcDbEntity
  8
1
 62
     7
370
    13
100
AcDbLine
 10
454.4790293853075
 20
645.2133481518094
 30
0.0
 11
454.3901833491036
 21
645.2133481518094
 31
0.0
  0
LINE
  5
FF
330
70
100
AcDbEntity
  8
1
 62
     7
370
    13
100
AcDbLine
 10
448.9813118908987
 20
645.2133481518094
 30
0.0
 11
448.2414773272794
 21
645.2133481518094
 31
0.0
  0
LINE
  5
100
330
70
100
AcDbEntity
  8
1
 62
     7
370
    13
100
AcDbLine
 10
149.7199996842537
 20
645.2133481518094
 30
0.0
 11
149.6311536480498
 21
645.2133481518094
 31
0.0
  0
LINE
  5
101
330
70
100
AcDbEntity
  8
1
 62
     7
370
    13
100
AcDbLine
 10
146.2819688746449
 20
647.4856701083735
 30
0.0
 11
146.575264520532
 21
646.9776666012476
 31
0.0
  0
LINE
  5
102
330
70
100
AcDbEntity
  8
1
 62
     7
370
    13
100
AcDbLine
 10
149.7199345401877
 20
646.9776666012476
 30
0.0
 11
146.575264520532
 21
646.9776666012476
 31
0.0
  0
LINE
  5
103
330
70
100
AcDbEntity
  8
1
 62
     7
370
    13
100
AcDbLine
 10
457.8282145464745
 20
647.4856701083735
 30
0.0
 11
457.5349185128252
 21
646.9776666012476
 31
0.0
  0
LINE
  5
104
330
70
100
AcDbEntity
  8
1
 62
     7
370
    13
100
AcDbLine
 10
457.5349185128252
 20
646.9776666012476
 30
0.0
 11
454.3902484931695
 21
646.9776666012476
 31
0.0
  0
LINE
  5
105
330
70
100
AcDbEntity
  8
1
 62
     7
370
    13
100
AcDbLine
 10
149.7199989087294
 20
644.2827186400172
 30
0.0
 11
149.7199989087294
 21
647.4856352097667
 31
0.0
  0
LINE
  5
106
330
70
100
AcDbEntity
  8
1
 62
     7
370
    13
100
AcDbLine
 10
169.8281483829532
 20
644.6704809365974
 30
0.0
 11
172.9302467555917
 21
644.6704809365974
 31
0.0
  0
LINE
  5
107
330
70
100
AcDbEntity
  8
1
 62
     7
370
    13
100
AcDbLine
 10
305.1571898893162
 20
642.7316694536984
 30
0.0
 11
308.2592882619556
 21
642.7316694536984
 31
0.0
  0
LINE
  5
108
330
70
100
AcDbEntity
  8
1
 62
     7
370
    13
100
AcDbLine
 10
163.6239516376754
 20
642.7316694536984
 30
0.0
 11
166.7260500103148
 21
642.7316694536984
 31
0.0
  0
LINE
  5
109
330
70
100
AcDbEntity
  8
1
 62
     7
370
    13
100
AcDbLine
 10
152.8220972813678
 20
641.1806202673788
 30
0.0
 11
451.2880861397515
 21
641.1806202673788
 31
0.0
  0
LINE
  5
10A
330
70
100
AcDbEntity
  8
1
 62
     7
370
    13
100
AcDbLine
 10
172.9302467555917
 20
646.221530122917
 30
0.0
 11
169.8281483829532
 21
646.221530122917
 31
0.0
  0
LINE
  5
10B
330
70
100
AcDbEntity
  8
1
 62
     7
370
    13
100
AcDbLine
 10
314.4634850072325
 20
646.221530122917
 30
0.0
 11
311.361386634595
 21
646.221530122917
 31
0.0
  0
LINE
  5
10C
330
70
100
AcDbEntity
  8
1
 62
     7
370
    13
100
AcDbLine
 10
382.7096492052842
 20
642.7316694536984
 30
0.0
 11
385.8117475779236
 21
642.7316694536984
 31
0.0
  0
LINE
  5
10D
330
70
100
AcDbEntity
  8
1
 62
     7
370
    13
100
AcDbLine
 10
451.2880861397515
 20
641.1806202673788
 30
0.0
 11
454.390184512391
 21
644.2827186400172
 31
0.0
  0
LINE
  5
10E
330
70
100
AcDbEntity
  8
1
 62
     7
370
    13
100
AcDbLine
 10
454.390184512391
 20
644.2827186400172
 30
0.0
 11
454.390184512391
 21
647.4856352097667
 31
0.0
  0
LINE
  5
10F
330
70
100
AcDbEntity
  8
1
 62
     7
370
    13
100
AcDbLine
 10
149.7199989087294
 20
644.2827186400172
 30
0.0
 11
152.8220972813678
 21
641.1806202673788
 31
0.0
  0
LINE
  5
110
330
70
100
AcDbEntity
  8
1
 62
     7
370
    13
100
AcDbLine
 10
385.8117475779236
 20
644.2827186400172
 30
0.0
 11
382.7096492052842
 21
644.2827186400172
 31
0.0
  0
LINE
  5
111
330
70
100
AcDbEntity
  8
1
 62
     7
370
    13
100
AcDbLine
 10
388.913845950563
 20
644.6704809365974
 30
0.0
 11
392.0159443232005
 21
644.6704809365974
 31
0.0
  0
LINE
  5
112
330
70
100
AcDbEntity
  8
1
 62
     7
370
    13
100
AcDbLine
 10
392.0159443232005
 20
646.221530122917
 30
0.0
 11
388.913845950563
 21
646.221530122917
 31
0.0
  0
LINE
  5
113
330
70
100
AcDbEntity
  8
1
 62
     7
370
    13
100
AcDbLine
 10
442.0372805820006
 20
644.2827186400172
 30
0.0
 11
438.935182209363
 21
644.2827186400172
 31
0.0
  0
LINE
  5
114
330
70
100
AcDbEntity
  8
1
 62
     7
370
    13
100
AcDbLine
 10
438.935182209363
 20
642.7316694536984
 30
0.0
 11
442.0372805820006
 21
642.7316694536984
 31
0.0
  0
LINE
  5
115
330
70
100
AcDbEntity
  8
1
 62
     7
370
    13
100
AcDbLine
 10
448.2414773272794
 20
646.221530122917
 30
0.0
 11
445.1393789546382
 21
646.221530122917
 31
0.0
  0
LINE
  5
116
330
70
100
AcDbEntity
  8
1
 62
     7
370
    13
100
AcDbLine
 10
445.1393789546382
 20
644.6704809365974
 30
0.0
 11
448.2414773272794
 21
644.6704809365974
 31
0.0
  0
LINE
  5
117
330
70
100
AcDbEntity
  8
1
 62
     7
370
    13
100
AcDbLine
 10
311.361386634595
 20
644.6704809365974
 30
0.0
 11
314.4634850072325
 21
644.6704809365974
 31
0.0
  0
LINE
  5
118
330
70
100
AcDbEntity
  8
1
 62
     7
370
    13
100
AcDbLine
 10
308.2592882619556
 20
644.2827186400172
 30
0.0
 11
305.1571898893162
 21
644.2827186400172
 31
0.0
  0
LINE
  5
119
330
70
100
AcDbEntity
  8
1
 62
     7
370
    13
100
AcDbLine
 10
230.7068289459885
 20
644.2827186400172
 30
0.0
 11
227.6047305733491
 21
644.2827186400172
 31
0.0
  0
LINE
  5
11A
330
70
100
AcDbEntity
  8
1
 62
     7
370
    13
100
AcDbLine
 10
227.6047305733491
 20
642.7316694536984
 30
0.0
 11
230.7068289459885
 21
642.7316694536984
 31
0.0
  0
LINE
  5
11B
330
70
100
AcDbEntity
  8
1
 62
     7
370
    13
100
AcDbLine
 10
166.7260500103148
 20
644.2827186400172
 30
0.0
 11
163.6239516376754
 21
644.2827186400172
 31
0.0
  0
LINE
  5
11C
330
70
100
AcDbEntity
  8
1
 62
     7
370
    13
100
AcDbLine
 10
236.9110256912654
 20
646.221530122917
 30
0.0
 11
233.808927318627
 21
646.221530122917
 31
0.0
  0
LINE
  5
11D
330
70
100
AcDbEntity
  8
1
 62
     7
370
    13
100
AcDbLine
 10
464.0427909129066
 20
649.3236284955555
 30
0.0
 11
140.0673921204506
 21
649.3236284955555
 31
0.0
  0
LINE
  5
11E
330
70
100
AcDbEntity
  8
1
 62
     7
370
    13
100
AcDbLine
 10
140.0673921204506
 20
649.3236284955555
 30
0.0
 11
140.0673921204506
 21
649.107839940796
 31
0.0
  0
LINE
  5
11F
330
70
100
AcDbEntity
  8
1
 62
     7
370
    13
100
AcDbLine
 10
467.0335991798529
 20
649.3236284955555
 30
0.0
 11
464.0427909129066
 21
649.3236284955555
 31
0.0
  0
LINE
  5
120
330
70
100
AcDbEntity
  8
1
 62
     7
370
    13
100
AcDbLine
 10
464.0427909129066
 20
649.3236284955555
 30
0.0
 11
464.0427909129066
 21
649.107839940796
 31
0.0
  0
LINE
  5
121
330
70
100
AcDbEntity
  8
1
 62
     7
370
    13
100
AcDbLine
 10
464.0427909129066
 20
649.107839940796
 30
0.0
 11
140.0673921204506
 21
649.107839940796
 31
0.0
  0
LINE
  5
122
330
70
100
AcDbEntity
  8
1
 62
     7
370
    13
100
AcDbLine
 10
136.5556240447622
 20
649.107839940796
 30
0.0
 11
135.3968049522036
 21
647.9490212359997
 31
0.0
  0
LINE
  5
123
330
70
100
AcDbEntity
  8
1
 62
     7
370
    13
100
AcDbLine
 10
140.0673921204506
 20
649.107839940796
 30
0.0
 11
140.0673921204506
 21
647.9490212359997
 31
0.0
  0
LINE
  5
124
330
70
100
AcDbEntity
  8
1
 62
     7
370
    13
100
AcDbLine
 10
136.5556240447622
 20
649.107839940796
 30
0.0
 11
140.0673921204506
 21
649.107839940796
 31
0.0
  0
LINE
  5
125
330
70
100
AcDbEntity
  8
1
 62
     7
370
    13
100
AcDbLine
 10
464.0427909129066
 20
649.107839940796
 30
0.0
 11
464.0427909129066
 21
647.9490212359997
 31
0.0
  0
LINE
  5
126
330
70
100
AcDbEntity
  8
1
 62
     7
370
    13
100
AcDbLine
 10
467.5545589885951
 20
649.107839940796
 30
0.0
 11
468.7133780811527
 21
647.9490212359997
 31
0.0
  0
LINE
  5
127
330
70
100
AcDbEntity
  8
1
 62
     7
370
    13
100
AcDbLine
 10
467.5545589885951
 20
649.107839940796
 30
0.0
 11
464.0427909129066
 21
649.107839940796
 31
0.0
  0
LINE
  5
128
330
70
100
AcDbEntity
  8
1
 62
     7
370
    13
100
AcDbLine
 10
140.0673921204506
 20
647.9490212359997
 30
0.0
 11
464.0427909129066
 21
647.9490212359997
 31
0.0
  0
LINE
  5
129
330
70
100
AcDbEntity
  8
1
 62
     7
370
    13
100
AcDbLine
 10
140.0673921204506
 20
647.485654985644
 30
0.0
 11
140.0673921204506
 21
647.9490212359997
 31
0.0
  0
LINE
  5
12A
330
70
100
AcDbEntity
  8
1
 62
     7
370
    13
100
AcDbLine
 10
135.3968049522036
 20
647.9490212359997
 30
0.0
 11
140.0673921204506
 21
647.9490212359997
 31
0.0
  0
LINE
  5
12B
330
70
100
AcDbEntity
  8
1
 62
     7
370
    13
100
AcDbLine
 10
464.0427909129066
 20
647.9490212359997
 30
0.0
 11
468.7133780811527
 21
647.9490212359997
 31
0.0
  0
LINE
  5
12C
330
70
100
AcDbEntity
  8
1
 62
     7
370
    13
100
AcDbLine
 10
464.0427909129066
 20
647.485654985644
 30
0.0
 11
464.0427909129066
 21
647.9490212359997
 31
0.0
  0
LINE
  5
12D
330
70
100
AcDbEntity
  8
1
 62
     7
370
    13
100
AcDbLine
 10
426.4934334060562
 20
573.4773232845391
 30
0.0
 11
421.8402858470981
 21
573.4773232845391
 31
0.0
  0
LINE
  5
12E
330
70
100
AcDbEntity
  8
1
 62
     7
370
    13
100
AcDbLine
 10
158.9374487659661
 20
573.4773232845391
 30
0.0
 11
421.8402858470981
 21
573.4773232845391
 31
0.0
  0
LINE
  5
12F
330
70
100
AcDbEntity
  8
1
 62
     7
370
    13
100
AcDbLine
 10
421.8402858470981
 20
573.4773232845391
 30
0.0
 11
421.8402858470981
 21
641.1799176420973
 31
0.0
  0
LINE
  5
130
330
70
100
AcDbEntity
  8
1
 62
     7
370
    13
100
AcDbLine
 10
154.2843012070079
 20
573.4773232845391
 30
0.0
 11
154.2843012070079
 21
641.1799176420973
 31
0.0
  0
LINE
  5
131
330
70
100
AcDbEntity
  8
1
 62
     7
370
    13
100
AcDbLine
 10
154.2843012070079
 20
573.4773232845391
 30
0.0
 11
158.9374487659661
 21
573.4773232845391
 31
0.0
  0
LINE
  5
132
330
70
100
AcDbEntity
  8
1
 62
     7
370
    13
100
AcDbLine
 10
158.9374487659661
 20
573.4773232845391
 30
0.0
 11
158.9374487659661
 21
641.1799176420973
 31
0.0
  0
LINE
  5
133
330
70
100
AcDbEntity
  8
1
 62
     7
370
    13
100
AcDbLine
 10
169.3653176323287
 20
644.8255858552292
 30
0.0
 11
173.3978016142755
 21
644.8255858552292
 31
0.0
  0
LINE
  5
134
330
70
100
AcDbEntity
  8
1
 62
     7
370
    13
100
AcDbLine
 10
233.3457642557141
 20
644.8255858552292
 30
0.0
 11
237.3782482376601
 21
644.8255858552292
 31
0.0
  0
LINE
  5
135
330
70
100
AcDbEntity
  8
1
 62
     7
370
    13
100
AcDbLine
 10
310.8944777878969
 20
644.8255858552292
 30
0.0
 11
314.9269621576059
 21
644.8255858552292
 31
0.0
  0
LINE
  5
136
330
70
100
AcDbEntity
  8
1
 62
     7
370
    13
100
AcDbLine
 10
388.4472775591621
 20
644.8255858552292
 30
0.0
 11
392.479761541108
 21
644.8255858552292
 31
0.0
  0
LINE
  5
137
330
70
100
AcDbEntity
  8
1
 62
     7
370
    13
100
AcDbLine
 10
149.6311536480498
 20
645.2133481518094
 30
0.0
 11
149.6311536480498
 21
644.8255858552292
 31
0.0
  0
LINE
  5
138
330
70
100
AcDbEntity
  8
1
 62
     7
370
    13
100
AcDbLine
 10
149.6311536480498
 20
644.8255858552292
 30
0.0
 11
149.7200690937043
 21
644.8255858552292
 31
0.0
  0
LINE
  5
139
330
70
100
AcDbEntity
  8
1
 62
     7
370
    13
100
AcDbLine
 10
307.9385309024619
 20
563.2148354254296
 30
0.0
 11
272.8392037106005
 21
563.2148354254296
 31
0.0
  0
LINE
  5
13A
330
70
100
AcDbEntity
  8
1
 62
     7
370
    13
100
AcDbLine
 10
312.7420073118465
 20
564.5019227958355
 30
0.0
 11
268.0357276889799
 21
564.5019227958355
 31
0.0
  0
LINE
  5
13B
330
70
100
AcDbEntity
  8
1
 62
     7
370
    13
100
AcDbLine
 10
308.3545703767595
 20
565.271824835695
 30
0.0
 11
310.0071799372236
 21
565.271824835695
 31
0.0
  0
LINE
  5
13C
330
70
100
AcDbEntity
  8
1
 62
     7
370
    13
100
AcDbLine
 10
270.7705546758389
 20
565.271824835695
 30
0.0
 11
272.4231642363047
 21
565.271824835695
 31
0.0
  0
LINE
  5
13D
330
70
100
AcDbEntity
  8
1
 62
     7
370
    13
100
AcDbLine
 10
312.9085376465464
 20
564.5679664701892
 30
0.0
 11
267.869196966516
 21
564.5679664701892
 31
0.0
  0
LINE
  5
13E
330
70
100
AcDbEntity
  8
1
 62
     7
370
    13
100
AcDbLine
 10
426.4934334060562
 20
573.4773232845391
 30
0.0
 11
426.4934334060562
 21
641.1799176420973
 31
0.0
  0
LINE
  5
13F
330
70
100
AcDbEntity
  8
1
 62
     7
370
    13
100
AcDbLine
 10
160.4884979522848
 20
567.2731265392612
 30
0.0
 11
420.2892366607775
 21
567.2731265392612
 31
0.0
  0
LINE
  5
140
330
70
100
AcDbEntity
  8
1
 62
     7
370
    13
100
AcDbLine
 10
233.808927318627
 20
644.6704809365974
 30
0.0
 11
236.9110256912654
 21
644.6704809365974
 31
0.0
  0
LINE
  5
141
330
70
100
AcDbEntity
  8
1
 62
     7
370
    13
100
AcDbLine
 10
137.0765838535035
 20
649.3236284955555
 30
0.0
 11
140.0673921204506
 21
649.3236284955555
 31
0.0
  0
SPLINE
  5
142
330
70
100
AcDbEntity
  8
1
 62
     7
370
    13
100
AcDbSpline
210
0.0
220
0.0
230
1.0
 70
     8
 71
     3
 72
     8
 73
     4
 74
     0
 42
0.0000000001
 43
0.0000000001
 40
0.0
 40
0.0
 40
0.0
 40
0.0
 40
1.0
 40
1.0
 40
1.0
 40
1.0
 10
135.3173039873472
 20
334.3356698233492
 30
0.0
 10
135.3173039873472
 20
331.7122685870854
 30
0.0
 10
137.4439908841859
 20
329.5855816902476
 30
0.0
 10
140.0673921204506
 20
329.5855816902476
 30
0.0
  0
SPLINE
  5
143
330
70
100
AcDbEntity
  8
1
 62
     7
370
    13
100
AcDbSpline
210
0.0
220
0.0
230
1.0
 70
     8
 71
     3
 72
     8
 73
     4
 74
     0
 42
0.0000000001
 43
0.0000000001
 40
0.0
 40
0.0
 40
0.0
 40
0.0
 40
1.0
 40
1.0
 40
1.0
 40
1.0
 10
468.79287904601
 20
518.7166418470633
 30
0.0
 10
468.79287904601
 20
521.3400430833281
 30
0.0
 10
466.6661921491722
 20
523.4667299801658
 30
0.0
 10
464.0427909129066
 20
523.4667299801658
 30
0.0
  0
SPLINE
  5
144
330
70
100
AcDbEntity
  8
1
 62
     7
370
    13
100
AcDbSpline
210
0.0
220
0.0
230
1.0
 70
     8
 71
     3
 72
     8
 73
     4
 74
     0
 42
0.0000000001
 43
0.0000000001
 40
0.0
 40
0.0
 40
0.0
 40
0.0
 40
1.0
 40
1.0
 40
1.0
 40
1.0
 10
464.0427909129066
 20
329.5855816902476
 30
0.0
 10
466.6661921491722
 20
329.5855816902476
 30
0.0
 10
468.79287904601
 20
331.7122685870854
 30
0.0
 10
468.79287904601
 20
334.3356698233492
 30
0.0
  0
SPLINE
  5
145
330
70
100
AcDbEntity
  8
1
 62
     7
370
    13
100
AcDbSpline
210
0.0
220
0.0
230
1.0
 70
     8
 71
     3
 72
     8
 73
     4
 74
     0
 42
0.0000000001
 43
0.0000000001
 40
0.0
 40
0.0
 40
0.0
 40
0.0
 40
1.0
 40
1.0
 40
1.0
 40
1.0
 10
140.0673921204506
 20
523.4667299801658
 30
0.0
 10
137.4439908841859
 20
523.4667299801658
 30
0.0
 10
135.3173039873472
 20
521.3400430833281
 30
0.0
 10
135.3173039873472
 20
518.7166418470633
 30
0.0
  0
CIRCLE
  5
146
330
70
100
AcDbEntity
  8
1
 62
     7
370
    13
100
AcDbCircle
 10
290.3888673065319
 20
457.5471395615939
 30
0.0
 40
22.25277958056404
  0
CIRCLE
  5
147
330
70
100
AcDbEntity
  8
1
 62
     7
370
    13
100
AcDbCircle
 10
290.3888673065319
 20
457.5471395615939
 30
0.0
 40
22.33604477183553
  0
SPLINE
  5
148
330
70
100
AcDbEntity
  8
1
 62
     7
370
    13
100
AcDbSpline
210
0.0
220
0.0
230
1.0
 70
     8
 71
     3
 72
     8
 73
     4
 74
     0
 42
0.0000000001
 43
0.0000000001
 40
0.0
 40
0.0
 40
0.0
 40
0.0
 40
1.0
 40
1.0
 40
1.0
 40
1.0
 10
267.28504300028
 20
462.5946476125882
 30
0.0
 10
266.9228024167223
 20
460.9365734273542
 30
0.0
 10
266.7401033832521
 20
459.2443220043824
 30
0.0
 10
266.7401033832521
 20
457.5471395615941
 30
0.0
  0
SPLINE
  5
149
330
70
100
AcDbEntity
  8
1
 62
     7
370
    13
100
AcDbSpline
210
0.0
220
0.0
230
1.0
 70
     8
 71
     3
 72
     8
 73
     4
 74
     0
 42
0.0000000001
 43
0.0000000001
 40
0.0
 40
0.0
 40
0.0
 40
0.0
 40
1.0
 40
1.0
 40
1.0
 40
1.0
 10
314.0376420663488
 20
457.5471395615941
 30
0.0
 10
314.0376420663488
 20
459.2443227820795
 30
0.0
 10
313.8549429491614
 20
460.9365749804901
 30
0.0
 10
313.4927021996136
 20
462.5946499254996
 30
0.0
  0
SPLINE
  5
14A
330
70
100
AcDbEntity
  8
1
 62
     7
370
    13
100
AcDbSpline
210
0.0
220
0.0
230
1.0
 70
     8
 71
     3
 72
     8
 73
     4
 74
     0
 42
0.0000000001
 43
0.0000000001
 40
0.0
 40
0.0
 40
0.0
 40
0.0
 40
1.0
 40
1.0
 40
1.0
 40
1.0
 10
270.9217334472159
 20
444.1260947883356
 30
0.0
 10
271.4280760931724
 20
443.3916482356244
 30
0.0
 10
271.9755762522436
 20
442.6864447371163
 30
0.0
 10
272.5616080163663
 20
442.013866574116
 30
0.0
  0
SPLINE
  5
14B
330
70
100
AcDbEntity
  8
1
 62
     7
370
    13
100
AcDbSpline
210
0.0
220
0.0
230
1.0
 70
     8
 71
     3
 72
     8
 73
     4
 74
     0
 42
0.0000000001
 43
0.0000000001
 40
0.0
 40
0.0
 40
0.0
 40
0.0
 40
1.0
 40
1.0
 40
1.0
 40
1.0
 10
308.2161262259287
 20
442.0138668971749
 30
0.0
 10
308.8021579778633
 20
442.6864450461862
 30
0.0
 10
309.3496581255477
 20
443.3916485300279
 30
0.0
 10
309.856000760974
 20
444.126095067465
 30
0.0
  0
SPLINE
  5
14C
330
70
100
AcDbEntity
  8
1
 62
     7
370
    13
100
AcDbSpline
210
0.0
220
0.0
230
1.0
 70
     8
 71
     3
 72
     8
 73
     4
 74
     0
 42
0.0000000001
 43
0.0000000001
 40
0.0
 40
0.0
 40
0.0
 40
0.0
 40
1.0
 40
1.0
 40
1.0
 40
1.0
 10
313.4924851094875
 20
462.5946024976729
 30
0.0
 10
313.3234978740365
 20
463.3681032743734
 30
0.0
 10
313.1157724774494
 20
464.1326296090819
 30
0.0
 10
312.8700937533468
 20
464.885292948049
 30
0.0
  0
SPLINE
  5
14D
330
70
100
AcDbEntity
  8
1
 62
     7
370
    13
100
AcDbSpline
210
0.0
220
0.0
230
1.0
 70
     8
 71
     3
 72
     8
 73
     4
 74
     0
 42
0.0000000001
 43
0.0000000001
 40
0.0
 40
0.0
 40
0.0
 40
0.0
 40
1.0
 40
1.0
 40
1.0
 40
1.0
 10
267.9076410413318
 20
464.8852928887672
 30
0.0
 10
267.6619623192146
 20
464.1326295558801
 30
0.0
 10
267.4542369243054
 20
463.3681032273488
 30
0.0
 10
267.2852496902205
 20
462.5946024568975
 30
0.0
  0
SPLINE
  5
14E
330
70
100
AcDbEntity
  8
1
 62
     7
370
    13
100
AcDbSpline
210
0.0
220
0.0
230
1.0
 70
     8
 71
     3
 72
     8
 73
     4
 74
     0
 42
0.0000000001
 43
0.0000000001
 40
0.0
 40
0.0
 40
0.0
 40
0.0
 40
1.0
 40
1.0
 40
1.0
 40
1.0
 10
154.6436112399233
 20
498.1624874755425
 30
0.0
 10
154.4230397134552
 20
450.4051877297561
 30
0.0
 10
154.4230397134552
 20
402.6471239406601
 30
0.0
 10
154.6436112399233
 20
354.8898241948736
 30
0.0
  0
SPLINE
  5
14F
330
70
100
AcDbEntity
  8
1
 62
     7
370
    13
100
AcDbSpline
210
0.0
220
0.0
230
1.0
 70
     8
 71
     3
 72
     8
 73
     4
 74
     0
 42
0.0000000001
 43
0.0000000001
 40
0.0
 40
0.0
 40
0.0
 40
0.0
 40
1.0
 40
1.0
 40
1.0
 40
1.0
 10
420.1896078822755
 20
504.1447557206493
 30
0.0
 10
333.6583654386523
 20
505.0906012074555
 30
0.0
 10
247.1193691744138
 20
505.0906012074555
 30
0.0
 10
160.5881267307895
 20
504.1447557206493
 30
0.0
  0
SPLINE
  5
150
330
70
100
AcDbEntity
  8
1
 62
     7
370
    13
100
AcDbSpline
210
0.0
220
0.0
230
1.0
 70
     8
 71
     3
 72
     8
 73
     4
 74
     0
 42
0.0000000001
 43
0.0000000001
 40
0.0
 40
0.0
 40
0.0
 40
0.0
 40
1.0
 40
1.0
 40
1.0
 40
1.0
 10
426.1341237609013
 20
354.8898241948609
 30
0.0
 10
426.3546952873694
 20
402.6471239406564
 30
0.0
 10
426.3546952873694
 20
450.4051877297488
 30
0.0
 10
426.1341237609013
 20
498.1624874755434
 30
0.0
  0
SPLINE
  5
151
330
70
100
AcDbEntity
  8
1
 62
     7
370
    13
100
AcDbSpline
210
0.0
220
0.0
230
1.0
 70
     8
 71
     3
 72
     8
 73
     4
 74
     0
 42
0.0000000001
 43
0.0000000001
 40
0.0
 40
0.0
 40
0.0
 40
0.0
 40
1.0
 40
1.0
 40
1.0
 40
1.0
 10
160.5881267307868
 20
348.9075559497651
 30
0.0
 10
247.1193691744111
 20
347.9617104629597
 30
0.0
 10
333.6583654386486
 20
347.9617104629597
 30
0.0
 10
420.1896078822719
 20
348.9075559497651
 30
0.0
  0
SPLINE
  5
152
330
70
100
AcDbEntity
  8
1
 62
     7
370
    13
100
AcDbSpline
210
0.0
220
0.0
230
1.0
 70
     8
 71
     3
 72
     8
 73
     4
 74
     0
 42
0.0000000001
 43
0.0000000001
 40
0.0
 40
0.0
 40
0.0
 40
0.0
 40
1.0
 40
1.0
 40
1.0
 40
1.0
 10
160.5881701376611
 20
504.1447561982486
 30
0.0
 10
157.3053978716953
 20
504.1088732588122
 30
0.0
 10
154.6587741002595
 20
501.4454918877682
 30
0.0
 10
154.643611567496
 20
498.1625585297588
 30
0.0
  0
SPLINE
  5
153
330
70
100
AcDbEntity
  8
1
 62
     7
370
    13
100
AcDbSpline
210
0.0
220
0.0
230
1.0
 70
     8
 71
     3
 72
     8
 73
     4
 74
     0
 42
0.0000000001
 43
0.0000000001
 40
0.0
 40
0.0
 40
0.0
 40
0.0
 40
1.0
 40
1.0
 40
1.0
 40
1.0
 10
426.1341234333303
 20
498.1625585297588
 30
0.0
 10
426.1189609005668
 20
501.4454918877682
 30
0.0
 10
423.4723371291293
 20
504.1088732588122
 30
0.0
 10
420.1895648631652
 20
504.1447561982486
 30
0.0
  0
SPLINE
  5
154
330
70
100
AcDbEntity
  8
1
 62
     7
370
    13
100
AcDbSpline
210
0.0
220
0.0
230
1.0
 70
     8
 71
     3
 72
     8
 73
     4
 74
     0
 42
0.0000000001
 43
0.0000000001
 40
0.0
 40
0.0
 40
0.0
 40
0.0
 40
1.0
 40
1.0
 40
1.0
 40
1.0
 10
154.643611567496
 20
354.8897531406546
 30
0.0
 10
154.6587741002595
 20
351.6068197826444
 30
0.0
 10
157.3053978716953
 20
348.9434384115993
 30
0.0
 10
160.5881701376611
 20
348.9075554721639
 30
0.0
  0
SPLINE
  5
155
330
70
100
AcDbEntity
  8
1
 62
     7
370
    13
100
AcDbSpline
210
0.0
220
0.0
230
1.0
 70
     8
 71
     3
 72
     8
 73
     4
 74
     0
 42
0.0000000001
 43
0.0000000001
 40
0.0
 40
0.0
 40
0.0
 40
0.0
 40
1.0
 40
1.0
 40
1.0
 40
1.0
 10
146.7767516448202
 20
350.1369834089782
 30
0.0
 10
146.7767516448202
 20
345.1156358347835
 30
0.0
 10
150.847358131883
 20
341.0450293477188
 30
0.0
 10
155.8687057060788
 20
341.0450293477188
 30
0.0
  0
SPLINE
  5
156
330
70
100
AcDbEntity
  8
1
 62
     7
370
    13
100
AcDbSpline
210
0.0
220
0.0
230
1.0
 70
     8
 71
     3
 72
     8
 73
     4
 74
     0
 42
0.0000000001
 43
0.0000000001
 40
0.0
 40
0.0
 40
0.0
 40
0.0
 40
1.0
 40
1.0
 40
1.0
 40
1.0
 10
155.8687057060788
 20
512.0072823226937
 30
0.0
 10
150.847358131883
 20
512.0072823226937
 30
0.0
 10
146.7767516448202
 20
507.9366758356299
 30
0.0
 10
146.7767516448202
 20
502.9153282614352
 30
0.0
  0
SPLINE
  5
157
330
70
100
AcDbEntity
  8
1
 62
     7
370
    13
100
AcDbSpline
210
0.0
220
0.0
230
1.0
 70
     8
 71
     3
 72
     8
 73
     4
 74
     0
 42
0.0000000001
 43
0.0000000001
 40
0.0
 40
0.0
 40
0.0
 40
0.0
 40
1.0
 40
1.0
 40
1.0
 40
1.0
 10
457.3334313885371
 20
502.9153282614352
 30
0.0
 10
457.3334313885371
 20
507.9366758356299
 30
0.0
 10
453.2628249014742
 20
512.0072823226937
 30
0.0
 10
448.2414773272794
 20
512.0072823226937
 30
0.0
  0
SPLINE
  5
158
330
70
100
AcDbEntity
  8
1
 62
     7
370
    13
100
AcDbSpline
210
0.0
220
0.0
230
1.0
 70
     8
 71
     3
 72
     8
 73
     4
 74
     0
 42
0.0000000001
 43
0.0000000001
 40
0.0
 40
0.0
 40
0.0
 40
0.0
 40
1.0
 40
1.0
 40
1.0
 40
1.0
 10
448.2414773272794
 20
341.0450293477188
 30
0.0
 10
453.2628249014742
 20
341.0450293477188
 30
0.0
 10
457.3334313885371
 20
345.1156358347835
 30
0.0
 10
457.3334313885371
 20
350.1369834089782
 30
0.0
  0
SPLINE
  5
159
330
70
100
AcDbEntity
  8
1
 62
     7
370
    13
100
AcDbSpline
210
0.0
220
0.0
230
1.0
 70
     8
 71
     3
 72
     8
 73
     4
 74
     0
 42
0.0000000001
 43
0.0000000001
 40
0.0
 40
0.0
 40
0.0
 40
0.0
 40
1.0
 40
1.0
 40
1.0
 40
1.0
 10
468.7133779829837
 20
518.7166418470633
 30
0.0
 10
468.7133779829837
 20
521.2961358586235
 30
0.0
 10
466.6222849244659
 20
523.3872289171404
 30
0.0
 10
464.0427909129066
 20
523.3872289171404
 30
0.0
  0
SPLINE
  5
15A
330
70
100
AcDbEntity
  8
1
 62
     7
370
    13
100
AcDbSpline
210
0.0
220
0.0
230
1.0
 70
     8
 71
     3
 72
     8
 73
     4
 74
     0
 42
0.0000000001
 43
0.0000000001
 40
0.0
 40
0.0
 40
0.0
 40
0.0
 40
1.0
 40
1.0
 40
1.0
 40
1.0
 10
140.0673921204506
 20
523.3872289171404
 30
0.0
 10
137.4878981088905
 20
523.3872289171404
 30
0.0
 10
135.3968050503736
 20
521.2961358586235
 30
0.0
 10
135.3968050503736
 20
518.7166418470633
 30
0.0
  0
SPLINE
  5
15B
330
70
100
AcDbEntity
  8
1
 62
     7
370
    13
100
AcDbSpline
210
0.0
220
0.0
230
1.0
 70
     8
 71
     3
 72
     8
 73
     4
 74
     0
 42
0.0000000001
 43
0.0000000001
 40
0.0
 40
0.0
 40
0.0
 40
0.0
 40
1.0
 40
1.0
 40
1.0
 40
1.0
 10
135.3968050503736
 20
334.3356698233492
 30
0.0
 10
135.3968050503736
 20
331.7561758117881
 30
0.0
 10
137.4878981088905
 20
329.6650827532721
 30
0.0
 10
140.0673921204506
 20
329.6650827532721
 30
0.0
  0
SPLINE
  5
15C
330
70
100
AcDbEntity
  8
1
 62
     7
370
    13
100
AcDbSpline
210
0.0
220
0.0
230
1.0
 70
     8
 71
     3
 72
     8
 73
     4
 74
     0
 42
0.0000000001
 43
0.0000000001
 40
0.0
 40
0.0
 40
0.0
 40
0.0
 40
1.0
 40
1.0
 40
1.0
 40
1.0
 10
464.0427909129066
 20
329.6650827532721
 30
0.0
 10
466.6222849244659
 20
329.6650827532721
 30
0.0
 10
468.7133779829837
 20
331.7561758117881
 30
0.0
 10
468.7133779829837
 20
334.3356698233492
 30
0.0
  0
SPLINE
  5
15D
330
70
100
AcDbEntity
  8
1
 62
     7
370
    13
100
AcDbSpline
210
0.0
220
0.0
230
1.0
 70
     8
 71
     3
 72
     8
 73
     4
 74
     0
 42
0.0000000001
 43
0.0000000001
 40
0.0
 40
0.0
 40
0.0
 40
0.0
 40
1.0
 40
1.0
 40
1.0
 40
1.0
 10
155.8687057060788
 20
512.8356185880475
 30
0.0
 10
150.3898806447969
 20
512.8356185880475
 30
0.0
 10
145.9484153794665
 20
508.3941533227171
 30
0.0
 10
145.9484153794665
 20
502.9153282614352
 30
0.0
  0
SPLINE
  5
15E
330
70
100
AcDbEntity
  8
1
 62
     7
370
    13
100
AcDbSpline
210
0.0
220
0.0
230
1.0
 70
     8
 71
     3
 72
     8
 73
     4
 74
     0
 42
0.0000000001
 43
0.0000000001
 40
0.0
 40
0.0
 40
0.0
 40
0.0
 40
1.0
 40
1.0
 40
1.0
 40
1.0
 10
458.1617676538917
 20
502.9153282614352
 30
0.0
 10
458.1617676538917
 20
508.3941533227171
 30
0.0
 10
453.7203023885594
 20
512.8356185880475
 30
0.0
 10
448.2414773272794
 20
512.8356185880475
 30
0.0
  0
SPLINE
  5
15F
330
70
100
AcDbEntity
  8
1
 62
     7
370
    13
100
AcDbSpline
210
0.0
220
0.0
230
1.0
 70
     8
 71
     3
 72
     8
 73
     4
 74
     0
 42
0.0000000001
 43
0.0000000001
 40
0.0
 40
0.0
 40
0.0
 40
0.0
 40
1.0
 40
1.0
 40
1.0
 40
1.0
 10
140.0673921204506
 20
522.2284099676417
 30
0.0
 10
138.1278961425132
 20
522.2284099676417
 30
0.0
 10
136.5556239998723
 20
520.6561378250007
 30
0.0
 10
136.5556239998723
 20
518.7166418470633
 30
0.0
  0
SPLINE
  5
160
330
70
100
AcDbEntity
  8
1
 62
     7
370
    13
100
AcDbSpline
210
0.0
220
0.0
230
1.0
 70
     8
 71
     3
 72
     8
 73
     4
 74
     0
 42
0.0000000001
 43
0.0000000001
 40
0.0
 40
0.0
 40
0.0
 40
0.0
 40
1.0
 40
1.0
 40
1.0
 40
1.0
 10
136.5556239998723
 20
334.3356698233492
 30
0.0
 10
136.5556239998723
 20
332.3961738454127
 30
0.0
 10
138.1278961425132
 20
330.82390170277
 30
0.0
 10
140.0673921204506
 20
330.82390170277
 30
0.0
  0
SPLINE
  5
161
330
70
100
AcDbEntity
  8
1
 62
     7
370
    13
100
AcDbSpline
210
0.0
220
0.0
230
1.0
 70
     8
 71
     3
 72
     8
 73
     4
 74
     0
 42
0.0000000001
 43
0.0000000001
 40
0.0
 40
0.0
 40
0.0
 40
0.0
 40
1.0
 40
1.0
 40
1.0
 40
1.0
 10
467.5545590334841
 20
518.7166418470633
 30
0.0
 10
467.5545590334841
 20
520.6561378250007
 30
0.0
 10
465.982286890845
 20
522.2284099676417
 30
0.0
 10
464.0427909129066
 20
522.2284099676417
 30
0.0
  0
SPLINE
  5
162
330
70
100
AcDbEntity
  8
1
 62
     7
370
    13
100
AcDbSpline
210
0.0
220
0.0
230
1.0
 70
     8
 71
     3
 72
     8
 73
     4
 74
     0
 42
0.0000000001
 43
0.0000000001
 40
0.0
 40
0.0
 40
0.0
 40
0.0
 40
1.0
 40
1.0
 40
1.0
 40
1.0
 10
448.2414773272794
 20
340.216693082366
 30
0.0
 10
453.7203023885594
 20
340.216693082366
 30
0.0
 10
458.1617676538917
 20
344.6581583476945
 30
0.0
 10
458.1617676538917
 20
350.1369834089782
 30
0.0
  0
SPLINE
  5
163
330
70
100
AcDbEntity
  8
1
 62
     7
370
    13
100
AcDbSpline
210
0.0
220
0.0
230
1.0
 70
     8
 71
     3
 72
     8
 73
     4
 74
     0
 42
0.0000000001
 43
0.0000000001
 40
0.0
 40
0.0
 40
0.0
 40
0.0
 40
1.0
 40
1.0
 40
1.0
 40
1.0
 10
464.0427909129066
 20
330.82390170277
 30
0.0
 10
465.982286890845
 20
330.82390170277
 30
0.0
 10
467.5545590334841
 20
332.3961738454127
 30
0.0
 10
467.5545590334841
 20
334.3356698233492
 30
0.0
  0
SPLINE
  5
164
330
70
100
AcDbEntity
  8
1
 62
     7
370
    13
100
AcDbSpline
210
0.0
220
0.0
230
1.0
 70
     8
 71
     3
 72
     8
 73
     4
 74
     0
 42
0.0000000001
 43
0.0000000001
 40
0.0
 40
0.0
 40
0.0
 40
0.0
 40
1.0
 40
1.0
 40
1.0
 40
1.0
 10
467.0335992696164
 20
518.7166418470633
 30
0.0
 10
467.0335992696164
 20
520.3684196921413
 30
0.0
 10
465.6945687579828
 20
521.7074502037739
 30
0.0
 10
464.0427909129066
 20
521.7074502037739
 30
0.0
  0
SPLINE
  5
165
330
70
100
AcDbEntity
  8
1
 62
     7
370
    13
100
AcDbSpline
210
0.0
220
0.0
230
1.0
 70
     8
 71
     3
 72
     8
 73
     4
 74
     0
 42
0.0000000001
 43
0.0000000001
 40
0.0
 40
0.0
 40
0.0
 40
0.0
 40
1.0
 40
1.0
 40
1.0
 40
1.0
 10
140.0673921204506
 20
521.7074502037739
 30
0.0
 10
138.4156142753727
 20
521.7074502037739
 30
0.0
 10
137.07658376374
 20
520.3684196921413
 30
0.0
 10
137.07658376374
 20
518.7166418470633
 30
0.0
  0
SPLINE
  5
166
330
70
100
AcDbEntity
  8
1
 62
     7
370
    13
100
AcDbSpline
210
0.0
220
0.0
230
1.0
 70
     8
 71
     3
 72
     8
 73
     4
 74
     0
 42
0.0000000001
 43
0.0000000001
 40
0.0
 40
0.0
 40
0.0
 40
0.0
 40
1.0
 40
1.0
 40
1.0
 40
1.0
 10
137.07658376374
 20
334.3356698233492
 30
0.0
 10
137.07658376374
 20
332.6838919782713
 30
0.0
 10
138.4156142753727
 20
331.3448614666377
 30
0.0
 10
140.0673921204506
 20
331.3448614666377
 30
0.0
  0
SPLINE
  5
167
330
70
100
AcDbEntity
  8
1
 62
     7
370
    13
100
AcDbSpline
210
0.0
220
0.0
230
1.0
 70
     8
 71
     3
 72
     8
 73
     4
 74
     0
 42
0.0000000001
 43
0.0000000001
 40
0.0
 40
0.0
 40
0.0
 40
0.0
 40
1.0
 40
1.0
 40
1.0
 40
1.0
 10
464.0427909129066
 20
331.3448614666377
 30
0.0
 10
465.6945687579828
 20
331.3448614666377
 30
0.0
 10
467.0335992696164
 20
332.6838919782713
 30
0.0
 10
467.0335992696164
 20
334.3356698233492
 30
0.0
  0
SPLINE
  5
168
330
70
100
AcDbEntity
  8
1
 62
     7
370
    13
100
AcDbSpline
210
0.0
220
0.0
230
1.0
 70
     8
 71
     3
 72
     8
 73
     4
 74
     0
 42
0.0000000001
 43
0.0000000001
 40
0.0
 40
0.0
 40
0.0
 40
0.0
 40
1.0
 40
1.0
 40
1.0
 40
1.0
 10
459.5385968517112
 20
502.9153282614352
 30
0.0
 10
459.5385968517112
 20
509.1545550917945
 30
0.0
 10
454.4807041576387
 20
514.2124477858669
 30
0.0
 10
448.2414773272794
 20
514.2124477858669
 30
0.0
  0
SPLINE
  5
169
330
70
100
AcDbEntity
  8
1
 62
     7
370
    13
100
AcDbSpline
210
0.0
220
0.0
230
1.0
 70
     8
 71
     3
 72
     8
 73
     4
 74
     0
 42
0.0000000001
 43
0.0000000001
 40
0.0
 40
0.0
 40
0.0
 40
0.0
 40
1.0
 40
1.0
 40
1.0
 40
1.0
 10
448.2414773272794
 20
338.8398638845447
 30
0.0
 10
454.4807041576387
 20
338.8398638845447
 30
0.0
 10
459.5385968517112
 20
343.897756578619
 30
0.0
 10
459.5385968517112
 20
350.1369834089782
 30
0.0
  0
SPLINE
  5
16A
330
70
100
AcDbEntity
  8
1
 62
     7
370
    13
100
AcDbSpline
210
0.0
220
0.0
230
1.0
 70
     8
 71
     3
 72
     8
 73
     4
 74
     0
 42
0.0000000001
 43
0.0000000001
 40
0.0
 40
0.0
 40
0.0
 40
0.0
 40
1.0
 40
1.0
 40
1.0
 40
1.0
 10
155.8687057060788
 20
514.2124477858669
 30
0.0
 10
149.6294788757186
 20
514.2124477858669
 30
0.0
 10
144.5715861816461
 20
509.1545550917945
 30
0.0
 10
144.5715861816461
 20
502.9153282614352
 30
0.0
  0
SPLINE
  5
16B
330
70
100
AcDbEntity
  8
1
 62
     7
370
    13
100
AcDbSpline
210
0.0
220
0.0
230
1.0
 70
     8
 71
     3
 72
     8
 73
     4
 74
     0
 42
0.0000000001
 43
0.0000000001
 40
0.0
 40
0.0
 40
0.0
 40
0.0
 40
1.0
 40
1.0
 40
1.0
 40
1.0
 10
448.2414773272794
 20
343.8994313431976
 30
0.0
 10
451.6863822094856
 20
343.8994313431976
 30
0.0
 10
454.4790293930581
 20
346.6920785267721
 30
0.0
 10
454.4790293930581
 20
350.1369834089782
 30
0.0
  0
SPLINE
  5
16C
330
70
100
AcDbEntity
  8
1
 62
     7
370
    13
100
AcDbSpline
210
0.0
220
0.0
230
1.0
 70
     8
 71
     3
 72
     8
 73
     4
 74
     0
 42
0.0000000001
 43
0.0000000001
 40
0.0
 40
0.0
 40
0.0
 40
0.0
 40
1.0
 40
1.0
 40
1.0
 40
1.0
 10
454.4790293930581
 20
502.9153282614352
 30
0.0
 10
454.4790293930581
 20
506.3602331436413
 30
0.0
 10
451.6863822094856
 20
509.1528803272158
 30
0.0
 10
448.2414773272794
 20
509.1528803272158
 30
0.0
  0
SPLINE
  5
16D
330
70
100
AcDbEntity
  8
1
 62
     7
370
    13
100
AcDbSpline
210
0.0
220
0.0
230
1.0
 70
     8
 71
     3
 72
     8
 73
     4
 74
     0
 42
0.0000000001
 43
0.0000000001
 40
0.0
 40
0.0
 40
0.0
 40
0.0
 40
1.0
 40
1.0
 40
1.0
 40
1.0
 10
155.8687057060788
 20
509.1528803272158
 30
0.0
 10
152.4238008238726
 20
509.1528803272158
 30
0.0
 10
149.6311536402981
 20
506.3602331436413
 30
0.0
 10
149.6311536402981
 20
502.9153282614352
 30
0.0
  0
SPLINE
  5
16E
330
70
100
AcDbEntity
  8
1
 62
     7
370
    13
100
AcDbSpline
210
0.0
220
0.0
230
1.0
 70
     8
 71
     3
 72
     8
 73
     4
 74
     0
 42
0.0000000001
 43
0.0000000001
 40
0.0
 40
0.0
 40
0.0
 40
0.0
 40
1.0
 40
1.0
 40
1.0
 40
1.0
 10
149.6311536402981
 20
350.1369834089782
 30
0.0
 10
149.6311536402981
 20
346.6920785267721
 30
0.0
 10
152.4238008238726
 20
343.8994313431976
 30
0.0
 10
155.8687057060788
 20
343.8994313431976
 30
0.0
  0
SPLINE
  5
16F
330
70
100
AcDbEntity
  8
1
 62
     7
370
    13
100
AcDbSpline
210
0.0
220
0.0
230
1.0
 70
     8
 71
     3
 72
     8
 73
     4
 74
     0
 42
0.0000000001
 43
0.0000000001
 40
0.0
 40
0.0
 40
0.0
 40
0.0
 40
1.0
 40
1.0
 40
1.0
 40
1.0
 10
144.5715861816461
 20
350.1369834089782
 30
0.0
 10
144.5715861816461
 20
343.897756578619
 30
0.0
 10
149.6294788757186
 20
338.8398638845447
 30
0.0
 10
155.8687057060788
 20
338.8398638845447
 30
0.0
  0
SPLINE
  5
170
330
70
100
AcDbEntity
  8
1
 62
     7
370
    13
100
AcDbSpline
210
0.0
220
0.0
230
1.0
 70
     8
 71
     3
 72
     8
 73
     4
 74
     0
 42
0.0000000001
 43
0.0000000001
 40
0.0
 40
0.0
 40
0.0
 40
0.0
 40
1.0
 40
1.0
 40
1.0
 40
1.0
 10
145.9484153794665
 20
350.1369834089782
 30
0.0
 10
145.9484153794665
 20
344.6581583476945
 30
0.0
 10
150.3898806447969
 20
340.216693082366
 30
0.0
 10
155.8687057060788
 20
340.216693082366
 30
0.0
  0
SPLINE
  5
171
330
70
100
AcDbEntity
  8
1
 62
     7
370
    13
100
AcDbSpline
210
0.0
220
0.0
230
1.0
 70
     8
 71
     3
 72
     8
 73
     4
 74
     0
 42
0.0000000001
 43
0.0000000001
 40
0.0
 40
0.0
 40
0.0
 40
0.0
 40
1.0
 40
1.0
 40
1.0
 40
1.0
 10
420.1895648631652
 20
348.9075554721639
 30
0.0
 10
423.4723371291293
 20
348.9434384115993
 30
0.0
 10
426.1189609005668
 20
351.6068197826444
 30
0.0
 10
426.1341234333303
 20
354.8897531406546
 30
0.0
  0
CIRCLE
  5
172
330
70
100
AcDbEntity
  8
1
 62
     7
370
    13
100
AcDbCircle
 10
442.8461604879121
 20
426.5261558352067
 30
0.0
 40
6.785840190146699
  0
CIRCLE
  5
173
330
70
100
AcDbEntity
  8
1
 62
     7
370
    13
100
AcDbCircle
 10
442.8461604879121
 20
493.6423884562702
 30
0.0
 40
6.78584019014704
  0
CIRCLE
  5
174
330
70
100
AcDbEntity
  8
1
 62
     7
370
    13
100
AcDbCircle
 10
290.3888673065317
 20
457.5471395615939
 30
0.0
 40
17.4493033460925
  0
SPLINE
  5
175
330
70
100
AcDbEntity
  8
1
 62
     7
370
    13
100
AcDbSpline
210
0.0
220
0.0
230
1.0
 70
     8
 71
     3
 72
     8
 73
     4
 74
     0
 42
0.0000000001
 43
0.0000000001
 40
0.0
 40
0.0
 40
0.0
 40
0.0
 40
1.0
 40
1.0
 40
1.0
 40
1.0
 10
312.7420073468238
 20
564.5019229305526
 30
0.0
 10
312.799882335783
 20
564.5174304871061
 30
0.0
 10
312.855765221615
 20
564.5395928117559
 30
0.0
 10
312.9085377279807
 20
564.5679664126737
 30
0.0
  0
SPLINE
  5
176
330
70
100
AcDbEntity
  8
1
 62
     7
370
    13
100
AcDbSpline
210
0.0
220
0.0
230
1.0
 70
     8
 71
     3
 72
     8
 73
     4
 74
     0
 42
0.0000000001
 43
0.0000000001
 40
0.0
 40
0.0
 40
0.0
 40
0.0
 40
1.0
 40
1.0
 40
1.0
 40
1.0
 10
267.8691972728448
 20
564.5679664126737
 30
0.0
 10
267.9219697792114
 20
564.5395928117559
 30
0.0
 10
267.9778526650425
 20
564.5174304871061
 30
0.0
 10
268.0357276540017
 20
564.5019229305526
 30
0.0
  0
SPLINE
  5
177
330
70
100
AcDbEntity
  8
1
 62
     7
370
    13
100
AcDbSpline
210
0.0
220
0.0
230
1.0
 70
     8
 71
     3
 72
     8
 73
     4
 74
     0
 42
0.0000000001
 43
0.0000000001
 40
0.0
 40
0.0
 40
0.0
 40
0.0
 40
1.0
 40
1.0
 40
1.0
 40
1.0
 10
454.4790293853075
 20
645.2133481518094
 30
0.0
 10
455.7396899285558
 20
645.2133481518094
 30
0.0
 10
456.9045883088401
 20
645.8859025452457
 30
0.0
 10
457.5349185804661
 20
646.9776666012476
 30
0.0
  0
SPLINE
  5
178
330
70
100
AcDbEntity
  8
1
 62
     7
370
    13
100
AcDbSpline
210
0.0
220
0.0
230
1.0
 70
     8
 71
     3
 72
     8
 73
     4
 74
     0
 42
0.0000000001
 43
0.0000000001
 40
0.0
 40
0.0
 40
0.0
 40
0.0
 40
1.0
 40
1.0
 40
1.0
 40
1.0
 10
146.5752644528911
 20
646.9776666012476
 30
0.0
 10
147.2055947245162
 20
645.8859025452457
 30
0.0
 10
148.3704931048005
 20
645.2133481518094
 30
0.0
 10
149.6311536480498
 20
645.2133481518094
 30
0.0
  0
SPLINE
  5
179
330
70
100
AcDbEntity
  8
1
 62
     7
370
    13
100
AcDbSpline
210
0.0
220
0.0
230
1.0
 70
     8
 71
     3
 72
    11
 73
     7
 74
     0
 42
0.0000000001
 43
0.0000000001
 40
0.0
 40
0.0
 40
0.0
 40
0.0
 40
1.0
 40
1.0
 40
1.0
 40
2.0
 40
2.0
 40
2.0
 40
2.0
 10
172.9302467555917
 20
644.6704809365974
 30
0.0
 10
173.3585571615131
 20
644.6704809365974
 30
0.0
 10
173.7057713487511
 20
645.0176951238363
 30
0.0
 10
173.7057713487511
 20
645.4460055297568
 30
0.0
 10
173.7057713487511
 20
645.8743159356782
 30
0.0
 10
173.3585571615131
 20
646.221530122917
 30
0.0
 10
172.9302467555917
 20
646.221530122917
 30
0.0
  0
SPLINE
  5
17A
330
70
100
AcDbEntity
  8
1
 62
     7
370
    13
100
AcDbSpline
210
0.0
220
0.0
230
1.0
 70
     8
 71
     3
 72
    11
 73
     7
 74
     0
 42
0.0000000001
 43
0.0000000001
 40
0.0
 40
0.0
 40
0.0
 40
0.0
 40
1.0
 40
1.0
 40
1.0
 40
2.0
 40
2.0
 40
2.0
 40
2.0
 10
305.1571898893162
 20
644.2827186400172
 30
0.0
 10
304.7288794833967
 20
644.2827186400172
 30
0.0
 10
304.3816652961577
 20
643.9355044527792
 30
0.0
 10
304.3816652961577
 20
643.5071940468579
 30
0.0
 10
304.3816652961577
 20
643.0788836409374
 30
0.0
 10
304.7288794833967
 20
642.7316694536984
 30
0.0
 10
305.1571898893162
 20
642.7316694536984
 30
0.0
  0
SPLINE
  5
17B
330
70
100
AcDbEntity
  8
1
 62
     7
370
    13
100
AcDbSpline
210
0.0
220
0.0
230
1.0
 70
     8
 71
     3
 72
    11
 73
     7
 74
     0
 42
0.0000000001
 43
0.0000000001
 40
0.0
 40
0.0
 40
0.0
 40
0.0
 40
1.0
 40
1.0
 40
1.0
 40
2.0
 40
2.0
 40
2.0
 40
2.0
 10
163.6239516376754
 20
644.2827186400172
 30
0.0
 10
163.1956412317549
 20
644.2827186400172
 30
0.0
 10
162.848427044516
 20
643.9355044527792
 30
0.0
 10
162.848427044516
 20
643.5071940468579
 30
0.0
 10
162.848427044516
 20
643.0788836409374
 30
0.0
 10
163.1956412317549
 20
642.7316694536984
 30
0.0
 10
163.6239516376754
 20
642.7316694536984
 30
0.0
  0
SPLINE
  5
17C
330
70
100
AcDbEntity
  8
1
 62
     7
370
    13
100
AcDbSpline
210
0.0
220
0.0
230
1.0
 70
     8
 71
     3
 72
    11
 73
     7
 74
     0
 42
0.0000000001
 43
0.0000000001
 40
0.0
 40
0.0
 40
0.0
 40
0.0
 40
1.0
 40
1.0
 40
1.0
 40
2.0
 40
2.0
 40
2.0
 40
2.0
 10
169.8281483829532
 20
646.221530122917
 30
0.0
 10
169.3998379770319
 20
646.221530122917
 30
0.0
 10
169.0526237897938
 20
645.8743159356782
 30
0.0
 10
169.0526237897938
 20
645.4460055297568
 30
0.0
 10
169.0526237897938
 20
645.0176951238363
 30
0.0
 10
169.3998379770319
 20
644.6704809365974
 30
0.0
 10
169.8281483829532
 20
644.6704809365974
 30
0.0
  0
SPLINE
  5
17D
330
70
100
AcDbEntity
  8
1
 62
     7
370
    13
100
AcDbSpline
210
0.0
220
0.0
230
1.0
 70
     8
 71
     3
 72
    11
 73
     7
 74
     0
 42
0.0000000001
 43
0.0000000001
 40
0.0
 40
0.0
 40
0.0
 40
0.0
 40
1.0
 40
1.0
 40
1.0
 40
2.0
 40
2.0
 40
2.0
 40
2.0
 10
442.0372805820006
 20
642.7316694536984
 30
0.0
 10
442.465590987922
 20
642.7316694536984
 30
0.0
 10
442.8128051751591
 20
643.0788836409374
 30
0.0
 10
442.8128051751591
 20
643.5071940468579
 30
0.0
 10
442.8128051751591
 20
643.9355044527792
 30
0.0
 10
442.465590987922
 20
644.2827186400172
 30
0.0
 10
442.0372805820006
 20
644.2827186400172
 30
0.0
  0
SPLINE
  5
17E
330
70
100
AcDbEntity
  8
1
 62
     7
370
    13
100
AcDbSpline
210
0.0
220
0.0
230
1.0
 70
     8
 71
     3
 72
    11
 73
     7
 74
     0
 42
0.0000000001
 43
0.0000000001
 40
0.0
 40
0.0
 40
0.0
 40
0.0
 40
1.0
 40
1.0
 40
1.0
 40
2.0
 40
2.0
 40
2.0
 40
2.0
 10
230.7068289459885
 20
642.7316694536984
 30
0.0
 10
231.1351393519089
 20
642.7316694536984
 30
0.0
 10
231.4823535391479
 20
643.0788836409374
 30
0.0
 10
231.4823535391479
 20
643.5071940468579
 30
0.0
 10
231.4823535391479
 20
643.9355044527792
 30
0.0
 10
231.1351393519089
 20
644.2827186400172
 30
0.0
 10
230.7068289459885
 20
644.2827186400172
 30
0.0
  0
SPLINE
  5
17F
330
70
100
AcDbEntity
  8
1
 62
     7
370
    13
100
AcDbSpline
210
0.0
220
0.0
230
1.0
 70
     8
 71
     3
 72
    11
 73
     7
 74
     0
 42
0.0000000001
 43
0.0000000001
 40
0.0
 40
0.0
 40
0.0
 40
0.0
 40
1.0
 40
1.0
 40
1.0
 40
2.0
 40
2.0
 40
2.0
 40
2.0
 10
438.935182209363
 20
644.2827186400172
 30
0.0
 10
438.5068718034417
 20
644.2827186400172
 30
0.0
 10
438.1596576162028
 20
643.9355044527792
 30
0.0
 10
438.1596576162028
 20
643.5071940468579
 30
0.0
 10
438.1596576162028
 20
643.0788836409374
 30
0.0
 10
438.5068718034417
 20
642.7316694536984
 30
0.0
 10
438.935182209363
 20
642.7316694536984
 30
0.0
  0
SPLINE
  5
180
330
70
100
AcDbEntity
  8
1
 62
     7
370
    13
100
AcDbSpline
210
0.0
220
0.0
230
1.0
 70
     8
 71
     3
 72
    11
 73
     7
 74
     0
 42
0.0000000001
 43
0.0000000001
 40
0.0
 40
0.0
 40
0.0
 40
0.0
 40
1.0
 40
1.0
 40
1.0
 40
2.0
 40
2.0
 40
2.0
 40
2.0
 10
392.0159443232005
 20
644.6704809365974
 30
0.0
 10
392.4442547291219
 20
644.6704809365974
 30
0.0
 10
392.7914689163608
 20
645.0176951238363
 30
0.0
 10
392.7914689163608
 20
645.4460055297568
 30
0.0
 10
392.7914689163608
 20
645.8743159356782
 30
0.0
 10
392.4442547291219
 20
646.221530122917
 30
0.0
 10
392.0159443232005
 20
646.221530122917
 30
0.0
  0
SPLINE
  5
181
330
70
100
AcDbEntity
  8
1
 62
     7
370
    13
100
AcDbSpline
210
0.0
220
0.0
230
1.0
 70
     8
 71
     3
 72
    11
 73
     7
 74
     0
 42
0.0000000001
 43
0.0000000001
 40
0.0
 40
0.0
 40
0.0
 40
0.0
 40
1.0
 40
1.0
 40
1.0
 40
2.0
 40
2.0
 40
2.0
 40
2.0
 10
385.8117475779236
 20
642.7316694536984
 30
0.0
 10
386.240057983845
 20
642.7316694536984
 30
0.0
 10
386.5872721710839
 20
643.0788836409374
 30
0.0
 10
386.5872721710839
 20
643.5071940468579
 30
0.0
 10
386.5872721710839
 20
643.9355044527792
 30
0.0
 10
386.240057983845
 20
644.2827186400172
 30
0.0
 10
385.8117475779236
 20
644.2827186400172
 30
0.0
  0
SPLINE
  5
182
330
70
100
AcDbEntity
  8
1
 62
     7
370
    13
100
AcDbSpline
210
0.0
220
0.0
230
1.0
 70
     8
 71
     3
 72
    11
 73
     7
 74
     0
 42
0.0000000001
 43
0.0000000001
 40
0.0
 40
0.0
 40
0.0
 40
0.0
 40
1.0
 40
1.0
 40
1.0
 40
2.0
 40
2.0
 40
2.0
 40
2.0
 10
382.7096492052842
 20
644.2827186400172
 30
0.0
 10
382.2813387993647
 20
644.2827186400172
 30
0.0
 10
381.9341246121258
 20
643.9355044527792
 30
0.0
 10
381.9341246121258
 20
643.5071940468579
 30
0.0
 10
381.9341246121258
 20
643.0788836409374
 30
0.0
 10
382.2813387993647
 20
642.7316694536984
 30
0.0
 10
382.7096492052842
 20
642.7316694536984
 30
0.0
  0
SPLINE
  5
183
330
70
100
AcDbEntity
  8
1
 62
     7
370
    13
100
AcDbSpline
210
0.0
220
0.0
230
1.0
 70
     8
 71
     3
 72
    11
 73
     7
 74
     0
 42
0.0000000001
 43
0.0000000001
 40
0.0
 40
0.0
 40
0.0
 40
0.0
 40
1.0
 40
1.0
 40
1.0
 40
2.0
 40
2.0
 40
2.0
 40
2.0
 10
388.913845950563
 20
646.221530122917
 30
0.0
 10
388.4855355446416
 20
646.221530122917
 30
0.0
 10
388.1383213574027
 20
645.8743159356782
 30
0.0
 10
388.1383213574027
 20
645.4460055297568
 30
0.0
 10
388.1383213574027
 20
645.0176951238363
 30
0.0
 10
388.4855355446416
 20
644.6704809365974
 30
0.0
 10
388.913845950563
 20
644.6704809365974
 30
0.0
  0
SPLINE
  5
184
330
70
100
AcDbEntity
  8
1
 62
     7
370
    13
100
AcDbSpline
210
0.0
220
0.0
230
1.0
 70
     8
 71
     3
 72
    11
 73
     7
 74
     0
 42
0.0000000001
 43
0.0000000001
 40
0.0
 40
0.0
 40
0.0
 40
0.0
 40
1.0
 40
1.0
 40
1.0
 40
2.0
 40
2.0
 40
2.0
 40
2.0
 10
445.1393789546382
 20
646.221530122917
 30
0.0
 10
444.7110685487187
 20
646.221530122917
 30
0.0
 10
444.3638543614797
 20
645.8743159356782
 30
0.0
 10
444.3638543614797
 20
645.4460055297568
 30
0.0
 10
444.3638543614797
 20
645.0176951238363
 30
0.0
 10
444.7110685487187
 20
644.6704809365974
 30
0.0
 10
445.1393789546382
 20
644.6704809365974
 30
0.0
  0
SPLINE
  5
185
330
70
100
AcDbEntity
  8
1
 62
     7
370
    13
100
AcDbSpline
210
0.0
220
0.0
230
1.0
 70
     8
 71
     3
 72
    11
 73
     7
 74
     0
 42
0.0000000001
 43
0.0000000001
 40
0.0
 40
0.0
 40
0.0
 40
0.0
 40
1.0
 40
1.0
 40
1.0
 40
2.0
 40
2.0
 40
2.0
 40
2.0
 10
448.2414773272794
 20
644.6704809365974
 30
0.0
 10
448.6697877331989
 20
644.6704809365974
 30
0.0
 10
449.0170019204379
 20
645.0176951238363
 30
0.0
 10
449.0170019204379
 20
645.4460055297568
 30
0.0
 10
449.0170019204379
 20
645.8743159356782
 30
0.0
 10
448.6697877331989
 20
646.221530122917
 30
0.0
 10
448.2414773272794
 20
646.221530122917
 30
0.0
  0
SPLINE
  5
186
330
70
100
AcDbEntity
  8
1
 62
     7
370
    13
100
AcDbSpline
210
0.0
220
0.0
230
1.0
 70
     8
 71
     3
 72
    11
 73
     7
 74
     0
 42
0.0000000001
 43
0.0000000001
 40
0.0
 40
0.0
 40
0.0
 40
0.0
 40
1.0
 40
1.0
 40
1.0
 40
2.0
 40
2.0
 40
2.0
 40
2.0
 10
311.361386634595
 20
646.221530122917
 30
0.0
 10
310.9330762286736
 20
646.221530122917
 30
0.0
 10
310.5858620414347
 20
645.8743159356782
 30
0.0
 10
310.5858620414347
 20
645.4460055297568
 30
0.0
 10
310.5858620414347
 20
645.0176951238363
 30
0.0
 10
310.9330762286736
 20
644.6704809365974
 30
0.0
 10
311.361386634595
 20
644.6704809365974
 30
0.0
  0
SPLINE
  5
187
330
70
100
AcDbEntity
  8
1
 62
     7
370
    13
100
AcDbSpline
210
0.0
220
0.0
230
1.0
 70
     8
 71
     3
 72
    11
 73
     7
 74
     0
 42
0.0000000001
 43
0.0000000001
 40
0.0
 40
0.0
 40
0.0
 40
0.0
 40
1.0
 40
1.0
 40
1.0
 40
2.0
 40
2.0
 40
2.0
 40
2.0
 10
314.4634850072325
 20
644.6704809365974
 30
0.0
 10
314.8917954131539
 20
644.6704809365974
 30
0.0
 10
315.2390096003928
 20
645.0176951238363
 30
0.0
 10
315.2390096003928
 20
645.4460055297568
 30
0.0
 10
315.2390096003928
 20
645.8743159356782
 30
0.0
 10
314.8917954131539
 20
646.221530122917
 30
0.0
 10
314.4634850072325
 20
646.221530122917
 30
0.0
  0
SPLINE
  5
188
330
70
100
AcDbEntity
  8
1
 62
     7
370
    13
100
AcDbSpline
210
0.0
220
0.0
230
1.0
 70
     8
 71
     3
 72
    11
 73
     7
 74
     0
 42
0.0000000001
 43
0.0000000001
 40
0.0
 40
0.0
 40
0.0
 40
0.0
 40
1.0
 40
1.0
 40
1.0
 40
2.0
 40
2.0
 40
2.0
 40
2.0
 10
308.2592882619556
 20
642.7316694536984
 30
0.0
 10
308.687598667877
 20
642.7316694536984
 30
0.0
 10
309.0348128551159
 20
643.0788836409374
 30
0.0
 10
309.0348128551159
 20
643.5071940468579
 30
0.0
 10
309.0348128551159
 20
643.9355044527792
 30
0.0
 10
308.687598667877
 20
644.2827186400172
 30
0.0
 10
308.2592882619556
 20
644.2827186400172
 30
0.0
  0
SPLINE
  5
189
330
70
100
AcDbEntity
  8
1
 62
     7
370
    13
100
AcDbSpline
210
0.0
220
0.0
230
1.0
 70
     8
 71
     3
 72
    11
 73
     7
 74
     0
 42
0.0000000001
 43
0.0000000001
 40
0.0
 40
0.0
 40
0.0
 40
0.0
 40
1.0
 40
1.0
 40
1.0
 40
2.0
 40
2.0
 40
2.0
 40
2.0
 10
227.6047305733491
 20
644.2827186400172
 30
0.0
 10
227.1764201674287
 20
644.2827186400172
 30
0.0
 10
226.8292059801897
 20
643.9355044527792
 30
0.0
 10
226.8292059801897
 20
643.5071940468579
 30
0.0
 10
226.8292059801897
 20
643.0788836409374
 30
0.0
 10
227.1764201674287
 20
642.7316694536984
 30
0.0
 10
227.6047305733491
 20
642.7316694536984
 30
0.0
  0
SPLINE
  5
18A
330
70
100
AcDbEntity
  8
1
 62
     7
370
    13
100
AcDbSpline
210
0.0
220
0.0
230
1.0
 70
     8
 71
     3
 72
    11
 73
     7
 74
     0
 42
0.0000000001
 43
0.0000000001
 40
0.0
 40
0.0
 40
0.0
 40
0.0
 40
1.0
 40
1.0
 40
1.0
 40
2.0
 40
2.0
 40
2.0
 40
2.0
 10
166.7260500103148
 20
642.7316694536984
 30
0.0
 10
167.1543604162352
 20
642.7316694536984
 30
0.0
 10
167.5015746034742
 20
643.0788836409374
 30
0.0
 10
167.5015746034742
 20
643.5071940468579
 30
0.0
 10
167.5015746034742
 20
643.9355044527792
 30
0.0
 10
167.1543604162352
 20
644.2827186400172
 30
0.0
 10
166.7260500103148
 20
644.2827186400172
 30
0.0
  0
SPLINE
  5
18B
330
70
100
AcDbEntity
  8
1
 62
     7
370
    13
100
AcDbSpline
210
0.0
220
0.0
230
1.0
 70
     8
 71
     3
 72
    11
 73
     7
 74
     0
 42
0.0000000001
 43
0.0000000001
 40
0.0
 40
0.0
 40
0.0
 40
0.0
 40
1.0
 40
1.0
 40
1.0
 40
2.0
 40
2.0
 40
2.0
 40
2.0
 10
233.808927318627
 20
646.221530122917
 30
0.0
 10
233.3806169127056
 20
646.221530122917
 30
0.0
 10
233.0334027254667
 20
645.8743159356782
 30
0.0
 10
233.0334027254667
 20
645.4460055297568
 30
0.0
 10
233.0334027254667
 20
645.0176951238363
 30
0.0
 10
233.3806169127056
 20
644.6704809365974
 30
0.0
 10
233.808927318627
 20
644.6704809365974
 30
0.0
  0
SPLINE
  5
18C
330
70
100
AcDbEntity
  8
1
 62
     7
370
    13
100
AcDbSpline
210
0.0
220
0.0
230
1.0
 70
     8
 71
     3
 72
    11
 73
     7
 74
     0
 42
0.0000000001
 43
0.0000000001
 40
0.0
 40
0.0
 40
0.0
 40
0.0
 40
1.0
 40
1.0
 40
1.0
 40
2.0
 40
2.0
 40
2.0
 40
2.0
 10
236.9110256912654
 20
644.6704809365974
 30
0.0
 10
237.3393360971868
 20
644.6704809365974
 30
0.0
 10
237.6865502844248
 20
645.0176951238363
 30
0.0
 10
237.6865502844248
 20
645.4460055297568
 30
0.0
 10
237.6865502844248
 20
645.8743159356782
 30
0.0
 10
237.3393360971868
 20
646.221530122917
 30
0.0
 10
236.9110256912654
 20
646.221530122917
 30
0.0
  0
SPLINE
  5
18D
330
70
100
AcDbEntity
  8
1
 62
     7
370
    13
100
AcDbSpline
210
0.0
220
0.0
230
1.0
 70
     8
 71
     3
 72
     8
 73
     4
 74
     0
 42
0.0000000001
 43
0.0000000001
 40
0.0
 40
0.0
 40
0.0
 40
0.0
 40
1.0
 40
1.0
 40
1.0
 40
1.0
 10
137.0765838535035
 20
649.3236284955555
 30
0.0
 10
136.8811860386413
 20
649.3236284955555
 30
0.0
 10
136.6937912095627
 20
649.2460070158322
 30
0.0
 10
136.5556240896439
 20
649.1078398959143
 30
0.0
  0
SPLINE
  5
18E
330
70
100
AcDbEntity
  8
1
 62
     7
370
    13
100
AcDbSpline
210
0.0
220
0.0
230
1.0
 70
     8
 71
     3
 72
     8
 73
     4
 74
     0
 42
0.0000000001
 43
0.0000000001
 40
0.0
 40
0.0
 40
0.0
 40
0.0
 40
1.0
 40
1.0
 40
1.0
 40
1.0
 10
467.5545589437133
 20
649.1078398959143
 30
0.0
 10
467.4163918237936
 20
649.2460070158322
 30
0.0
 10
467.228996994716
 20
649.3236284955555
 30
0.0
 10
467.0335991798529
 20
649.3236284955555
 30
0.0
  0
SPLINE
  5
18F
330
70
100
AcDbEntity
  8
1
 62
     7
370
    13
100
AcDbSpline
210
0.0
220
0.0
230
1.0
 70
     8
 71
     3
 72
    11
 73
     7
 74
     0
 42
0.0000000001
 43
0.0000000001
 40
0.0
 40
0.0
 40
0.0
 40
0.0
 40
1.0
 40
1.0
 40
1.0
 40
2.0
 40
2.0
 40
2.0
 40
2.0
 10
135.3968050503727
 20
647.9490211378306
 30
0.0
 10
135.2908036330054
 20
647.8430197204625
 30
0.0
 10
135.2908036330054
 20
647.6711574660376
 30
0.0
 10
135.3968050503727
 20
647.5651560486703
 30
0.0
 10
135.447708726133
 20
647.51425237291
 30
0.0
 10
135.5167489263194
 20
647.485654985644
 30
0.0
 10
135.5887375949532
 20
647.485654985644
 30
0.0
  0
SPLINE
  5
190
330
70
100
AcDbEntity
  8
1
 62
     7
370
    13
100
AcDbSpline
210
0.0
220
0.0
230
1.0
 70
     8
 71
     3
 72
    11
 73
     7
 74
     0
 42
0.0000000001
 43
0.0000000001
 40
0.0
 40
0.0
 40
0.0
 40
0.0
 40
1.0
 40
1.0
 40
1.0
 40
2.0
 40
2.0
 40
2.0
 40
2.0
 10
468.521445438404
 20
647.485654985644
 30
0.0
 10
468.6713540804758
 20
647.485654985644
 30
0.0
 10
468.79287904601
 20
647.6071799511783
 30
0.0
 10
468.79287904601
 20
647.75708859325
 30
0.0
 10
468.79287904601
 20
647.8290772618838
 30
0.0
 10
468.7642816587431
 20
647.8981174620712
 30
0.0
 10
468.7133779829837
 20
647.9490211378306
 30
0.0
  0
SPLINE
  5
191
330
70
100
AcDbEntity
  8
1
 62
     7
370
    13
100
AcDbSpline
210
0.0
220
0.0
230
1.0
 70
     8
 71
     3
 72
     8
 73
     4
 74
     0
 42
0.0000000001
 43
0.0000000001
 40
0.0
 40
0.0
 40
0.0
 40
0.0
 40
1.0
 40
1.0
 40
1.0
 40
1.0
 10
420.2892366607775
 20
567.2731265392612
 30
0.0
 10
423.7157199081448
 20
567.2731265392612
 30
0.0
 10
426.4934334060562
 20
570.0508400371718
 30
0.0
 10
426.4934334060562
 20
573.4773232845391
 30
0.0
  0
SPLINE
  5
192
330
70
100
AcDbEntity
  8
1
 62
     7
370
    13
100
AcDbSpline
210
0.0
220
0.0
230
1.0
 70
     8
 71
     3
 72
     8
 73
     4
 74
     0
 42
0.0000000001
 43
0.0000000001
 40
0.0
 40
0.0
 40
0.0
 40
0.0
 40
1.0
 40
1.0
 40
1.0
 40
1.0
 10
154.2843012070079
 20
573.4773232845391
 30
0.0
 10
154.2843012070079
 20
570.0508400371718
 30
0.0
 10
157.0620147049185
 20
567.2731265392612
 30
0.0
 10
160.4884979522848
 20
567.2731265392612
 30
0.0
  0
SPLINE
  5
193
330
70
100
AcDbEntity
  8
1
 62
     7
370
    13
100
AcDbSpline
210
0.0
220
0.0
230
1.0
 70
     8
 71
     3
 72
     8
 73
     4
 74
     0
 42
0.0000000001
 43
0.0000000001
 40
0.0
 40
0.0
 40
0.0
 40
0.0
 40
1.0
 40
1.0
 40
1.0
 40
1.0
 10
309.8560005112649
 20
444.1260947310284
 30
0.0
 10
309.9654601115344
 20
444.050597784355
 30
0.0
 10
310.0871553136567
 20
443.9666658283822
 30
0.0
 10
310.2113889113134
 20
443.8809869286997
 30
0.0
  0
SPLINE
  5
194
330
70
100
AcDbEntity
  8
1
 62
     7
370
    13
100
AcDbSpline
210
0.0
220
0.0
230
1.0
 70
     8
 71
     3
 72
     8
 73
     4
 74
     0
 42
0.0000000001
 43
0.0000000001
 40
0.0
 40
0.0
 40
0.0
 40
0.0
 40
1.0
 40
1.0
 40
1.0
 40
1.0
 10
314.4610502882679
 20
457.5471931576885
 30
0.0
 10
314.3127179949806
 20
457.5471766280998
 30
0.0
 10
314.167637227667
 20
457.5471584483247
 30
0.0
 10
314.0369931140867
 20
457.5471400199485
 30
0.0
  0
SPLINE
  5
195
330
70
100
AcDbEntity
  8
1
 62
     7
370
    13
100
AcDbSpline
210
0.0
220
0.0
230
1.0
 70
     8
 71
     3
 72
     8
 73
     4
 74
     0
 42
0.0000000001
 43
0.0000000001
 40
0.0
 40
0.0
 40
0.0
 40
0.0
 40
1.0
 40
1.0
 40
1.0
 40
1.0
 10
266.7414078742868
 20
457.5471401528083
 30
0.0
 10
266.6105973373724
 20
457.5471627241322
 30
0.0
 10
266.4652801043594
 20
457.5471849994755
 30
0.0
 10
266.3166965493392
 20
457.5472052558252
 30
0.0
  0
SPLINE
  5
196
330
70
100
AcDbEntity
  8
1
 62
     7
370
    13
100
AcDbSpline
210
0.0
220
0.0
230
1.0
 70
     8
 71
     3
 72
     8
 73
     4
 74
     0
 42
0.0000000001
 43
0.0000000001
 40
0.0
 40
0.0
 40
0.0
 40
0.0
 40
1.0
 40
1.0
 40
1.0
 40
1.0
 10
270.5663434304552
 20
443.880990245757
 30
0.0
 10
270.6898532073865
 20
443.9661674183135
 30
0.0
 10
270.8108644514086
 20
444.0496248083991
 30
0.0
 10
270.9198437290433
 20
444.124787527182
 30
0.0
  0
SPLINE
  5
197
330
70
100
AcDbEntity
  8
1
 62
     7
370
    13
100
AcDbSpline
210
0.0
220
0.0
230
1.0
 70
     8
 71
     3
 72
     8
 73
     4
 74
     0
 42
0.0000000001
 43
0.0000000001
 40
0.0
 40
0.0
 40
0.0
 40
0.0
 40
1.0
 40
1.0
 40
1.0
 40
1.0
 10
313.9071876720591
 20
462.6852667487565
 30
0.0
 10
313.7622580889511
 20
462.6535849310003
 30
0.0
 10
313.6204513419234
 20
462.6225834650986
 30
0.0
 10
313.4927016964812
 20
462.5946527751039
 30
0.0
  0
SPLINE
  5
198
330
70
100
AcDbEntity
  8
1
 62
     7
370
    13
100
AcDbSpline
210
0.0
220
0.0
230
1.0
 70
     8
 71
     3
 72
     8
 73
     4
 74
     0
 42
0.0000000001
 43
0.0000000001
 40
0.0
 40
0.0
 40
0.0
 40
0.0
 40
1.0
 40
1.0
 40
1.0
 40
1.0
 10
267.2852496873929
 20
462.5946020412648
 30
0.0
 10
267.157444985085
 20
462.6225468039693
 30
0.0
 10
267.0155601085308
 20
462.6535673699454
 30
0.0
 10
266.87054760508
 20
462.6852691625063
 30
0.0
  0
SPLINE
  5
199
330
70
100
AcDbEntity
  8
1
 62
     7
370
    13
100
AcDbSpline
210
0.0
220
0.0
230
1.0
 70
     8
 71
     3
 72
     8
 73
     4
 74
     0
 42
0.0000000001
 43
0.0000000001
 40
0.0
 40
0.0
 40
0.0
 40
0.0
 40
1.0
 40
1.0
 40
1.0
 40
1.0
 10
272.561609122592
 20
442.0138678961075
 30
0.0
 10
272.4613407690604
 20
441.9265444960829
 30
0.0
 10
272.3498686333523
 20
441.8294583949873
 30
0.0
 10
272.236074451007
 20
441.7303450961244
 30
0.0
  0
SPLINE
  5
19A
330
70
100
AcDbEntity
  8
1
 62
     7
370
    13
100
AcDbSpline
210
0.0
220
0.0
230
1.0
 70
     8
 71
     3
 72
     8
 73
     4
 74
     0
 42
0.0000000001
 43
0.0000000001
 40
0.0
 40
0.0
 40
0.0
 40
0.0
 40
1.0
 40
1.0
 40
1.0
 40
1.0
 10
312.8700934435383
 20
464.8852934186961
 30
0.0
 10
312.9944186741395
 20
464.925818539923
 30
0.0
 10
313.1324405605228
 20
464.970815155073
 30
0.0
 10
313.2735123337952
 20
465.01681230331
 30
0.0
  0
SPLINE
  5
19B
330
70
100
AcDbEntity
  8
1
 62
     7
370
    13
100
AcDbSpline
210
0.0
220
0.0
230
1.0
 70
     8
 71
     3
 72
     8
 73
     4
 74
     0
 42
0.0000000001
 43
0.0000000001
 40
0.0
 40
0.0
 40
0.0
 40
0.0
 40
1.0
 40
1.0
 40
1.0
 40
1.0
 10
267.5042225725619
 20
465.0168130831389
 30
0.0
 10
267.6452475993837
 20
464.970830595239
 30
0.0
 10
267.7832253541519
 20
464.9258477246475
 30
0.0
 10
267.9075193180997
 20
464.8853321401047
 30
0.0
  0
SPLINE
  5
19C
330
70
100
AcDbEntity
  8
1
 62
     7
370
    13
100
AcDbSpline
210
0.0
220
0.0
230
1.0
 70
     8
 71
     3
 72
     8
 73
     4
 74
     0
 42
0.0000000001
 43
0.0000000001
 40
0.0
 40
0.0
 40
0.0
 40
0.0
 40
1.0
 40
1.0
 40
1.0
 40
1.0
 10
420.2892366607775
 20
567.2731265392612
 30
0.0
 10
421.1458574726202
 20
567.2731265392612
 30
0.0
 10
421.8402858470981
 20
570.0508400371718
 30
0.0
 10
421.8402858470981
 20
573.4773232845391
 30
0.0
  0
SPLINE
  5
19D
330
70
100
AcDbEntity
  8
1
 62
     7
370
    13
100
AcDbSpline
210
0.0
220
0.0
230
1.0
 70
     8
 71
     3
 72
     8
 73
     4
 74
     0
 42
0.0000000001
 43
0.0000000001
 40
0.0
 40
0.0
 40
0.0
 40
0.0
 40
1.0
 40
1.0
 40
1.0
 40
1.0
 10
158.9374487659652
 20
573.4773232845391
 30
0.0
 10
158.9374487659652
 20
570.0508400371718
 30
0.0
 10
159.631877140443
 20
567.2731265392612
 30
0.0
 10
160.4884979522848
 20
567.2731265392612
 30
0.0
  0
SPLINE
  5
19E
330
70
100
AcDbEntity
  8
1
 62
     7
370
    13
100
AcDbSpline
210
0.0
220
0.0
230
1.0
 70
     8
 71
     3
 72
     8
 73
     4
 74
     0
 42
0.0000000001
 43
0.0000000001
 40
0.0
 40
0.0
 40
0.0
 40
0.0
 40
1.0
 40
1.0
 40
1.0
 40
1.0
 10
310.220419075531
 20
565.3409566605078
 30
0.0
 10
310.1458761374306
 20
565.3383990968913
 30
0.0
 10
310.0728563961202
 20
565.3147264189747
 30
0.0
 10
310.0071788127498
 20
565.271825108286
 30
0.0
  0
SPLINE
  5
19F
330
70
100
AcDbEntity
  8
1
 62
     7
370
    13
100
AcDbSpline
210
0.0
220
0.0
230
1.0
 70
     8
 71
     3
 72
     8
 73
     4
 74
     0
 42
0.0000000001
 43
0.0000000001
 40
0.0
 40
0.0
 40
0.0
 40
0.0
 40
1.0
 40
1.0
 40
1.0
 40
1.0
 10
270.7686530728197
 20
565.2730613919565
 30
0.0
 10
270.7034599023818
 20
565.315186281292
 30
0.0
 10
270.631128592564
 20
565.3384232163043
 30
0.0
 10
270.5573139696689
 20
565.3409555448188
 30
0.0
  0
SPLINE
  5
1A0
330
70
100
AcDbEntity
  8
1
 62
     7
370
    13
100
AcDbSpline
210
0.0
220
0.0
230
1.0
 70
     8
 71
     3
 72
     8
 73
     4
 74
     0
 42
0.0000000001
 43
0.0000000001
 40
0.0
 40
0.0
 40
0.0
 40
0.0
 40
1.0
 40
1.0
 40
1.0
 40
1.0
 10
272.423164737037
 20
565.2718279044457
 30
0.0
 10
272.3630003604312
 20
565.3147309094147
 30
0.0
 10
272.2961123690466
 20
565.3384061096794
 30
0.0
 10
272.2278309327375
 20
565.340966876025
 30
0.0
  0
SPLINE
  5
1A1
330
70
100
AcDbEntity
  8
1
 62
     7
370
    13
100
AcDbSpline
210
0.0
220
0.0
230
1.0
 70
     8
 71
     3
 72
    29
 73
    25
 74
     0
 42
0.0000000001
 43
0.0000000001
 40
0.0
 40
0.0
 40
0.0
 40
0.0
 40
1.0
 40
1.0
 40
1.0
 40
2.0
 40
2.0
 40
2.0
 40
3.0
 40
3.0
 40
3.0
 40
4.0
 40
4.0
 40
4.0
 40
5.0
 40
5.0
 40
5.0
 40
6.0
 40
6.0
 40
6.0
 40
7.0
 40
7.0
 40
7.0
 40
8.0
 40
8.0
 40
8.0
 40
8.0
 10
309.8578631626442
 20
444.1248112334124
 30
0.0
 10
310.1954293503441
 20
444.6144486920584
 30
0.0
 10
310.5145153189988
 20
445.1168264057833
 30
0.0
 10
310.81421364157
 20
445.6305156965372
 30
0.0
 10
311.1139119641448
 20
446.1442049872903
 30
0.0
 10
311.3942223170016
 20
446.6692053003571
 30
0.0
 10
311.6543475444651
 20
447.2040236228049
 30
0.0
 10
311.9144727719267
 20
447.7388419452527
 30
0.0
 10
312.1544125930923
 20
448.2834776995495
 30
0.0
 10
312.3734846593106
 20
448.8363820328568
 30
0.0
 10
312.592556725529
 20
449.3892863661658
 30
0.0
 10
312.7907608002315
 20
449.9504586814218
 30
0.0
 10
312.9675332242332
 20
450.5183030985826
 30
0.0
 10
313.1443056482367
 20
451.0861475157425
 30
0.0
 10
313.2996462306528
 20
451.6606634216104
 30
0.0
 10
313.4331132088882
 20
452.240216989202
 30
0.0
 10
313.5665801871237
 20
452.8197705567945
 30
0.0
 10
313.6781734170545
 20
453.404361160271
 30
0.0
 10
313.767575546226
 20
453.9923263218979
 30
0.0
 10
313.8569776754011
 20
454.5802914835248
 30
0.0
 10
313.9241886072777
 20
455.1716305683785
 30
0.0
 10
313.9690172052287
 20
455.7646619071747
 30
0.0
 10
314.0138458031761
 20
456.3576932459709
 30
0.0
 10
314.0362920187909
 20
456.9524161983135
 30
0.0
 10
314.0362920187909
 20
457.5471394717679
 30
0.0
  0
SPLINE
  5
1A2
330
70
100
AcDbEntity
  8
1
 62
     7
370
    13
100
AcDbSpline
210
0.0
220
0.0
230
1.0
 70
     8
 71
     3
 72
    29
 73
    25
 74
     0
 42
0.0000000001
 43
0.0000000001
 40
0.0
 40
0.0
 40
0.0
 40
0.0
 40
1.0
 40
1.0
 40
1.0
 40
2.0
 40
2.0
 40
2.0
 40
3.0
 40
3.0
 40
3.0
 40
4.0
 40
4.0
 40
4.0
 40
5.0
 40
5.0
 40
5.0
 40
6.0
 40
6.0
 40
6.0
 40
7.0
 40
7.0
 40
7.0
 40
8.0
 40
8.0
 40
8.0
 40
8.0
 10
266.7414081046727
 20
457.5471394717679
 30
0.0
 10
266.7414081046727
 20
456.9524153276752
 30
0.0
 10
266.7638543531457
 20
456.3576915046942
 30
0.0
 10
266.8086830167212
 20
455.7646592977362
 30
0.0
 10
266.8535116802968
 20
455.1716270907782
 30
0.0
 10
266.9207227105662
 20
454.5802871402401
 30
0.0
 10
267.0101249706195
 20
453.9923211178684
 30
0.0
 10
267.0995272306727
 20
453.4043550954956
 30
0.0
 10
267.2111206239679
 20
452.8197636362147
 30
0.0
 10
267.344587797591
 20
452.2402092201909
 30
0.0
 10
267.4780549712131
 20
451.6606548041672
 30
0.0
 10
267.6333957810366
 20
451.0861380572442
 30
0.0
 10
267.8101684638241
 20
450.5182928087942
 30
0.0
 10
267.9869411466107
 20
449.9504475603434
 30
0.0
 10
268.1851455114702
 20
449.3892744235645
 30
0.0
 10
268.4042178983955
 20
448.836369280838
 30
0.0
 10
268.6232902853208
 20
448.2834641381105
 30
0.0
 10
268.8632304577441
 20
447.7388275865014
 30
0.0
 10
269.123356066013
 20
447.2040084811105
 30
0.0
 10
269.3834816742819
 20
446.6691893757215
 30
0.0
 10
269.6637924374954
 20
446.1441882940853
 30
0.0
 10
269.9634911988078
 20
445.630498251322
 30
0.0
 10
270.2631899601201
 20
445.1168082085578
 30
0.0
 10
270.5822763958959
 20
444.6144297593819
 30
0.0
 10
270.9198430777715
 20
444.1247915839357
 30
0.0
  0
SPLINE
  5
1A3
330
70
100
AcDbEntity
  8
1
 62
     7
370
    13
100
AcDbSpline
210
0.0
220
0.0
230
1.0
 70
     8
 71
     3
 72
     8
 73
     4
 74
     0
 42
0.0000000001
 43
0.0000000001
 40
0.0
 40
0.0
 40
0.0
 40
0.0
 40
1.0
 40
1.0
 40
1.0
 40
1.0
 10
308.2161601208663
 20
442.0138408324882
 30
0.0
 10
308.3168761996312
 20
441.9261250741738
 30
0.0
 10
308.427357667988
 20
441.8298994402539
 30
0.0
 10
308.5416584314735
 20
441.7303427784272
 30
0.0
  0
SPLINE
  5
1A4
330
70
100
AcDbEntity
  8
1
 62
     7
370
    13
100
AcDbSpline
210
0.0
220
0.0
230
1.0
 70
     8
 71
     3
 72
    92
 73
    88
 74
     0
 42
0.0000000001
 43
0.0000000001
 40
0.0
 40
0.0
 40
0.0
 40
0.0
 40
1.0
 40
1.0
 40
1.0
 40
2.0
 40
2.0
 40
2.0
 40
3.0
 40
3.0
 40
3.0
 40
4.0
 40
4.0
 40
4.0
 40
5.0
 40
5.0
 40
5.0
 40
6.0
 40
6.0
 40
6.0
 40
7.0
 40
7.0
 40
7.0
 40
8.0
 40
8.0
 40
8.0
 40
9.0
 40
9.0
 40
9.0
 40
10.0
 40
10.0
 40
10.0
 40
11.0
 40
11.0
 40
11.0
 40
12.0
 40
12.0
 40
12.0
 40
13.0
 40
13.0
 40
13.0
 40
14.0
 40
14.0
 40
14.0
 40
15.0
 40
15.0
 40
15.0
 40
16.0
 40
16.0
 40
16.0
 40
17.0
 40
17.0
 40
17.0
 40
18.0
 40
18.0
 40
18.0
 40
19.0
 40
19.0
 40
19.0
 40
20.0
 40
20.0
 40
20.0
 40
21.0
 40
21.0
 40
21.0
 40
22.0
 40
22.0
 40
22.0
 40
23.0
 40
23.0
 40
23.0
 40
24.0
 40
24.0
 40
24.0
 40
25.0
 40
25.0
 40
25.0
 40
26.0
 40
26.0
 40
26.0
 40
27.0
 40
27.0
 40
27.0
 40
28.0
 40
28.0
 40
28.0
 40
29.0
 40
29.0
 40
29.0
 40
29.0
 10
272.5615762499165
 20
442.0138389695785
 30
0.0
 10
272.7770383619882
 20
441.7723245479264
 30
0.0
 10
272.9925004740608
 20
441.5308101262753
 30
0.0
 10
273.2141276487691
 20
441.2950271263007
 30
0.0
 10
273.4357563893118
 20
441.0592424604783
 30
0.0
 10
273.6635502796052
 20
440.8291892973202
 30
0.0
 10
273.8956170672746
 20
440.6035798893144
 30
0.0
 10
274.1276858206247
 20
440.3779685703239
 30
0.0
 10
274.3640275437365
 20
440.1568010817664
 30
0.0
 10
274.604898978977
 20
439.9406604054793
 30
0.0
 10
274.8457727929299
 20
439.7245175947073
 30
0.0
 10
275.0911764084785
 20
439.5134016954898
 30
0.0
 10
275.340781180822
 20
439.3073839500557
 30
0.0
 10
275.5903887688355
 20
439.1013638806362
 30
0.0
 10
275.844197608426
 20
438.9004420800201
 30
0.0
 10
276.1020267903496
 20
438.7048160566791
 30
0.0
 10
276.3598592429762
 20
438.5091875517145
 30
0.0
 10
276.6217121399368
 20
438.3188549583865
 30
0.0
 10
276.8873563176894
 20
438.1339707305159
 30
0.0
 10
277.1530042385066
 20
437.949083897528
 30
0.0
 10
277.4224435469596
 20
437.7696455835393
 30
0.0
 10
277.695449808879
 20
437.5958087475956
 30
0.0
 10
277.9684603011519
 20
437.4219692179722
 30
0.0
 10
278.2450378574367
 20
437.2537313399889
 30
0.0
 10
278.5249490569486
 20
437.091236043153
 30
0.0
 10
278.8048649870452
 20
436.9287380000969
 30
0.0
 10
279.088114673049
 20
436.7719827322925
 30
0.0
 10
279.3744598770645
 20
436.6211021916797
 30
0.0
 10
279.6608103226554
 20
436.4702188891851
 30
0.0
 10
279.9502563995857
 20
436.3252105289602
 30
0.0
 10
280.2425544419421
 20
436.1861989812259
 30
0.0
 10
280.5348582454353
 20
436.0471846935998
 30
0.0
 10
280.8300141267791
 20
435.9141674548591
 30
0.0
 10
281.1277736736256
 20
435.7872590843326
 30
0.0
 10
281.4255395074979
 20
435.6603480342073
 30
0.0
 10
281.7259091168253
 20
435.5395461102698
 30
0.0
 10
282.0286296876484
 20
435.4249548278303
 30
0.0
 10
282.3313570754308
 20
435.3103609649115
 30
0.0
 10
282.6364355305932
 20
435.2019780232104
 30
0.0
 10
282.9436082854781
 20
435.0998970635409
 30
0.0
 10
283.2507883889903
 20
434.9978136617456
 30
0.0
 10
283.5600628924321
 20
434.9020325435158
 30
0.0
 10
283.8711714911105
 20
434.8126341417973
 30
0.0
 10
284.1822879694809
 20
434.7232334758155
 30
0.0
 10
284.4952386359974
 20
434.6402158496685
 30
0.0
 10
284.8097601275485
 20
434.563650989483
 30
0.0
 10
285.124290026899
 20
434.4870840825624
 30
0.0
 10
285.4403908352697
 20
434.4169702866001
 30
0.0
 10
285.7577964288903
 20
434.3533682941406
 30
0.0
 10
286.0752109530886
 20
434.2897645121647
 30
0.0
 10
286.3939303359621
 20
434.2326729001315
 30
0.0
 10
286.7136866836463
 20
434.1821417955279
 30
0.0
 10
287.0334524769933
 20
434.1316091982252
 30
0.0
 10
287.3542552964173
 20
434.0876374959552
 30
0.0
 10
287.6758239048868
 20
434.0502616857902
 30
0.0
 10
287.9974024640032
 20
434.0128847190626
 30
0.0
 10
288.319746859559
 20
433.982104052654
 30
0.0
 10
288.6425905227497
 20
433.9579521192754
 30
0.0
 10
288.9654446292407
 20
433.9337994046336
 30
0.0
 10
289.2887980356682
 20
433.9162758518787
 30
0.0
 10
289.6123610948207
 20
433.9053708328138
 30
0.0
 10
289.9359350747081
 20
433.8944654456882
 30
0.0
 10
290.2597187214751
 20
433.89017903903
 30
0.0
 10
290.5835050298547
 20
433.8926088770867
 30
0.0
 10
291.899051721065
 20
433.9024813310224
 30
0.0
 10
293.2146423502927
 20
434.0232258367113
 30
0.0
 10
294.5130119729074
 20
434.2541898068593
 30
0.0
 10
296.5884812081722
 20
434.6233902303347
 30
0.0
 10
298.6199462118093
 20
435.2742305691172
 30
0.0
 10
300.5207059931454
 20
436.1771015063904
 30
0.0
 10
300.9593853308725
 20
436.3854765092219
 30
0.0
 10
301.3911026876558
 20
436.607275858787
 30
0.0
 10
301.8157426748585
 20
436.8421451388485
 30
0.0
 10
302.2596295245258
 20
437.0876598994746
 30
0.0
 10
302.6957828997074
 20
437.3474562336223
 30
0.0
 10
303.1231807114018
 20
437.6209181942213
 30
0.0
 10
303.5691113388348
 20
437.9062380071263
 30
0.0
 10
304.0055106228792
 20
438.2064342786979
 30
0.0
 10
304.4311068014394
 20
438.5211448767996
 30
0.0
 10
304.8743919715889
 20
438.8489357453608
 30
0.0
 10
305.3059573584251
 20
439.1924725271792
 30
0.0
 10
305.7261091937689
 20
439.54972117326
 30
0.0
 10
306.1630284856801
 20
439.9212269298723
 30
0.0
 10
306.5876050622028
 20
440.3075608176031
 30
0.0
 10
306.9932646635498
 20
440.7124639143858
 30
0.0
 10
307.4144939053822
 20
441.1329076162182
 30
0.0
 10
307.8153261986991
 20
441.5733732928893
 30
0.0
 10
308.2161584920177
 20
442.0138389695593
 30
0.0
  0
SPLINE
  5
1A5
330
70
100
AcDbEntity
  8
1
 62
     7
370
    13
100
AcDbSpline
210
0.0
220
0.0
230
1.0
 70
     8
 71
     3
 72
    86
 73
    82
 74
     0
 42
0.0000000001
 43
0.0000000001
 40
0.0
 40
0.0
 40
0.0
 40
0.0
 40
1.0
 40
1.0
 40
1.0
 40
2.0
 40
2.0
 40
2.0
 40
3.0
 40
3.0
 40
3.0
 40
4.0
 40
4.0
 40
4.0
 40
5.0
 40
5.0
 40
5.0
 40
6.0
 40
6.0
 40
6.0
 40
7.0
 40
7.0
 40
7.0
 40
8.0
 40
8.0
 40
8.0
 40
9.0
 40
9.0
 40
9.0
 40
10.0
 40
10.0
 40
10.0
 40
11.0
 40
11.0
 40
11.0
 40
12.0
 40
12.0
 40
12.0
 40
13.0
 40
13.0
 40
13.0
 40
14.0
 40
14.0
 40
14.0
 40
15.0
 40
15.0
 40
15.0
 40
16.0
 40
16.0
 40
16.0
 40
17.0
 40
17.0
 40
17.0
 40
18.0
 40
18.0
 40
18.0
 40
19.0
 40
19.0
 40
19.0
 40
20.0
 40
20.0
 40
20.0
 40
21.0
 40
21.0
 40
21.0
 40
22.0
 40
22.0
 40
22.0
 40
23.0
 40
23.0
 40
23.0
 40
24.0
 40
24.0
 40
24.0
 40
25.0
 40
25.0
 40
25.0
 40
26.0
 40
26.0
 40
26.0
 40
27.0
 40
27.0
 40
27.0
 40
27.0
 10
312.8702151697908
 20
464.8853326268199
 30
0.0
 10
312.7275799025974
 20
465.3001432486462
 30
0.0
 10
312.5849446354023
 20
465.7149538704715
 30
0.0
 10
312.4278028668286
 20
466.1243207557808
 30
0.0
 10
312.2754910128569
 20
466.5211053269485
 30
0.0
 10
312.1095506977763
 20
466.9127756566131
 30
0.0
 10
311.9339909723021
 20
467.2999941888392
 30
0.0
 10
311.7639979594715
 20
467.6749346527667
 30
0.0
 10
311.5849858963338
 20
468.0457011618027
 30
0.0
 10
311.3962388011314
 20
468.4114780292548
 30
0.0
 10
311.2136721810311
 20
468.7652776272307
 30
0.0
 10
311.0219976330336
 20
469.1144090027001
 30
0.0
 10
310.8217061131581
 20
469.4585104955094
 30
0.0
 10
310.6281947945827
 20
469.7909635800833
 30
0.0
 10
310.4266400273191
 20
470.1187215578766
 30
0.0
 10
310.2172210604294
 20
470.4413774377153
 30
0.0
 10
310.0151394134518
 20
470.7527285659043
 30
0.0
 10
309.8057349820519
 20
471.0593288529135
 30
0.0
 10
309.589256145393
 20
471.3608482529089
 30
0.0
 10
309.3806372072213
 20
471.6514201075796
 30
0.0
 10
309.1654482518679
 20
471.9372733302598
 30
0.0
 10
308.9439114453453
 20
472.2181138316018
 30
0.0
 10
308.7307211635907
 20
472.4883735078547
 30
0.0
 10
308.511652338002
 20
472.7539910617078
 30
0.0
 10
308.2869043546271
 20
473.0147270439046
 30
0.0
 10
308.070955432695
 20
473.265255006022
 30
0.0
 10
307.8497633350962
 20
473.5112761488735
 30
0.0
 10
307.62356510473
 20
473.7525461597979
 30
0.0
 10
307.4065837227845
 20
473.9839851958495
 30
0.0
 10
307.1849958639214
 20
474.2110523982792
 30
0.0
 10
306.9588373417973
 20
474.4336814951484
 30
0.0
 10
305.8791137758344
 20
475.4965549173002
 30
0.0
 10
304.6952116206248
 20
476.4582711222938
 30
0.0
 10
303.4317874034241
 20
477.2982726821037
 30
0.0
 10
302.3629988844077
 20
478.008868545995
 30
0.0
 10
301.2373024341268
 20
478.6323624348051
 30
0.0
 10
300.0706706786841
 20
479.1631049850693
 30
0.0
 10
299.560614514412
 20
479.395147793899
 30
0.0
 10
299.0427336726534
 20
479.6094614247522
 30
0.0
 10
298.517687536083
 20
479.8052655366109
 30
0.0
 10
297.4108801499879
 20
480.2180243822403
 30
0.0
 10
296.2722320184439
 20
480.5485316390258
 30
0.0
 10
295.1153404495745
 20
480.7920341929875
 30
0.0
 10
293.9655345014053
 20
481.0340453654025
 30
0.0
 10
292.7977079029406
 20
481.1901143277181
 30
0.0
 10
291.6253742334766
 20
481.2574274239996
 30
0.0
 10
290.9687497032501
 20
481.295129514604
 30
0.0
 10
290.3107112488169
 20
481.3049877865933
 30
0.0
 10
289.6535089975587
 20
481.2839581913522
 30
0.0
 10
288.7493933985161
 20
481.2550276984002
 30
0.0
 10
287.8468603648207
 20
481.1676400388205
 30
0.0
 10
286.9526186511821
 20
481.0285854576404
 30
0.0
 10
286.0607846797157
 20
480.8899052803536
 30
0.0
 10
285.1771974397225
 20
480.699836032858
 30
0.0
 10
284.3068967280187
 20
480.4624337876147
 30
0.0
 10
283.7831831229841
 20
480.3195742173211
 30
0.0
 10
283.264280797056
 20
480.1595745590994
 30
0.0
 10
282.7513504953913
 20
479.9816684954712
 30
0.0
 10
281.7100098652372
 20
479.6204872359394
 30
0.0
 10
280.6932837045024
 20
479.1855024135056
 30
0.0
 10
279.7115531122572
 20
478.6833999670998
 30
0.0
 10
278.7455897445143
 20
478.1893616088027
 30
0.0
 10
277.8135068695083
 20
477.6303442183152
 30
0.0
 10
276.9227888097657
 20
477.0099067829533
 30
0.0
 10
275.6544430758359
 20
476.1264294966186
 30
0.0
 10
274.4699710566483
 20
475.1184133409451
 30
0.0
 10
273.3967781159881
 20
474.0073321199251
 30
0.0
 10
272.983881182854
 20
473.5798581669751
 30
0.0
 10
272.5874560557841
 20
473.1371282666268
 30
0.0
 10
272.2079434806983
 20
472.6801202179294
 30
0.0
 10
271.7895552070122
 20
472.17629815482
 30
0.0
 10
271.391721854271
 20
471.6551229323031
 30
0.0
 10
271.0167186372728
 20
471.1182150160575
 30
0.0
 10
270.6068769689482
 20
470.5314274202282
 30
0.0
 10
270.2243043958442
 20
469.9258481567449
 30
0.0
 10
269.8674836385226
 20
469.3049138832475
 30
0.0
 10
269.4803357537939
 20
468.6312047853116
 30
0.0
 10
269.1235031374299
 20
467.9394196319553
 30
0.0
 10
268.8116659336938
 20
467.2286738754237
 30
0.0
 10
268.4754037581106
 20
466.4622582216316
 30
0.0
 10
268.1914616651265
 20
465.6737954242252
 30
0.0
 10
267.9075195721425
 20
464.8853326268199
 30
0.0
  0
SPLINE
  5
1A6
330
70
100
AcDbEntity
  8
1
 62
     7
370
    13
100
AcDbSpline
210
0.0
220
0.0
230
1.0
 70
     8
 71
     3
 72
    59
 73
    55
 74
     0
 42
0.0000000001
 43
0.0000000001
 40
0.0
 40
0.0
 40
0.0
 40
0.0
 40
1.0
 40
1.0
 40
1.0
 40
2.0
 40
2.0
 40
2.0
 40
3.0
 40
3.0
 40
3.0
 40
4.0
 40
4.0
 40
4.0
 40
5.0
 40
5.0
 40
5.0
 40
6.0
 40
6.0
 40
6.0
 40
7.0
 40
7.0
 40
7.0
 40
8.0
 40
8.0
 40
8.0
 40
9.0
 40
9.0
 40
9.0
 40
10.0
 40
10.0
 40
10.0
 40
11.0
 40
11.0
 40
11.0
 40
12.0
 40
12.0
 40
12.0
 40
13.0
 40
13.0
 40
13.0
 40
14.0
 40
14.0
 40
14.0
 40
15.0
 40
15.0
 40
15.0
 40
16.0
 40
16.0
 40
16.0
 40
17.0
 40
17.0
 40
17.0
 40
18.0
 40
18.0
 40
18.0
 40
18.0
 10
266.8705476683626
 20
462.6852691763188
 30
0.0
 10
266.8558673892576
 20
462.6172021855154
 30
0.0
 10
266.8411871101525
 20
462.5491351947111
 30
0.0
 10
266.8268837704909
 20
462.4809886280718
 30
0.0
 10
266.8125797755638
 20
462.4128389394991
 30
0.0
 10
266.7986527546172
 20
462.3446096677989
 30
0.0
 10
266.7850020141159
 20
462.2763255019144
 30
0.0
 10
266.7713507875251
 20
462.2080389045013
 30
0.0
 10
266.7579758610564
 20
462.139697408993
 30
0.0
 10
266.7449045444928
 20
462.0712977531293
 30
0.0
 10
266.7318328982292
 20
462.0028963720123
 30
0.0
 10
266.7190648771866
 20
461.9344368276042
 30
0.0
 10
266.7065935048067
 20
461.8659233369698
 30
0.0
 10
266.6941219493929
 20
461.7974088408127
 30
0.0
 10
266.6819470513483
 20
461.7288403968441
 30
0.0
 10
266.6700710361711
 20
461.6602202086242
 30
0.0
 10
266.6581949736074
 20
461.5915997466072
 30
0.0
 10
266.6466177962957
 20
461.5229275399251
 30
0.0
 10
266.6353392776346
 20
461.454206323192
 30
0.0
 10
266.6240608358248
 20
461.3854855747222
 30
0.0
 10
266.6130810485956
 20
461.316715816868
 30
0.0
 10
266.6024003661796
 20
461.2478996356522
 30
0.0
 10
266.5917198729612
 20
461.1790846734529
 30
0.0
 10
266.5813384739595
 20
461.1102232895373
 30
0.0
 10
266.5712564367259
 20
461.0413181008343
 30
0.0
 10
266.561174676528
 20
460.9724148055111
 30
0.0
 10
266.5513922616474
 20
460.9034677078097
 30
0.0
 10
266.5419095799771
 20
460.8344794238864
 30
0.0
 10
266.532427148436
 20
460.7654929596965
 30
0.0
 10
266.5232444342937
 20
460.6964653114592
 30
0.0
 10
266.5143615042789
 20
460.627399059259
 30
0.0
 10
266.505478747792
 20
460.558334156266
 30
0.0
 10
266.496895763722
 20
460.489230650819
 30
0.0
 10
266.4886137142967
 20
460.4200912684373
 30
0.0
 10
266.4803317698543
 20
460.3509527624546
 30
0.0
 10
266.4723507524277
 20
460.2817783804457
 30
0.0
 10
266.4646677107867
 20
460.2125703023038
 30
0.0
 10
266.4402827965941
 20
459.9929134104468
 30
0.0
 10
266.4188995117411
 20
459.7729170839502
 30
0.0
 10
266.4004569764493
 20
459.5526735900948
 30
0.0
 10
266.3820130561808
 20
459.3324135566535
 30
0.0
 10
266.3665103271715
 20
459.1119063187289
 30
0.0
 10
266.3541397476901
 20
458.8912301490381
 30
0.0
 10
266.3505095903711
 20
458.8264725349081
 30
0.0
 10
266.3471491531391
 20
458.7617003734886
 30
0.0
 10
266.3440575654267
 20
458.6969150819586
 30
0.0
 10
266.3365092800323
 20
458.5387381465598
 30
0.0
 10
266.330563659606
 20
458.3804829399914
 30
0.0
 10
266.3260939437896
 20
458.2221854705885
 30
0.0
 10
266.3223092656426
 20
458.0881489908933
 30
0.0
 10
266.3195827597538
 20
457.9540822102162
 30
0.0
 10
266.3182156251814
 20
457.8200033566272
 30
0.0
 10
266.3172884601709
 20
457.7290735942987
 30
0.0
 10
266.3169865105183
 20
457.6381382792788
 30
0.0
 10
266.3166845608657
 20
457.5472029642587
 30
0.0
  0
SPLINE
  5
1A7
330
70
100
AcDbEntity
  8
1
 62
     7
370
    13
100
AcDbSpline
210
0.0
220
0.0
230
1.0
 70
     8
 71
     3
 72
    98
 73
    94
 74
     0
 42
0.0000000001
 43
0.0000000001
 40
0.0
 40
0.0
 40
0.0
 40
0.0
 40
1.0
 40
1.0
 40
1.0
 40
2.0
 40
2.0
 40
2.0
 40
3.0
 40
3.0
 40
3.0
 40
4.0
 40
4.0
 40
4.0
 40
5.0
 40
5.0
 40
5.0
 40
6.0
 40
6.0
 40
6.0
 40
7.0
 40
7.0
 40
7.0
 40
8.0
 40
8.0
 40
8.0
 40
9.0
 40
9.0
 40
9.0
 40
10.0
 40
10.0
 40
10.0
 40
11.0
 40
11.0
 40
11.0
 40
12.0
 40
12.0
 40
12.0
 40
13.0
 40
13.0
 40
13.0
 40
14.0
 40
14.0
 40
14.0
 40
15.0
 40
15.0
 40
15.0
 40
16.0
 40
16.0
 40
16.0
 40
17.0
 40
17.0
 40
17.0
 40
18.0
 40
18.0
 40
18.0
 40
19.0
 40
19.0
 40
19.0
 40
20.0
 40
20.0
 40
20.0
 40
21.0
 40
21.0
 40
21.0
 40
22.0
 40
22.0
 40
22.0
 40
23.0
 40
23.0
 40
23.0
 40
24.0
 40
24.0
 40
24.0
 40
25.0
 40
25.0
 40
25.0
 40
26.0
 40
26.0
 40
26.0
 40
27.0
 40
27.0
 40
27.0
 40
28.0
 40
28.0
 40
28.0
 40
29.0
 40
29.0
 40
29.0
 40
30.0
 40
30.0
 40
30.0
 40
31.0
 40
31.0
 40
31.0
 40
31.0
 10
266.3166844272928
 20
457.5472029640732
 30
0.0
 10
266.3168836264022
 20
457.4734774170074
 30
0.0
 10
266.3170828255124
 20
457.3997518699407
 30
0.0
 10
266.3177119319216
 20
457.3260294614301
 30
0.0
 10
266.3183372561844
 20
457.2527502671873
 30
0.0
 10
266.3193873341361
 20
457.1794741738758
 30
0.0
 10
266.3207476246498
 20
457.1062042266503
 30
0.0
 10
266.3220996698719
 20
457.0333783992809
 30
0.0
 10
266.323758178396
 20
456.9605586437155
 30
0.0
 10
266.3257532059361
 20
456.887747951926
 30
0.0
 10
266.3277360413395
 20
456.8153822253816
 30
0.0
 10
266.3300512952146
 20
456.7430254521704
 30
0.0
 10
266.3326906583816
 20
456.6706805631411
 30
0.0
 10
266.3353137592603
 20
456.5987814230793
 30
0.0
 10
266.3382569877713
 20
456.5268940212027
 30
0.0
 10
266.3415222457725
 20
456.4550212318581
 30
0.0
 10
266.344767220171
 20
456.3835949123058
 30
0.0
 10
266.3483302356281
 20
456.3121830243034
 30
0.0
 10
266.3522105121274
 20
456.2407883872274
 30
0.0
 10
266.356066493584
 20
456.1698407636194
 30
0.0
 10
266.3602357756745
 20
456.0989101755922
 30
0.0
 10
266.364718286447
 20
456.0279993875091
 30
0.0
 10
266.3691725578974
 20
455.9575353295595
 30
0.0
 10
266.3739361238495
 20
455.8870908228654
 30
0.0
 10
266.3790087144589
 20
455.816668577665
 30
0.0
 10
266.3840491720876
 20
455.746692431283
 30
0.0
 10
266.3893947516608
 20
455.6767382652515
 30
0.0
 10
266.3950452336903
 20
455.6068087375288
 30
0.0
 10
266.4006597223706
 20
455.537324658173
 30
0.0
 10
266.4065752414454
 20
455.4678649042362
 30
0.0
 10
266.4127915560403
 20
455.3984320815361
 30
0.0
 10
266.4189680495884
 20
455.3294440380741
 30
0.0
 10
266.4254414972729
 20
455.2604825819162
 30
0.0
 10
266.4322116668627
 20
455.1915502711563
 30
0.0
 10
266.4389382201789
 20
455.123062051267
 30
0.0
 10
266.4459576845011
 20
455.0546026024521
 30
0.0
 10
266.4532698241146
 20
454.9861744239424
 30
0.0
 10
266.4605345844566
 20
454.9181896282798
 30
0.0
 10
266.4680882395769
 20
454.850235699002
 30
0.0
 10
266.4759305575099
 20
454.7823151225247
 30
0.0
 10
266.483721765183
 20
454.714837200665
 30
0.0
 10
266.4917978853619
 20
454.647392198287
 30
0.0
 10
266.5001586676672
 20
454.5799824235473
 30
0.0
 10
266.5084646406494
 20
454.5130145553266
 30
0.0
 10
266.517051555772
 20
454.4460814543872
 30
0.0
 10
266.5259192252852
 20
454.3791858665545
 30
0.0
 10
266.5347284178752
 20
454.3127314147096
 30
0.0
 10
266.5438146742545
 20
454.2463139828487
 30
0.0
 10
266.5531775703002
 20
454.1799344828196
 30
0.0
 10
266.5974807092043
 20
453.865841471882
 30
0.0
 10
266.6479777317991
 20
453.5525977438874
 30
0.0
 10
266.7045485659091
 20
453.2404561993853
 30
0.0
 10
266.7611052300153
 20
452.9283928408776
 30
0.0
 10
266.8237326632507
 20
452.6174311137765
 30
0.0
 10
266.8925674003149
 20
452.3078641384654
 30
0.0
 10
266.9245268217801
 20
452.1641346516116
 30
0.0
 10
266.9578243338019
 20
452.0207058273745
 30
0.0
 10
266.9924922193513
 20
451.8776080498228
 30
0.0
 10
267.0370214165832
 20
451.6938059788571
 30
0.0
 10
267.0838114754479
 20
451.5105500733979
 30
0.0
 10
267.1327690341359
 20
451.3278718875426
 30
0.0
 10
267.2223689767816
 20
450.9935424108735
 30
0.0
 10
267.3192288927967
 20
450.6611479880811
 30
0.0
 10
267.4227900474134
 20
450.3308564553154
 30
0.0
 10
267.526363324344
 20
450.0005262603935
 30
0.0
 10
267.6366394087891
 20
449.6722994478322
 30
0.0
 10
267.7541570884841
 20
449.3466815329593
 30
0.0
 10
267.8683182382938
 20
449.0303638890354
 30
0.0
 10
267.9893132232783
 20
448.7165082408682
 30
0.0
 10
268.1168965261686
 20
448.4053518151486
 30
0.0
 10
268.2556417948827
 20
448.0669730389218
 30
0.0
 10
268.4021786022531
 20
447.7317864426013
 30
0.0
 10
268.5561626674316
 20
447.4000730522229
 30
0.0
 10
268.6665533678251
 20
447.1622687479193
 30
0.0
 10
268.7807715206736
 20
446.9262494671702
 30
0.0
 10
268.898842060521
 20
446.6921749826033
 30
0.0
 10
269.0054655875192
 20
446.480794166041
 30
0.0
 10
269.1152307290668
 20
446.2709993272064
 30
0.0
 10
269.2281174247255
 20
446.0628871395292
 30
0.0
 10
269.3864465430861
 20
445.7709996057246
 30
0.0
 10
269.5509162066519
 20
445.4824220883811
 30
0.0
 10
269.7212266556753
 20
445.1973696043478
 30
0.0
 10
269.7881127040891
 20
445.0854208991641
 30
0.0
 10
269.8558996175652
 20
444.9740158844433
 30
0.0
 10
269.9245902497769
 20
444.8631704146855
 30
0.0
 10
269.9932740499307
 20
444.7523359697588
 30
0.0
 10
270.0628613890604
 20
444.6420609584938
 30
0.0
 10
270.133268196927
 20
444.5323095349086
 30
0.0
 10
270.2036661899283
 20
444.4225718520974
 30
0.0
 10
270.2748834464856
 20
444.3133576258697
 30
0.0
 10
270.347205122941
 20
444.2048830747299
 30
0.0
 10
270.4195159497804
 20
444.0964247968186
 30
0.0
 10
270.4929308651744
 20
443.9887059720831
 30
0.0
 10
270.5663457805686
 20
443.8809871473477
 30
0.0
  0
SPLINE
  5
1A8
330
70
100
AcDbEntity
  8
1
 62
     7
370
    13
100
AcDbSpline
210
0.0
220
0.0
230
1.0
 70
     8
 71
     3
 72
    17
 73
    13
 74
     0
 42
0.0000000001
 43
0.0000000001
 40
0.0
 40
0.0
 40
0.0
 40
0.0
 40
1.0
 40
1.0
 40
1.0
 40
2.0
 40
2.0
 40
2.0
 40
3.0
 40
3.0
 40
3.0
 40
4.0
 40
4.0
 40
4.0
 40
4.0
 10
314.4610502227133
 20
457.5472029641405
 30
0.0
 10
314.4610494183126
 20
458.0031774315239
 30
0.0
 10
314.448137820089
 20
458.454609333341
 30
0.0
 10
314.4229057235716
 20
458.9021276152825
 30
0.0
 10
314.3976736270543
 20
459.349645897224
 30
0.0
 10
314.3601210322449
 20
459.7932505592889
 30
0.0
 10
314.3115878105819
 20
460.2274320762262
 30
0.0
 10
314.2630545889188
 20
460.6616135931635
 30
0.0
 10
314.2035407404037
 20
461.0863719649741
 30
0.0
 10
314.135348544507
 20
461.4971259924532
 30
0.0
 10
314.0671563486085
 20
461.9078800199322
 30
0.0
 10
313.9902858053247
 20
462.3046297030805
 30
0.0
 10
313.9071870811094
 20
462.6852691779467
 30
0.0
  0
SPLINE
  5
1A9
330
70
100
AcDbEntity
  8
1
 62
     7
370
    13
100
AcDbSpline
210
0.0
220
0.0
230
1.0
 70
     8
 71
     3
 72
    77
 73
    73
 74
     0
 42
0.0000000001
 43
0.0000000001
 40
0.0
 40
0.0
 40
0.0
 40
0.0
 40
1.0
 40
1.0
 40
1.0
 40
2.0
 40
2.0
 40
2.0
 40
3.0
 40
3.0
 40
3.0
 40
4.0
 40
4.0
 40
4.0
 40
5.0
 40
5.0
 40
5.0
 40
6.0
 40
6.0
 40
6.0
 40
7.0
 40
7.0
 40
7.0
 40
8.0
 40
8.0
 40
8.0
 40
9.0
 40
9.0
 40
9.0
 40
10.0
 40
10.0
 40
10.0
 40
11.0
 40
11.0
 40
11.0
 40
12.0
 40
12.0
 40
12.0
 40
13.0
 40
13.0
 40
13.0
 40
14.0
 40
14.0
 40
14.0
 40
15.0
 40
15.0
 40
15.0
 40
16.0
 40
16.0
 40
16.0
 40
17.0
 40
17.0
 40
17.0
 40
18.0
 40
18.0
 40
18.0
 40
19.0
 40
19.0
 40
19.0
 40
20.0
 40
20.0
 40
20.0
 40
21.0
 40
21.0
 40
21.0
 40
22.0
 40
22.0
 40
22.0
 40
23.0
 40
23.0
 40
23.0
 40
24.0
 40
24.0
 40
24.0
 40
24.0
 10
310.2113889648463
 20
443.8809871449475
 30
0.0
 10
310.2391619848895
 20
443.9214616387689
 30
0.0
 10
310.2669350049309
 20
443.9619361325903
 30
0.0
 10
310.2945558047359
 20
444.0025144042484
 30
0.0
 10
310.3418882324477
 20
444.0720514243003
 30
0.0
 10
310.3887736499346
 20
444.1418931985363
 30
0.0
 10
310.4353064078605
 20
444.2119690149147
 30
0.0
 10
310.5012201949139
 20
444.3112316128044
 30
0.0
 10
310.5664263774252
 20
444.4109638116879
 30
0.0
 10
310.6308848262415
 20
444.5111774800225
 30
0.0
 10
310.7060409328515
 20
444.6280228165069
 30
0.0
 10
310.7801805197596
 20
444.7455226950896
 30
0.0
 10
310.8533185407414
 20
444.8636422533436
 30
0.0
 10
310.9196099820601
 20
444.9707044305723
 30
0.0
 10
310.9850785972885
 20
445.078275699203
 30
0.0
 10
311.0497234221184
 20
445.1863391229517
 30
0.0
 10
311.098006470962
 20
445.2670514085921
 30
0.0
 10
311.145829963667
 20
445.3480382457528
 30
0.0
 10
311.1931815824428
 20
445.429300650453
 30
0.0
 10
311.2841334462137
 20
445.585387545756
 30
0.0
 10
311.3733443871133
 20
445.7424911147918
 30
0.0
 10
311.4607703293077
 20
445.9005860498791
 30
0.0
 10
311.5981022510423
 20
446.1489274541281
 30
0.0
 10
311.7310296358264
 20
446.3997150833429
 30
0.0
 10
311.8593508453268
 20
446.6528364690402
 30
0.0
 10
311.9927311812844
 20
446.9159372891908
 30
0.0
 10
312.1211349808346
 20
447.1815595123262
 30
0.0
 10
312.2446019392446
 20
447.4494557357893
 30
0.0
 10
312.3736649303064
 20
447.7294941228883
 30
0.0
 10
312.4973334225142
 20
448.0120173159211
 30
0.0
 10
312.6156362227066
 20
448.2967704507736
 30
0.0
 10
312.7388015741781
 20
448.5932276764697
 30
0.0
 10
312.8561510810523
 20
448.8921019240597
 30
0.0
 10
312.9674789793134
 20
449.1932057709891
 30
0.0
 10
313.0823379881495
 20
449.5038600630014
 30
0.0
 10
313.1907873423115
 20
449.8168876347726
 30
0.0
 10
313.2925194042873
 20
450.1320888371419
 30
0.0
 10
313.3964333408148
 20
450.4540502434056
 30
0.0
 10
313.4933387602105
 20
450.7782795169705
 30
0.0
 10
313.5835475979584
 20
451.1043299652246
 30
0.0
 10
313.62186764127
 20
451.2428337705168
 30
0.0
 10
313.6589792949926
 20
451.3816662044537
 30
0.0
 10
313.6949100908787
 20
451.5208051670478
 30
0.0
 10
313.7438905792405
 20
451.7104779580368
 30
0.0
 10
313.790676696055
 20
451.9007203669307
 30
0.0
 10
313.8351302703559
 20
452.0915123509166
 30
0.0
 10
313.9108886585127
 20
452.4166626545365
 30
0.0
 10
313.9798725404107
 20
452.7434091133673
 30
0.0
 10
314.0419263527765
 20
453.0714634002642
 30
0.0
 10
314.1023457114698
 20
453.3908769685076
 30
0.0
 10
314.1561952591292
 20
453.7115303775944
 30
0.0
 10
314.2035115967555
 20
454.0331361899561
 30
0.0
 10
314.2407446607049
 20
454.2862067017131
 30
0.0
 10
314.2739323203823
 20
454.5398669474989
 30
0.0
 10
314.3031277893333
 20
454.7939876117534
 30
0.0
 10
314.3303635111424
 20
455.0310504151948
 30
0.0
 10
314.3541250062845
 20
455.2685139004243
 30
0.0
 10
314.37437080167
 20
455.5062704777692
 30
0.0
 10
314.3859296829414
 20
455.6420122452018
 30
0.0
 10
314.396342593027
 20
455.7778495484154
 30
0.0
 10
314.4056024359906
 20
455.9137663512347
 30
0.0
 10
314.4148623674209
 20
456.0496844525751
 30
0.0
 10
314.422969209696
 20
456.185682055042
 30
0.0
 10
314.4298965091766
 20
456.3217385212283
 30
0.0
 10
314.4368236585324
 20
456.457792038921
 30
0.0
 10
314.44257131622
 20
456.5939044177812
 30
0.0
 10
314.4472427016262
 20
456.7300562453756
 30
0.0
 10
314.4519138352371
 20
456.8662007341536
 30
0.0
 10
314.4555088125926
 20
457.002384667412
 30
0.0
 10
314.4576307316984
 20
457.138588175504
 30
0.0
 10
314.4597524696783
 20
457.2747800573433
 30
0.0
 10
314.4604014008764
 20
457.4109915106728
 30
0.0
 10
314.4610503320746
 20
457.5472029640023
 30
0.0
  0
SPLINE
  5
1AA
330
70
100
AcDbEntity
  8
1
 62
     7
370
    13
100
AcDbSpline
210
0.0
220
0.0
230
1.0
 70
     8
 71
     3
 72
    17
 73
    13
 74
     0
 42
0.0000000001
 43
0.0000000001
 40
0.0
 40
0.0
 40
0.0
 40
0.0
 40
1.0
 40
1.0
 40
1.0
 40
2.0
 40
2.0
 40
2.0
 40
3.0
 40
3.0
 40
3.0
 40
4.0
 40
4.0
 40
4.0
 40
4.0
 10
416.0238514628363
 20
357.1167046575902
 30
0.0
 10
416.3774995739022
 20
357.1167046575902
 30
0.0
 10
416.649741064748
 20
357.2042787198661
 30
0.0
 10
416.8677763590022
 20
357.3100131368156
 30
0.0
 10
417.0858116532563
 20
357.415747553765
 30
0.0
 10
417.249640750917
 20
357.5396423253878
 30
0.0
 10
417.3937252373471
 20
357.6834972601046
 30
0.0
 10
417.5378097237789
 20
357.8273521948213
 30
0.0
 10
417.6621495989784
 20
357.9911672926373
 30
0.0
 10
417.7683629044659
 20
358.2095434481053
 30
0.0
 10
417.874576209957
 20
358.427919603575
 30
0.0
 10
417.9626629457343
 20
358.7008568167003
 30
0.0
 10
417.9626629457343
 20
359.0555161404882
 30
0.0
  0
SPLINE
  5
1AB
330
70
100
AcDbEntity
  8
1
 62
     7
370
    13
100
AcDbSpline
210
0.0
220
0.0
230
1.0
 70
    24
 71
     3
 72
     8
 73
     4
 74
     0
 42
0.0000000001
 43
0.0000000001
 40
0.0
 40
0.0
 40
0.0
 40
0.0
 40
1.0
 40
1.0
 40
1.0
 40
1.0
 10
417.9626629457343
 20
359.0555161404882
 30
0.0
 10
382.0455716245015
 20
387.3306731380744
 30
0.0
 10
346.1284803027265
 20
415.6058301359735
 30
0.0
 10
310.2113889815028
 20
443.8809871335406
 30
0.0
  0
SPLINE
  5
1AC
330
70
100
AcDbEntity
  8
1
 62
     7
370
    13
100
AcDbSpline
210
0.0
220
0.0
230
1.0
 70
     8
 71
     3
 72
    17
 73
    13
 74
     0
 42
0.0000000001
 43
0.0000000001
 40
0.0
 40
0.0
 40
0.0
 40
0.0
 40
1.0
 40
1.0
 40
1.0
 40
2.0
 40
2.0
 40
2.0
 40
3.0
 40
3.0
 40
3.0
 40
4.0
 40
4.0
 40
4.0
 40
4.0
 10
308.5416600799344
 20
441.7303446821797
 30
0.0
 10
308.6438155661817
 20
441.8467961256219
 30
0.0
 10
308.7805757659662
 20
442.0074239575324
 30
0.0
 10
308.9326371822354
 20
442.1910270808202
 30
0.0
 10
309.0846985985063
 20
442.3746302041072
 30
0.0
 10
309.2520612312619
 20
442.5812086187725
 30
0.0
 10
309.4144456509857
 20
442.7904581377533
 30
0.0
 10
309.5768300707096
 20
442.9997076567324
 30
0.0
 10
309.7342362774016
 20
443.2116282800279
 30
0.0
 10
309.8720424498206
 20
443.4015416989523
 30
0.0
 10
310.0098486222378
 20
443.5914551178757
 30
0.0
 10
310.1280547603856
 20
443.7593613324288
 30
0.0
 10
310.2113889815028
 20
443.8809871335406
 30
0.0
  0
SPLINE
  5
1AD
330
70
100
AcDbEntity
  8
1
 62
     7
370
    13
100
AcDbSpline
210
0.0
220
0.0
230
1.0
 70
    24
 71
     3
 72
     8
 73
     4
 74
     0
 42
0.0000000001
 43
0.0000000001
 40
0.0
 40
0.0
 40
0.0
 40
0.0
 40
1.0
 40
1.0
 40
1.0
 40
1.0
 10
162.8150717961998
 20
359.0555161404882
 30
0.0
 10
198.7321631174327
 20
387.3306731380744
 30
0.0
 10
234.649254440681
 20
415.6058301370012
 30
0.0
 10
270.5663457619175
 20
443.880987134572
 30
0.0
  0
SPLINE
  5
1AE
330
70
100
AcDbEntity
  8
1
 62
     7
370
    13
100
AcDbSpline
210
0.0
220
0.0
230
1.0
 70
     8
 71
     3
 72
    17
 73
    13
 74
     0
 42
0.0000000001
 43
0.0000000001
 40
0.0
 40
0.0
 40
0.0
 40
0.0
 40
1.0
 40
1.0
 40
1.0
 40
2.0
 40
2.0
 40
2.0
 40
3.0
 40
3.0
 40
3.0
 40
4.0
 40
4.0
 40
4.0
 40
4.0
 10
162.8150717961998
 20
359.0555161404882
 30
0.0
 10
162.8150717961998
 20
358.7008568167003
 30
0.0
 10
162.903158531979
 20
358.427919603575
 30
0.0
 10
163.0093718374683
 20
358.2095434481053
 30
0.0
 10
163.1155851429575
 20
357.9911672926373
 30
0.0
 10
163.239925018157
 20
357.8273521948213
 30
0.0
 10
163.3840095045871
 20
357.6834972601046
 30
0.0
 10
163.5280939910171
 20
357.5396423253878
 30
0.0
 10
163.6919230886787
 20
357.415747553765
 30
0.0
 10
163.9099583829329
 20
357.3100131368156
 30
0.0
 10
164.1279936771871
 20
357.2042787198661
 30
0.0
 10
164.4002351680328
 20
357.1167046575902
 30
0.0
 10
164.7538832790996
 20
357.1167046575902
 30
0.0
  0
SPLINE
  5
1AF
330
70
100
AcDbEntity
  8
1
 62
     7
370
    13
100
AcDbSpline
210
0.0
220
0.0
230
1.0
 70
     8
 71
     3
 72
    17
 73
    13
 74
     0
 42
0.0000000001
 43
0.0000000001
 40
0.0
 40
0.0
 40
0.0
 40
0.0
 40
1.0
 40
1.0
 40
1.0
 40
2.0
 40
2.0
 40
2.0
 40
3.0
 40
3.0
 40
3.0
 40
4.0
 40
4.0
 40
4.0
 40
4.0
 10
270.5663457619175
 20
443.880987134572
 30
0.0
 10
270.6496799773822
 20
443.7593613176487
 30
0.0
 10
270.7678806307995
 20
443.5914507799152
 30
0.0
 10
270.9056849730469
 20
443.4015359200129
 30
0.0
 10
271.0434893152942
 20
443.2116210601098
 30
0.0
 10
271.2008973463726
 20
442.9997018780368
 30
0.0
 10
271.3632817662528
 20
442.7904523645829
 30
0.0
 10
271.5256661861331
 20
442.5812028511281
 30
0.0
 10
271.6930269948143
 20
442.3746230062915
 30
0.0
 10
271.8450902379964
 20
442.1910213229785
 30
0.0
 10
271.9971534811775
 20
442.0074196396635
 30
0.0
 10
272.1339191588595
 20
441.8467961178703
 30
0.0
 10
272.236074662168
 20
441.7303446823271
 30
0.0
  0
SPLINE
  5
1B0
330
70
100
AcDbEntity
  8
1
 62
     7
370
    13
100
AcDbSpline
210
0.0
220
0.0
230
1.0
 70
    24
 71
     3
 72
     8
 73
     4
 74
     0
 42
0.0000000001
 43
0.0000000001
 40
0.0
 40
0.0
 40
0.0
 40
0.0
 40
1.0
 40
1.0
 40
1.0
 40
1.0
 10
164.7538832790996
 20
357.1167046575902
 30
0.0
 10
200.5812804076622
 20
385.3212513332583
 30
0.0
 10
236.4086775336273
 20
413.5257980066598
 30
0.0
 10
272.236074662168
 20
441.7303446823271
 30
0.0
  0
SPLINE
  5
1B1
330
70
100
AcDbEntity
  8
1
 62
     7
370
    13
100
AcDbSpline
210
0.0
220
0.0
230
1.0
 70
    24
 71
     3
 72
     8
 73
     4
 74
     0
 42
0.0000000001
 43
0.0000000001
 40
0.0
 40
0.0
 40
0.0
 40
0.0
 40
1.0
 40
1.0
 40
1.0
 40
1.0
 10
416.0238514628363
 20
357.1167046575902
 30
0.0
 10
380.1964543342728
 20
385.3212513332583
 30
0.0
 10
344.3690572085015
 20
413.5257980065143
 30
0.0
 10
308.5416600799344
 20
441.7303446821797
 30
0.0
  0
SPLINE
  5
1B2
330
70
100
AcDbEntity
  8
1
 62
     7
370
    13
100
AcDbSpline
210
0.0
220
0.0
230
1.0
 70
     8
 71
     3
 72
   125
 73
   121
 74
     0
 42
0.0000000001
 43
0.0000000001
 40
0.0
 40
0.0
 40
0.0
 40
0.0
 40
1.0
 40
1.0
 40
1.0
 40
2.0
 40
2.0
 40
2.0
 40
3.0
 40
3.0
 40
3.0
 40
4.0
 40
4.0
 40
4.0
 40
5.0
 40
5.0
 40
5.0
 40
6.0
 40
6.0
 40
6.0
 40
7.0
 40
7.0
 40
7.0
 40
8.0
 40
8.0
 40
8.0
 40
9.0
 40
9.0
 40
9.0
 40
10.0
 40
10.0
 40
10.0
 40
11.0
 40
11.0
 40
11.0
 40
12.0
 40
12.0
 40
12.0
 40
13.0
 40
13.0
 40
13.0
 40
14.0
 40
14.0
 40
14.0
 40
15.0
 40
15.0
 40
15.0
 40
16.0
 40
16.0
 40
16.0
 40
17.0
 40
17.0
 40
17.0
 40
18.0
 40
18.0
 40
18.0
 40
19.0
 40
19.0
 40
19.0
 40
20.0
 40
20.0
 40
20.0
 40
21.0
 40
21.0
 40
21.0
 40
22.0
 40
22.0
 40
22.0
 40
23.0
 40
23.0
 40
23.0
 40
24.0
 40
24.0
 40
24.0
 40
25.0
 40
25.0
 40
25.0
 40
26.0
 40
26.0
 40
26.0
 40
27.0
 40
27.0
 40
27.0
 40
28.0
 40
28.0
 40
28.0
 40
29.0
 40
29.0
 40
29.0
 40
30.0
 40
30.0
 40
30.0
 40
31.0
 40
31.0
 40
31.0
 40
32.0
 40
32.0
 40
32.0
 40
33.0
 40
33.0
 40
33.0
 40
34.0
 40
34.0
 40
34.0
 40
35.0
 40
35.0
 40
35.0
 40
36.0
 40
36.0
 40
36.0
 40
37.0
 40
37.0
 40
37.0
 40
38.0
 40
38.0
 40
38.0
 40
39.0
 40
39.0
 40
39.0
 40
40.0
 40
40.0
 40
40.0
 40
40.0
 10
272.2360746646773
 20
441.730344684529
 30
0.0
 10
272.2913176086786
 20
441.6673634105954
 30
0.0
 10
272.3465605526817
 20
441.6043821366629
 30
0.0
 10
272.4022208760907
 20
441.5417708474688
 30
0.0
 10
272.4557811558425
 20
441.4815218593312
 30
0.0
 10
272.5097279140054
 20
441.421615463838
 30
0.0
 10
272.5639516683332
 20
441.3619616037749
 30
0.0
 10
272.6160476280147
 20
441.3046486211678
 30
0.0
 10
272.6683992711787
 20
441.2475687433716
 30
0.0
 10
272.7210307845526
 20
441.1907478329603
 30
0.0
 10
272.7715110593454
 20
441.1362493968026
 30
0.0
 10
272.8222487933172
 20
441.0819891908231
 30
0.0
 10
272.8732348908307
 20
441.0279634889293
 30
0.0
 10
272.9220467851255
 20
440.9762416082885
 30
0.0
 10
272.9710863126311
 20
440.9247346582197
 30
0.0
 10
273.0203531404113
 20
440.873446032363
 30
0.0
 10
273.0674242468303
 20
440.8244432352566
 30
0.0
 10
273.1147028443975
 20
440.7756397354979
 30
0.0
 10
273.1621867558079
 20
440.7270368453492
 30
0.0
 10
273.2074545819905
 20
440.6807022634266
 30
0.0
 10
273.2529090051239
 20
440.6345500030693
 30
0.0
 10
273.2985486287907
 20
440.5885816282744
 30
0.0
 10
273.3419529956527
 20
440.5448646112754
 30
0.0
 10
273.3855248664349
 20
440.501313908875
 30
0.0
 10
273.4292629382435
 20
440.4579307789709
 30
0.0
 10
273.470747725667
 20
440.4167826476659
 30
0.0
 10
273.5123820306408
 20
440.3757852677117
 30
0.0
 10
273.5541647858945
 20
440.3349397541342
 30
0.0
 10
273.5936773479853
 20
440.2963135103273
 30
0.0
 10
273.6333226670222
 20
440.2578230784338
 30
0.0
 10
273.6730998499179
 20
440.219469412983
 30
0.0
 10
273.7105910191804
 20
440.1833199509419
 30
0.0
 10
273.7481993312713
 20
440.1472919869984
 30
0.0
 10
273.7859240564112
 20
440.1113863431974
 30
0.0
 10
273.8213480076583
 20
440.0776705302705
 30
0.0
 10
273.8568746052524
 20
440.0440625722276
 30
0.0
 10
273.8925032687366
 20
440.0105631691094
 30
0.0
 10
273.9258174304041
 20
439.9792399472389
 30
0.0
 10
273.9592208279173
 20
439.9480116345539
 30
0.0
 10
273.9927129947355
 20
439.916878842162
 30
0.0
 10
274.0238779383717
 20
439.887909330414
 30
0.0
 10
274.0551197435361
 20
439.8590225255848
 30
0.0
 10
274.0864381118108
 20
439.8302189136302
 30
0.0
 10
274.1154175135671
 20
439.8035664572971
 30
0.0
 10
274.1444624694659
 20
439.7769852315814
 30
0.0
 10
274.1735726098741
 20
439.7504757896067
 30
0.0
 10
274.2003330042453
 20
439.7261061674798
 30
0.0
 10
274.2271484845641
 20
439.7017972081603
 30
0.0
 10
274.2540193521627
 20
439.677548968254
 30
0.0
 10
274.5695366311338
 20
439.392826539879
 30
0.0
 10
274.8926903854445
 20
439.1164757502202
 30
0.0
 10
275.2229993554402
 20
438.8489271094131
 30
0.0
 10
275.6544332870735
 20
438.499467747144
 30
0.0
 10
276.0980742649981
 20
438.1650251563087
 30
0.0
 10
276.5526690632369
 20
437.8463304757242
 30
0.0
 10
276.8516311692929
 20
437.6367424354184
 30
0.0
 10
277.1553307726672
 20
437.4339653232119
 30
0.0
 10
277.4634386966418
 20
437.2381287108919
 30
0.0
 10
277.7837660907508
 20
437.034525275817
 30
0.0
 10
278.1088584046847
 20
436.8384237736782
 30
0.0
 10
278.4384557943413
 20
436.6501019700772
 30
0.0
 10
279.0873098646107
 20
436.2793667257401
 30
0.0
 10
279.7536233075325
 20
435.9387816196622
 30
0.0
 10
280.4344287564827
 20
435.6300985059205
 30
0.0
 10
281.2289233841702
 20
435.2698677294156
 30
0.0
 10
282.0431542505848
 20
434.9530833422805
 30
0.0
 10
282.8721653985331
 20
434.6814638662927
 30
0.0
 10
283.7010245994943
 20
434.4098941746306
 30
0.0
 10
284.5446586644166
 20
434.1834728393496
 30
0.0
 10
285.3980187808657
 20
434.0032129257406
 30
0.0
 10
286.2281681077884
 20
433.8278559538503
 30
0.0
 10
287.0675215981864
 20
433.696183438099
 30
0.0
 10
287.9114997123025
 20
433.6090687710203
 30
0.0
 10
288.7999948220349
 20
433.5173590994181
 30
0.0
 10
289.6936152887128
 20
433.4750317977259
 30
0.0
 10
290.5868954598209
 20
433.4823643301542
 30
0.0
 10
291.5257219931
 20
433.4900707320457
 30
0.0
 10
292.4641726443006
 20
433.5526301595437
 30
0.0
 10
293.3956168300511
 20
433.6696674796285
 30
0.0
 10
294.1927729542513
 20
433.7698313089713
 30
0.0
 10
294.9847972505158
 20
433.9098970222239
 30
0.0
 10
295.7679923591468
 20
434.0888348639973
 30
0.0
 10
296.618179309854
 20
434.2830784393036
 30
0.0
 10
297.4579620368204
 20
434.5231285303625
 30
0.0
 10
298.2823230925751
 20
434.8081107485386
 30
0.0
 10
299.1062251780859
 20
435.0929343003672
 30
0.0
 10
299.9147227599078
 20
435.4226399605304
 30
0.0
 10
300.7023152368765
 20
435.7956538312828
 30
0.0
 10
301.0961617256726
 20
435.9821845658489
 30
0.0
 10
301.4847806043726
 20
436.179545116408
 30
0.0
 10
301.8676579604707
 20
436.3875263265226
 30
0.0
 10
302.2498717657072
 20
436.5951470919444
 30
0.0
 10
302.6263639319441
 20
436.8133517362612
 30
0.0
 10
302.9968123530107
 20
437.0413083258681
 30
0.0
 10
303.3093806455345
 20
437.2336481981183
 30
0.0
 10
303.6176462437798
 20
437.4329307256275
 30
0.0
 10
303.9213737037062
 20
437.6389556973345
 30
0.0
 10
304.3251373393105
 20
437.9128373925304
 30
0.0
 10
304.7208811660675
 20
438.1986343511734
 30
0.0
 10
305.1075130552163
 20
438.4962280291802
 30
0.0
 10
305.4329211581644
 20
438.7466972660113
 30
0.0
 10
305.7518746196947
 20
439.0055229684675
 30
0.0
 10
306.0638401692304
 20
439.2725395949719
 30
0.0
 10
306.3694550379587
 20
439.5341205656231
 30
0.0
 10
306.6683636046146
 20
439.8035623695168
 30
0.0
 10
306.9602121554708
 20
440.0803731675059
 30
0.0
 10
307.0708120459439
 20
440.1852743014988
 30
0.0
 10
307.1803980250679
 20
440.291233720196
 30
0.0
 10
307.2889753376476
 20
440.3982202097322
 30
0.0
 10
307.3975537037004
 20
440.5052077373075
 30
0.0
 10
307.5051233836366
 20
440.6132223556506
 30
0.0
 10
307.6116330646364
 20
440.7222696222443
 30
0.0
 10
307.7181395541411
 20
440.8313136213064
 30
0.0
 10
307.8235861082358
 20
440.9413902067335
 30
0.0
 10
307.9280540120708
 20
441.0523927555296
 30
0.0
 10
308.0325146611249
 20
441.163387595744
 30
0.0
 10
308.1359967958415
 20
441.2753082707231
 30
0.0
 10
308.2381068166687
 20
441.388460779085
 30
0.0
 10
308.340205781773
 20
441.5016010361268
 30
0.0
 10
308.4409329300943
 20
441.6159728598195
 30
0.0
 10
308.5416600784174
 20
441.7303446835103
 30
0.0
  0
SPLINE
  5
1B3
330
70
100
AcDbEntity
  8
1
 62
     7
370
    13
100
AcDbSpline
210
0.0
220
0.0
230
1.0
 70
     8
 71
     3
 72
    17
 73
    13
 74
     0
 42
0.0000000001
 43
0.0000000001
 40
0.0
 40
0.0
 40
0.0
 40
0.0
 40
1.0
 40
1.0
 40
1.0
 40
2.0
 40
2.0
 40
2.0
 40
3.0
 40
3.0
 40
3.0
 40
4.0
 40
4.0
 40
4.0
 40
4.0
 10
164.7538832790996
 20
495.9356068331726
 30
0.0
 10
164.4150734028398
 20
495.9356068331726
 30
0.0
 10
164.1478635658659
 20
495.8543747762096
 30
0.0
 10
163.9297998551465
 20
495.7517530354098
 30
0.0
 10
163.7117361444279
 20
495.6491312946109
 30
0.0
 10
163.542818559963
 20
495.5251198699752
 30
0.0
 10
163.3940209292395
 20
495.378737590634
 30
0.0
 10
163.2452232985151
 20
495.2323553112919
 30
0.0
 10
163.1165456215321
 20
495.0636021772433
 30
0.0
 10
163.0090077459535
 20
494.8420168242273
 30
0.0
 10
162.901469870374
 20
494.6204314712113
 30
0.0
 10
162.8150717961998
 20
494.3460138992268
 30
0.0
 10
162.8150717961998
 20
493.9967953502728
 30
0.0
  0
SPLINE
  5
1B4
330
70
100
AcDbEntity
  8
1
 62
     7
370
    13
100
AcDbSpline
210
0.0
220
0.0
230
1.0
 70
     8
 71
     3
 72
     8
 73
     4
 74
     0
 42
0.0000000001
 43
0.0000000001
 40
0.0
 40
0.0
 40
0.0
 40
0.0
 40
1.0
 40
1.0
 40
1.0
 40
1.0
 10
162.8150717961998
 20
493.9967953502728
 30
0.0
 10
197.500230418921
 20
483.5596199592364
 30
0.0
 10
232.1853890352822
 20
473.1224445695952
 30
0.0
 10
266.8705476579944
 20
462.6852691785625
 30
0.0
  0
SPLINE
  5
1B5
330
70
100
AcDbEntity
  8
1
 62
     7
370
    13
100
AcDbSpline
210
0.0
220
0.0
230
1.0
 70
     8
 71
     3
 72
    17
 73
    13
 74
     0
 42
0.0000000001
 43
0.0000000001
 40
0.0
 40
0.0
 40
0.0
 40
0.0
 40
1.0
 40
1.0
 40
1.0
 40
2.0
 40
2.0
 40
2.0
 40
3.0
 40
3.0
 40
3.0
 40
4.0
 40
4.0
 40
4.0
 40
4.0
 10
267.5042222593211
 20
465.0168118209339
 30
0.0
 10
267.4537031680038
 20
464.864313175075
 30
0.0
 10
267.3949440943543
 20
464.6750856111639
 30
0.0
 10
267.3331885778325
 20
464.4690694339697
 30
0.0
 10
267.2714330613098
 20
464.2630532567763
 30
0.0
 10
267.2066811019149
 20
464.0402484663
 30
0.0
 10
267.1467967062781
 20
463.8196760369855
 30
0.0
 10
267.0869123106413
 20
463.5991036076712
 30
0.0
 10
267.0318954787644
 20
463.3807635395205
 30
0.0
 10
266.9848646360669
 20
463.184917195902
 30
0.0
 10
266.9378337933695
 20
462.9890708522825
 30
0.0
 10
266.8987889398532
 20
462.8157182331952
 30
0.0
 10
266.8705476579944
 20
462.6852691785625
 30
0.0
  0
SPLINE
  5
1B6
330
70
100
AcDbEntity
  8
1
 62
     7
370
    13
100
AcDbSpline
210
0.0
220
0.0
230
1.0
 70
    24
 71
     3
 72
     8
 73
     4
 74
     0
 42
0.0000000001
 43
0.0000000001
 40
0.0
 40
0.0
 40
0.0
 40
0.0
 40
1.0
 40
1.0
 40
1.0
 40
1.0
 10
417.9626629457343
 20
493.9967953502728
 30
0.0
 10
383.277504323014
 20
483.5596199592364
 30
0.0
 10
348.5923457038225
 20
473.122444568975
 30
0.0
 10
313.9071870811094
 20
462.6852691779467
 30
0.0
  0
SPLINE
  5
1B7
330
70
100
AcDbEntity
  8
1
 62
     7
370
    13
100
AcDbSpline
210
0.0
220
0.0
230
1.0
 70
     8
 71
     3
 72
    17
 73
    13
 74
     0
 42
0.0000000001
 43
0.0000000001
 40
0.0
 40
0.0
 40
0.0
 40
0.0
 40
1.0
 40
1.0
 40
1.0
 40
2.0
 40
2.0
 40
2.0
 40
3.0
 40
3.0
 40
3.0
 40
4.0
 40
4.0
 40
4.0
 40
4.0
 10
417.9626629457343
 20
493.9967953502728
 30
0.0
 10
417.9626629457343
 20
494.3460138992268
 30
0.0
 10
417.8762648715601
 20
494.6204314712113
 30
0.0
 10
417.7687269959879
 20
494.8420168242273
 30
0.0
 10
417.6611891204156
 20
495.0636021772433
 30
0.0
 10
417.5325114434453
 20
495.2323553112919
 30
0.0
 10
417.3837138126891
 20
495.378737590634
 30
0.0
 10
417.2349161819329
 20
495.5251198699752
 30
0.0
 10
417.0659985973907
 20
495.6491312946109
 30
0.0
 10
416.8479348867877
 20
495.7517530354098
 30
0.0
 10
416.6298711761847
 20
495.8543747762096
 30
0.0
 10
416.3626613395226
 20
495.9356068331726
 30
0.0
 10
416.0238514632619
 20
495.9356068331726
 30
0.0
  0
SPLINE
  5
1B8
330
70
100
AcDbEntity
  8
1
 62
     7
370
    13
100
AcDbSpline
210
0.0
220
0.0
230
1.0
 70
     8
 71
     3
 72
    44
 73
    40
 74
     0
 42
0.0000000001
 43
0.0000000001
 40
0.0
 40
0.0
 40
0.0
 40
0.0
 40
1.0
 40
1.0
 40
1.0
 40
2.0
 40
2.0
 40
2.0
 40
3.0
 40
3.0
 40
3.0
 40
4.0
 40
4.0
 40
4.0
 40
5.0
 40
5.0
 40
5.0
 40
6.0
 40
6.0
 40
6.0
 40
7.0
 40
7.0
 40
7.0
 40
8.0
 40
8.0
 40
8.0
 40
9.0
 40
9.0
 40
9.0
 40
10.0
 40
10.0
 40
10.0
 40
11.0
 40
11.0
 40
11.0
 40
12.0
 40
12.0
 40
12.0
 40
13.0
 40
13.0
 40
13.0
 40
13.0
 10
313.9071870811094
 20
462.6852691779467
 30
0.0
 10
313.8945015848185
 20
462.7433945101111
 30
0.0
 10
313.8805128893255
 20
462.8063628784929
 30
0.0
 10
313.8664005475512
 20
462.868685971869
 30
0.0
 10
313.8522882057769
 20
462.9310090652461
 30
0.0
 10
313.8380522177194
 20
462.9926868836173
 30
0.0
 10
313.8235840087509
 20
463.0542601244233
 30
0.0
 10
313.8091157997842
 20
463.1158333652292
 30
0.0
 10
313.79441536991
 20
463.1773020284681
 30
0.0
 10
313.7795956721202
 20
463.2382101715148
 30
0.0
 10
313.7647759743304
 20
463.2991183145613
 30
0.0
 10
313.749837008625
 20
463.3594659374157
 30
0.0
 10
313.7347726789685
 20
463.4193361523585
 30
0.0
 10
313.7197083493138
 20
463.4792063673012
 30
0.0
 10
313.704518655708
 20
463.5385991743314
 30
0.0
 10
313.6891894249893
 20
463.5976101236219
 30
0.0
 10
313.6738601942743
 20
463.6566210729125
 30
0.0
 10
313.6583914264447
 20
463.7152501644623
 30
0.0
 10
313.6427440244806
 20
463.773675983447
 30
0.0
 10
313.6270966225165
 20
463.8321018024307
 30
0.0
 10
313.6112705864198
 20
463.8903243488494
 30
0.0
 10
313.5952124484847
 20
463.9485389344854
 30
0.0
 10
313.5791543105497
 20
464.0067535201223
 30
0.0
 10
313.5628640707764
 20
464.0649601449768
 30
0.0
 10
313.5462916206925
 20
464.1233173232994
 30
0.0
 10
313.5297191706122
 20
464.1816745016203
 30
0.0
 10
313.5128645102195
 20
464.2401822334086
 30
0.0
 10
313.4956861737846
 20
464.2989581643123
 30
0.0
 10
313.4785078373497
 20
464.3577340952161
 30
0.0
 10
313.4610058248691
 20
464.4167782252343
 30
0.0
 10
313.4431346431775
 20
464.4762033813676
 30
0.0
 10
313.4252634614859
 20
464.535628537501
 30
0.0
 10
313.4070231105834
 20
464.5954347197494
 30
0.0
 10
313.3884771930898
 20
464.655391159923
 30
0.0
 10
313.3699312755998
 20
464.7153476000966
 30
0.0
 10
313.3510797915187
 20
464.7754542981947
 30
0.0
 10
313.3317772946302
 20
464.8361277335825
 30
0.0
 10
313.3124747977417
 20
464.8968011689703
 30
0.0
 10
313.2927212880495
 20
464.9580413416487
 30
0.0
 10
313.2735124795745
 20
465.0168118199253
 30
0.0
  0
SPLINE
  5
1B9
330
70
100
AcDbEntity
  8
1
 62
     7
370
    13
100
AcDbSpline
210
0.0
220
0.0
230
1.0
 70
    24
 71
     3
 72
     8
 73
     4
 74
     0
 42
0.0000000001
 43
0.0000000001
 40
0.0
 40
0.0
 40
0.0
 40
0.0
 40
1.0
 40
1.0
 40
1.0
 40
1.0
 10
416.0238514632619
 20
495.9356068331726
 30
0.0
 10
381.7737384693391
 20
485.6293418289332
 30
0.0
 10
347.5236254734809
 20
475.3230768241528
 30
0.0
 10
313.2735124795745
 20
465.0168118199253
 30
0.0
  0
SPLINE
  5
1BA
330
70
100
AcDbEntity
  8
1
 62
     7
370
    13
100
AcDbSpline
210
0.0
220
0.0
230
1.0
 70
    24
 71
     3
 72
     8
 73
     4
 74
     0
 42
0.0000000001
 43
0.0000000001
 40
0.0
 40
0.0
 40
0.0
 40
0.0
 40
1.0
 40
1.0
 40
1.0
 40
1.0
 10
164.7538832790996
 20
495.9356068331726
 30
0.0
 10
199.0039962730207
 20
485.6293418289332
 30
0.0
 10
233.2541092654301
 20
475.3230768251605
 30
0.0
 10
267.5042222593211
 20
465.0168118209339
 30
0.0
  0
SPLINE
  5
1BB
330
70
100
AcDbEntity
  8
1
 62
     7
370
    13
100
AcDbSpline
210
0.0
220
0.0
230
1.0
 70
     8
 71
     3
 72
   113
 73
   109
 74
     0
 42
0.0000000001
 43
0.0000000001
 40
0.0
 40
0.0
 40
0.0
 40
0.0
 40
1.0
 40
1.0
 40
1.0
 40
2.0
 40
2.0
 40
2.0
 40
3.0
 40
3.0
 40
3.0
 40
4.0
 40
4.0
 40
4.0
 40
5.0
 40
5.0
 40
5.0
 40
6.0
 40
6.0
 40
6.0
 40
7.0
 40
7.0
 40
7.0
 40
8.0
 40
8.0
 40
8.0
 40
9.0
 40
9.0
 40
9.0
 40
10.0
 40
10.0
 40
10.0
 40
11.0
 40
11.0
 40
11.0
 40
12.0
 40
12.0
 40
12.0
 40
13.0
 40
13.0
 40
13.0
 40
14.0
 40
14.0
 40
14.0
 40
15.0
 40
15.0
 40
15.0
 40
16.0
 40
16.0
 40
16.0
 40
17.0
 40
17.0
 40
17.0
 40
18.0
 40
18.0
 40
18.0
 40
19.0
 40
19.0
 40
19.0
 40
20.0
 40
20.0
 40
20.0
 40
21.0
 40
21.0
 40
21.0
 40
22.0
 40
22.0
 40
22.0
 40
23.0
 40
23.0
 40
23.0
 40
24.0
 40
24.0
 40
24.0
 40
25.0
 40
25.0
 40
25.0
 40
26.0
 40
26.0
 40
26.0
 40
27.0
 40
27.0
 40
27.0
 40
28.0
 40
28.0
 40
28.0
 40
29.0
 40
29.0
 40
29.0
 40
30.0
 40
30.0
 40
30.0
 40
31.0
 40
31.0
 40
31.0
 40
32.0
 40
32.0
 40
32.0
 40
33.0
 40
33.0
 40
33.0
 40
34.0
 40
34.0
 40
34.0
 40
35.0
 40
35.0
 40
35.0
 40
36.0
 40
36.0
 40
36.0
 40
36.0
 10
313.2735124799838
 20
465.0168118200609
 30
0.0
 10
313.1782969047454
 20
465.2979440231184
 30
0.0
 10
313.083081329507
 20
465.5790762261768
 30
0.0
 10
312.9812903844741
 20
465.8578447462332
 30
0.0
 10
312.8820710894361
 20
466.1295704486474
 30
0.0
 10
312.7766044684795
 20
466.3990503917302
 30
0.0
 10
312.6666666666661
 20
466.6666666666669
 30
0.0
 10
312.5595928532384
 20
466.9273112731616
 30
0.0
 10
312.4482777819303
 20
467.1861880475189
 30
0.0
 10
312.3323514702788
 20
467.442993437884
 30
0.0
 10
312.2195263645881
 20
467.6929288916889
 30
0.0
 10
312.1023334339916
 20
467.9409023044991
 30
0.0
 10
311.9809534013657
 20
468.1868047937951
 30
0.0
 10
311.8629057704566
 20
468.4259562066508
 30
0.0
 10
311.7408977893065
 20
468.6631488464972
 30
0.0
 10
311.6149650423104
 20
468.8982399132465
 30
0.0
 10
311.4925849841347
 20
469.1266988257357
 30
0.0
 10
311.3664984796924
 20
469.3531730675295
 30
0.0
 10
311.2367817368449
 20
469.5775477909401
 30
0.0
 10
311.1108315127603
 20
469.7954074601857
 30
0.0
 10
310.98145880831
 20
470.0112877661922
 30
0.0
 10
310.8487229947968
 20
470.2250798735467
 30
0.0
 10
310.719957840447
 20
470.4324766037434
 30
0.0
 10
310.5880277756551
 20
470.6379081994191
 30
0.0
 10
310.4529899281479
 20
470.8412758276781
 30
0.0
 10
310.3221169061799
 20
471.0383712092443
 30
0.0
 10
310.188324845225
 20
471.2335279735062
 30
0.0
 10
310.051675000288
 20
471.4266623740222
 30
0.0
 10
309.919374008241
 20
471.6136503124189
 30
0.0
 10
309.7843942345571
 20
471.7987425613964
 30
0.0
 10
309.6467908205341
 20
471.9818630429708
 30
0.0
 10
309.5137109260522
 20
472.1589636951521
 30
0.0
 10
309.3781770529349
 20
472.3342200872784
 30
0.0
 10
309.2402390391544
 20
472.5075629986231
 30
0.0
 10
309.106990077762
 20
472.6750133066852
 30
0.0
 10
308.9714976497962
 20
472.8406780161604
 30
0.0
 10
308.8338062459607
 20
473.0044946405805
 30
0.0
 10
308.7009603641782
 20
473.1625463657828
 30
0.0
 10
308.5660675523541
 20
473.3188777897894
 30
0.0
 10
308.429175766858
 20
473.4734366813218
 30
0.0
 10
308.2972769836942
 20
473.6223581790309
 30
0.0
 10
308.163522388968
 20
473.7696340891552
 30
0.0
 10
308.0279482050773
 20
473.9152216681168
 30
0.0
 10
307.8975063123398
 20
474.055297889221
 30
0.0
 10
307.7653799874261
 20
474.1938111864601
 30
0.0
 10
307.6316230417142
 20
474.3307080189533
 30
0.0
 10
307.5031291044106
 20
474.4622182961793
 30
0.0
 10
307.3731303436089
 20
474.5922368138617
 30
0.0
 10
307.2415975256918
 20
474.7207684024224
 30
0.0
 10
306.1212630998852
 20
475.8155397739256
 30
0.0
 10
304.8896354707722
 20
476.8024369968434
 30
0.0
 10
303.5744039008059
 20
477.6577277948426
 30
0.0
 10
302.5046036507701
 20
478.3534154064009
 30
0.0
 10
301.3794903401176
 20
478.9620311157904
 30
0.0
 10
300.2129125122992
 20
479.4756194722731
 30
0.0
 10
299.4361319459513
 20
479.8175987598133
 30
0.0
 10
298.640967131163
 20
480.1174454823567
 30
0.0
 10
297.8317882875945
 20
480.373072889567
 30
0.0
 10
296.9587516762022
 20
480.648873582013
 30
0.0
 10
296.0694018753775
 20
480.8732002780125
 30
0.0
 10
295.1705501620399
 20
481.0478466148961
 30
0.0
 10
294.2627350765278
 20
481.224234529498
 30
0.0
 10
293.3452276269936
 20
481.3499463170938
 30
0.0
 10
292.4235568018748
 20
481.4254947334402
 30
0.0
 10
291.4999913383817
 20
481.5011984513594
 30
0.0
 10
290.5722453647722
 20
481.5265323487583
 30
0.0
 10
289.6460054754889
 20
481.4992848432957
 30
0.0
 10
288.7152316137726
 20
481.4719039604661
 30
0.0
 10
287.7859786171266
 20
481.391425639721
 30
0.0
 10
286.8641825720933
 20
481.259571977972
 30
0.0
 10
285.9778639526366
 20
481.1327930054639
 30
0.0
 10
285.0984393349399
 20
480.9585171857634
 30
0.0
 10
284.2308280562129
 20
480.7371781708716
 30
0.0
 10
283.3691918245149
 20
480.5173634688326
 30
0.0
 10
282.51920678036
 20
480.25113156714
 30
0.0
 10
281.6877673013869
 20
479.9363288859285
 30
0.0
 10
280.9598502068866
 20
479.6607222316334
 30
0.0
 10
280.2461479736694
 20
479.3478868983266
 30
0.0
 10
279.5494505592888
 20
479.0002969409079
 30
0.0
 10
278.3439332310054
 20
478.3988511652287
 30
0.0
 10
277.1893291182542
 20
477.6933484345691
 30
0.0
 10
276.1020742650953
 20
476.8958184902576
 30
0.0
 10
275.0328199061824
 20
476.1114923804761
 30
0.0
 10
274.028703210518
 20
475.2381610212124
 30
0.0
 10
273.1053598319586
 20
474.2886630202292
 30
0.0
 10
272.8445165825515
 20
474.0204311255365
 30
0.0
 10
272.5901194866519
 20
473.7461207152864
 30
0.0
 10
272.3422421165624
 20
473.4659922225073
 30
0.0
 10
272.0789915891955
 20
473.1684903834803
 30
0.0
 10
271.8230945614096
 20
472.8644264176591
 30
0.0
 10
271.5749277759978
 20
472.5541868472246
 30
0.0
 10
271.3122699256782
 20
472.2258316303114
 30
0.0
 10
271.0582714508419
 20
471.8905585346829
 30
0.0
 10
270.8132694987098
 20
471.5488348382396
 30
0.0
 10
270.5547523906771
 20
471.1882604796191
 30
0.0
 10
270.3062517405133
 20
470.8205042160106
 30
0.0
 10
270.0680777347589
 20
470.4461560311138
 30
0.0
 10
269.8174546090486
 20
470.0522410364628
 30
0.0
 10
269.5782658676535
 20
469.6510270046419
 30
0.0
 10
269.3512401384623
 20
469.2430960901202
 30
0.0
 10
269.112942698097
 20
468.8149116146314
 30
0.0
 10
268.888046027284
 20
468.3793267192722
 30
0.0
 10
268.6756095140891
 20
467.9376025842284
 30
0.0
 10
268.4531186578106
 20
467.4749722220231
 30
0.0
 10
268.2442953159862
 20
467.0056077437884
 30
0.0
 10
268.0550156489753
 20
466.5286922670766
 30
0.0
 10
267.8571849151385
 20
466.0302312320072
 30
0.0
 10
267.6807035887268
 20
465.5235215259745
 30
0.0
 10
267.5042222623151
 20
465.0168118199417
 30
0.0
  0
SPLINE
  5
1BC
330
70
100
AcDbEntity
  8
1
 62
     7
370
    13
100
AcDbSpline
210
0.0
220
0.0
230
1.0
 70
     8
 71
     3
 72
     8
 73
     4
 74
     0
 42
0.0000000001
 43
0.0000000001
 40
0.0
 40
0.0
 40
0.0
 40
0.0
 40
1.0
 40
1.0
 40
1.0
 40
1.0
 10
314.2032103042402
 20
565.2722500992958
 30
0.0
 10
314.2857522834183
 20
565.3168608058895
 30
0.0
 10
314.3739224433375
 20
565.3405088125673
 30
0.0
 10
314.4677207839996
 20
565.3431941193284
 30
0.0
  0
SPLINE
  5
1BD
330
70
100
AcDbEntity
  8
1
 62
     7
370
    13
100
AcDbSpline
210
0.0
220
0.0
230
1.0
 70
     8
 71
     3
 72
     8
 73
     4
 74
     0
 42
0.0000000001
 43
0.0000000001
 40
0.0
 40
0.0
 40
0.0
 40
0.0
 40
1.0
 40
1.0
 40
1.0
 40
1.0
 10
266.3097178652133
 20
565.3432086974671
 30
0.0
 10
266.4037017365899
 20
565.3405869712314
 30
0.0
 10
266.4920454363737
 20
565.3169276752059
 30
0.0
 10
266.5747489645664
 20
565.2722308093907
 30
0.0
  0
SPLINE
  5
1BE
330
70
100
AcDbEntity
  8
1
 62
     7
370
    13
100
AcDbSpline
210
0.0
220
0.0
230
1.0
 70
     8
 71
     3
 72
   101
 73
    97
 74
     0
 42
0.0000000001
 43
0.0000000001
 40
0.0
 40
0.0
 40
0.0
 40
0.0
 40
1.0
 40
1.0
 40
1.0
 40
2.0
 40
2.0
 40
2.0
 40
3.0
 40
3.0
 40
3.0
 40
4.0
 40
4.0
 40
4.0
 40
5.0
 40
5.0
 40
5.0
 40
6.0
 40
6.0
 40
6.0
 40
7.0
 40
7.0
 40
7.0
 40
8.0
 40
8.0
 40
8.0
 40
9.0
 40
9.0
 40
9.0
 40
10.0
 40
10.0
 40
10.0
 40
11.0
 40
11.0
 40
11.0
 40
12.0
 40
12.0
 40
12.0
 40
13.0
 40
13.0
 40
13.0
 40
14.0
 40
14.0
 40
14.0
 40
15.0
 40
15.0
 40
15.0
 40
16.0
 40
16.0
 40
16.0
 40
17.0
 40
17.0
 40
17.0
 40
18.0
 40
18.0
 40
18.0
 40
19.0
 40
19.0
 40
19.0
 40
20.0
 40
20.0
 40
20.0
 40
21.0
 40
21.0
 40
21.0
 40
22.0
 40
22.0
 40
22.0
 40
23.0
 40
23.0
 40
23.0
 40
24.0
 40
24.0
 40
24.0
 40
25.0
 40
25.0
 40
25.0
 40
26.0
 40
26.0
 40
26.0
 40
27.0
 40
27.0
 40
27.0
 40
28.0
 40
28.0
 40
28.0
 40
29.0
 40
29.0
 40
29.0
 40
30.0
 40
30.0
 40
30.0
 40
31.0
 40
31.0
 40
31.0
 40
32.0
 40
32.0
 40
32.0
 40
32.0
 10
314.4756742300433
 20
565.3422193821734
 30
0.0
 10
316.5764165470537
 20
565.4209629001662
 30
0.0
 10
318.6776987299418
 20
565.4972373467416
 30
0.0
 10
320.7794358874125
 20
565.5709663128455
 30
0.0
 10
322.9893133888436
 20
565.6484888435861
 30
0.0
 10
325.1996938888296
 20
565.7231972105701
 30
0.0
 10
327.410854350208
 20
565.7953407028408
 30
0.0
 10
329.5056193435703
 20
565.8636865622866
 30
0.0
 10
331.6010843452568
 20
565.9297304697965
 30
0.0
 10
333.6974407570306
 20
565.9934126811613
 30
0.0
 10
335.6771729008778
 20
566.0535521307902
 30
0.0
 10
337.6577000319922
 20
566.1115853462797
 30
0.0
 10
339.6391767152709
 20
566.1675261594973
 30
0.0
 10
341.5039329598403
 20
566.2201717352209
 30
0.0
 10
343.3695301831904
 20
566.2709641574593
 30
0.0
 10
345.2360426242413
 20
566.3198965042193
 30
0.0
 10
346.9859095853299
 20
566.3657708820392
 30
0.0
 10
348.7365809475941
 20
566.4100104063191
 30
0.0
 10
350.4880194722282
 20
566.452610534644
 30
0.0
 10
352.1231066160144
 20
566.4923806557007
 30
0.0
 10
353.7588623797092
 20
566.5307219621873
 30
0.0
 10
355.3950894223908
 20
566.5676265215997
 30
0.0
 10
356.9155396250717
 20
566.6019197727036
 30
0.0
 10
358.4363967724039
 20
566.6349724071988
 30
0.0
 10
359.9572366508346
 20
566.6667741864012
 30
0.0
 10
361.3632351453125
 20
566.6961745554435
 30
0.0
 10
362.769218880434
 20
566.7245058454855
 30
0.0
 10
364.1744474577354
 20
566.751754700197
 30
0.0
 10
365.4662389743807
 20
566.7768038914273
 30
0.0
 10
366.7573923324144
 20
566.8009383527706
 30
0.0
 10
368.0467096814719
 20
566.8241406836077
 30
0.0
 10
369.2246121399057
 20
566.8453380114442
 30
0.0
 10
370.400982192481
 20
566.8657573462178
 30
0.0
 10
371.5740115121425
 20
566.8853762066009
 30
0.0
 10
372.6384715618915
 20
566.9031792510341
 30
0.0
 10
373.7001806612771
 20
566.9203231391166
 30
0.0
 10
374.7563397098638
 20
566.9367767885415
 30
0.0
 10
375.7078980065708
 20
566.9516008878481
 30
0.0
 10
376.6549511547855
 20
566.9658646990119
 30
0.0
 10
377.5936772356727
 20
566.9795293983361
 30
0.0
 10
378.4332865170672
 20
566.9917512899128
 30
0.0
 10
379.2662343485099
 20
567.0034939066872
 30
0.0
 10
380.0860003055768
 20
567.0146924546543
 30
0.0
 10
380.6644955168485
 20
567.022595083833
 30
0.0
 10
381.2364262992505
 20
567.0302267727129
 30
0.0
 10
381.7986816970042
 20
567.0375606713414
 30
0.0
 10
382.3095107855989
 20
567.0442237798997
 30
0.0
 10
382.8123534529732
 20
567.0506410813431
 30
0.0
 10
383.299254895739
 20
567.0567308481285
 30
0.0
 10
383.7410600854637
 20
567.062256587701
 30
0.0
 10
384.1697402186091
 20
567.0675126547093
 30
0.0
 10
384.5876908200844
 20
567.0725472567501
 30
0.0
 10
385.0066562001866
 20
567.0775940827398
 30
0.0
 10
385.4148398830403
 20
567.0824183670292
 30
0.0
 10
385.824902834409
 20
567.0871734756802
 30
0.0
 10
386.2846865617612
 20
567.0925051487129
 30
0.0
 10
386.7468329150397
 20
567.0977498537813
 30
0.0
 10
387.2067415331767
 20
567.1028542176027
 30
0.0
 10
387.7085661437523
 20
567.108423792265
 30
0.0
 10
388.2077265379194
 20
567.1138262785852
 30
0.0
 10
388.7051752648877
 20
567.1190764919674
 30
0.0
 10
389.2536349012153
 20
567.1248650887955
 30
0.0
 10
389.8000138252974
 20
567.1304685817858
 30
0.0
 10
390.3436747933265
 20
567.1358842087384
 30
0.0
 10
390.9398468482887
 20
567.1418229198825
 30
0.0
 10
391.5327505472742
 20
567.1475357211602
 30
0.0
 10
392.1223329540699
 20
567.1530287129335
 30
0.0
 10
392.765985155349
 20
567.1590254594548
 30
0.0
 10
393.4056789484894
 20
567.164760230913
 30
0.0
 10
394.0412721247412
 20
567.1702401152906
 30
0.0
 10
394.745690290898
 20
567.1763133870745
 30
0.0
 10
395.445071690312
 20
567.1820735823621
 30
0.0
 10
396.1393928946018
 20
567.1875321620046
 30
0.0
 10
396.8933159749358
 20
567.1934593166888
 30
0.0
 10
397.6412728185005
 20
567.1990308506283
 30
0.0
 10
398.3833104286023
 20
567.204261777566
 30
0.0
 10
399.1868589002952
 20
567.2099263197524
 30
0.0
 10
399.9834661202985
 20
567.2151914455353
 30
0.0
 10
400.7732774356045
 20
567.2200762307329
 30
0.0
 10
401.6265663421018
 20
567.2253536089356
 30
0.0
 10
402.4719230646732
 20
567.2301870533837
 30
0.0
 10
403.3095986494808
 20
567.2345999705539
 30
0.0
 10
404.2127525583237
 20
567.2393578308328
 30
0.0
 10
405.1069775792529
 20
567.2436268519513
 30
0.0
 10
405.9926363794129
 20
567.2474346276958
 30
0.0
 10
406.9281473838891
 20
567.2514567365615
 30
0.0
 10
407.8541006710984
 20
567.2549642132471
 30
0.0
 10
408.7709841981887
 20
567.2579885535778
 30
0.0
 10
409.7548354816971
 20
567.2612337870559
 30
0.0
 10
410.7282437388658
 20
567.2639227317668
 30
0.0
 10
411.6917336960632
 20
567.2660865269462
 30
0.0
 10
412.7239993649563
 20
567.2684047778639
 30
0.0
 10
413.7448802229337
 20
567.2701202311091
 30
0.0
 10
414.7554224239829
 20
567.2712868814242
 30
0.0
 10
415.8364641062871
 20
567.272534921949
 30
0.0
 10
416.9056742808061
 20
567.2731549151185
 30
0.0
 10
417.9626629457525
 20
567.2731267319204
 30
0.0
  0
SPLINE
  5
1BF
330
70
100
AcDbEntity
  8
1
 62
     7
370
    13
100
AcDbSpline
210
0.0
220
0.0
230
1.0
 70
     8
 71
     3
 72
   116
 73
   112
 74
     0
 42
0.0000000001
 43
0.0000000001
 40
0.0
 40
0.0
 40
0.0
 40
0.0
 40
1.0
 40
1.0
 40
1.0
 40
2.0
 40
2.0
 40
2.0
 40
3.0
 40
3.0
 40
3.0
 40
4.0
 40
4.0
 40
4.0
 40
5.0
 40
5.0
 40
5.0
 40
6.0
 40
6.0
 40
6.0
 40
7.0
 40
7.0
 40
7.0
 40
8.0
 40
8.0
 40
8.0
 40
9.0
 40
9.0
 40
9.0
 40
10.0
 40
10.0
 40
10.0
 40
11.0
 40
11.0
 40
11.0
 40
12.0
 40
12.0
 40
12.0
 40
13.0
 40
13.0
 40
13.0
 40
14.0
 40
14.0
 40
14.0
 40
15.0
 40
15.0
 40
15.0
 40
16.0
 40
16.0
 40
16.0
 40
17.0
 40
17.0
 40
17.0
 40
18.0
 40
18.0
 40
18.0
 40
19.0
 40
19.0
 40
19.0
 40
20.0
 40
20.0
 40
20.0
 40
21.0
 40
21.0
 40
21.0
 40
22.0
 40
22.0
 40
22.0
 40
23.0
 40
23.0
 40
23.0
 40
24.0
 40
24.0
 40
24.0
 40
25.0
 40
25.0
 40
25.0
 40
26.0
 40
26.0
 40
26.0
 40
27.0
 40
27.0
 40
27.0
 40
28.0
 40
28.0
 40
28.0
 40
29.0
 40
29.0
 40
29.0
 40
30.0
 40
30.0
 40
30.0
 40
31.0
 40
31.0
 40
31.0
 40
32.0
 40
32.0
 40
32.0
 40
33.0
 40
33.0
 40
33.0
 40
34.0
 40
34.0
 40
34.0
 40
35.0
 40
35.0
 40
35.0
 40
36.0
 40
36.0
 40
36.0
 40
37.0
 40
37.0
 40
37.0
 40
37.0
 10
162.8150717961553
 20
567.2731267319204
 30
0.0
 10
163.5119461407476
 20
567.2731381380754
 30
0.0
 10
164.2162739686537
 20
567.2728691881875
 30
0.0
 10
164.9276822330039
 20
567.2723281989947
 30
0.0
 10
165.5889786489915
 20
567.2718253172697
 30
0.0
 10
166.2563931365721
 20
567.2710873715131
 30
0.0
 10
166.9309171505902
 20
567.270092258148
 30
0.0
 10
167.5561395840295
 20
567.2691698785347
 30
0.0
 10
168.1874702413524
 20
567.268026550686
 30
0.0
 10
168.8253974858244
 20
567.2666491931086
 30
0.0
 10
169.4150401011502
 20
567.2653760875455
 30
0.0
 10
170.0103185055586
 20
567.2639030388654
 30
0.0
 10
170.6116542178515
 20
567.262217013792
 30
0.0
 10
171.1659120088752
 20
567.2606629857946
 30
0.0
 10
171.7253157938185
 20
567.2589280234205
 30
0.0
 10
172.2901354211599
 20
567.257001453443
 30
0.0
 10
172.8092348891205
 20
567.2552308325193
 30
0.0
 10
173.3329088991458
 20
567.2532983684377
 30
0.0
 10
173.861213376701
 20
567.2511959665544
 30
0.0
 10
174.4272417570655
 20
567.2489434413846
 30
0.0
 10
174.9985854973129
 20
567.2464958429173
 30
0.0
 10
175.5753657116092
 20
567.2438421279784
 30
0.0
 10
176.0932877488821
 20
567.2414592143249
 30
0.0
 10
176.6155933303753
 20
567.2389101045937
 30
0.0
 10
177.1411387749294
 20
567.2361946617638
 30
0.0
 10
177.6106198401758
 20
567.2337688981952
 30
0.0
 10
178.0826863918646
 20
567.231210396927
 30
0.0
 10
178.5588175525981
 20
567.2285045659191
 30
0.0
 10
178.9815984213346
 20
567.2261019221123
 30
0.0
 10
179.4075840553196
 20
567.223583115293
 30
0.0
 10
179.8285990749
 20
567.2209991409236
 30
0.0
 10
180.1143602295597
 20
567.2192452854432
 30
0.0
 10
180.3978314591104
 20
567.2174614077575
 30
0.0
 10
180.6947074942854
 20
567.2155452933411
 30
0.0
 10
180.9694928441995
 20
567.2137717578989
 30
0.0
 10
181.2557623052789
 20
567.2118849331363
 30
0.0
 10
181.5597203995276
 20
567.2098289710311
 30
0.0
 10
181.8448819285531
 20
567.2079001482461
 30
0.0
 10
182.145612027416
 20
567.2058224599986
 30
0.0
 10
182.4625127365261
 20
567.2035764349629
 30
0.0
 10
182.9052792926504
 20
567.2004383392077
 30
0.0
 10
183.3796125795779
 20
567.1969716323501
 30
0.0
 10
183.8874967883139
 20
567.193111499776
 30
0.0
 10
184.3623533642239
 20
567.1895023910365
 30
0.0
 10
184.8665391221202
 20
567.1855493616594
 30
0.0
 10
185.3973725924816
 20
567.1812267685599
 30
0.0
 10
185.9064646314136
 20
567.1770812165978
 30
0.0
 10
186.4400662548041
 20
567.1725957535354
 30
0.0
 10
186.99206369292
 20
567.1677841656682
 30
0.0
 10
187.5365427543856
 20
567.1630381131226
 30
0.0
 10
188.0989199298101
 20
567.1579747591149
 30
0.0
 10
188.6714922837227
 20
567.1526378896333
 30
0.0
 10
189.2513146128449
 20
567.1472334441132
 30
0.0
 10
189.8415919400195
 20
567.1415485126999
 30
0.0
 10
190.435586286916
 20
567.1356344133401
 30
0.0
 10
191.0498365597386
 20
567.1295186360348
 30
0.0
 10
191.6680616845169
 20
567.1231577944763
 30
0.0
 10
192.2842883043422
 20
567.1166124842947
 30
0.0
 10
192.8658262455446
 20
567.1104356232426
 30
0.0
 10
193.4455843489395
 20
567.1040944772703
 30
0.0
 10
194.0250090566314
 20
567.0975759639422
 30
0.0
 10
194.6869892671539
 20
567.0901287032939
 30
0.0
 10
195.3485343106385
 20
567.0824499326845
 30
0.0
 10
196.0102002979774
 20
567.0745329439341
 30
0.0
 10
196.7703119417938
 20
567.0654380298128
 30
0.0
 10
197.530583195924
 20
567.0560287378121
 30
0.0
 10
198.2908203741472
 20
567.0463073798118
 30
0.0
 10
199.1495287804819
 20
567.0353268436392
 30
0.0
 10
200.0081937117093
 20
567.0239481639264
 30
0.0
 10
200.8668691779722
 20
567.0121706960526
 30
0.0
 10
201.8240232517237
 20
566.9990425099131
 30
0.0
 10
202.7811904155333
 20
566.985418818991
 30
0.0
 10
203.7383465856247
 20
566.9712999383072
 30
0.0
 10
204.7742801219156
 20
566.9560190233915
 30
0.0
 10
205.8102007803754
 20
566.9401580525946
 30
0.0
 10
206.8461099171254
 20
566.9237170594688
 30
0.0
 10
207.9770371973091
 20
566.9057680261221
 30
0.0
 10
209.107950745205
 20
566.8871276861081
 30
0.0
 10
210.2388447587273
 20
566.8677961899048
 30
0.0
 10
211.4647709068422
 20
566.8468402149009
 30
0.0
 10
212.6906740995882
 20
566.8250720435944
 30
0.0
 10
213.9165509566965
 20
566.8024918369901
 30
0.0
 10
215.2374753444965
 20
566.778160889381
 30
0.0
 10
216.558369154508
 20
566.7528871036547
 30
0.0
 10
217.8792283499388
 20
566.7266706923083
 30
0.0
 10
219.3217763974735
 20
566.6980390008056
 30
0.0
 10
220.7642831586481
 20
566.6682829975088
 30
0.0
 10
222.2067444916202
 20
566.6374029838626
 30
0.0
 10
223.7477790652383
 20
566.60441272785
 30
0.0
 10
225.2887617896686
 20
566.5701395898286
 30
0.0
 10
226.8296882755267
 20
566.5345838821731
 30
0.0
 10
228.4692105712629
 20
566.4967531511311
 30
0.0
 10
230.1086692013587
 20
566.4574704697343
 30
0.0
 10
231.748059529009
 20
566.4167365233143
 30
0.0
 10
233.4860708472133
 20
566.3735521402422
 30
0.0
 10
235.2240053980367
 20
566.3287366323657
 30
0.0
 10
236.961858087242
 20
566.282289664753
 30
0.0
 10
238.7983598172468
 20
566.2332061394891
 30
0.0
 10
240.6347701281211
 20
566.1823006782014
 30
0.0
 10
242.4710837985504
 20
566.1295776853521
 30
0.0
 10
244.3706586635362
 20
566.075038379984
 30
0.0
 10
246.2701301148372
 20
566.0185541576929
 30
0.0
 10
248.1694913792244
 20
565.9601113842927
 30
0.0
 10
250.1640727813265
 20
565.8987387159668
 30
0.0
 10
252.1585326716458
 20
565.8352061991554
 30
0.0
 10
254.1528691189042
 20
565.7695730267314
 30
0.0
 10
256.2424620381362
 20
565.7008049848336
 30
0.0
 10
258.3319194405476
 20
565.629730825698
 30
0.0
 10
260.4212169469192
 20
565.5561187951443
 30
0.0
 10
262.3817823396266
 20
565.4870423715383
 30
0.0
 10
264.3422069332582
 20
565.4157311837225
 30
0.0
 10
266.3024980337059
 20
565.3422546830925
 30
0.0
  0
SPLINE
  5
1C0
330
70
100
AcDbEntity
  8
1
 62
     7
370
    13
100
AcDbSpline
210
0.0
220
0.0
230
1.0
 70
     8
 71
     3
 72
   110
 73
   106
 74
     0
 42
0.0000000001
 43
0.0000000001
 40
0.0
 40
0.0
 40
0.0
 40
0.0
 40
1.0
 40
1.0
 40
1.0
 40
2.0
 40
2.0
 40
2.0
 40
3.0
 40
3.0
 40
3.0
 40
4.0
 40
4.0
 40
4.0
 40
5.0
 40
5.0
 40
5.0
 40
6.0
 40
6.0
 40
6.0
 40
7.0
 40
7.0
 40
7.0
 40
8.0
 40
8.0
 40
8.0
 40
9.0
 40
9.0
 40
9.0
 40
10.0
 40
10.0
 40
10.0
 40
11.0
 40
11.0
 40
11.0
 40
12.0
 40
12.0
 40
12.0
 40
13.0
 40
13.0
 40
13.0
 40
14.0
 40
14.0
 40
14.0
 40
15.0
 40
15.0
 40
15.0
 40
16.0
 40
16.0
 40
16.0
 40
17.0
 40
17.0
 40
17.0
 40
18.0
 40
18.0
 40
18.0
 40
19.0
 40
19.0
 40
19.0
 40
20.0
 40
20.0
 40
20.0
 40
21.0
 40
21.0
 40
21.0
 40
22.0
 40
22.0
 40
22.0
 40
23.0
 40
23.0
 40
23.0
 40
24.0
 40
24.0
 40
24.0
 40
25.0
 40
25.0
 40
25.0
 40
26.0
 40
26.0
 40
26.0
 40
27.0
 40
27.0
 40
27.0
 40
28.0
 40
28.0
 40
28.0
 40
29.0
 40
29.0
 40
29.0
 40
30.0
 40
30.0
 40
30.0
 40
31.0
 40
31.0
 40
31.0
 40
32.0
 40
32.0
 40
32.0
 40
33.0
 40
33.0
 40
33.0
 40
34.0
 40
34.0
 40
34.0
 40
35.0
 40
35.0
 40
35.0
 40
35.0
 10
310.0090452214244
 20
565.2730371477755
 30
0.0
 10
310.0512450028127
 20
565.2730371272882
 30
0.0
 10
310.093444784201
 20
565.2730371068019
 30
0.0
 10
310.1352748285135
 20
565.2730364346407
 30
0.0
 10
310.1763387672727
 20
565.2730357747896
 30
0.0
 10
310.2170463881939
 20
565.2730344869168
 30
0.0
 10
310.257492205561
 20
565.2730328996549
 30
0.0
 10
310.2971829437884
 20
565.2730313420261
 30
0.0
 10
310.3366215623864
 20
565.273029496082
 30
0.0
 10
310.3757816886973
 20
565.2730274252962
 30
0.0
 10
310.4141963644506
 20
565.2730253939298
 30
0.0
 10
310.4523430497356
 20
565.273023146201
 30
0.0
 10
310.4902269469058
 20
565.2730208052853
 30
0.0
 10
310.5273752672001
 20
565.2730185098225
 30
0.0
 10
310.5642709052172
 20
565.2730161247573
 30
0.0
 10
310.6009109302722
 20
565.2730137486896
 30
0.0
 10
310.6368250557571
 20
565.2730114196956
 30
0.0
 10
310.6724935961866
 20
565.2730090993454
 30
0.0
 10
310.70791581923
 20
565.2730068839328
 30
0.0
 10
310.7426217353786
 20
565.2730047133209
 30
0.0
 10
310.7770911954613
 20
565.2730026434455
 30
0.0
 10
310.8113229748014
 20
565.2730007627415
 30
0.0
 10
310.8448479199469
 20
565.272998920871
 30
0.0
 10
310.8781448985101
 20
565.2729972604393
 30
0.0
 10
310.9112128898159
 20
565.2729958640001
 30
0.0
 10
310.9435834031938
 20
565.2729944970151
 30
0.0
 10
310.9757344871541
 20
565.2729933830023
 30
0.0
 10
311.0076651411219
 20
565.2729925975409
 30
0.0
 10
311.0389075501189
 20
565.2729918290088
 30
0.0
 10
311.0699389291694
 20
565.2729913750172
 30
0.0
 10
311.1007583427872
 20
565.2729913078419
 30
0.0
 10
311.1308986533368
 20
565.2729912421464
 30
0.0
 10
311.1608362368115
 20
565.2729915464078
 30
0.0
 10
311.1905701885699
 20
565.2729921644886
 30
0.0
 10
311.2196341921681
 20
565.2729927686432
 30
0.0
 10
311.2485036368962
 20
565.2729936726346
 30
0.0
 10
311.2771776767404
 20
565.2729948200803
 30
0.0
 10
311.3051907968875
 20
565.272995941078
 30
0.0
 10
311.3330174162729
 20
565.2729972944362
 30
0.0
 10
311.3606567439201
 20
565.2729988268693
 30
0.0
 10
311.3876440062286
 20
565.273000323149
 30
0.0
 10
311.4144527097069
 20
565.2730019901546
 30
0.0
 10
311.4410821157835
 20
565.273003776604
 30
0.0
 10
311.4670681347452
 20
565.2730055198917
 30
0.0
 10
311.4928834155726
 20
565.2730073769216
 30
0.0
 10
311.5185272693779
 20
565.2730092984911
 30
0.0
 10
311.543536236104
 20
565.2730111724858
 30
0.0
 10
311.5683821590683
 20
565.2730131078624
 30
0.0
 10
311.593064396322
 20
565.2730150571987
 30
0.0
 10
311.6171200662993
 20
565.2730169570514
 30
0.0
 10
311.6410202555235
 20
565.2730188701617
 30
0.0
 10
311.6647643669076
 20
565.2730207509176
 30
0.0
 10
311.6878900485444
 20
565.273022582688
 30
0.0
 10
311.7108676767421
 20
565.2730243837659
 30
0.0
 10
311.7336966950897
 20
565.2730261094557
 30
0.0
 10
311.7559152369613
 20
565.2730277889986
 30
0.0
 10
311.7779930107354
 20
565.2730293971308
 30
0.0
 10
311.7999295043555
 20
565.2730308923974
 30
0.0
 10
311.8212632884424
 20
565.2730323465821
 30
0.0
 10
311.8424634491239
 20
565.2730336940176
 30
0.0
 10
311.8635294944943
 20
565.2730348872982
 30
0.0
 10
311.8840004093636
 20
565.2730360468686
 30
0.0
 10
311.9043446795877
 20
565.2730370608696
 30
0.0
 10
311.9245619092508
 20
565.2730379079321
 30
0.0
 10
311.9441913963601
 20
565.27303873037
 30
0.0
 10
311.9637011220275
 20
565.2730393954325
 30
0.0
 10
311.983090504873
 20
565.2730397925897
 30
0.0
 10
312.0018993449994
 20
565.2730401778562
 30
0.0
 10
312.0205949408555
 20
565.273040311019
 30
0.0
 10
312.0391775195385
 20
565.2730404024205
 30
0.0
 10
312.1465110379431
 20
565.2730409303558
 30
0.0
 10
312.2500740193955
 20
565.2730400650034
 30
0.0
 10
312.3498065596923
 20
565.2730386655621
 30
0.0
 10
312.4495433425054
 20
565.2730372660598
 30
0.0
 10
312.5454493582692
 20
565.2730353324214
 30
0.0
 10
312.6374827208983
 20
565.2730339574418
 30
0.0
 10
312.7295196661744
 20
565.2730325824086
 30
0.0
 10
312.8176836568018
 20
565.273031766078
 30
0.0
 10
312.9019264958933
 20
565.2730326640075
 30
0.0
 10
312.9861721113193
 20
565.2730335619671
 30
0.0
 10
313.066496316751
 20
565.2730361742997
 30
0.0
 10
313.1428604119737
 20
565.2730416885597
 30
0.0
 10
313.288306238208
 20
565.2730521912198
 30
0.0
 10
313.4193862127795
 20
565.273073221022
 30
0.0
 10
313.5358169603933
 20
565.2730870661916
 30
0.0
 10
313.6289607419549
 20
565.2730981422291
 30
0.0
 10
313.71272918264
 20
565.2731046201815
 30
0.0
 10
313.7869942271955
 20
565.2730963391259
 30
0.0
 10
313.8426894198528
 20
565.273090128735
 30
0.0
 10
313.8930396414071
 20
565.2730756174714
 30
0.0
 10
313.9380306042221
 20
565.2730622864383
 30
0.0
 10
313.9680214529581
 20
565.2730534000093
 30
0.0
 10
313.9956309054578
 20
565.2730450380167
 30
0.0
 10
314.0208609703859
 20
565.2730411897591
 30
0.0
 10
314.0487774101839
 20
565.2730369317578
 30
0.0
 10
314.0737807961141
 20
565.2730381998626
 30
0.0
 10
314.0958423688498
 20
565.2730373738086
 30
0.0
 10
314.1160596320005
 20
565.2730366168107
 30
0.0
 10
314.1338063836447
 20
565.2730341011538
 30
0.0
 10
314.1490945995738
 20
565.2730337333095
 30
0.0
 10
314.1629881433182
 20
565.2730333990221
 30
0.0
 10
314.174851252621
 20
565.273034838553
 30
0.0
 10
314.1846389170642
 20
565.2730364622175
 30
0.0
 10
314.192711048252
 20
565.2730378012948
 30
0.0
 10
314.1993715214885
 20
565.2730392656149
 30
0.0
 10
314.2047198840646
 20
565.2730403610858
 30
0.0
  0
SPLINE
  5
1C1
330
70
100
AcDbEntity
  8
1
 62
     7
370
    13
100
AcDbSpline
210
0.0
220
0.0
230
1.0
 70
     8
 71
     3
 72
   122
 73
   118
 74
     0
 42
0.0000000001
 43
0.0000000001
 40
0.0
 40
0.0
 40
0.0
 40
0.0
 40
1.0
 40
1.0
 40
1.0
 40
2.0
 40
2.0
 40
2.0
 40
3.0
 40
3.0
 40
3.0
 40
4.0
 40
4.0
 40
4.0
 40
5.0
 40
5.0
 40
5.0
 40
6.0
 40
6.0
 40
6.0
 40
7.0
 40
7.0
 40
7.0
 40
8.0
 40
8.0
 40
8.0
 40
9.0
 40
9.0
 40
9.0
 40
10.0
 40
10.0
 40
10.0
 40
11.0
 40
11.0
 40
11.0
 40
12.0
 40
12.0
 40
12.0
 40
13.0
 40
13.0
 40
13.0
 40
14.0
 40
14.0
 40
14.0
 40
15.0
 40
15.0
 40
15.0
 40
16.0
 40
16.0
 40
16.0
 40
17.0
 40
17.0
 40
17.0
 40
18.0
 40
18.0
 40
18.0
 40
19.0
 40
19.0
 40
19.0
 40
20.0
 40
20.0
 40
20.0
 40
21.0
 40
21.0
 40
21.0
 40
22.0
 40
22.0
 40
22.0
 40
23.0
 40
23.0
 40
23.0
 40
24.0
 40
24.0
 40
24.0
 40
25.0
 40
25.0
 40
25.0
 40
26.0
 40
26.0
 40
26.0
 40
27.0
 40
27.0
 40
27.0
 40
28.0
 40
28.0
 40
28.0
 40
29.0
 40
29.0
 40
29.0
 40
30.0
 40
30.0
 40
30.0
 40
31.0
 40
31.0
 40
31.0
 40
32.0
 40
32.0
 40
32.0
 40
33.0
 40
33.0
 40
33.0
 40
34.0
 40
34.0
 40
34.0
 40
35.0
 40
35.0
 40
35.0
 40
36.0
 40
36.0
 40
36.0
 40
37.0
 40
37.0
 40
37.0
 40
38.0
 40
38.0
 40
38.0
 40
39.0
 40
39.0
 40
39.0
 40
39.0
 10
266.5731511854265
 20
565.2730603693925
 30
0.0
 10
266.5734654049147
 20
565.273060301115
 30
0.0
 10
266.5737844195928
 20
565.2730602337396
 30
0.0
 10
266.5741082161403
 20
565.2730601674202
 30
0.0
 10
266.5769885562286
 20
565.2730595774728
 30
0.0
 10
266.5802472873747
 20
565.2730590710253
 30
0.0
 10
266.5838865712049
 20
565.2730587551632
 30
0.0
 10
266.5876053084039
 20
565.2730584324045
 30
0.0
 10
266.5917213962384
 20
565.2730583086422
 30
0.0
 10
266.5962339558037
 20
565.2730584873798
 30
0.0
 10
266.6008428983032
 20
565.2730586699354
 30
0.0
 10
266.6058654297376
 20
565.2730591680501
 30
0.0
 10
266.6113014399252
 20
565.2730599009937
 30
0.0
 10
266.6168511273754
 20
565.2730606492641
 30
0.0
 10
266.6228317676423
 20
565.2730616422886
 30
0.0
 10
266.6292429946525
 20
565.2730628109384
 30
0.0
 10
266.6357855530932
 20
565.273064003527
 30
0.0
 10
266.642776519755
 20
565.2730653790103
 30
0.0
 10
266.6502155646213
 20
565.2730668634776
 30
0.0
 10
266.6578039449551
 20
565.2730683777445
 30
0.0
 10
266.6658585739979
 20
565.2730700054153
 30
0.0
 10
266.6743790755136
 20
565.273071672118
 30
0.0
 10
266.683067266963
 20
565.2730733716234
 30
0.0
 10
266.6922398487795
 20
565.2730751117124
 30
0.0
 10
266.701896419986
 20
565.2730768160672
 30
0.0
 10
266.711739385647
 20
565.2730785533203
 30
0.0
 10
266.7220852052824
 20
565.2730802534461
 30
0.0
 10
266.7329334433307
 20
565.2730818386635
 30
0.0
 10
266.7439871306787
 20
565.2730834539034
 30
0.0
 10
266.7555624467377
 20
565.2730849498412
 30
0.0
 10
266.7676589288549
 20
565.2730862457756
 30
0.0
 10
266.7799802661611
 20
565.2730875657998
 30
0.0
 10
266.7928423249714
 20
565.2730886783138
 30
0.0
 10
266.8062445829564
 20
565.2730895041768
 30
0.0
 10
266.8198914528439
 20
565.2730903451129
 30
0.0
 10
266.8340984207944
 20
565.273090888837
 30
0.0
 10
266.8488641200383
 20
565.2730911818125
 30
0.0
 10
266.8638945181501
 20
565.2730914800404
 30
0.0
 10
266.8795038594226
 20
565.2730915184483
 30
0.0
 10
266.8956907193906
 20
565.273091344734
 30
0.0
 10
266.9121626776268
 20
565.2730911679591
 30
0.0
 10
266.9292326773248
 20
565.273090771524
 30
0.0
 10
266.9468992067887
 20
565.2730902087514
 30
0.0
 10
266.9648715445546
 20
565.2730896362363
 30
0.0
 10
266.9834612427367
 20
565.2730888915757
 30
0.0
 10
267.0026667055763
 20
565.2730880324397
 30
0.0
 10
267.0221989951015
 20
565.2730871586836
 30
0.0
 10
267.0423681850088
 20
565.2730861665231
 30
0.0
 10
267.0631725958683
 20
565.2730851191872
 30
0.0
 10
267.0843251585047
 20
565.2730840543235
 30
0.0
 10
267.1061343802148
 20
565.2730829324227
 30
0.0
 10
267.128598473043
 20
565.2730818192712
 30
0.0
 10
267.1514323481397
 20
565.2730806877952
 30
0.0
 10
267.1749428315197
 20
565.2730795653588
 30
0.0
 10
267.1991281055134
 20
565.2730785319873
 30
0.0
 10
267.2237050975118
 20
565.2730774818783
 30
0.0
 10
267.2489789157016
 20
565.2730765237429
 30
0.0
 10
267.274947365564
 20
565.2730757046238
 30
0.0
 10
267.3013297206698
 20
565.2730748724479
 30
0.0
 10
267.3284290270704
 20
565.273074183754
 30
0.0
 10
267.3562422614495
 20
565.2730736018675
 30
0.0
 10
267.3844917642163
 20
565.2730730108523
 30
0.0
 10
267.4134777674517
 20
565.2730725300216
 30
0.0
 10
267.4431973488454
 20
565.2730721211447
 30
0.0
 10
267.4733757839677
 20
565.2730717059539
 30
0.0
 10
267.5043106241892
 20
565.2730713649552
 30
0.0
 10
267.5359983562648
 20
565.2730711178592
 30
0.0
 10
267.5681677485409
 20
565.2730708670069
 30
0.0
 10
267.6011130948536
 20
565.273070712934
 30
0.0
 10
267.6348324089385
 20
565.2730704402702
 30
0.0
 10
267.7239085761576
 20
565.2730697199758
 30
0.0
 10
267.818385920973
 20
565.2730681720913
 30
0.0
 10
267.9181999877674
 20
565.2730649596524
 30
0.0
 10
268.0180091319098
 20
565.2730617473716
 30
0.0
 10
268.1231544716502
 20
565.2730568706992
 30
0.0
 10
268.2335533382311
 20
565.2730524381659
 30
0.0
 10
268.3439464644907
 20
565.2730480058616
 30
0.0
 10
268.4595925712784
 20
565.2730440176501
 30
0.0
 10
268.5804023633082
 20
565.2730460267139
 30
0.0
 10
268.7012061382575
 20
565.2730480356786
 30
0.0
 10
268.8271730840943
 20
565.2730560413192
 30
0.0
 10
268.9582146887596
 20
565.2730643301857
 30
0.0
 10
268.9798191144382
 20
565.2730656967451
 30
0.0
 10
269.00156147493
 20
565.2730670710034
 30
0.0
 10
269.0234430328264
 20
565.2730676133996
 30
0.0
 10
269.0493911513495
 20
565.2730682565979
 30
0.0
 10
269.0755350129466
 20
565.2730677300096
 30
0.0
 10
269.1018723058969
 20
565.2730669000002
 30
0.0
 10
269.1323371173521
 20
565.2730659399139
 30
0.0
 10
269.1630607391289
 20
565.273064573852
 30
0.0
 10
269.1940418089635
 20
565.2730629478728
 30
0.0
 10
269.2292203265524
 20
565.2730611015995
 30
0.0
 10
269.264730778239
 20
565.2730589202073
 30
0.0
 10
269.3005709425924
 20
565.2730567050403
 30
0.0
 10
269.3406875135661
 20
565.2730542255621
 30
0.0
 10
269.3812171731825
 20
565.2730517037689
 30
0.0
 10
269.4221572847773
 20
565.2730493407525
 30
0.0
 10
269.4674616453685
 20
565.273046725837
 30
0.0
 10
269.5132686312318
 20
565.2730443053551
 30
0.0
 10
269.5595744082439
 20
565.2730422807945
 30
0.0
 10
269.610341013642
 20
565.2730400611999
 30
0.0
 10
269.6617071403661
 20
565.2730383174821
 30
0.0
 10
269.713669437233
 20
565.2730372470013
 30
0.0
 10
269.7701978182022
 20
565.2730360824543
 30
0.0
 10
269.8274317472879
 20
565.273035714661
 30
0.0
 10
269.8853603428897
 20
565.2730363003966
 30
0.0
 10
269.9479680122558
 20
565.2730369334449
 30
0.0
 10
270.0113871011226
 20
565.2730386802832
 30
0.0
 10
270.0756316292627
 20
565.2730409501291
 30
0.0
 10
270.1446759733299
 20
565.2730433895585
 30
0.0
 10
270.2146737040257
 20
565.2730464330661
 30
0.0
 10
270.2855273180785
 20
565.2730495688911
 30
0.0
 10
270.3613038985404
 20
565.2730529225964
 30
0.0
 10
270.4380594291415
 20
565.2730563818932
 30
0.0
 10
270.5161488923141
 20
565.2730584439395
 30
0.0
 10
270.5993079543705
 20
565.2730606398545
 30
0.0
 10
270.6839797699276
 20
565.2730612512113
 30
0.0
 10
270.7686515854848
 20
565.2730618625683
 30
0.0
  0
SPLINE
  5
1C2
330
70
100
AcDbEntity
  8
1
 62
     7
370
    13
100
AcDbSpline
210
0.0
220
0.0
230
1.0
 70
     8
 71
     3
 72
     8
 73
     4
 74
     0
 42
0.0000000001
 43
0.0000000001
 40
0.0
 40
0.0
 40
0.0
 40
0.0
 40
1.0
 40
1.0
 40
1.0
 40
1.0
 10
308.3546001550967
 20
565.2718519575528
 30
0.0
 10
308.4150316041851
 20
565.3149363359225
 30
0.0
 10
308.4813218929303
 20
565.3383954988631
 30
0.0
 10
308.5499031497584
 20
565.3409668882978
 30
0.0
  0
SPLINE
  5
1C3
330
70
100
AcDbEntity
  8
1
 62
     7
370
    13
100
AcDbSpline
210
0.0
220
0.0
230
1.0
 70
     8
 71
     3
 72
    32
 73
    28
 74
     0
 42
0.0000000001
 43
0.0000000001
 40
0.0
 40
0.0
 40
0.0
 40
0.0
 40
1.0
 40
1.0
 40
1.0
 40
2.0
 40
2.0
 40
2.0
 40
3.0
 40
3.0
 40
3.0
 40
4.0
 40
4.0
 40
4.0
 40
5.0
 40
5.0
 40
5.0
 40
6.0
 40
6.0
 40
6.0
 40
7.0
 40
7.0
 40
7.0
 40
8.0
 40
8.0
 40
8.0
 40
9.0
 40
9.0
 40
9.0
 40
9.0
 10
272.4231338161644
 20
565.2718504978402
 30
0.0
 10
273.3786336174571
 20
565.2719971867481
 30
0.0
 10
274.4364748513935
 20
565.2722224518356
 30
0.0
 10
275.5771463143064
 20
565.2725373026287
 30
0.0
 10
276.7838325251369
 20
565.2728703749653
 30
0.0
 10
278.0832137572797
 20
565.2733037023526
 30
0.0
 10
279.4515728221313
 20
565.2738342456141
 30
0.0
 10
280.827884225544
 20
565.2743678721735
 30
0.0
 10
282.2739775327928
 20
565.2749998478466
 30
0.0
 10
283.7624031014065
 20
565.2755974117244
 30
0.0
 10
285.2499988909794
 20
565.2761946424671
 30
0.0
 10
286.779879755637
 20
565.2767574997723
 30
0.0
 10
288.3230288219447
 20
565.2770185953368
 30
0.0
 10
289.8637976849668
 20
565.2772792881787
 30
0.0
 10
291.4177938505936
 20
565.2772391494572
 30
0.0
 10
292.9553682700271
 20
565.2769218207386
 30
0.0
 10
294.4957714299362
 20
565.2766039082179
 30
0.0
 10
296.0196923645117
 20
565.2760077848461
 30
0.0
 10
297.4982311867825
 20
565.2754012946116
 30
0.0
 10
298.9756145055963
 20
565.2747952783611
 30
0.0
 10
300.4076866181858
 20
565.2741789114452
 30
0.0
 10
301.7673654486643
 20
565.273663769959
 30
0.0
 10
303.101366203151
 20
565.2731583571249
 30
0.0
 10
304.3656822077664
 20
565.2727503824571
 30
0.0
 10
305.5376447382732
 20
565.2724418631451
 30
0.0
 10
306.5501503034684
 20
565.2721753209025
 30
0.0
 10
307.4937239095925
 20
565.2719830114119
 30
0.0
 10
308.3545976423757
 20
565.2718503557362
 30
0.0
  0
SPLINE
  5
1C4
330
70
100
AcDbEntity
  8
1
 62
     7
370
    13
100
AcDbSpline
210
0.0
220
0.0
230
1.0
 70
     8
 71
     3
 72
     8
 73
     4
 74
     0
 42
0.0000000001
 43
0.0000000001
 40
0.0
 40
0.0
 40
0.0
 40
0.0
 40
1.0
 40
1.0
 40
1.0
 40
1.0
 10
411.7299524206573
 20
567.2661986577931
 30
0.0
 10
404.1891435793149
 20
567.2494344234064
 30
0.0
 10
396.6483386122291
 20
567.202246177424
 30
0.0
 10
389.1075234425625
 20
567.1246336971826
 30
0.0
  0
SPLINE
  5
1C5
330
70
100
AcDbEntity
  8
1
 62
     7
370
    13
100
AcDbSpline
210
0.0
220
0.0
230
1.0
 70
     8
 71
     3
 72
    68
 73
    64
 74
     0
 42
0.0000000001
 43
0.0000000001
 40
0.0
 40
0.0
 40
0.0
 40
0.0
 40
1.0
 40
1.0
 40
1.0
 40
2.0
 40
2.0
 40
2.0
 40
3.0
 40
3.0
 40
3.0
 40
4.0
 40
4.0
 40
4.0
 40
5.0
 40
5.0
 40
5.0
 40
6.0
 40
6.0
 40
6.0
 40
7.0
 40
7.0
 40
7.0
 40
8.0
 40
8.0
 40
8.0
 40
9.0
 40
9.0
 40
9.0
 40
10.0
 40
10.0
 40
10.0
 40
11.0
 40
11.0
 40
11.0
 40
12.0
 40
12.0
 40
12.0
 40
13.0
 40
13.0
 40
13.0
 40
14.0
 40
14.0
 40
14.0
 40
15.0
 40
15.0
 40
15.0
 40
16.0
 40
16.0
 40
16.0
 40
17.0
 40
17.0
 40
17.0
 40
18.0
 40
18.0
 40
18.0
 40
19.0
 40
19.0
 40
19.0
 40
20.0
 40
20.0
 40
20.0
 40
21.0
 40
21.0
 40
21.0
 40
21.0
 10
310.220419053765
 20
565.3409559566571
 30
0.0
 10
310.2547539286006
 20
565.340960286977
 30
0.0
 10
310.2890888034362
 20
565.3409646172977
 30
0.0
 10
310.3231831712256
 20
565.3409684766538
 30
0.0
 10
310.3702431663259
 20
565.3409738036707
 30
0.0
 10
310.4168449496155
 20
565.3409782334111
 30
0.0
 10
310.4630988267491
 20
565.3409824574409
 30
0.0
 10
310.5216452531676
 20
565.3409878040611
 30
0.0
 10
310.5796342800368
 20
565.3409928211031
 30
0.0
 10
310.6370300132221
 20
565.3409979685575
 30
0.0
 10
310.7178119700802
 20
565.3410052133722
 30
0.0
 10
310.7974186526153
 20
565.3410127165243
 30
0.0
 10
310.8758676391517
 20
565.3410217252676
 30
0.0
 10
310.936571038219
 20
565.3410286961852
 30
0.0
 10
310.9965812575156
 20
565.3410365685868
 30
0.0
 10
311.05591165242
 20
565.3410463396631
 30
0.0
 10
311.1945652384566
 20
565.3410691744148
 30
0.0
 10
311.3295059995016
 20
565.3411023786794
 30
0.0
 10
311.4605247442196
 20
565.3411444772919
 30
0.0
 10
311.6025350119162
 20
565.3411901076724
 30
0.0
 10
311.7399376026769
 20
565.3412461873413
 30
0.0
 10
311.8725209631175
 20
565.3413091409038
 30
0.0
 10
311.979460833445
 20
565.3413599183604
 30
0.0
 10
312.0832654049154
 20
565.3414151678407
 30
0.0
 10
312.1838143083623
 20
565.3414713023303
 30
0.0
 10
312.3405694579487
 20
565.3415588156713
 30
0.0
 10
312.4894118279172
 20
565.3416484799963
 30
0.0
 10
312.6302179479753
 20
565.3417194531694
 30
0.0
 10
312.7531077057101
 20
565.3417813956194
 30
0.0
 10
312.8698761904743
 20
565.3418291008756
 30
0.0
 10
312.9807894004916
 20
565.341876598628
 30
0.0
 10
313.0954766121504
 20
565.3419257125697
 30
0.0
 10
313.2039032993453
 20
565.3419746046457
 30
0.0
 10
313.3061355007849
 20
565.3420405308124
 30
0.0
 10
313.4100799873959
 20
565.3421075611759
 30
0.0
 10
313.5076207478814
 20
565.3421922010156
 30
0.0
 10
313.5982255388772
 20
565.342279592046
 30
0.0
 10
313.6888888095418
 20
565.3423670394813
 30
0.0
 10
313.7726071543675
 20
565.3424572416606
 30
0.0
 10
313.8490745053132
 20
565.3425296951436
 30
0.0
 10
313.924548682935
 20
565.342601207586
 30
0.0
 10
313.992958998213
 20
565.3426554293864
 30
0.0
 10
314.0547646089508
 20
565.3426964250184
 30
0.0
 10
314.1150413556679
 20
565.3427364065556
 30
0.0
 10
314.1690361129968
 20
565.342763808173
 30
0.0
 10
314.2166560967344
 20
565.3427934675337
 30
0.0
 10
314.2610457478895
 20
565.342821114933
 30
0.0
 10
314.2998961646408
 20
565.3428507241533
 30
0.0
 10
314.3330804866473
 20
565.3428820003855
 30
0.0
 10
314.3668730121208
 20
565.3429138498495
 30
0.0
 10
314.3947898427268
 20
565.342947427991
 30
0.0
 10
314.4166821055187
 20
565.342974242596
 30
0.0
 10
314.425176755014
 20
565.3429846472154
 30
0.0
 10
314.4327643455472
 20
565.3429940335172
 30
0.0
 10
314.439372154935
 20
565.3429999423288
 30
0.0
 10
314.4467417126507
 20
565.3430065323073
 30
0.0
 10
314.4528925700833
 20
565.3430087968127
 30
0.0
 10
314.4580016579803
 20
565.3430088762616
 30
0.0
 10
314.4636638027769
 20
565.3430089643116
 30
0.0
 10
314.4680464282574
 20
565.3430063686392
 30
0.0
 10
314.4707340657478
 20
565.3430009156409
 30
0.0
 10
314.473699001137
 20
565.3429949000292
 30
0.0
 10
314.4746011432289
 20
565.3429854070655
 30
0.0
 10
314.4755032853227
 20
565.3429759141017
 30
0.0
  0
SPLINE
  5
1C6
330
70
100
AcDbEntity
  8
1
 62
     7
370
    13
100
AcDbSpline
210
0.0
220
0.0
230
1.0
 70
     8
 71
     3
 72
     8
 73
     4
 74
     0
 42
0.0000000001
 43
0.0000000001
 40
0.0
 40
0.0
 40
0.0
 40
0.0
 40
1.0
 40
1.0
 40
1.0
 40
1.0
 10
169.0526607216488
 20
567.2661878297185
 30
0.0
 10
176.5739668235292
 20
567.2494539219469
 30
0.0
 10
184.0952795377061
 20
567.2024532751329
 30
0.0
 10
191.6166015499757
 20
567.125185591789
 30
0.0
  0
LWPOLYLINE
  5
1C7
330
70
100
AcDbEntity
  8
1
 62
     7
370
    13
100
AcDbPolyline
 90
        4
 70
     0
 43
0.0
 10
266.3022310889119
 20
565.3429759277905
 10
266.3045132712741
 20
565.3429889549006
 10
266.3127783954742
 20
565.342988394008
 10
266.3171914758777
 20
565.3429851962791
  0
SPLINE
  5
1C8
330
70
100
AcDbEntity
  8
1
 62
     7
370
    13
100
AcDbSpline
210
0.0
220
0.0
230
1.0
 70
     8
 71
     3
 72
    56
 73
    52
 74
     0
 42
0.0000000001
 43
0.0000000001
 40
0.0
 40
0.0
 40
0.0
 40
0.0
 40
1.0
 40
1.0
 40
1.0
 40
2.0
 40
2.0
 40
2.0
 40
3.0
 40
3.0
 40
3.0
 40
4.0
 40
4.0
 40
4.0
 40
5.0
 40
5.0
 40
5.0
 40
6.0
 40
6.0
 40
6.0
 40
7.0
 40
7.0
 40
7.0
 40
8.0
 40
8.0
 40
8.0
 40
9.0
 40
9.0
 40
9.0
 40
10.0
 40
10.0
 40
10.0
 40
11.0
 40
11.0
 40
11.0
 40
12.0
 40
12.0
 40
12.0
 40
13.0
 40
13.0
 40
13.0
 40
14.0
 40
14.0
 40
14.0
 40
15.0
 40
15.0
 40
15.0
 40
16.0
 40
16.0
 40
16.0
 40
17.0
 40
17.0
 40
17.0
 40
17.0
 10
266.3171914758777
 20
565.3429851962791
 30
0.0
 10
266.3206752163715
 20
565.3429824413652
 30
0.0
 10
266.3247440463165
 20
565.3429787542454
 30
0.0
 10
266.3294377699658
 20
565.3429740822011
 30
0.0
 10
266.337061142427
 20
565.3429664940395
 30
0.0
 10
266.3463329254719
 20
565.3429563077361
 30
0.0
 10
266.3571967144662
 20
565.3429458413638
 30
0.0
 10
266.3772894513968
 20
565.3429264836541
 30
0.0
 10
266.4028279701625
 20
565.3429061679071
 30
0.0
 10
266.4337321791482
 20
565.3428908493997
 30
0.0
 10
266.463652199217
 20
565.3428760187316
 30
0.0
 10
266.4986015951427
 20
565.3428658720831
 30
0.0
 10
266.5387176103686
 20
565.3428525404251
 30
0.0
 10
266.5874792595932
 20
565.3428363355851
 30
0.0
 10
266.6438744782281
 20
565.3428154249622
 30
0.0
 10
266.7078505917907
 20
565.3427704009772
 30
0.0
 10
266.7599765125142
 20
565.3427337167131
 30
0.0
 10
266.8171350313214
 20
565.3426810247265
 30
0.0
 10
266.8796661974411
 20
565.3426058347868
 30
0.0
 10
266.9535414344127
 20
565.3425170042883
 30
0.0
 10
267.0349154934866
 20
565.3423967724802
 30
0.0
 10
267.122914567909
 20
565.3422898000944
 30
0.0
 10
267.2130185899232
 20
565.3421802689172
 30
0.0
 10
267.3100683601324
 20
565.3420846390808
 30
0.0
 10
267.4135528981851
 20
565.3420177330617
 30
0.0
 10
267.5168047215438
 20
565.3419509775003
 30
0.0
 10
267.6264624044425
 20
565.3419128167134
 30
0.0
 10
267.7427943679459
 20
565.3418798328593
 30
0.0
 10
267.8558764482195
 20
565.3418477704517
 30
0.0
 10
267.9752651086992
 20
565.3418205997677
 30
0.0
 10
268.101740679369
 20
565.3417595545597
 30
0.0
 10
268.177400219739
 20
565.3417230364211
 30
0.0
 10
268.2555958873036
 20
565.3416743959196
 30
0.0
 10
268.3361114646977
 20
565.3416259423092
 30
0.0
 10
268.5079626473798
 20
565.3415225236858
 30
0.0
 10
268.6903824025903
 20
565.3414199564649
 30
0.0
 10
268.8833124067023
 20
565.341325186865
 30
0.0
 10
269.0184207044804
 20
565.3412588200017
 30
0.0
 10
269.1586833949032
 20
565.3411962772143
 30
0.0
 10
269.3036736114673
 20
565.3411474092308
 30
0.0
 10
269.4381844851423
 20
565.3411020732391
 30
0.0
 10
269.5767642055325
 20
565.3410685067619
 30
0.0
 10
269.7193934672869
 20
565.3410437698994
 30
0.0
 10
269.8057815804304
 20
565.3410287872039
 30
0.0
 10
269.8936552752966
 20
565.3410170436682
 30
0.0
 10
269.982915019169
 20
565.3410062443254
 30
0.0
 10
270.0743416641644
 20
565.3409951828144
 30
0.0
 10
270.1672224714539
 20
565.3409851118949
 30
0.0
 10
270.2619794731754
 20
565.3409769652226
 30
0.0
 10
270.3591104715133
 20
565.3409686144478
 30
0.0
 10
270.458212852488
 20
565.340962285547
 30
0.0
 10
270.5573152334618
 20
565.3409559566462
 30
0.0
  0
SPLINE
  5
1C9
330
70
100
AcDbEntity
  8
1
 62
     7
370
    13
100
AcDbSpline
210
0.0
220
0.0
230
1.0
 70
     8
 71
     3
 72
   131
 73
   127
 74
     0
 42
0.0000000001
 43
0.0000000001
 40
0.0
 40
0.0
 40
0.0
 40
0.0
 40
1.0
 40
1.0
 40
1.0
 40
2.0
 40
2.0
 40
2.0
 40
3.0
 40
3.0
 40
3.0
 40
4.0
 40
4.0
 40
4.0
 40
5.0
 40
5.0
 40
5.0
 40
6.0
 40
6.0
 40
6.0
 40
7.0
 40
7.0
 40
7.0
 40
8.0
 40
8.0
 40
8.0
 40
9.0
 40
9.0
 40
9.0
 40
10.0
 40
10.0
 40
10.0
 40
11.0
 40
11.0
 40
11.0
 40
12.0
 40
12.0
 40
12.0
 40
13.0
 40
13.0
 40
13.0
 40
14.0
 40
14.0
 40
14.0
 40
15.0
 40
15.0
 40
15.0
 40
16.0
 40
16.0
 40
16.0
 40
17.0
 40
17.0
 40
17.0
 40
18.0
 40
18.0
 40
18.0
 40
19.0
 40
19.0
 40
19.0
 40
20.0
 40
20.0
 40
20.0
 40
21.0
 40
21.0
 40
21.0
 40
22.0
 40
22.0
 40
22.0
 40
23.0
 40
23.0
 40
23.0
 40
24.0
 40
24.0
 40
24.0
 40
25.0
 40
25.0
 40
25.0
 40
26.0
 40
26.0
 40
26.0
 40
27.0
 40
27.0
 40
27.0
 40
28.0
 40
28.0
 40
28.0
 40
29.0
 40
29.0
 40
29.0
 40
30.0
 40
30.0
 40
30.0
 40
31.0
 40
31.0
 40
31.0
 40
32.0
 40
32.0
 40
32.0
 40
33.0
 40
33.0
 40
33.0
 40
34.0
 40
34.0
 40
34.0
 40
35.0
 40
35.0
 40
35.0
 40
36.0
 40
36.0
 40
36.0
 40
37.0
 40
37.0
 40
37.0
 40
38.0
 40
38.0
 40
38.0
 40
39.0
 40
39.0
 40
39.0
 40
40.0
 40
40.0
 40
40.0
 40
41.0
 40
41.0
 40
41.0
 40
42.0
 40
42.0
 40
42.0
 40
42.0
 10
272.2278310785423
 20
565.3409669588354
 30
0.0
 10
272.277523626366
 20
565.3409739480639
 30
0.0
 10
272.3272161741897
 20
565.3409809372924
 30
0.0
 10
272.3772447763685
 20
565.3409881018988
 30
0.0
 10
272.4260143518859
 20
565.3409950861997
 30
0.0
 10
272.4751032802124
 20
565.3410022371627
 30
0.0
 10
272.5244227674748
 20
565.341009520449
 30
0.0
 10
272.5724874021562
 20
565.3410166184248
 30
0.0
 10
272.6207710126491
 20
565.3410238420774
 30
0.0
 10
272.6692943963217
 20
565.3410312114811
 30
0.0
 10
272.716568671447
 20
565.3410383911796
 30
0.0
 10
272.7640705339672
 20
565.3410457092222
 30
0.0
 10
272.8117925819306
 20
565.3410531720201
 30
0.0
 10
272.8582707862988
 20
565.3410604403052
 30
0.0
 10
272.904957847717
 20
565.3410678458994
 30
0.0
 10
272.9518536844844
 20
565.3410753991184
 30
0.0
 10
272.9975109899724
 20
565.3410827528559
 30
0.0
 10
273.0433661888083
 20
565.3410902465238
 30
0.0
 10
273.0894173747793
 20
565.341097889861
 30
0.0
 10
273.1342352453967
 20
565.3411053284989
 30
0.0
 10
273.1792387460982
 20
565.3411129088972
 30
0.0
 10
273.2244265065128
 20
565.3411206413675
 30
0.0
 10
273.2683861032383
 20
565.3411281636754
 30
0.0
 10
273.3125200797549
 20
565.3411358299027
 30
0.0
 10
273.3568269914158
 20
565.3411436507922
 30
0.0
 10
273.3999108141079
 20
565.3411512557859
 30
0.0
 10
273.4431581560029
 20
565.3411590070208
 30
0.0
 10
273.4865676772169
 20
565.3411669153274
 30
0.0
 10
273.5287591066362
 20
565.3411746017245
 30
0.0
 10
273.5711037414158
 20
565.3411824365011
 30
0.0
 10
273.6136002284511
 20
565.3411904322083
 30
0.0
 10
273.6548835417789
 20
565.3411981996568
 30
0.0
 10
273.6963101610754
 20
565.3412061189783
 30
0.0
 10
273.7378790101129
 20
565.3412141987082
 30
0.0
 10
273.7782395181211
 20
565.341222043572
 30
0.0
 10
273.8187341072607
 20
565.3412300396557
 30
0.0
 10
273.8593609741374
 20
565.3412382121451
 30
0.0
 10
273.8987842629394
 20
565.3412461425232
 30
0.0
 10
273.9383321080704
 20
565.3412542390115
 30
0.0
 10
273.978005548729
 20
565.3412624698839
 30
0.0
 10
274.2777468409104
 20
565.3413246558803
 30
0.0
 10
274.5846572819073
 20
565.3413945127303
 30
0.0
 10
274.8983210858169
 20
565.3414702476165
 30
0.0
 10
275.2401114706372
 20
565.3415527737343
 30
0.0
 10
275.5899206846107
 20
565.3416422793343
 30
0.0
 10
275.9471497966788
 20
565.3417377768901
 30
0.0
 10
276.3135020075351
 20
565.3418357133114
 30
0.0
 10
276.6876579421205
 20
565.3419399516478
 30
0.0
 10
277.0689541030161
 20
565.3420527106627
 30
0.0
 10
277.4105982878573
 20
565.3421537435742
 30
0.0
 10
277.7579748554117
 20
565.3422616171355
 30
0.0
 10
278.1107135876618
 20
565.3423768550901
 30
0.0
 10
278.4678133988172
 20
565.3424935177873
 30
0.0
 10
278.830408784358
 20
565.3426177281025
 30
0.0
 10
279.1980031640624
 20
565.3427480943
 30
0.0
 10
279.6026000967295
 20
565.3428915833374
 30
0.0
 10
280.0132530881001
 20
565.3430425299511
 30
0.0
 10
280.4293821565516
 20
565.3431955286396
 30
0.0
 10
281.2242099481355
 20
565.3434877639565
 30
0.0
 10
282.0390160858069
 20
565.3437874858481
 30
0.0
 10
282.8683782263697
 20
565.3440846196509
 30
0.0
 10
283.4060930295145
 20
565.3442772655844
 30
0.0
 10
283.949926512164
 20
565.3444688236049
 30
0.0
 10
284.4985236117555
 20
565.3446609885177
 30
0.0
 10
284.7961233704073
 20
565.3447652330205
 30
0.0
 10
285.0951249578202
 20
565.3448696561181
 30
0.0
 10
285.3954058697791
 20
565.3449656289821
 30
0.0
 10
286.2479576735113
 20
565.3452381132947
 30
0.0
 10
287.1108220454825
 20
565.3454424807114
 30
0.0
 10
287.9782907136132
 20
565.3455908859159
 30
0.0
 10
288.8449732293484
 20
565.3457391566262
 30
0.0
 10
289.7162516996432
 20
565.345831566512
 30
0.0
 10
290.5871543764742
 20
565.3458203996069
 30
0.0
 10
291.4581447660166
 20
565.3458092315777
 30
0.0
 10
292.3287592863962
 20
565.3456944658946
 30
0.0
 10
293.1939571482053
 20
565.3455219606712
 30
0.0
 10
294.0602097683395
 20
565.3453492451462
 30
0.0
 10
294.9210325150107
 20
565.3451186492166
 30
0.0
 10
295.7709005782927
 20
565.34483567188
 30
0.0
 10
296.1964476357971
 20
565.3446939790947
 30
0.0
 10
296.6192481149347
 20
565.3445391531477
 30
0.0
 10
297.0388229581522
 20
565.3443886003761
 30
0.0
 10
297.4584566832946
 20
565.344238026476
 30
0.0
 10
297.8748638671013
 20
565.3440917269517
 30
0.0
 10
298.2873546113479
 20
565.3439459268274
 30
0.0
 10
298.6649197931111
 20
565.3438124715903
 30
0.0
 10
299.0392036676967
 20
565.3436794347644
 30
0.0
 10
299.4098023344341
 20
565.3435459591892
 30
0.0
 10
299.848240462703
 20
565.3433880504153
 30
0.0
 10
300.2815207147905
 20
565.3432295275597
 30
0.0
 10
300.7087894750057
 20
565.3430746008107
 30
0.0
 10
301.0717342486933
 20
565.3429429978023
 30
0.0
 10
301.4303413067482
 20
565.3428139896377
 30
0.0
 10
301.7841370817023
 20
565.3426875293935
 30
0.0
 10
302.1959633527222
 20
565.3425403268157
 30
0.0
 10
302.6012705825888
 20
565.3423965765396
 30
0.0
 10
302.99937975395
 20
565.3422605106197
 30
0.0
 10
303.3723598572942
 20
565.342133033323
 30
0.0
 10
303.7390219211375
 20
565.34201230091
 30
0.0
 10
304.0990765988427
 20
565.3419057491801
 30
0.0
 10
304.4423501819238
 20
565.341804163514
 30
0.0
 10
304.7796179280303
 20
565.3417154674961
 30
0.0
 10
305.110336038726
 20
565.3416372315177
 30
0.0
 10
305.3815962247718
 20
565.3415730611413
 30
0.0
 10
305.648450118766
 20
565.3415159277956
 30
0.0
 10
305.9105561861306
 20
565.3414606645765
 30
0.0
 10
306.272505909601
 20
565.3413843500256
 30
0.0
 10
306.6254017016327
 20
565.3413116017373
 30
0.0
 10
306.9684801190815
 20
565.3412428726879
 30
0.0
 10
307.0662503308067
 20
565.3412232863384
 30
0.0
 10
307.1632232426909
 20
565.3412040264038
 30
0.0
 10
307.259401100946
 20
565.3411854033857
 30
0.0
 10
307.3534470435916
 20
565.3411671931726
 30
0.0
 10
307.4467327888924
 20
565.3411495919526
 30
0.0
 10
307.5392488505968
 20
565.3411325524757
 30
0.0
 10
307.6296124536075
 20
565.3411159094357
 30
0.0
 10
307.7192417709812
 20
565.3410998023036
 30
0.0
 10
307.8081112121036
 20
565.3410842999447
 30
0.0
 10
307.8948092710271
 20
565.341069176361
 30
0.0
 10
307.9807841327747
 20
565.3410546283594
 30
0.0
 10
308.066092686724
 20
565.3410406267258
 30
0.0
 10
308.1492107773283
 20
565.3410269846117
 30
0.0
 10
308.2316963383382
 20
565.3410138611689
 30
0.0
 10
308.3133125650966
 20
565.34100151467
 30
0.0
 10
308.3927247612792
 20
565.3409895015848
 30
0.0
 10
308.471313941649
 20
565.3409782240478
 30
0.0
 10
308.5499031220206
 20
565.3409669465109
 30
0.0
  0
SPLINE
  5
1CA
330
70
100
AcDbEntity
  8
1
 62
     7
370
    13
100
AcDbSpline
210
0.0
220
0.0
230
1.0
 70
     8
 71
     3
 72
     8
 73
     4
 74
     0
 42
0.0000000001
 43
0.0000000001
 40
0.0
 40
0.0
 40
0.0
 40
0.0
 40
1.0
 40
1.0
 40
1.0
 40
1.0
 10
417.9626629457343
 20
567.2731267319204
 30
0.0
 10
382.0502075041531
 20
567.2731267319204
 30
0.0
 10
346.1375823245908
 20
566.6290788829155
 30
0.0
 10
310.2204190531593
 20
565.3409559826213
 30
0.0
  0
SPLINE
  5
1CB
330
70
100
AcDbEntity
  8
1
 62
     7
370
    13
100
AcDbSpline
210
0.0
220
0.0
230
1.0
 70
     8
 71
     3
 72
     8
 73
     4
 74
     0
 42
0.0000000001
 43
0.0000000001
 40
0.0
 40
0.0
 40
0.0
 40
0.0
 40
1.0
 40
1.0
 40
1.0
 40
1.0
 10
416.0238514628363
 20
567.2731267319204
 30
0.0
 10
380.1964543342728
 20
567.2731267319204
 30
0.0
 10
344.3706668875784
 20
566.6290823294848
 30
0.0
 10
308.549903124589
 20
565.3409668258046
 30
0.0
  0
SPLINE
  5
1CC
330
70
100
AcDbEntity
  8
1
 62
     7
370
    13
100
AcDbSpline
210
0.0
220
0.0
230
1.0
 70
     8
 71
     3
 72
    17
 73
    13
 74
     0
 42
0.0000000001
 43
0.0000000001
 40
0.0
 40
0.0
 40
0.0
 40
0.0
 40
1.0
 40
1.0
 40
1.0
 40
2.0
 40
2.0
 40
2.0
 40
3.0
 40
3.0
 40
3.0
 40
4.0
 40
4.0
 40
4.0
 40
4.0
 10
308.549903124589
 20
565.3409668258046
 30
0.0
 10
308.652119297105
 20
565.3409660373709
 30
0.0
 10
308.7889128388724
 20
565.3409515545099
 30
0.0
 10
308.9410293961173
 20
565.3409463300103
 30
0.0
 10
309.093145953364
 20
565.3409411055117
 30
0.0
 10
309.2605855260845
 20
565.3409451393745
 30
0.0
 10
309.4230467443395
 20
565.3409458459409
 30
0.0
 10
309.5855079625944
 20
565.3409465525083
 30
0.0
 10
309.7429908263821
 20
565.3409439317774
 30
0.0
 10
309.8808634834677
 20
565.3409461213032
 30
0.0
 10
310.0187361405533
 20
565.3409483108298
 30
0.0
 10
310.1369985909368
 20
565.340955310613
 30
0.0
 10
310.2204190531593
 20
565.3409559826213
 30
0.0
  0
SPLINE
  5
1CD
330
70
100
AcDbEntity
  8
1
 62
     7
370
    13
100
AcDbSpline
210
0.0
220
0.0
230
1.0
 70
     8
 71
     3
 72
     8
 73
     4
 74
     0
 42
0.0000000001
 43
0.0000000001
 40
0.0
 40
0.0
 40
0.0
 40
0.0
 40
1.0
 40
1.0
 40
1.0
 40
1.0
 10
164.7538832790996
 20
567.2731267319204
 30
0.0
 10
200.5812804076622
 20
567.2731267319204
 30
0.0
 10
236.4070673130782
 20
566.6290823471845
 30
0.0
 10
272.2278310760894
 20
565.3409668435052
 30
0.0
  0
SPLINE
  5
1CE
330
70
100
AcDbEntity
  8
1
 62
     7
370
    13
100
AcDbSpline
210
0.0
220
0.0
230
1.0
 70
     8
 71
     3
 72
     8
 73
     4
 74
     0
 42
0.0000000001
 43
0.0000000001
 40
0.0
 40
0.0
 40
0.0
 40
0.0
 40
1.0
 40
1.0
 40
1.0
 40
1.0
 10
162.8150717961998
 20
567.2731267319204
 30
0.0
 10
198.7275272377819
 20
567.2731267319204
 30
0.0
 10
234.6401519640121
 20
566.6290789414288
 30
0.0
 10
270.5573152354309
 20
565.3409560411346
 30
0.0
  0
SPLINE
  5
1CF
330
70
100
AcDbEntity
  8
1
 62
     7
370
    13
100
AcDbSpline
210
0.0
220
0.0
230
1.0
 70
     8
 71
     3
 72
    17
 73
    13
 74
     0
 42
0.0000000001
 43
0.0000000001
 40
0.0
 40
0.0
 40
0.0
 40
0.0
 40
1.0
 40
1.0
 40
1.0
 40
2.0
 40
2.0
 40
2.0
 40
3.0
 40
3.0
 40
3.0
 40
4.0
 40
4.0
 40
4.0
 40
4.0
 10
270.5573152354309
 20
565.3409560411346
 30
0.0
 10
270.6407356928949
 20
565.3409553691253
 30
0.0
 10
270.7589935218057
 20
565.3409485041274
 30
0.0
 10
270.8968646345856
 20
565.3409463585576
 30
0.0
 10
271.0347357473656
 20
565.3409442129887
 30
0.0
 10
271.1922201440148
 20
565.3409467868469
 30
0.0
 10
271.3546813687226
 20
565.3409460831953
 30
0.0
 10
271.5171425934295
 20
565.3409453795448
 30
0.0
 10
271.6845806461952
 20
565.3409413983845
 30
0.0
 10
271.8366987197769
 20
565.3409465672648
 30
0.0
 10
271.9888167933577
 20
565.340951736147
 30
0.0
 10
272.1256148877564
 20
565.3409660550696
 30
0.0
 10
272.2278310760894
 20
565.3409668435052
 30
0.0
  0
INSERT
  5
1D1
330
70
100
AcDbEntity
  8
1
100
AcDbBlockReference
  2
Block_0
 10
0.0
 20
0.0
 30
0.0
  0
INSERT
  5
1D7
330
70
100
AcDbEntity
  8
1
100
AcDbBlockReference
  2
Block_1
 10
0.0
 20
0.0
 30
0.0
  0
INSERT
  5
1DD
330
70
100
AcDbEntity
  8
1
100
AcDbBlockReference
  2
Block_2
 10
0.0
 20
0.0
 30
0.0
  0
INSERT
  5
1E2
330
70
100
AcDbEntity
  8
1
100
AcDbBlockReference
  2
Block_3
 10
0.0
 20
0.0
 30
0.0
  0
INSERT
  5
1E7
330
70
100
AcDbEntity
  8
1
100
AcDbBlockReference
  2
Block_4
 10
0.0
 20
0.0
 30
0.0
  0
INSERT
  5
1ED
330
70
100
AcDbEntity
  8
1
100
AcDbBlockReference
  2
Block_5
 10
0.0
 20
0.0
 30
0.0
  0
INSERT
  5
1F3
330
70
100
AcDbEntity
  8
1
100
AcDbBlockReference
  2
Block_6
 10
0.0
 20
0.0
 30
0.0
  0
INSERT
  5
1F9
330
70
100
AcDbEntity
  8
1
100
AcDbBlockReference
  2
Block_7
 10
0.0
 20
0.0
 30
0.0
  0
INSERT
  5
1FF
330
70
100
AcDbEntity
  8
1
100
AcDbBlockReference
  2
Block_8
 10
0.0
 20
0.0
 30
0.0
  0
INSERT
  5
205
330
70
100
AcDbEntity
  8
1
100
AcDbBlockReference
  2
Block_9
 10
0.0
 20
0.0
 30
0.0
  0
MTEXT
  5
20A
330
70
100
AcDbEntity
  8
1
100
AcDbMText
 10
119.546007156373
 20
600.8310546874991
 30
0.0
 40
0.2
 41
0.0
 46
0.0
 71
     7
 72
     1
  1
\C7;\FTramontina SmCd Titulos|b0|i0|c1;\H8.496000;\W1.000000;212
 11
0.0000000000000001
 21
1.0
 31
0.0
 73
     1
 44
1.0
  0
MTEXT
  5
20B
330
70
100
AcDbEntity
  8
1
100
AcDbMText
 10
202.303466796875
 20
536.1705703735351
 30
0.0
 40
0.2
 41
0.0
 46
0.0
 71
     7
 72
     1
  1
\C7;\FTramontina SmCd Titulos|b0|i0|c1;\H8.496000;\W1.000000;400
 73
     1
 44
1.0
  0
MTEXT
  5
20C
330
70
100
AcDbEntity
  8
1
100
AcDbMText
 10
450.3814697265625
 20
536.5483856201172
 30
0.0
 40
0.2
 41
0.0
 46
0.0
 71
     7
 72
     1
  1
\C7;\FTramontina SmCd Titulos|b0|i0|c1;\H8.496000;\W1.000000;67
 73
     1
 44
1.0
  0
MTEXT
  5
20D
330
70
100
AcDbEntity
  8
1
100
AcDbMText
 10
490.5906677246093
 20
502.778320312499
 30
0.0
 40
0.2
 41
0.0
 46
0.0
 71
     7
 72
     1
  1
\C7;\FTramontina SmCd Titulos|b0|i0|c1;\H8.496000;\W1.000000;77
 11
0.0000000000000001
 21
1.0
 31
0.0
 73
     1
 44
1.0
  0
MTEXT
  5
20E
330
70
100
AcDbEntity
  8
1
100
AcDbMText
 10
504.2059936523437
 20
464.968749999999
 30
0.0
 40
0.2
 41
0.0
 46
0.0
 71
     7
 72
     1
  1
\C7;\FTramontina SmCd Titulos|b0|i0|c1;\H8.496000;\W1.000000;250
 11
0.0000000000000001
 21
1.0
 31
0.0
 73
     1
 44
1.0
  0
MTEXT
  5
20F
330
70
100
AcDbEntity
  8
1
100
AcDbMText
 10
441.9112853255938
 20
441.8682259222623
 30
0.0
 40
0.2
 41
0.0
 46
0.0
 71
     7
 72
     1
  1
\C7;\FTramontina SmCd Titulos|b0|i0|c1;\H8.496000;\W1.000000;Ø 35
 11
0.1372243352452062
 21
0.9905399950615377
 31
0.0
 73
     1
 44
1.0
  0
MTEXT
  5
210
330
70
100
AcDbEntity
  8
1
100
AcDbMText
 10
291.6993103027344
 20
297.4935607910156
 30
0.0
 40
0.2
 41
0.0
 46
0.0
 71
     7
 72
     1
  1
\C7;\FTramontina SmCd Titulos|b0|i0|c1;\H8.496000;\W1.000000;860
 73
     1
 44
1.0
  0
MTEXT
  5
211
330
70
100
AcDbEntity
  8
1
100
AcDbMText
 10
280.3870697021484
 20
314.2713317871094
 30
0.0
 40
0.2
 41
0.0
 46
0.0
 71
     7
 72
     1
  1
\C7;\FTramontina SmCd Titulos|b0|i0|c1;\H8.496000;\W1.000000;700
 73
     1
 44
1.0
  0
MTEXT
  5
212
330
70
100
AcDbEntity
  8
1
100
AcDbMText
 10
88.38799571991058
 20
416.19921875
 30
0.0
 40
0.2
 41
0.0
 46
0.0
 71
     7
 72
     1
  1
\C7;\FTramontina SmCd Titulos|b0|i0|c1;\H8.496000;\W1.000000;500
 11
0.0000000000000001
 21
1.0
 31
0.0
 73
     1
 44
1.0
  0
MTEXT
  5
213
330
70
100
AcDbEntity
  8
1
100
AcDbMText
 10
107.0022535324105
 20
416.009765625
 30
0.0
 40
0.2
 41
0.0
 46
0.0
 71
     7
 72
     1
  1
\C7;\FTramontina SmCd Titulos|b0|i0|c1;\H8.496000;\W1.000000;400
 11
0.0000000000000001
 21
1.0
 31
0.0
 73
     1
 44
1.0
  0
MTEXT
  5
214
330
70
100
AcDbEntity
  8
1
100
AcDbMText
 10
122.7583656311044
 20
481.6328124999991
 30
0.0
 40
0.2
 41
0.0
 46
0.0
 71
     7
 72
     1
  1
\C7;\FTramontina SmCd Titulos|b0|i0|c1;\H8.496000;\W1.000000;170
 11
0.0000000000000001
 21
1.0
 31
0.0
 73
     1
 44
1.0
  0
LINE
  5
215
330
70
100
AcDbEntity
  8
1
 62
     7
370
     5
100
AcDbLine
 10
135.3058002263769
 20
534.3240742844018
 30
0.0
 11
290.3773635455618
 21
534.3240742844018
 31
0.0
  0
LINE
  5
216
330
70
100
AcDbEntity
  8
1
 62
     7
370
     5
100
AcDbLine
 10
90.91982388747146
 20
523.4105883689863
 30
0.0
 11
90.91982388747146
 21
329.5294400790681
 31
0.0
  0
LINE
  5
217
330
70
100
AcDbEntity
  8
1
 62
     7
370
     5
100
AcDbLine
 10
124.4599596831122
 20
523.4778296520171
 30
0.0
 11
124.4599596831122
 21
457.5582392334454
 31
0.0
  0
LINE
  5
218
330
70
100
AcDbEntity
  8
1
 62
     7
370
     5
100
AcDbLine
 10
109.2032207090688
 20
504.1005294466031
 30
0.0
 11
109.2032207090688
 21
348.9956108146671
 31
0.0
  0
LINE
  5
219
330
70
100
AcDbEntity
  8
1
 62
     7
370
     5
100
AcDbLine
 10
135.3088283244942
 20
295.5153053509002
 30
0.0
 11
468.784403383157
 21
295.5153053509002
 31
0.0
  0
LINE
  5
21A
330
70
100
AcDbEntity
  8
1
 62
     7
370
     5
100
AcDbLine
 10
154.7065252496286
 20
312.5060151637881
 30
0.0
 11
426.1401328555166
 21
312.5060151637881
 31
0.0
  0
INSERT
  5
21C
330
70
100
AcDbEntity
  8
1
100
AcDbBlockReference
  2
Block_10
 10
0.0
 20
0.0
 30
0.0
  0
INSERT
  5
221
330
70
100
AcDbEntity
  8
1
100
AcDbBlockReference
  2
Block_11
 10
0.0
 20
0.0
 30
0.0
  0
LINE
  5
225
330
70
100
AcDbEntity
  8
1
 62
     7
370
     5
100
AcDbLine
 10
468.79287904601
 20
534.3240742844018
 30
0.0
 11
442.8461604879121
 21
534.3240742844018
 31
0.0
  0
LINE
  5
226
330
70
100
AcDbEntity
  8
1
 62
     7
370
     5
100
AcDbLine
 10
493.2219037305404
 20
523.4667299801658
 30
0.0
 11
493.2219037305404
 21
493.64238845627
 31
0.0
  0
LINE
  5
227
330
70
100
AcDbEntity
  8
1
 62
     7
370
     5
100
AcDbLine
 10
506.7935841108337
 20
523.4206840905589
 30
0.0
 11
506.7935841108337
 21
426.4801099455999
 31
0.0
  0
ENDSEC
  0
SECTION
  2
OBJECTS
  0
DICTIONARY
  5
C
330
0
100
AcDbDictionary
281
     1
  3
ACAD_COLOR
350
63
  3
ACAD_DETAILVIEWSTYLE
350
6A
  3
ACAD_GROUP
350
D
  3
ACAD_LAYOUT
350
62
  3
ACAD_MATERIAL
350
10
  3
ACAD_MLEADERSTYLE
350
66
  3
ACAD_MLINESTYLE
350
5F
  3
ACAD_PLOTSETTINGS
350
61
  3
ACAD_PLOTSTYLENAME
350
E
  3
ACAD_SCALELIST
350
42
  3
ACAD_SECTIONVIEWSTYLE
350
68
  3
ACAD_TABLESTYLE
350
64
  3
ACAD_VISUALSTYLE
350
29
  3
ACDB_RECOMPOSE_DATA
350
230
  3
AcDbVariableDictionary
350
228
  0
DICTIONARY
  5
63
102
{ACAD_REACTORS
330
C
102
}
330
C
100
AcDbDictionary
281
     1
  0
DICTIONARY
  5
6A
102
{ACAD_REACTORS
330
C
102
}
330
C
100
AcDbDictionary
281
     1
  3
Imperial24
350
6B
  0
DICTIONARY
  5
D
102
{ACAD_REACTORS
330
C
102
}
330
C
100
AcDbDictionary
281
     1
  0
DICTIONARY
  5
62
102
{ACAD_REACTORS
330
C
102
}
330
C
100
AcDbDictionary
281
     1
  3
Layout1
350
6F
  3
Layout2
350
77
  3
Model
350
73
  0
DICTIONARY
  5
10
102
{ACAD_REACTORS
330
C
102
}
330
C
100
AcDbDictionary
281
     1
  3
ByBlock
350
19
  3
ByLayer
350
11
  3
Global
350
21
  0
DICTIONARY
  5
66
102
{ACAD_REACTORS
330
C
102
}
330
C
100
AcDbDictionary
281
     1
  3
Standard
350
67
  0
DICTIONARY
  5
5F
102
{ACAD_REACTORS
330
C
102
}
330
C
100
AcDbDictionary
281
     1
  3
Standard
350
60
  0
DICTIONARY
  5
61
102
{ACAD_REACTORS
330
C
102
}
330
C
100
AcDbDictionary
281
     1
  0
ACDBDICTIONARYWDFLT
  5
E
102
{ACAD_REACTORS
330
C
102
}
330
C
100
AcDbDictionary
281
     1
  3
Normal
350
F
100
AcDbDictionaryWithDefault
340
F
  0
DICTIONARY
  5
42
102
{ACAD_REACTORS
330
C
102
}
330
C
100
AcDbDictionary
281
     1
  3
A0
350
43
  3
A1
350
44
  3
A2
350
45
  3
A3
350
46
  3
A4
350
47
  3
A5
350
48
  3
A6
350
49
  3
A7
350
4A
  3
A8
350
4B
  3
A9
350
4C
  3
B0
350
4D
  3
B1
350
4E
  3
B2
350
4F
  3
B3
350
50
  3
B4
350
51
  3
B5
350
52
  3
B6
350
53
  0
DICTIONARY
  5
68
102
{ACAD_REACTORS
330
C
102
}
330
C
100
AcDbDictionary
281
     1
  3
Imperial24
350
69
  0
DICTIONARY
  5
64
102
{ACAD_REACTORS
330
C
102
}
330
C
100
AcDbDictionary
281
     1
  3
Standard
350
65
  0
DICTIONARY
  5
29
102
{ACAD_REACTORS
330
C
102
}
330
C
100
AcDbDictionary
281
     1
  3
2dWireframe
350
2F
  3
Basic
350
2E
  3
Brighten
350
35
  3
ColorChange
350
39
  3
Conceptual
350
32
  3
Dim
350
34
  3
EdgeColorOff
350
41
  3
Facepattern
350
38
  3
Flat
350
2A
  3
FlatWithEdges
350
2B
  3
Gouraud
350
2C
  3
GouraudWithEdges
350
2D
  3
Hidden
350
31
  3
JitterOff
350
3F
  3
Linepattern
350
37
  3
OverhangOff
350
40
  3
Realistic
350
33
  3
Shaded
350
3E
  3
Shaded with edges
350
3D
  3
Shades of Gray
350
3A
  3
Sketchy
350
3B
  3
Thicken
350
36
  3
Wireframe
350
30
  3
X-Ray
350
3C
  0
XRECORD
  5
230
102
{ACAD_REACTORS
330
C
102
}
330
C
100
AcDbXrecord
280
     1
 90
        1
330
65
  0
DICTIONARY
  5
228
102
{ACAD_REACTORS
330
C
102
}
330
C
100
AcDbDictionary
281
     1
  3
CANNOSCALE
350
22D
  3
CMLEADERSTYLE
350
22A
  3
CTABLESTYLE
350
229
  3
CVIEWDETAILSTYLE
350
22B
  3
CVIEWSECTIONSTYLE
350
22C
  0
ACDBDETAILVIEWSTYLE
  5
6B
102
{ACAD_REACTORS
330
6A
102
}
330
6A
100
AcDbModelDocViewStyle
 70
     0
  3
Imperial24
290
     1
300
Imperial24
 90
        0
100
AcDbDetailViewStyle
 70
     0
 71
     0
 90
        3
 71
     1
340
55
 62
   256
 40
0.24
340
0
 62
   256
 40
0.24
300

 40
0.36
280
     3
 71
     2
340
5D
 90
       25
 62
   256
 71
     3
340
55
 62
   256
 40
0.24
 90
        1
 40
0.75
 90
        1
300
%<\AcVar ViewType \f "%tc1">% %<\AcVar ViewDetailId>%\PSCALE %<\AcVar ViewScale \f "%sn">%
 71
     4
340
5D
 90
       25
 62
   256
340
5D
 90
       25
 62
   256
280
     0
  0
LAYOUT
  5
6F
102
{ACAD_REACTORS
330
62
102
}
330
62
100
AcDbPlotSettings
  1

  2

  4

  6

 40
0.0
 41
0.0
 42
0.0
 43
0.0
 44
0.0
 45
0.0
 46
0.0
 47
0.0
 48
0.0
 49
0.0
140
0.0
141
0.0
142
1.0
143
1.0
 70
   688
 72
     0
 73
     0
 74
     5
  7

 75
    16
147
1.0
 76
     0
 77
     2
 78
   300
148
0.0
149
0.0
100
AcDbLayout
  1
Layout1
 70
     1
 71
     1
 10
0.0
 20
0.0
 11
12.0
 21
9.0
 12
0.0
 22
0.0
 32
0.0
 14
0.0
 24
0.0
 34
0.0
 15
0.0
 25
0.0
 35
0.0
146
0.0
 13
0.0
 23
0.0
 33
0.0
 16
1.0
 26
0.0
 36
0.0
 17
0.0
 27
1.0
 37
0.0
 76
     0
330
6C
  0
LAYOUT
  5
77
102
{ACAD_REACTORS
330
62
102
}
330
62
100
AcDbPlotSettings
  1

  2

  4

  6

 40
0.0
 41
0.0
 42
0.0
 43
0.0
 44
0.0
 45
0.0
 46
0.0
 47
0.0
 48
0.0
 49
0.0
140
0.0
141
0.0
142
1.0
143
1.0
 70
   688
 72
     0
 73
     0
 74
     5
  7

 75
    16
147
1.0
 76
     0
 77
     2
 78
   300
148
0.0
149
0.0
100
AcDbLayout
  1
Layout2
 70
     1
 71
     2
 10
0.0
 20
0.0
 11
12.0
 21
9.0
 12
0.0
 22
0.0
 32
0.0
 14
0.0
 24
0.0
 34
0.0
 15
0.0
 25
0.0
 35
0.0
146
0.0
 13
0.0
 23
0.0
 33
0.0
 16
1.0
 26
0.0
 36
0.0
 17
0.0
 27
1.0
 37
0.0
 76
     0
330
74
  0
LAYOUT
  5
73
102
{ACAD_REACTORS
330
62
102
}
330
62
100
AcDbPlotSettings
  1

  2

  4

  6

 40
0.0
 41
0.0
 42
0.0
 43
0.0
 44
0.0
 45
0.0
 46
0.0
 47
0.0
 48
0.0
 49
0.0
140
0.0
141
0.0
142
1.0
143
1.0
 70
  1712
 72
     0
 73
     0
 74
     0
  7

 75
     0
147
1.0
 76
     0
 77
     2
 78
   300
148
0.0
149
0.0
100
AcDbLayout
  1
Model
 70
     1
 71
     0
 10
0.0
 20
0.0
 11
12.0
 21
9.0
 12
0.0
 22
0.0
 32
0.0
 14
0.0
 24
0.0
 34
0.0
 15
0.0
 25
0.0
 35
0.0
146
0.0
 13
0.0
 23
0.0
 33
0.0
 16
1.0
 26
0.0
 36
0.0
 17
0.0
 27
1.0
 37
0.0
 76
     0
330
70
  0
MATERIAL
  5
19
102
{ACAD_XDICTIONARY
360
1A
102
}
102
{ACAD_REACTORS
330
10
102
}
330
10
100
AcDbMaterial
  1
ByBlock
 72
     0
 43
0.0208333333333333
 43
0.0
 43
0.0
 43
0.0
 43
0.0
 43
0.0208333333333333
 43
0.0
 43
0.0
 43
0.0
 43
0.0
 43
1.0
 43
0.0
 43
0.0
 43
0.0
 43
0.0
 43
1.0
 77
     0
 47
0.0208333333333333
 47
0.0
 47
0.0
 47
0.0
 47
0.0
 47
0.0208333333333333
 47
0.0
 47
0.0
 47
0.0
 47
0.0
 47
1.0
 47
0.0
 47
0.0
 47
0.0
 47
0.0
 47
1.0
171
     0
 49
0.0208333333333333
 49
0.0
 49
0.0
 49
0.0
 49
0.0
 49
0.0208333333333333
 49
0.0
 49
0.0
 49
0.0
 49
0.0
 49
1.0
 49
0.0
 49
0.0
 49
0.0
 49
0.0
 49
1.0
175
     0
142
0.0208333333333333
142
0.0
142
0.0
142
0.0
142
0.0
142
0.0208333333333333
142
0.0
142
0.0
142
0.0
142
0.0
142
1.0
142
0.0
142
0.0
142
0.0
142
0.0
142
1.0
179
     0
144
0.0208333333333333
144
0.0
144
0.0
144
0.0
144
0.0
144
0.0208333333333333
144
0.0
144
0.0
144
0.0
144
0.0
144
1.0
144
0.0
144
0.0
144
0.0
144
0.0
144
1.0
147
0.0208333333333333
147
0.0
147
0.0
147
0.0
147
0.0
147
0.0208333333333333
147
0.0
147
0.0
147
0.0
147
0.0
147
1.0
147
0.0
147
0.0
147
0.0
147
0.0
147
1.0
  0
MATERIAL
  5
11
102
{ACAD_XDICTIONARY
360
12
102
}
102
{ACAD_REACTORS
330
10
102
}
330
10
100
AcDbMaterial
  1
ByLayer
 72
     0
 43
0.0208333333333333
 43
0.0
 43
0.0
 43
0.0
 43
0.0
 43
0.0208333333333333
 43
0.0
 43
0.0
 43
0.0
 43
0.0
 43
1.0
 43
0.0
 43
0.0
 43
0.0
 43
0.0
 43
1.0
 77
     0
 47
0.0208333333333333
 47
0.0
 47
0.0
 47
0.0
 47
0.0
 47
0.0208333333333333
 47
0.0
 47
0.0
 47
0.0
 47
0.0
 47
1.0
 47
0.0
 47
0.0
 47
0.0
 47
0.0
 47
1.0
171
     0
 49
0.0208333333333333
 49
0.0
 49
0.0
 49
0.0
 49
0.0
 49
0.0208333333333333
 49
0.0
 49
0.0
 49
0.0
 49
0.0
 49
1.0
 49
0.0
 49
0.0
 49
0.0
 49
0.0
 49
1.0
175
     0
142
0.0208333333333333
142
0.0
142
0.0
142
0.0
142
0.0
142
0.0208333333333333
142
0.0
142
0.0
142
0.0
142
0.0
142
1.0
142
0.0
142
0.0
142
0.0
142
0.0
142
1.0
179
     0
144
0.0208333333333333
144
0.0
144
0.0
144
0.0
144
0.0
144
0.0208333333333333
144
0.0
144
0.0
144
0.0
144
0.0
144
1.0
144
0.0
144
0.0
144
0.0
144
0.0
144
1.0
147
0.0208333333333333
147
0.0
147
0.0
147
0.0
147
0.0
147
0.0208333333333333
147
0.0
147
0.0
147
0.0
147
0.0
147
1.0
147
0.0
147
0.0
147
0.0
147
0.0
147
1.0
  0
MATERIAL
  5
21
102
{ACAD_XDICTIONARY
360
22
102
}
102
{ACAD_REACTORS
330
10
102
}
330
10
100
AcDbMaterial
  1
Global
 72
     0
 43
0.0208333333333333
 43
0.0
 43
0.0
 43
0.0
 43
0.0
 43
0.0208333333333333
 43
0.0
 43
0.0
 43
0.0
 43
0.0
 43
1.0
 43
0.0
 43
0.0
 43
0.0
 43
0.0
 43
1.0
 77
     0
 47
0.0208333333333333
 47
0.0
 47
0.0
 47
0.0
 47
0.0
 47
0.0208333333333333
 47
0.0
 47
0.0
 47
0.0
 47
0.0
 47
1.0
 47
0.0
 47
0.0
 47
0.0
 47
0.0
 47
1.0
171
     0
 49
0.0208333333333333
 49
0.0
 49
0.0
 49
0.0
 49
0.0
 49
0.0208333333333333
 49
0.0
 49
0.0
 49
0.0
 49
0.0
 49
1.0
 49
0.0
 49
0.0
 49
0.0
 49
0.0
 49
1.0
175
     0
142
0.0208333333333333
142
0.0
142
0.0
142
0.0
142
0.0
142
0.0208333333333333
142
0.0
142
0.0
142
0.0
142
0.0
142
1.0
142
0.0
142
0.0
142
0.0
142
0.0
142
1.0
179
     0
144
0.0208333333333333
144
0.0
144
0.0
144
0.0
144
0.0
144
0.0208333333333333
144
0.0
144
0.0
144
0.0
144
0.0
144
1.0
144
0.0
144
0.0
144
0.0
144
0.0
144
1.0
147
0.0208333333333333
147
0.0
147
0.0
147
0.0
147
0.0
147
0.0208333333333333
147
0.0
147
0.0
147
0.0
147
0.0
147
1.0
147
0.0
147
0.0
147
0.0
147
0.0
147
1.0
  0
MLEADERSTYLE
  5
67
102
{ACAD_REACTORS
330
66
102
}
330
66
100
AcDbMLeaderStyle
179
     2
170
     2
171
     1
172
     0
 90
        2
 40
0.0
 41
0.0
173
     1
 91
-1056964608
340
5B
 92
       -2
290
     1
 42
0.09
291
     1
 43
0.36
  3
Standard
 44
0.18
300

342
55
174
     1
178
     6
175
     1
176
     0
 93
-1056964608
 45
0.18
292
     0
297
     0
 46
0.18
 94
-1056964608
 47
1.0
 49
1.0
140
1.0
293
     1
141
0.0
294
     1
177
     0
142
1.0
295
     1
296
     0
143
0.125
271
     0
272
     9
273
     9
298
     1
  0
MLINESTYLE
  5
60
102
{ACAD_REACTORS
330
5F
102
}
330
5F
100
AcDbMlineStyle
  2
STANDARD
 70
     0
  3

 62
   256
 51
90.0
 52
90.0
 71
     2
 49
0.5
 62
   256
  6
BYLAYER
 49
-0.5
 62
   256
  6
BYLAYER
  0
ACDBPLACEHOLDER
  5
F
102
{ACAD_REACTORS
330
E
102
}
330
E
  0
SCALE
  5
43
102
{ACAD_REACTORS
330
42
102
}
330
42
100
AcDbScale
 70
     0
300
1:1
140
1.0
141
1.0
290
     1
  0
SCALE
  5
44
102
{ACAD_REACTORS
330
42
102
}
330
42
100
AcDbScale
 70
     0
300
1/128" = 1'-0"
140
0.0078125
141
12.0
290
     0
  0
SCALE
  5
45
102
{ACAD_REACTORS
330
42
102
}
330
42
100
AcDbScale
 70
     0
300
1/64" = 1'-0"
140
0.015625
141
12.0
290
     0
  0
SCALE
  5
46
102
{ACAD_REACTORS
330
42
102
}
330
42
100
AcDbScale
 70
     0
300
1/32" = 1'-0"
140
0.03125
141
12.0
290
     0
  0
SCALE
  5
47
102
{ACAD_REACTORS
330
42
102
}
330
42
100
AcDbScale
 70
     0
300
1/16" = 1'-0"
140
0.0625
141
12.0
290
     0
  0
SCALE
  5
48
102
{ACAD_REACTORS
330
42
102
}
330
42
100
AcDbScale
 70
     0
300
3/32" = 1'-0"
140
0.09375
141
12.0
290
     0
  0
SCALE
  5
49
102
{ACAD_REACTORS
330
42
102
}
330
42
100
AcDbScale
 70
     0
300
1/8" = 1'-0"
140
0.125
141
12.0
290
     0
  0
SCALE
  5
4A
102
{ACAD_REACTORS
330
42
102
}
330
42
100
AcDbScale
 70
     0
300
3/16" = 1'-0"
140
0.1875
141
12.0
290
     0
  0
SCALE
  5
4B
102
{ACAD_REACTORS
330
42
102
}
330
42
100
AcDbScale
 70
     0
300
1/4" = 1'-0"
140
0.25
141
12.0
290
     0
  0
SCALE
  5
4C
102
{ACAD_REACTORS
330
42
102
}
330
42
100
AcDbScale
 70
     0
300
3/8" = 1'-0"
140
0.375
141
12.0
290
     0
  0
SCALE
  5
4D
102
{ACAD_REACTORS
330
42
102
}
330
42
100
AcDbScale
 70
     0
300
1/2" = 1'-0"
140
0.5
141
12.0
290
     0
  0
SCALE
  5
4E
102
{ACAD_REACTORS
330
42
102
}
330
42
100
AcDbScale
 70
     0
300
3/4" = 1'-0"
140
0.75
141
12.0
290
     0
  0
SCALE
  5
4F
102
{ACAD_REACTORS
330
42
102
}
330
42
100
AcDbScale
 70
     0
300
1" = 1'-0"
140
1.0
141
12.0
290
     0
  0
SCALE
  5
50
102
{ACAD_REACTORS
330
42
102
}
330
42
100
AcDbScale
 70
     0
300
1-1/2" = 1'-0"
140
1.5
141
12.0
290
     0
  0
SCALE
  5
51
102
{ACAD_REACTORS
330
42
102
}
330
42
100
AcDbScale
 70
     0
300
3" = 1'-0"
140
3.0
141
12.0
290
     0
  0
SCALE
  5
52
102
{ACAD_REACTORS
330
42
102
}
330
42
100
AcDbScale
 70
     0
300
6" = 1'-0"
140
6.0
141
12.0
290
     0
  0
SCALE
  5
53
102
{ACAD_REACTORS
330
42
102
}
330
42
100
AcDbScale
 70
     0
300
1'-0" = 1'-0"
140
12.0
141
12.0
290
     0
  0
ACDBSECTIONVIEWSTYLE
  5
69
102
{ACAD_REACTORS
330
68
102
}
330
68
100
AcDbModelDocViewStyle
 70
     0
  3
Imperial24
290
     1
300
Imperial24
 90
        0
100
AcDbSectionViewStyle
 70
     0
 71
     0
 90
       78
 71
     1
340
55
 62
   256
 40
0.24
340
0
340
0
 62
   256
 40
0.24
300
I, O, Q, S, X, Z
 40
0.48
 90
        3
 40
0.18
 90
        1
 71
     2
340
5D
 90
       25
 62
   256
340
5D
 90
       50
 62
   256
 40
0.24
 40
0.0
 40
0.24
 71
     3
340
55
 62
   256
 40
0.24
 90
        1
 40
0.75
 90
        1
300
%<\AcVar ViewType \f "%tc1">% %<\AcVar ViewSectionStartId>%-%<\AcVar ViewSectionEndId>%\PSCALE %<\AcVar ViewScale \f "%sn">%
 71
     4
 62
   256
 62
   257
300
ANSI31
 40
1.0
 90
        0
290
     0
290
     0
 90
        6
 40
0.0
 40
1.570796326794896
 40
0.2617993877991494
 40
1.308996938995747
 40
-0.2617993877991494
 40
1.832595714594046
  0
TABLESTYLE
  5
65
102
{ACAD_XDICTIONARY
360
22E
102
}
102
{ACAD_REACTORS
330
64
102
}
330
64
100
AcDbTableStyle
280
     0
  3
Standard
 70
     0
 71
     0
 40
0.06
 41
0.06
280
     0
281
     0
  7
Standard
140
0.18
170
     2
 62
     0
 63
     7
283
     0
 90
      512
 91
        0
  1

274
    -2
284
     1
 64
     0
275
    -2
285
     1
 65
     0
276
    -2
286
     1
 66
     0
277
    -2
287
     1
 67
     0
278
    -2
288
     1
 68
     0
279
    -2
289
     1
 69
     0
  7
Standard
140
0.25
170
     5
 62
     0
 63
     7
283
     0
 90
      512
 91
        0
  1

274
    -2
284
     1
 64
     0
275
    -2
285
     1
 65
     0
276
    -2
286
     1
 66
     0
277
    -2
287
     1
 67
     0
278
    -2
288
     1
 68
     0
279
    -2
289
     1
 69
     0
  7
Standard
140
0.18
170
     5
 62
     0
 63
     7
283
     0
 90
      512
 91
        0
  1

274
    -2
284
     1
 64
     0
275
    -2
285
     1
 65
     0
276
    -2
286
     1
 66
     0
277
    -2
287
     1
 67
     0
278
    -2
288
     1
 68
     0
279
    -2
289
     1
 69
     0
  0
VISUALSTYLE
  5
2F
102
{ACAD_REACTORS
330
29
102
}
330
29
100
AcDbVisualStyle
  2
2dWireframe
 70
     4
177
     3
291
     0
 70
    58
 90
        0
176
     1
 90
        2
176
     1
 90
        0
176
     1
 90
        0
176
     1
 40
0.6
176
     1
 40
30.0
176
     1
 62
     7
420
 16777215
176
     1
 90
        1
176
     1
 90
        4
176
     1
 62
     7
176
     1
 62
   257
176
     1
 90
        1
176
     1
 90
        1
176
     1
 40
1.0
176
     1
 90
        0
176
     1
 62
   257
176
     1
 40
1.0
176
     1
 90
        1
176
     1
 90
        6
176
     1
 90
        2
176
     1
 62
     7
176
     1
 90
        5
176
     1
 90
        0
176
     1
 90
        0
176
     1
290
     0
176
     1
 90
        1
176
     1
 40
0.0
176
     1
 90
        0
176
     1
290
     1
176
     1
290
     1
176
     1
290
     0
176
     1
290
     0
176
     1
290
     0
176
     1
290
     0
176
     1
290
     0
176
     1
290
     0
176
     1
290
     0
176
     1
 90
       50
176
     1
 40
0.0
176
     1
 40
1.0
176
     1
 90
        0
176
     1
 62
    18
420
        0
176
     1
 90
       50
176
     1
 90
        3
176
     1
 62
     5
420
      255
176
     1
290
     0
176
     1
 90
       50
176
     1
 90
       50
176
     1
 90
       50
176
     1
290
     0
176
     1
 90
       50
176
     1
 62
   256
176
     0
 40
1.0
176
     0
 90
        2
176
     1
  1
strokes_ogs.tif
176
     1
290
     0
176
     1
 40
1.0
176
     1
 40
1.0
176
     1
  0
VISUALSTYLE
  5
2E
102
{ACAD_REACTORS
330
29
102
}
330
29
100
AcDbVisualStyle
  2
Basic
 70
     7
177
     3
291
     1
 70
    58
 90
        1
176
     1
 90
        0
176
     1
 90
        1
176
     1
 90
        0
176
     1
 40
0.6
176
     1
 40
30.0
176
     1
 62
     7
420
 16777215
176
     1
 90
        0
176
     1
 90
        4
176
     1
 62
     7
176
     1
 62
   257
176
     1
 90
        1
176
     1
 90
        1
176
     1
 40
1.0
176
     1
 90
        8
176
     1
 62
     7
176
     1
 40
1.0
176
     1
 90
        1
176
     1
 90
        6
176
     1
 90
        2
176
     1
 62
     7
176
     1
 90
        5
176
     1
 90
        0
176
     1
 90
        0
176
     1
290
     0
176
     1
 90
        1
176
     1
 40
0.0
176
     1
 90
        0
176
     1
290
     0
176
     1
290
     1
176
     1
290
     1
176
     1
290
     0
176
     1
290
     0
176
     1
290
     0
176
     1
290
     0
176
     1
290
     0
176
     1
290
     0
176
     1
 90
       50
176
     1
 40
0.0
176
     1
 40
1.0
176
     1
 90
        0
176
     1
 62
    18
420
        0
176
     1
 90
       50
176
     1
 90
        3
176
     1
 62
     5
420
      255
176
     1
290
     0
176
     1
 90
       50
176
     1
 90
       50
176
     1
 90
       50
176
     1
290
     0
176
     1
 90
       50
176
     1
 62
   256
176
     0
 40
1.0
176
     0
 90
        2
176
     1
  1
strokes_ogs.tif
176
     1
290
     0
176
     1
 40
1.0
176
     1
 40
1.0
176
     1
  0
VISUALSTYLE
  5
35
102
{ACAD_REACTORS
330
29
102
}
330
29
100
AcDbVisualStyle
  2
Brighten
 70
    12
177
     3
291
     1
 70
    58
 90
        2
176
     1
 90
        2
176
     1
 90
        0
176
     1
 90
        0
176
     1
 40
0.6
176
     1
 40
30.0
176
     1
 62
     7
420
 16777215
176
     1
 90
        1
176
     1
 90
        4
176
     1
 62
     7
176
     1
 62
   257
176
     1
 90
        1
176
     1
 90
        1
176
     1
 40
1.0
176
     1
 90
        8
176
     1
 62
     7
176
     1
 40
1.0
176
     1
 90
        1
176
     1
 90
        6
176
     1
 90
        2
176
     1
 62
     7
176
     1
 90
        5
176
     1
 90
        0
176
     1
 90
        0
176
     1
290
     0
176
     1
 90
        1
176
     1
 40
50.0
176
     1
 90
        0
176
     1
290
     0
176
     1
290
     1
176
     1
290
     1
176
     1
290
     0
176
     1
290
     0
176
     1
290
     0
176
     1
290
     0
176
     1
290
     0
176
     1
290
     0
176
     1
 90
       50
176
     1
 40
0.0
176
     1
 40
1.0
176
     1
 90
        0
176
     1
 62
    18
420
        0
176
     1
 90
       50
176
     1
 90
        3
176
     1
 62
     5
420
      255
176
     1
290
     0
176
     1
 90
       50
176
     1
 90
       50
176
     1
 90
       50
176
     1
290
     0
176
     1
 90
       50
176
     1
 62
   256
176
     0
 40
1.0
176
     0
 90
        2
176
     1
  1
strokes_ogs.tif
176
     1
290
     0
176
     1
 40
1.0
176
     1
 40
1.0
176
     1
  0
VISUALSTYLE
  5
39
102
{ACAD_REACTORS
330
29
102
}
330
29
100
AcDbVisualStyle
  2
ColorChange
 70
    16
177
     3
291
     1
 70
    58
 90
        2
176
     1
 90
        2
176
     1
 90
        3
176
     1
 90
        0
176
     1
 40
0.6
176
     1
 40
30.0
176
     1
 62
     8
420
  8421504
176
     1
 90
        1
176
     1
 90
        4
176
     1
 62
     7
176
     1
 62
   257
176
     1
 90
        1
176
     1
 90
        1
176
     1
 40
1.0
176
     1
 90
        8
176
     1
 62
     8
420
  8421504
176
     1
 40
1.0
176
     1
 90
        1
176
     1
 90
        6
176
     1
 90
        2
176
     1
 62
     7
176
     1
 90
        5
176
     1
 90
        0
176
     1
 90
        0
176
     1
290
     0
176
     1
 90
        1
176
     1
 40
0.0
176
     1
 90
        0
176
     1
290
     0
176
     1
290
     1
176
     1
290
     1
176
     1
290
     0
176
     1
290
     0
176
     1
290
     0
176
     1
290
     0
176
     1
290
     0
176
     1
290
     0
176
     1
 90
       50
176
     1
 40
0.0
176
     1
 40
1.0
176
     1
 90
        0
176
     1
 62
    18
420
        0
176
     1
 90
       50
176
     1
 90
        3
176
     1
 62
     5
420
      255
176
     1
290
     0
176
     1
 90
       50
176
     1
 90
       50
176
     1
 90
       50
176
     1
290
     0
176
     1
 90
       50
176
     1
 62
   256
176
     0
 40
1.0
176
     0
 90
        2
176
     1
  1
strokes_ogs.tif
176
     1
290
     0
176
     1
 40
1.0
176
     1
 40
1.0
176
     1
  0
VISUALSTYLE
  5
32
102
{ACAD_REACTORS
330
29
102
}
330
29
100
AcDbVisualStyle
  2
Conceptual
 70
     9
177
     3
291
     0
 70
    58
 90
        3
176
     1
 90
        2
176
     1
 90
        0
176
     1
 90
        0
176
     1
 40
0.6
176
     1
 40
30.0
176
     1
 62
     7
420
 16777215
176
     1
 90
        2
176
     1
 90
        2
176
     1
 62
     7
176
     1
 62
   257
176
     1
 90
        1
176
     1
 90
        1
176
     1
 40
179.0
176
     1
 90
        8
176
     1
 62
     7
176
     1
 40
1.0
176
     1
 90
        1
176
     1
 90
        6
176
     1
 90
        2
176
     1
 62
     7
176
     1
 90
        3
176
     1
 90
        0
176
     1
 90
        0
176
     1
290
     0
176
     1
 90
        1
176
     1
 40
0.0
176
     1
 90
        0
176
     1
290
     0
176
     1
290
     1
176
     1
290
     1
176
     1
290
     0
176
     1
290
     0
176
     1
290
     0
176
     1
290
     0
176
     1
290
     0
176
     1
290
     0
176
     1
 90
       50
176
     1
 40
0.0
176
     1
 40
1.0
176
     1
 90
        0
176
     1
 62
    18
420
        0
176
     1
 90
       50
176
     1
 90
        3
176
     1
 62
     5
420
      255
176
     1
290
     0
176
     1
 90
       50
176
     1
 90
       50
176
     1
 90
       50
176
     1
290
     0
176
     1
 90
       50
176
     1
 62
   256
176
     0
 40
1.0
176
     0
 90
        2
176
     1
  1
strokes_ogs.tif
176
     1
290
     0
176
     1
 40
1.0
176
     1
 40
1.0
176
     1
  0
VISUALSTYLE
  5
34
102
{ACAD_REACTORS
330
29
102
}
330
29
100
AcDbVisualStyle
  2
Dim
 70
    11
177
     3
291
     1
 70
    58
 90
        2
176
     1
 90
        2
176
     1
 90
        0
176
     1
 90
        0
176
     1
 40
0.6
176
     1
 40
30.0
176
     1
 62
     7
420
 16777215
176
     1
 90
        1
176
     1
 90
        4
176
     1
 62
     7
176
     1
 62
   257
176
     1
 90
        1
176
     1
 90
        1
176
     1
 40
1.0
176
     1
 90
        8
176
     1
 62
     7
176
     1
 40
1.0
176
     1
 90
        1
176
     1
 90
        6
176
     1
 90
        2
176
     1
 62
     7
176
     1
 90
        5
176
     1
 90
        0
176
     1
 90
        0
176
     1
290
     0
176
     1
 90
        1
176
     1
 40
-50.0
176
     1
 90
        0
176
     1
290
     0
176
     1
290
     1
176
     1
290
     1
176
     1
290
     0
176
     1
290
     0
176
     1
290
     0
176
     1
290
     0
176
     1
290
     0
176
     1
290
     0
176
     1
 90
       50
176
     1
 40
0.0
176
     1
 40
1.0
176
     1
 90
        0
176
     1
 62
    18
420
        0
176
     1
 90
       50
176
     1
 90
        3
176
     1
 62
     5
420
      255
176
     1
290
     0
176
     1
 90
       50
176
     1
 90
       50
176
     1
 90
       50
176
     1
290
     0
176
     1
 90
       50
176
     1
 62
   256
176
     0
 40
1.0
176
     0
 90
        2
176
     1
  1
strokes_ogs.tif
176
     1
290
     0
176
     1
 40
1.0
176
     1
 40
1.0
176
     1
  0
VISUALSTYLE
  5
41
102
{ACAD_REACTORS
330
29
102
}
330
29
100
AcDbVisualStyle
  2
EdgeColorOff
 70
    22
177
     3
291
     1
 70
    58
 90
        2
176
     0
 90
        2
176
     0
 90
        0
176
     0
 90
        0
176
     0
 40
0.6
176
     0
 40
30.0
176
     0
 62
     7
420
 16777215
176
     0
 90
        1
176
     0
 90
        4
176
     0
 62
     7
176
     0
 62
   257
176
     0
 90
        1
176
     0
 90
        1
176
     0
 40
1.0
176
     0
 90
        8
176
     2
 62
     7
176
     0
 40
1.0
176
     0
 90
        1
176
     0
 90
        6
176
     0
 90
        2
176
     0
 62
     7
176
     0
 90
        5
176
     0
 90
        0
176
     0
 90
        0
176
     0
290
     0
176
     0
 90
        1
176
     0
 40
0.0
176
     0
 90
        0
176
     0
290
     0
176
     0
290
     1
176
     0
290
     1
176
     0
290
     0
176
     0
290
     0
176
     0
290
     0
176
     0
290
     0
176
     0
290
     0
176
     0
290
     0
176
     0
 90
       50
176
     0
 40
0.0
176
     0
 40
1.0
176
     0
 90
        0
176
     0
 62
    18
420
        0
176
     0
 90
       50
176
     0
 90
        3
176
     0
 62
     5
420
      255
176
     0
290
     0
176
     0
 90
       50
176
     0
 90
       50
176
     0
 90
       50
176
     0
290
     0
176
     0
 90
       50
176
     0
 62
   256
176
     0
 40
1.0
176
     0
 90
        2
176
     0
  1
strokes_ogs.tif
176
     0
290
     0
176
     0
 40
1.0
176
     0
 40
1.0
176
     0
  0
VISUALSTYLE
  5
38
102
{ACAD_REACTORS
330
29
102
}
330
29
100
AcDbVisualStyle
  2
Facepattern
 70
    15
177
     3
291
     1
 70
    58
 90
        2
176
     1
 90
        2
176
     1
 90
        0
176
     1
 90
        0
176
     1
 40
0.6
176
     1
 40
30.0
176
     1
 62
     7
420
 16777215
176
     1
 90
        1
176
     1
 90
        4
176
     1
 62
     7
176
     1
 62
   257
176
     1
 90
        1
176
     1
 90
        1
176
     1
 40
1.0
176
     1
 90
        8
176
     1
 62
     7
176
     1
 40
1.0
176
     1
 90
        1
176
     1
 90
        6
176
     1
 90
        2
176
     1
 62
     7
176
     1
 90
        5
176
     1
 90
        0
176
     1
 90
        0
176
     1
290
     0
176
     1
 90
        1
176
     1
 40
0.0
176
     1
 90
        0
176
     1
290
     0
176
     1
290
     1
176
     1
290
     1
176
     1
290
     0
176
     1
290
     0
176
     1
290
     0
176
     1
290
     0
176
     1
290
     0
176
     1
290
     0
176
     1
 90
       50
176
     1
 40
0.0
176
     1
 40
1.0
176
     1
 90
        0
176
     1
 62
    18
420
        0
176
     1
 90
       50
176
     1
 90
        3
176
     1
 62
     5
420
      255
176
     1
290
     0
176
     1
 90
       50
176
     1
 90
       50
176
     1
 90
       50
176
     1
290
     0
176
     1
 90
       50
176
     1
 62
   256
176
     0
 40
1.0
176
     0
 90
        2
176
     1
  1
strokes_ogs.tif
176
     1
290
     0
176
     1
 40
1.0
176
     1
 40
1.0
176
     1
  0
VISUALSTYLE
  5
2A
102
{ACAD_REACTORS
330
29
102
}
330
29
100
AcDbVisualStyle
  2
Flat
 70
     0
177
     3
291
     1
 70
    58
 90
        2
176
     1
 90
        1
176
     1
 90
        1
176
     1
 90
        2
176
     1
 40
0.6
176
     1
 40
30.0
176
     1
 62
     7
420
 16777215
176
     1
 90
        0
176
     1
 90
        0
176
     1
 62
     7
176
     1
 62
   257
176
     1
 90
        1
176
     1
 90
        1
176
     1
 40
1.0
176
     1
 90
        8
176
     1
 62
     7
176
     1
 40
1.0
176
     1
 90
        1
176
     1
 90
        6
176
     1
 90
        2
176
     1
 62
     7
176
     1
 90
        5
176
     1
 90
        0
176
     1
 90
        0
176
     1
290
     0
176
     1
 90
       13
176
     1
 40
0.0
176
     1
 90
        0
176
     1
290
     0
176
     1
290
     1
176
     1
290
     1
176
     1
290
     0
176
     1
290
     0
176
     1
290
     0
176
     1
290
     0
176
     1
290
     0
176
     1
290
     0
176
     1
 90
       50
176
     1
 40
0.0
176
     1
 40
1.0
176
     1
 90
        0
176
     1
 62
    18
420
        0
176
     1
 90
       50
176
     1
 90
        3
176
     1
 62
     5
420
      255
176
     1
290
     0
176
     1
 90
       50
176
     1
 90
       50
176
     1
 90
       50
176
     1
290
     0
176
     1
 90
       50
176
     1
 62
   256
176
     0
 40
1.0
176
     0
 90
        2
176
     1
  1
strokes_ogs.tif
176
     1
290
     0
176
     1
 40
1.0
176
     1
 40
1.0
176
     1
  0
VISUALSTYLE
  5
2B
102
{ACAD_REACTORS
330
29
102
}
330
29
100
AcDbVisualStyle
  2
FlatWithEdges
 70
     1
177
     3
291
     1
 70
    58
 90
        2
176
     1
 90
        1
176
     1
 90
        1
176
     1
 90
        2
176
     1
 40
0.6
176
     1
 40
30.0
176
     1
 62
     7
420
 16777215
176
     1
 90
        1
176
     1
 90
        0
176
     1
 62
     7
176
     1
 62
   257
176
     1
 90
        1
176
     1
 90
        1
176
     1
 40
1.0
176
     1
 90
        0
176
     1
 62
   257
176
     1
 40
1.0
176
     1
 90
        1
176
     1
 90
        6
176
     1
 90
        2
176
     1
 62
     7
176
     1
 90
        5
176
     1
 90
        0
176
     1
 90
        0
176
     1
290
     0
176
     1
 90
       13
176
     1
 40
0.0
176
     1
 90
        0
176
     1
290
     0
176
     1
290
     1
176
     1
290
     1
176
     1
290
     0
176
     1
290
     0
176
     1
290
     0
176
     1
290
     0
176
     1
290
     0
176
     1
290
     0
176
     1
 90
       50
176
     1
 40
0.0
176
     1
 40
1.0
176
     1
 90
        0
176
     1
 62
    18
420
        0
176
     1
 90
       50
176
     1
 90
        3
176
     1
 62
     5
420
      255
176
     1
290
     0
176
     1
 90
       50
176
     1
 90
       50
176
     1
 90
       50
176
     1
290
     0
176
     1
 90
       50
176
     1
 62
   256
176
     0
 40
1.0
176
     0
 90
        2
176
     1
  1
strokes_ogs.tif
176
     1
290
     0
176
     1
 40
1.0
176
     1
 40
1.0
176
     1
  0
VISUALSTYLE
  5
2C
102
{ACAD_REACTORS
330
29
102
}
330
29
100
AcDbVisualStyle
  2
Gouraud
 70
     2
177
     3
291
     1
 70
    58
 90
        2
176
     1
 90
        2
176
     1
 90
        1
176
     1
 90
        2
176
     1
 40
0.6
176
     1
 40
30.0
176
     1
 62
     7
420
 16777215
176
     1
 90
        0
176
     1
 90
        0
176
     1
 62
     7
176
     1
 62
   257
176
     1
 90
        1
176
     1
 90
        1
176
     1
 40
1.0
176
     1
 90
        0
176
     1
 62
     7
176
     1
 40
1.0
176
     1
 90
        1
176
     1
 90
        6
176
     1
 90
        2
176
     1
 62
     7
176
     1
 90
        5
176
     1
 90
        0
176
     1
 90
        0
176
     1
290
     0
176
     1
 90
       13
176
     1
 40
0.0
176
     1
 90
        0
176
     1
290
     0
176
     1
290
     1
176
     1
290
     1
176
     1
290
     0
176
     1
290
     0
176
     1
290
     0
176
     1
290
     0
176
     1
290
     0
176
     1
290
     0
176
     1
 90
       50
176
     1
 40
0.0
176
     1
 40
1.0
176
     1
 90
        0
176
     1
 62
    18
420
        0
176
     1
 90
       50
176
     1
 90
        3
176
     1
 62
     5
420
      255
176
     1
290
     0
176
     1
 90
       50
176
     1
 90
       50
176
     1
 90
       50
176
     1
290
     0
176
     1
 90
       50
176
     1
 62
   256
176
     0
 40
1.0
176
     0
 90
        2
176
     1
  1
strokes_ogs.tif
176
     1
290
     0
176
     1
 40
1.0
176
     1
 40
1.0
176
     1
  0
VISUALSTYLE
  5
2D
102
{ACAD_REACTORS
330
29
102
}
330
29
100
AcDbVisualStyle
  2
GouraudWithEdges
 70
     3
177
     3
291
     1
 70
    58
 90
        2
176
     1
 90
        2
176
     1
 90
        1
176
     1
 90
        2
176
     1
 40
0.6
176
     1
 40
30.0
176
     1
 62
     7
420
 16777215
176
     1
 90
        1
176
     1
 90
        0
176
     1
 62
     7
176
     1
 62
   257
176
     1
 90
        1
176
     1
 90
        1
176
     1
 40
1.0
176
     1
 90
        0
176
     1
 62
   257
176
     1
 40
1.0
176
     1
 90
        1
176
     1
 90
        6
176
     1
 90
        2
176
     1
 62
     7
176
     1
 90
        5
176
     1
 90
        0
176
     1
 90
        0
176
     1
290
     0
176
     1
 90
       13
176
     1
 40
0.0
176
     1
 90
        0
176
     1
290
     0
176
     1
290
     1
176
     1
290
     1
176
     1
290
     0
176
     1
290
     0
176
     1
290
     0
176
     1
290
     0
176
     1
290
     0
176
     1
290
     0
176
     1
 90
       50
176
     1
 40
0.0
176
     1
 40
1.0
176
     1
 90
        0
176
     1
 62
    18
420
        0
176
     1
 90
       50
176
     1
 90
        3
176
     1
 62
     5
420
      255
176
     1
290
     0
176
     1
 90
       50
176
     1
 90
       50
176
     1
 90
       50
176
     1
290
     0
176
     1
 90
       50
176
     1
 62
   256
176
     0
 40
1.0
176
     0
 90
        2
176
     1
  1
strokes_ogs.tif
176
     1
290
     0
176
     1
 40
1.0
176
     1
 40
1.0
176
     1
  0
VISUALSTYLE
  5
31
102
{ACAD_REACTORS
330
29
102
}
330
29
100
AcDbVisualStyle
  2
Hidden
 70
     6
177
     3
291
     0
 70
    58
 90
        1
176
     1
 90
        2
176
     1
 90
        2
176
     1
 90
        0
176
     1
 40
0.6
176
     1
 40
30.0
176
     1
 62
     7
420
 16777215
176
     1
 90
        2
176
     1
 90
        2
176
     1
 62
     7
176
     1
 62
   257
176
     1
 90
        2
176
     1
 90
        1
176
     1
 40
40.0
176
     1
 90
        0
176
     1
 62
   257
176
     1
 40
1.0
176
     1
 90
        1
176
     1
 90
        6
176
     1
 90
        2
176
     1
 62
     7
176
     1
 90
        3
176
     1
 90
        0
176
     1
 90
        0
176
     1
290
     0
176
     1
 90
        1
176
     1
 40
0.0
176
     1
 90
        0
176
     1
290
     0
176
     1
290
     1
176
     1
290
     1
176
     1
290
     0
176
     1
290
     0
176
     1
290
     0
176
     1
290
     0
176
     1
290
     0
176
     1
290
     0
176
     1
 90
       50
176
     1
 40
0.0
176
     1
 40
1.0
176
     1
 90
        0
176
     1
 62
    18
420
        0
176
     1
 90
       50
176
     1
 90
        3
176
     1
 62
     5
420
      255
176
     1
290
     0
176
     1
 90
       50
176
     1
 90
       50
176
     1
 90
       50
176
     1
290
     0
176
     1
 90
       50
176
     1
 62
   256
176
     0
 40
1.0
176
     0
 90
        2
176
     1
  1
strokes_ogs.tif
176
     1
290
     0
176
     1
 40
1.0
176
     1
 40
1.0
176
     1
  0
VISUALSTYLE
  5
3F
102
{ACAD_REACTORS
330
29
102
}
330
29
100
AcDbVisualStyle
  2
JitterOff
 70
    20
177
     3
291
     1
 70
    58
 90
        2
176
     0
 90
        2
176
     0
 90
        0
176
     0
 90
        0
176
     0
 40
0.6
176
     0
 40
30.0
176
     0
 62
     7
420
 16777215
176
     0
 90
        1
176
     0
 90
        4
176
     0
 62
     7
176
     0
 62
   257
176
     0
 90
        1
176
     0
 90
        1
176
     0
 40
1.0
176
     0
 90
       10
176
     2
 62
     7
176
     0
 40
1.0
176
     0
 90
        1
176
     0
 90
        6
176
     0
 90
        2
176
     0
 62
     7
176
     0
 90
        5
176
     0
 90
        0
176
     0
 90
        0
176
     0
290
     0
176
     0
 90
        1
176
     0
 40
0.0
176
     0
 90
        0
176
     0
290
     0
176
     0
290
     1
176
     0
290
     1
176
     0
290
     0
176
     0
290
     0
176
     0
290
     0
176
     0
290
     0
176
     0
290
     0
176
     0
290
     0
176
     0
 90
       50
176
     0
 40
0.0
176
     0
 40
1.0
176
     0
 90
        0
176
     0
 62
    18
420
        0
176
     0
 90
       50
176
     0
 90
        3
176
     0
 62
     5
420
      255
176
     0
290
     0
176
     0
 90
       50
176
     0
 90
       50
176
     0
 90
       50
176
     0
290
     0
176
     0
 90
       50
176
     0
 62
   256
176
     0
 40
1.0
176
     0
 90
        2
176
     0
  1
strokes_ogs.tif
176
     0
290
     0
176
     0
 40
1.0
176
     0
 40
1.0
176
     0
  0
VISUALSTYLE
  5
37
102
{ACAD_REACTORS
330
29
102
}
330
29
100
AcDbVisualStyle
  2
Linepattern
 70
    14
177
     3
291
     1
 70
    58
 90
        2
176
     1
 90
        2
176
     1
 90
        0
176
     1
 90
        0
176
     1
 40
0.6
176
     1
 40
30.0
176
     1
 62
     7
420
 16777215
176
     1
 90
        1
176
     1
 90
        4
176
     1
 62
     7
176
     1
 62
   257
176
     1
 90
        7
176
     1
 90
        7
176
     1
 40
1.0
176
     1
 90
        8
176
     1
 62
     7
176
     1
 40
1.0
176
     1
 90
        1
176
     1
 90
        6
176
     1
 90
        2
176
     1
 62
     7
176
     1
 90
        5
176
     1
 90
        0
176
     1
 90
        0
176
     1
290
     0
176
     1
 90
        1
176
     1
 40
0.0
176
     1
 90
        0
176
     1
290
     0
176
     1
290
     1
176
     1
290
     1
176
     1
290
     0
176
     1
290
     0
176
     1
290
     0
176
     1
290
     0
176
     1
290
     0
176
     1
290
     0
176
     1
 90
       50
176
     1
 40
0.0
176
     1
 40
1.0
176
     1
 90
        0
176
     1
 62
    18
420
        0
176
     1
 90
       50
176
     1
 90
        3
176
     1
 62
     5
420
      255
176
     1
290
     0
176
     1
 90
       50
176
     1
 90
       50
176
     1
 90
       50
176
     1
290
     0
176
     1
 90
       50
176
     1
 62
   256
176
     0
 40
1.0
176
     0
 90
        2
176
     1
  1
strokes_ogs.tif
176
     1
290
     0
176
     1
 40
1.0
176
     1
 40
1.0
176
     1
  0
VISUALSTYLE
  5
40
102
{ACAD_REACTORS
330
29
102
}
330
29
100
AcDbVisualStyle
  2
OverhangOff
 70
    21
177
     3
291
     1
 70
    58
 90
        2
176
     0
 90
        2
176
     0
 90
        0
176
     0
 90
        0
176
     0
 40
0.6
176
     0
 40
30.0
176
     0
 62
     7
420
 16777215
176
     0
 90
        1
176
     0
 90
        4
176
     0
 62
     7
176
     0
 62
   257
176
     0
 90
        1
176
     0
 90
        1
176
     0
 40
1.0
176
     0
 90
        9
176
     2
 62
     7
176
     0
 40
1.0
176
     0
 90
        1
176
     0
 90
        6
176
     0
 90
        2
176
     0
 62
     7
176
     0
 90
        5
176
     0
 90
        0
176
     0
 90
        0
176
     0
290
     0
176
     0
 90
        1
176
     0
 40
0.0
176
     0
 90
        0
176
     0
290
     0
176
     0
290
     1
176
     0
290
     1
176
     0
290
     0
176
     0
290
     0
176
     0
290
     0
176
     0
290
     0
176
     0
290
     0
176
     0
290
     0
176
     0
 90
       50
176
     0
 40
0.0
176
     0
 40
1.0
176
     0
 90
        0
176
     0
 62
    18
420
        0
176
     0
 90
       50
176
     0
 90
        3
176
     0
 62
     5
420
      255
176
     0
290
     0
176
     0
 90
       50
176
     0
 90
       50
176
     0
 90
       50
176
     0
290
     0
176
     0
 90
       50
176
     0
 62
   256
176
     0
 40
1.0
176
     0
 90
        2
176
     0
  1
strokes_ogs.tif
176
     0
290
     0
176
     0
 40
1.0
176
     0
 40
1.0
176
     0
  0
VISUALSTYLE
  5
33
102
{ACAD_REACTORS
330
29
102
}
330
29
100
AcDbVisualStyle
  2
Realistic
 70
     8
177
     3
291
     0
 70
    58
 90
        2
176
     1
 90
        3
176
     1
 90
        0
176
     1
 90
        2
176
     1
 40
0.6
176
     1
 40
30.0
176
     1
 62
     7
420
 16777215
176
     1
 90
        0
176
     1
 90
        0
176
     1
 62
     7
176
     1
 62
   257
176
     1
 90
        1
176
     1
 90
        1
176
     1
 40
1.0
176
     1
 90
        8
176
     1
 62
   257
176
     1
 40
1.0
176
     1
 90
        1
176
     1
 90
        6
176
     1
 90
        2
176
     1
 62
     7
176
     1
 90
        3
176
     1
 90
        0
176
     1
 90
        0
176
     1
290
     0
176
     1
 90
       13
176
     1
 40
0.0
176
     1
 90
        0
176
     1
290
     0
176
     1
290
     1
176
     1
290
     1
176
     1
290
     0
176
     1
290
     0
176
     1
290
     0
176
     1
290
     0
176
     1
290
     0
176
     1
290
     0
176
     1
 90
       50
176
     1
 40
0.0
176
     1
 40
1.0
176
     1
 90
        0
176
     1
 62
    18
420
        0
176
     1
 90
       50
176
     1
 90
        3
176
     1
 62
     5
420
      255
176
     1
290
     0
176
     1
 90
       50
176
     1
 90
       50
176
     1
 90
       50
176
     1
290
     0
176
     1
 90
       50
176
     1
 62
   256
176
     0
 40
1.0
176
     0
 90
        2
176
     1
  1
strokes_ogs.tif
176
     1
290
     0
176
     1
 40
1.0
176
     1
 40
1.0
176
     1
  0
VISUALSTYLE
  5
3E
102
{ACAD_REACTORS
330
29
102
}
330
29
100
AcDbVisualStyle
  2
Shaded
 70
    27
177
     3
291
     0
 70
    58
 90
        2
176
     1
 90
        2
176
     1
 90
        1
176
     1
 90
        2
176
     1
 40
0.6
176
     1
 40
30.0
176
     1
 62
     7
420
 16777215
176
     1
 90
        0
176
     1
 90
        4
176
     1
 62
     7
176
     1
 62
   257
176
     1
 90
        1
176
     1
 90
        1
176
     1
 40
1.0
176
     1
 90
        8
176
     1
 62
   257
176
     1
 40
1.0
176
     1
 90
        1
176
     1
 90
        6
176
     1
 90
        2
176
     1
 62
     8
420
  7895160
176
     1
 90
        3
176
     1
 90
        0
176
     1
 90
        0
176
     1
290
     0
176
     1
 90
        5
176
     1
 40
0.0
176
     1
 90
        0
176
     1
290
     0
176
     1
290
     1
176
     1
290
     1
176
     1
290
     0
176
     1
290
     0
176
     1
290
     0
176
     1
290
     0
176
     1
290
     0
176
     1
290
     0
176
     1
 90
       50
176
     1
 40
0.0
176
     1
 40
1.0
176
     1
 90
        0
176
     1
 62
    18
420
        0
176
     1
 90
       50
176
     1
 90
        3
176
     1
 62
     5
420
      255
176
     1
290
     0
176
     1
 90
       50
176
     1
 90
       50
176
     1
 90
       50
176
     1
290
     0
176
     1
 90
       50
176
     1
 62
   256
176
     0
 40
1.0
176
     0
 90
        2
176
     1
  1
strokes_ogs.tif
176
     1
290
     0
176
     1
 40
1.0
176
     1
 40
1.0
176
     1
  0
VISUALSTYLE
  5
3D
102
{ACAD_REACTORS
330
29
102
}
330
29
100
AcDbVisualStyle
  2
Shaded with edges
 70
    26
177
     3
291
     0
 70
    58
 90
        2
176
     1
 90
        2
176
     1
 90
        1
176
     1
 90
        2
176
     1
 40
0.6
176
     1
 40
30.0
176
     1
 62
     7
420
 16777215
176
     1
 90
        1
176
     1
 90
        2
176
     1
 62
     7
176
     1
 62
   257
176
     1
 90
        2
176
     1
 90
        1
176
     1
 40
1.0
176
     1
 90
        8
176
     1
 62
   257
176
     1
 40
1.0
176
     1
 90
        1
176
     1
 90
        6
176
     1
 90
        2
176
     1
 62
     7
176
     1
 90
        3
176
     1
 90
        0
176
     1
 90
        0
176
     1
290
     0
176
     1
 90
        5
176
     1
 40
0.0
176
     1
 90
        0
176
     1
290
     0
176
     1
290
     1
176
     1
290
     1
176
     1
290
     0
176
     1
290
     0
176
     1
290
     0
176
     1
290
     0
176
     1
290
     0
176
     1
290
     0
176
     1
 90
       50
176
     1
 40
0.0
176
     1
 40
1.0
176
     1
 90
        0
176
     1
 62
    18
420
        0
176
     1
 90
       50
176
     1
 90
        3
176
     1
 62
     5
420
      255
176
     1
290
     0
176
     1
 90
       50
176
     1
 90
       50
176
     1
 90
       50
176
     1
290
     0
176
     1
 90
       50
176
     1
 62
   256
176
     0
 40
1.0
176
     0
 90
        2
176
     1
  1
strokes_ogs.tif
176
     1
290
     0
176
     1
 40
1.0
176
     1
 40
1.0
176
     1
  0
VISUALSTYLE
  5
3A
102
{ACAD_REACTORS
330
29
102
}
330
29
100
AcDbVisualStyle
  2
Shades of Gray
 70
    23
177
     3
291
     0
 70
    58
 90
        2
176
     1
 90
        2
176
     1
 90
        3
176
     1
 90
        0
176
     1
 40
0.6
176
     1
 40
30.0
176
     1
 62
     7
420
 16777215
176
     1
 90
        2
176
     1
 90
        2
176
     1
 62
     7
176
     1
 62
     7
176
     1
 90
        1
176
     1
 90
        1
176
     1
 40
40.0
176
     1
 90
        8
176
     1
 62
     7
176
     1
 40
1.0
176
     1
 90
        1
176
     1
 90
        6
176
     1
 90
        2
176
     1
 62
     7
176
     1
 90
        3
176
     1
 90
        0
176
     1
 90
        0
176
     1
290
     0
176
     1
 90
        1
176
     1
 40
0.0
176
     1
 90
        0
176
     1
290
     0
176
     1
290
     1
176
     1
290
     1
176
     1
290
     0
176
     1
290
     0
176
     1
290
     0
176
     1
290
     0
176
     1
290
     0
176
     1
290
     0
176
     1
 90
       50
176
     1
 40
0.0
176
     1
 40
1.0
176
     1
 90
        0
176
     1
 62
    18
420
        0
176
     1
 90
       50
176
     1
 90
        3
176
     1
 62
     5
420
      255
176
     1
290
     0
176
     1
 90
       50
176
     1
 90
       50
176
     1
 90
       50
176
     1
290
     0
176
     1
 90
       50
176
     1
 62
   256
176
     0
 40
1.0
176
     0
 90
        2
176
     1
  1
strokes_ogs.tif
176
     1
290
     0
176
     1
 40
1.0
176
     1
 40
1.0
176
     1
  0
VISUALSTYLE
  5
3B
102
{ACAD_REACTORS
330
29
102
}
330
29
100
AcDbVisualStyle
  2
Sketchy
 70
    24
177
     3
291
     0
 70
    58
 90
        1
176
     1
 90
        2
176
     1
 90
        2
176
     1
 90
        0
176
     1
 40
0.6
176
     1
 40
30.0
176
     1
 62
     7
420
 16777215
176
     1
 90
        2
176
     1
 90
        2
176
     1
 62
     7
176
     1
 62
     7
176
     1
 90
        1
176
     1
 90
        1
176
     1
 40
40.0
176
     1
 90
       11
176
     1
 62
     7
176
     1
 40
1.0
176
     1
 90
        1
176
     1
 90
        6
176
     1
 90
        2
176
     1
 62
     7
176
     1
 90
        6
176
     1
 90
        0
176
     1
 90
        0
176
     1
290
     0
176
     1
 90
        1
176
     1
 40
0.0
176
     1
 90
        0
176
     1
290
     0
176
     1
290
     1
176
     1
290
     1
176
     1
290
     0
176
     1
290
     0
176
     1
290
     0
176
     1
290
     0
176
     1
290
     0
176
     1
290
     0
176
     1
 90
       50
176
     1
 40
0.0
176
     1
 40
1.0
176
     1
 90
        0
176
     1
 62
    18
420
        0
176
     1
 90
       50
176
     1
 90
        3
176
     1
 62
     5
420
      255
176
     1
290
     0
176
     1
 90
       50
176
     1
 90
       50
176
     1
 90
       50
176
     1
290
     0
176
     1
 90
       50
176
     1
 62
   256
176
     0
 40
1.0
176
     0
 90
        2
176
     1
  1
strokes_ogs.tif
176
     1
290
     0
176
     1
 40
1.0
176
     1
 40
1.0
176
     1
  0
VISUALSTYLE
  5
36
102
{ACAD_REACTORS
330
29
102
}
330
29
100
AcDbVisualStyle
  2
Thicken
 70
    13
177
     3
291
     1
 70
    58
 90
        2
176
     1
 90
        2
176
     1
 90
        0
176
     1
 90
        0
176
     1
 40
0.6
176
     1
 40
30.0
176
     1
 62
     7
420
 16777215
176
     1
 90
        1
176
     1
 90
        4
176
     1
 62
     7
176
     1
 62
   257
176
     1
 90
        1
176
     1
 90
        1
176
     1
 40
1.0
176
     1
 90
       12
176
     1
 62
     7
176
     1
 40
1.0
176
     1
 90
        1
176
     1
 90
        6
176
     1
 90
        2
176
     1
 62
     7
176
     1
 90
        5
176
     1
 90
        0
176
     1
 90
        0
176
     1
290
     0
176
     1
 90
        1
176
     1
 40
0.0
176
     1
 90
        0
176
     1
290
     0
176
     1
290
     1
176
     1
290
     1
176
     1
290
     0
176
     1
290
     0
176
     1
290
     0
176
     1
290
     0
176
     1
290
     0
176
     1
290
     0
176
     1
 90
       50
176
     1
 40
0.0
176
     1
 40
1.0
176
     1
 90
        0
176
     1
 62
    18
420
        0
176
     1
 90
       50
176
     1
 90
        3
176
     1
 62
     5
420
      255
176
     1
290
     0
176
     1
 90
       50
176
     1
 90
       50
176
     1
 90
       50
176
     1
290
     0
176
     1
 90
       50
176
     1
 62
   256
176
     0
 40
1.0
176
     0
 90
        2
176
     1
  1
strokes_ogs.tif
176
     1
290
     0
176
     1
 40
1.0
176
     1
 40
1.0
176
     1
  0
VISUALSTYLE
  5
30
102
{ACAD_REACTORS
330
29
102
}
330
29
100
AcDbVisualStyle
  2
Wireframe
 70
     5
177
     3
291
     0
 70
    58
 90
        0
176
     1
 90
        2
176
     1
 90
        0
176
     1
 90
        0
176
     1
 40
0.6
176
     1
 40
30.0
176
     1
 62
     7
420
 16777215
176
     1
 90
        1
176
     1
 90
        4
176
     1
 62
     7
176
     1
 62
   257
176
     1
 90
        1
176
     1
 90
        1
176
     1
 40
1.0
176
     1
 90
        0
176
     1
 62
   257
176
     1
 40
1.0
176
     1
 90
        1
176
     1
 90
        6
176
     1
 90
        2
176
     1
 62
     7
176
     1
 90
        3
176
     1
 90
        0
176
     1
 90
        0
176
     1
290
     0
176
     1
 90
        1
176
     1
 40
0.0
176
     1
 90
        0
176
     1
290
     0
176
     1
290
     1
176
     1
290
     1
176
     1
290
     0
176
     1
290
     0
176
     1
290
     0
176
     1
290
     0
176
     1
290
     0
176
     1
290
     0
176
     1
 90
       50
176
     1
 40
0.0
176
     1
 40
1.0
176
     1
 90
        0
176
     1
 62
    18
420
        0
176
     1
 90
       50
176
     1
 90
        3
176
     1
 62
     5
420
      255
176
     1
290
     0
176
     1
 90
       50
176
     1
 90
       50
176
     1
 90
       50
176
     1
290
     0
176
     1
 90
       50
176
     1
 62
   256
176
     0
 40
1.0
176
     0
 90
        2
176
     1
  1
strokes_ogs.tif
176
     1
290
     0
176
     1
 40
1.0
176
     1
 40
1.0
176
     1
  0
VISUALSTYLE
  5
3C
102
{ACAD_REACTORS
330
29
102
}
330
29
100
AcDbVisualStyle
  2
X-Ray
 70
    25
177
     3
291
     0
 70
    58
 90
        2
176
     1
 90
        2
176
     1
 90
        1
176
     1
 90
        1
176
     1
 40
0.5
176
     1
 40
30.0
176
     1
 62
     7
420
 16777215
176
     1
 90
        1
176
     1
 90
        0
176
     1
 62
     7
176
     1
 62
   257
176
     1
 90
        1
176
     1
 90
        1
176
     1
 40
1.0
176
     1
 90
        8
176
     1
 62
     7
176
     1
 40
1.0
176
     1
 90
        1
176
     1
 90
        6
176
     1
 90
        2
176
     1
 62
     7
176
     1
 90
        3
176
     1
 90
        0
176
     1
 90
        0
176
     1
290
     0
176
     1
 90
       13
176
     1
 40
0.0
176
     1
 90
        0
176
     1
290
     0
176
     1
290
     1
176
     1
290
     1
176
     1
290
     0
176
     1
290
     0
176
     1
290
     0
176
     1
290
     0
176
     1
290
     0
176
     1
290
     0
176
     1
 90
       50
176
     1
 40
0.0
176
     1
 40
1.0
176
     1
 90
        0
176
     1
 62
    18
420
        0
176
     1
 90
       50
176
     1
 90
        3
176
     1
 62
     5
420
      255
176
     1
290
     0
176
     1
 90
       50
176
     1
 90
       50
176
     1
 90
       50
176
     1
290
     0
176
     1
 90
       50
176
     1
 62
   256
176
     0
 40
1.0
176
     0
 90
        2
176
     1
  1
strokes_ogs.tif
176
     1
290
     0
176
     1
 40
1.0
176
     1
 40
1.0
176
     1
  0
DICTIONARYVAR
  5
22D
102
{ACAD_REACTORS
330
228
102
}
330
228
100
DictionaryVariables
280
     0
  1
1:1
  0
DICTIONARYVAR
  5
22A
102
{ACAD_REACTORS
330
228
102
}
330
228
100
DictionaryVariables
280
     0
  1
STANDARD
  0
DICTIONARYVAR
  5
229
102
{ACAD_REACTORS
330
228
102
}
330
228
100
DictionaryVariables
280
     0
  1
STANDARD
  0
DICTIONARYVAR
  5
22B
102
{ACAD_REACTORS
330
228
102
}
330
228
100
DictionaryVariables
280
     0
  1
Imperial24
  0
DICTIONARYVAR
  5
22C
102
{ACAD_REACTORS
330
228
102
}
330
228
100
DictionaryVariables
280
     0
  1
Imperial24
  0
DICTIONARY
  5
1A
330
19
100
AcDbDictionary
280
     1
281
     1
  3
BUMPTILE
360
1C
  3
DIFFUSETILE
360
1B
  3
OPACITYTILE
360
1F
  3
REFLECTIONTILE
360
1E
  3
REFRACTIONTILE
360
20
  3
SPECULARTILE
360
1D
  0
DICTIONARY
  5
12
330
11
100
AcDbDictionary
280
     1
281
     1
  3
BUMPTILE
360
14
  3
DIFFUSETILE
360
13
  3
OPACITYTILE
360
17
  3
REFLECTIONTILE
360
16
  3
REFRACTIONTILE
360
18
  3
SPECULARTILE
360
15
  0
DICTIONARY
  5
22
330
21
100
AcDbDictionary
280
     1
281
     1
  3
BUMPTILE
360
24
  3
DIFFUSETILE
360
23
  3
OPACITYTILE
360
27
  3
REFLECTIONTILE
360
26
  3
REFRACTIONTILE
360
28
  3
SPECULARTILE
360
25
  0
DICTIONARY
  5
22E
330
65
100
AcDbDictionary
280
     1
281
     1
  3
ACAD_ROUNDTRIP_2008_TABLESTYLE_CELLSTYLEMAP
360
22F
  0
XRECORD
  5
1C
102
{ACAD_REACTORS
330
1A
102
}
330
1A
100
AcDbXrecord
280
     1
270
     1
271
     1
  0
XRECORD
  5
1B
102
{ACAD_REACTORS
330
1A
102
}
330
1A
100
AcDbXrecord
280
     1
270
     1
271
     1
  0
XRECORD
  5
1F
102
{ACAD_REACTORS
330
1A
102
}
330
1A
100
AcDbXrecord
280
     1
270
     1
271
     1
  0
XRECORD
  5
1E
102
{ACAD_REACTORS
330
1A
102
}
330
1A
100
AcDbXrecord
280
     1
270
     1
271
     1
  0
XRECORD
  5
20
102
{ACAD_REACTORS
330
1A
102
}
330
1A
100
AcDbXrecord
280
     1
270
     1
271
     1
  0
XRECORD
  5
1D
102
{ACAD_REACTORS
330
1A
102
}
330
1A
100
AcDbXrecord
280
     1
270
     1
271
     1
  0
XRECORD
  5
14
102
{ACAD_REACTORS
330
12
102
}
330
12
100
AcDbXrecord
280
     1
270
     1
271
     1
  0
XRECORD
  5
13
102
{ACAD_REACTORS
330
12
102
}
330
12
100
AcDbXrecord
280
     1
270
     1
271
     1
  0
XRECORD
  5
17
102
{ACAD_REACTORS
330
12
102
}
330
12
100
AcDbXrecord
280
     1
270
     1
271
     1
  0
XRECORD
  5
16
102
{ACAD_REACTORS
330
12
102
}
330
12
100
AcDbXrecord
280
     1
270
     1
271
     1
  0
XRECORD
  5
18
102
{ACAD_REACTORS
330
12
102
}
330
12
100
AcDbXrecord
280
     1
270
     1
271
     1
  0
XRECORD
  5
15
102
{ACAD_REACTORS
330
12
102
}
330
12
100
AcDbXrecord
280
     1
270
     1
271
     1
  0
XRECORD
  5
24
102
{ACAD_REACTORS
330
22
102
}
330
22
100
AcDbXrecord
280
     1
270
     1
271
     1
  0
XRECORD
  5
23
102
{ACAD_REACTORS
330
22
102
}
330
22
100
AcDbXrecord
280
     1
270
     1
271
     1
  0
XRECORD
  5
27
102
{ACAD_REACTORS
330
22
102
}
330
22
100
AcDbXrecord
280
     1
270
     1
271
     1
  0
XRECORD
  5
26
102
{ACAD_REACTORS
330
22
102
}
330
22
100
AcDbXrecord
280
     1
270
     1
271
     1
  0
XRECORD
  5
28
102
{ACAD_REACTORS
330
22
102
}
330
22
100
AcDbXrecord
280
     1
270
     1
271
     1
  0
XRECORD
  5
25
102
{ACAD_REACTORS
330
22
102
}
330
22
100
AcDbXrecord
280
     1
270
     1
271
     1
  0
CELLSTYLEMAP
  5
22F
102
{ACAD_REACTORS
330
22E
102
}
330
22E
100
AcDbCellStyleMap
 90
        3
300
CELLSTYLE
  1
TABLEFORMAT_BEGIN
 90
        5
170
     1
 91
        0
 92
    32768
 62
   257
 93
        1
300
CONTENTFORMAT
  1
CONTENTFORMAT_BEGIN
 90
        0
 91
        0
 92
      512
 93
        0
300

 40
0.0
140
1.0
 94
        5
 62
     0
340
55
144
0.25
309
CONTENTFORMAT_END
171
     0
 94
        0
309
TABLEFORMAT_END
  1
CELLSTYLE_BEGIN
 90
        1
 91
        1
300
_TITLE
309
CELLSTYLE_END
300
CELLSTYLE
  1
TABLEFORMAT_BEGIN
 90
        5
170
     1
 91
        0
 92
        0
 62
   257
 93
        1
300
CONTENTFORMAT
  1
CONTENTFORMAT_BEGIN
 90
        0
 91
        0
 92
      512
 93
        0
300

 40
0.0
140
1.0
 94
        5
 62
     0
340
55
144
0.18
309
CONTENTFORMAT_END
171
     0
 94
        0
309
TABLEFORMAT_END
  1
CELLSTYLE_BEGIN
 90
        2
 91
        1
300
_HEADER
309
CELLSTYLE_END
300
CELLSTYLE
  1
TABLEFORMAT_BEGIN
 90
        5
170
     1
 91
        0
 92
        0
 62
   257
 93
        1
300
CONTENTFORMAT
  1
CONTENTFORMAT_BEGIN
 90
        0
 91
        0
 92
      512
 93
        0
300

 40
0.0
140
1.0
 94
        2
 62
     0
340
55
144
0.18
309
CONTENTFORMAT_END
171
     0
 94
        0
309
TABLEFORMAT_END
  1
CELLSTYLE_BEGIN
 90
        3
 91
        2
300
_DATA
309
CELLSTYLE_END
  0
ENDSEC
  0
EOF
