  0
SECTION
  2
HEADER
  9
$ACADVER
  1
AC1015
  9
$ACADMAINTVER
 70
     6
  9
$DWGCODEPAGE
  3
UNDEFINED
  9
$INSBASE
 10
0.0
 20
0.0
 30
0.0
  9
$EXTMIN
 10
-32.05
 20
-32.05
 30
0.0
  9
$EXTMAX
 10
1258.45
 20
893.05
 30
0.0
  9
$LIMMIN
 10
-32.05
 20
-32.05
  9
$LIMMAX
 10
1258.45
 20
893.05
  9
$ORTHOMODE
 70
     0
  9
$REGENMODE
 70
     1
  9
$FILLMODE
 70
     1
  9
$QTEXTMODE
 70
     0
  9
$MIRRTEXT
 70
     1
  9
$LTSCALE
 40
1.0
  9
$ATTMODE
 70
     1
  9
$TEXTSIZE
 40
3.0
  9
$TRACEWID
 40
0.05
  9
$TEXTSTYLE
  7
STANDARD
  9
$CLAYER
  8
0
  9
$CELTYPE
  6
ByBlock
  9
$CECOLOR
 62
   256
  9
$CELTSCALE
 40
1.0
  9
$DISPSILH
 70
     0
  9
$DIMSCALE
 40
1.0
  9
$DIMASZ
 40
1.23783508592696
  9
$DIMEXO
 40
1.0
  9
$DIMDLI
 40
0.38
  9
$DIMRND
 40
0.0
  9
$DIMDLE
 40
0.0
  9
$DIMEXE
 40
1.0
  9
$DIMTP
 40
0.0
  9
$DIMTM
 40
0.0
  9
$DIMTXT
 40
3.0
  9
$DIMCEN
 40
1.0
  9
$DIMTSZ
 40
0.0
  9
$DIMTOL
 70
     0
  9
$DIMLIM
 70
     0
  9
$DIMTIH
 70
     1
  9
$DIMTOH
 70
     1
  9
$DIMSE1
 70
     0
  9
$DIMSE2
 70
     0
  9
$DIMTAD
 70
     0
  9
$DIMZIN
 70
     0
  9
$DIMBLK
  1

  9
$DIMASO
 70
     1
  9
$DIMSHO
 70
     1
  9
$DIMPOST
  1

  9
$DIMAPOST
  1

  9
$DIMALT
 70
     0
  9
$DIMALTD
 70
     2
  9
$DIMALTF
 40
25.4
  9
$DIMLFAC
 40
1.0
  9
$DIMTOFL
 70
     0
  9
$DIMTVP
 40
0.0
  9
$DIMTIX
 70
     0
  9
$DIMSOXD
 70
     0
  9
$DIMSAH
 70
     0
  9
$DIMBLK1
  1

  9
$DIMBLK2
  1

  9
$DIMSTYLE
  2
Standard
  9
$DIMCLRD
 70
     0
  9
$DIMCLRE
 70
     0
  9
$DIMCLRT
 70
     0
  9
$DIMTFAC
 40
1.0
  9
$DIMGAP
 40
0.09
  9
$DIMJUST
 70
     0
  9
$DIMSD1
 70
     0
  9
$DIMSD2
 70
     0
  9
$DIMTOLJ
 70
     1
  9
$DIMTZIN
 70
     0
  9
$DIMALTZ
 70
     0
  9
$DIMALTTZ
 70
     0
  9
$DIMUPT
 70
     0
  9
$DIMDEC
 70
     4
  9
$DIMTDEC
 70
     4
  9
$DIMALTU
 70
     2
  9
$DIMALTTD
 70
     2
  9
$DIMTXSTY
  7
STANDARD
  9
$DIMAUNIT
 70
     0
  9
$DIMADEC
 70
     0
  9
$DIMALTRND
 40
0.0
  9
$DIMAZIN
 70
     0
  9
$DIMDSEP
 70
    46
  9
$DIMATFIT
 70
     3
  9
$DIMFRAC
 70
     0
  9
$DIMLDRBLK
  1

  9
$DIMLUNIT
 70
     2
  9
$DIMLWD
 70
    -2
  9
$DIMLWE
 70
    -2
  9
$DIMTMOVE
 70
     0
  9
$LUNITS
 70
     2
  9
$LUPREC
 70
     4
  9
$SKETCHINC
 40
0.1
  9
$FILLETRAD
 40
0.0
  9
$AUNITS
 70
     0
  9
$AUPREC
 70
     4
  9
$MENU
  1
acad
  9
$ELEVATION
 40
0.0
  9
$PELEVATION
 40
0.0
  9
$THICKNESS
 40
0.0
  9
$LIMCHECK
 70
     0
  9
$CHAMFERA
 40
0.0
  9
$CHAMFERB
 40
0.0
  9
$CHAMFERC
 40
1.0
  9
$CHAMFERD
 40
0.0
  9
$SKPOLY
 70
     0
  9
$TDCREATE
 40
2456133.666806459
  9
$TDUCREATE
 40
2456133.791806459
  9
$TDUPDATE
 40
2456133.66680647
  9
$TDUUPDATE
 40
2456133.79180647
  9
$TDINDWG
 40
0.0000000116
  9
$TDUSRTIMER
 40
0.0000000116
  9
$USRTIMER
 70
     1
  9
$ANGBASE
 50
0.0
  9
$ANGDIR
 70
     0
  9
$PDMODE
 70
     0
  9
$PDSIZE
 40
0.0
  9
$PLINEWID
 40
0.0
  9
$SPLFRAME
 70
     0
  9
$SPLINETYPE
 70
     6
  9
$SPLINESEGS
 70
     8
  9
$HANDSEED
  5
D9
  9
$SURFTAB1
 70
     6
  9
$SURFTAB2
 70
     6
  9
$SURFTYPE
 70
     6
  9
$SURFU
 70
     6
  9
$SURFV
 70
     6
  9
$UCSBASE
  2

  9
$UCSNAME
  2

  9
$UCSORG
 10
0.0
 20
0.0
 30
0.0
  9
$UCSXDIR
 10
1.0
 20
0.0
 30
0.0
  9
$UCSYDIR
 10
0.0
 20
1.0
 30
0.0
  9
$UCSORTHOREF
  2

  9
$UCSORTHOVIEW
 70
     0
  9
$UCSORGTOP
 10
0.0
 20
0.0
 30
0.0
  9
$UCSORGBOTTOM
 10
0.0
 20
0.0
 30
0.0
  9
$UCSORGLEFT
 10
0.0
 20
0.0
 30
0.0
  9
$UCSORGRIGHT
 10
0.0
 20
0.0
 30
0.0
  9
$UCSORGFRONT
 10
0.0
 20
0.0
 30
0.0
  9
$UCSORGBACK
 10
0.0
 20
0.0
 30
0.0
  9
$PUCSBASE
  2

  9
$PUCSNAME
  2

  9
$PUCSORG
 10
0.0
 20
0.0
 30
0.0
  9
$PUCSXDIR
 10
1.0
 20
0.0
 30
0.0
  9
$PUCSYDIR
 10
0.0
 20
1.0
 30
0.0
  9
$PUCSORTHOREF
  2

  9
$PUCSORTHOVIEW
 70
     0
  9
$PUCSORGTOP
 10
0.0
 20
0.0
 30
0.0
  9
$PUCSORGBOTTOM
 10
0.0
 20
0.0
 30
0.0
  9
$PUCSORGLEFT
 10
0.0
 20
0.0
 30
0.0
  9
$PUCSORGRIGHT
 10
0.0
 20
0.0
 30
0.0
  9
$PUCSORGFRONT
 10
0.0
 20
0.0
 30
0.0
  9
$PUCSORGBACK
 10
0.0
 20
0.0
 30
0.0
  9
$USERI1
 70
     0
  9
$USERI2
 70
     0
  9
$USERI3
 70
     0
  9
$USERI4
 70
     0
  9
$USERI5
 70
     0
  9
$USERR1
 40
0.0
  9
$USERR2
 40
0.0
  9
$USERR3
 40
0.0
  9
$USERR4
 40
0.0
  9
$USERR5
 40
0.0
  9
$WORLDVIEW
 70
     1
  9
$SHADEDGE
 70
     3
  9
$SHADEDIF
 70
    70
  9
$TILEMODE
 70
     1
  9
$MAXACTVP
 70
    64
  9
$PINSBASE
 10
0.0
 20
0.0
 30
0.0
  9
$PLIMCHECK
 70
     0
  9
$PEXTMIN
 10
1.000000000000000E+20
 20
1.000000000000000E+20
 30
1.000000000000000E+20
  9
$PEXTMAX
 10
-1.000000000000000E+20
 20
-1.000000000000000E+20
 30
-1.000000000000000E+20
  9
$PLIMMIN
 10
0.0
 20
0.0
  9
$PLIMMAX
 10
12.0
 20
9.0
  9
$UNITMODE
 70
     0
  9
$VISRETAIN
 70
     1
  9
$PLINEGEN
 70
     0
  9
$PSLTSCALE
 70
     1
  9
$TREEDEPTH
 70
  3020
  9
$CMLSTYLE
  2
Standard
  9
$CMLJUST
 70
     0
  9
$CMLSCALE
 40
1.0
  9
$PROXYGRAPHICS
 70
     1
  9
$MEASUREMENT
 70
     0
  9
$CELWEIGHT
370
    -1
  9
$ENDCAPS
280
     0
  9
$JOINSTYLE
280
     0
  9
$LWDISPLAY
290
     0
  9
$INSUNITS
 70
     0
  9
$HYPERLINKBASE
  1

  9
$STYLESHEET
  1

  9
$XEDIT
290
     1
  9
$CEPSNTYPE
380
     0
  9
$PSTYLEMODE
290
     0
  9
$FINGERPRINTGUID
  2
{FAEB1C30-E019-11D5-929B-00C0DF256EC4}
  9
$VERSIONGUID
  2
{FAEB1C32-E019-11D5-929B-00C0DF256EC4}
  9
$EXTNAMES
290
     1
  9
$PSVPSCALE
 40
0.0
  9
$OLESTARTUP
290
     0
  0
ENDSEC
  0
SECTION
  2
CLASSES
  0
CLASS
  1
ACDBDICTIONARYWDFLT
  2
AcDbDictionaryWithDefault
  3
ObjectDBX Classes
 90
        0
280
     0
281
     0
  0
CLASS
  1
TABLESTYLE
  2
AcDbTableStyle
  3
ObjectDBX Classes
 90
     2047
280
     0
281
     0
  0
CLASS
  1
DICTIONARYVAR
  2
AcDbDictionaryVar
  3
ObjectDBX Classes
 90
        0
280
     0
281
     0
  0
CLASS
  1
ACDBPLACEHOLDER
  2
AcDbPlaceHolder
  3
ObjectDBX Classes
 90
        0
280
     0
281
     0
  0
CLASS
  1
LAYOUT
  2
AcDbLayout
  3
ObjectDBX Classes
 90
        0
280
     0
281
     0
  0
ENDSEC
  0
SECTION
  2
TABLES
  0
TABLE
  2
VPORT
  5
8
330
0
100
AcDbSymbolTable
 70
     1
  0
VPORT
  5
D0
330
8
100
AcDbSymbolTableRecord
100
AcDbViewportTableRecord
  2
*Active
 70
     0
 10
0.0
 20
0.0
 11
1.0
 21
1.0
 12
10.42990654205607
 22
4.5
 13
0.0
 23
0.0
 14
0.5
 24
0.5
 15
0.5
 25
0.5
 16
0.0
 26
0.0
 36
1.0
 17
0.0
 27
0.0
 37
0.0
 40
9.0
 41
1.972972972850329
 42
50.0
 43
0.0
 44
0.0
 50
0.0
 51
0.0
 71
     0
 72
   100
 73
     1
 74
     3
 75
     0
 76
     0
 77
     0
 78
     0
281
     0
 65
     1
110
0.0
120
0.0
130
0.0
111
1.0
121
0.0
131
0.0
112
0.0
122
1.0
132
0.0
 79
     0
146
0.0
  0
ENDTAB
  0
TABLE
  2
LTYPE
  5
5
330
0
100
AcDbSymbolTable
 70
     9
  0
LTYPE
  5
10
330
5
100
AcDbSymbolTableRecord
100
AcDbLinetypeTableRecord
  2
ByBlock
 70
     0
  3

 72
    65
 73
     0
 40
0.0
  0
LTYPE
  5
11
330
5
100
AcDbSymbolTableRecord
100
AcDbLinetypeTableRecord
  2
ByLayer
 70
     0
  3

 72
    65
 73
     0
 40
0.0
  0
LTYPE
  5
1B
330
5
100
AcDbSymbolTableRecord
100
AcDbLinetypeTableRecord
  2
CONTINUOUS
 70
     0
  3
Solid line
 72
    65
 73
     0
 40
0.0
  0
LTYPE
  5
1C
330
5
100
AcDbSymbolTableRecord
100
AcDbLinetypeTableRecord
  2
HIDDEN
 70
     0
  3
_ _ _ _ _ _ _ _ _ _ _ _ _ _ _ _ _ _ _ _ 
 72
    65
 73
     2
 40
0.375
 49
0.25
 74
     0
 49
-0.125
 74
     0
  0
LTYPE
  5
1D
330
5
100
AcDbSymbolTableRecord
100
AcDbLinetypeTableRecord
  2
DASHED
 70
     0
  3
__ __ __ __ __ __ __ __ __ __ __ __ __  
 72
    65
 73
     2
 40
0.75
 49
0.5
 74
     0
 49
-0.25
 74
     0
  0
LTYPE
  5
1E
330
5
100
AcDbSymbolTableRecord
100
AcDbLinetypeTableRecord
  2
CENTER
 70
     0
  3
____ _ ____ _ ____ _ ____ _ ____ _ ____ 
 72
    65
 73
     4
 40
2.0
 49
1.25
 74
     0
 49
-0.25
 74
     0
 49
0.25
 74
     0
 49
-0.25
 74
     0
  0
LTYPE
  5
1F
330
5
100
AcDbSymbolTableRecord
100
AcDbLinetypeTableRecord
  2
PHANTOM
 70
     0
  3
_____ _ _ _____ _ _ _____ _ _ _____ _ _ 
 72
    65
 73
     6
 40
2.5
 49
1.25
 74
     0
 49
-0.25
 74
     0
 49
0.25
 74
     0
 49
-0.25
 74
     0
 49
0.25
 74
     0
 49
-0.25
 74
     0
  0
LTYPE
  5
20
330
5
100
AcDbSymbolTableRecord
100
AcDbLinetypeTableRecord
  2
DOT
 70
     0
  3
........................................
 72
    65
 73
     2
 40
0.25
 49
0.0
 74
     0
 49
-0.25
 74
     0
  0
LTYPE
  5
21
330
5
100
AcDbSymbolTableRecord
100
AcDbLinetypeTableRecord
  2
DASHDOT
 70
     0
  3
__ . __ . __ . __ . __ . __ . __ . __ . 
 72
    65
 73
     4
 40
1.0
 49
0.5
 74
     0
 49
-0.25
 74
     0
 49
0.0
 74
     0
 49
-0.25
 74
     0
  0
LTYPE
  5
22
330
5
100
AcDbSymbolTableRecord
100
AcDbLinetypeTableRecord
  2
BORDER
 70
     0
  3
__ __ . __ __ . __ __ . __ __ . __ __ . 
 72
    65
 73
     6
 40
1.75
 49
0.5
 74
     0
 49
-0.25
 74
     0
 49
0.5
 74
     0
 49
-0.25
 74
     0
 49
0.0
 74
     0
 49
-0.25
 74
     0
  0
LTYPE
  5
23
330
5
100
AcDbSymbolTableRecord
100
AcDbLinetypeTableRecord
  2
DIVIDE
 70
     0
  3
__ . . __ . . __ . . __ . . __ . . __ . 
 72
    65
 73
     6
 40
1.25
 49
0.5
 74
     0
 49
-0.25
 74
     0
 49
0.0
 74
     0
 49
-0.25
 74
     0
 49
0.0
 74
     0
 49
-0.25
 74
     0
  0
ENDTAB
  0
TABLE
  2
LAYER
  5
2
330
0
100
AcDbSymbolTable
 70
     7
  0
LAYER
  5
24
330
2
100
AcDbSymbolTableRecord
100
AcDbLayerTableRecord
  2
0
 70
     0
 62
     7
  6
CONTINUOUS
370
    -3
390
F
  0
LAYER
  5
25
330
2
100
AcDbSymbolTableRecord
100
AcDbLayerTableRecord
  2
0020010007
 70
     0
 62
     7
  6
CONTINUOUS
370
    -3
390
F
  0
LAYER
  5
26
330
2
100
AcDbSymbolTableRecord
100
AcDbLayerTableRecord
  2
0030010007
 70
     0
 62
     7
  6
CONTINUOUS
370
    -3
390
F
  0
LAYER
  5
27
330
2
100
AcDbSymbolTableRecord
100
AcDbLayerTableRecord
  2
0040010007
 70
     0
 62
     7
  6
CONTINUOUS
370
    -3
390
F
  0
LAYER
  5
28
330
2
100
AcDbSymbolTableRecord
100
AcDbLayerTableRecord
  2
0050010007
 70
     0
 62
     7
  6
CONTINUOUS
370
    -3
390
F
  0
LAYER
  5
29
330
2
100
AcDbSymbolTableRecord
100
AcDbLayerTableRecord
  2
0060010007
 70
     0
 62
     7
  6
CONTINUOUS
370
    -3
390
F
  0
LAYER
  5
2A
330
2
100
AcDbSymbolTableRecord
100
AcDbLayerTableRecord
  2
0010010007
 70
     0
 62
     7
  6
CONTINUOUS
370
    -3
390
F
  0
ENDTAB
  0
TABLE
  2
STYLE
  5
3
330
0
100
AcDbSymbolTable
 70
     1
  0
STYLE
  5
2B
330
3
100
AcDbSymbolTableRecord
100
AcDbTextStyleTableRecord
  2
STANDARD
 70
     0
 40
0.0
 41
1.0
 50
0.0
 71
     0
 42
0.2
  3
txt
  4

  0
ENDTAB
  0
TABLE
  2
VIEW
  5
6
330
0
100
AcDbSymbolTable
 70
     1
  0
VIEW
  5
2C
330
6
100
AcDbSymbolTableRecord
100
AcDbViewTableRecord
  2
1
 70
     0
 40
20600.0
 10
29641.0
 20
34500.0
 41
1.0
 11
0.0
 21
0.0
 31
1.0
 12
0.0
 22
0.0
 32
0.0
 42
50.0
 43
0.0
 44
0.0
 50
0.0
 71
     0
281
     0
 72
     0
  0
ENDTAB
  0
TABLE
  2
UCS
  5
7
330
0
100
AcDbSymbolTable
 70
     0
  0
ENDTAB
  0
TABLE
  2
APPID
  5
9
330
0
100
AcDbSymbolTable
 70
     1
  0
APPID
  5
2D
330
9
100
AcDbSymbolTableRecord
100
AcDbRegAppTableRecord
  2
ACAD
 70
     0
  0
ENDTAB
  0
TABLE
  2
DIMSTYLE
  5
A
330
0
100
AcDbSymbolTable
 70
     1
100
AcDbDimStyleTable
  0
DIMSTYLE
105
2E
330
A
100
AcDbSymbolTableRecord
100
AcDbDimStyleTableRecord
  2
Standard
 70
     0
340
2B
  0
ENDTAB
  0
TABLE
  2
BLOCK_RECORD
  5
1
330
0
100
AcDbSymbolTable
 70
     0
  0
BLOCK_RECORD
  5
18
330
1
100
AcDbSymbolTableRecord
100
AcDbBlockTableRecord
  2
*Model_Space
340
19
  0
BLOCK_RECORD
  5
16
330
1
100
AcDbSymbolTableRecord
100
AcDbBlockTableRecord
  2
*Paper_Space
340
17
  0
ENDTAB
  0
ENDSEC
  0
SECTION
  2
BLOCKS
  0
BLOCK
  5
D5
330
18
100
AcDbEntity
  8
0
100
AcDbBlockBegin
  2
*Model_Space
 70
     0
 71
     0
 10
0.0
 20
0.0
 30
0.0
  3
*Model_Space
  1

  0
ENDBLK
  5
D6
330
18
100
AcDbEntity
  8
0
100
AcDbBlockEnd
  0
BLOCK
  5
D7
330
16
100
AcDbEntity
 67
     1
  8
0
100
AcDbBlockBegin
  2
*Paper_Space
 70
     0
 71
     0
 10
0.0
 20
0.0
 30
0.0
  3
*Paper_Space
  1

  0
ENDBLK
  5
D8
330
16
100
AcDbEntity
 67
     1
  8
0
100
AcDbBlockEnd
  0
ENDSEC
  0
SECTION
  2
ENTITIES
  0
CIRCLE
  5
2F
330
18
100
AcDbEntity
  8
0020010007
100
AcDbCircle
 10
24.8499999999995
 20
-12.4999999999999
 30
0.0
 40
2.24249999999996
  0
CIRCLE
  5
30
330
18
100
AcDbEntity
  8
0020010007
100
AcDbCircle
 10
13.7375002880708
 20
-12.4999999999999
 30
0.0
 40
2.24249999999996
  0
LINE
  5
31
330
18
100
AcDbEntity
  8
0020010007
100
AcDbLine
 10
-0.5
 20
-24.4999999999999
 30
0.0
 11
-0.5
 21
-0.5
 31
0.0
  0
LINE
  5
32
330
18
100
AcDbEntity
  8
0020010007
100
AcDbLine
 10
0.0
 20
-24.9999999999999
 30
0.0
 11
48.9999999999997
 21
-24.9999999999999
 31
0.0
  0
LINE
  5
33
330
18
100
AcDbEntity
  8
0020010007
100
AcDbLine
 10
0.0
 20
0.0
 30
0.0
 11
48.9999999999997
 21
0.0
 31
0.0
  0
LINE
  5
34
330
18
100
AcDbEntity
  8
0020010007
100
AcDbLine
 10
49.4999999999999
 20
-24.4999999999999
 30
0.0
 11
49.4999999999999
 21
-0.5
 31
0.0
  0
ARC
  5
35
330
18
100
AcDbEntity
  8
0020010007
100
AcDbCircle
 10
0.0
 20
-0.5
 30
0.0
 40
0.499999999999997
100
AcDbArc
 50
90.0
 51
180.0
  0
ARC
  5
36
330
18
100
AcDbEntity
  8
0020010007
100
AcDbCircle
 10
48.9999999999999
 20
-0.5
 30
0.0
 40
0.499999999999997
100
AcDbArc
 50
0.0
 51
90.0
  0
ARC
  5
37
330
18
100
AcDbEntity
  8
0020010007
100
AcDbCircle
 10
48.9999999999999
 20
-24.4999999999999
 30
0.0
 40
0.499999999999997
100
AcDbArc
 50
270.0
 51
0.0
  0
ARC
  5
38
330
18
100
AcDbEntity
  8
0020010007
100
AcDbCircle
 10
0.0
 20
-24.4999999999999
 30
0.0
 40
0.499999999999997
100
AcDbArc
 50
180.0
 51
270.0
  0
CIRCLE
  5
39
330
18
100
AcDbEntity
  8
0030010007
100
AcDbCircle
 10
13.7375002880708
 20
-12.4999999999999
 30
0.0
 40
3.07500030677744
  0
ARC
  5
3A
330
18
100
AcDbEntity
  8
0020010007
100
AcDbCircle
 10
6.34999955105746
 20
-6.4999994014115
 30
0.0
 40
4.00000039906008
100
AcDbArc
 50
90.0
 51
180.0
  0
LINE
  5
3B
330
18
100
AcDbEntity
  8
0020010007
100
AcDbLine
 10
2.34999915199666
 20
-6.4999994014115
 30
0.0
 11
2.34999915199666
 21
-18.5000005985917
 31
0.0
  0
ARC
  5
3C
330
18
100
AcDbEntity
  8
0020010007
100
AcDbCircle
 10
6.34999955105746
 20
-18.5000005985907
 30
0.0
 40
4.00000039906008
100
AcDbArc
 50
180.0
 51
270.0
  0
LINE
  5
3D
330
18
100
AcDbEntity
  8
0020010007
100
AcDbLine
 10
6.59362455105662
 20
-22.500000997651
 30
0.0
 11
15.5936254489418
 21
-22.500000997651
 31
0.0
  0
ARC
  5
3E
330
18
100
AcDbEntity
  8
0020010007
100
AcDbCircle
 10
15.3500004489424
 20
-18.5000005985907
 30
0.0
 40
4.00000039906008
100
AcDbArc
 50
270.0
 51
0.0
  0
LINE
  5
3F
330
18
100
AcDbEntity
  8
0020010007
100
AcDbLine
 10
19.3500008480023
 20
-18.5000005985907
 30
0.0
 11
19.3500008480023
 21
-6.499999401410399
 31
0.0
  0
ARC
  5
40
330
18
100
AcDbEntity
  8
0020010007
100
AcDbCircle
 10
15.3500004489424
 20
-6.4999994014115
 30
0.0
 40
4.00000039906008
100
AcDbArc
 50
0.0
 51
90.0
  0
LINE
  5
41
330
18
100
AcDbEntity
  8
0020010007
100
AcDbLine
 10
15.3500004489424
 20
-2.4999990023511
 30
0.0
 11
6.34999955105727
 21
-2.4999990023511
 31
0.0
  0
LINE
  5
42
330
18
100
AcDbEntity
  8
0020010007
100
AcDbLine
 10
26.0000000000001
 20
-19.9
 30
0.0
 11
23.7000000000001
 21
-19.9
 31
0.0
  0
LINE
  5
43
330
18
100
AcDbEntity
  8
0020010007
100
AcDbLine
 10
28.5000000000001
 20
-7.5999999999999
 30
0.0
 11
28.5000000000001
 21
-17.3999999999998
 31
0.0
  0
LINE
  5
44
330
18
100
AcDbEntity
  8
0020010007
100
AcDbLine
 10
21.1999999999998
 20
-17.4
 30
0.0
 11
21.1999999999998
 21
-7.600000000000101
 31
0.0
  0
LINE
  5
45
330
18
100
AcDbEntity
  8
0020010007
100
AcDbLine
 10
23.6999999999998
 20
-5.0999999999999
 30
0.0
 11
25.9999999999999
 21
-5.0999999999999
 31
0.0
  0
ARC
  5
46
330
18
100
AcDbEntity
  8
0020010007
100
AcDbCircle
 10
23.6999999999998
 20
-7.5999999999999
 30
0.0
 40
2.49999999999997
100
AcDbArc
 50
90.0
 51
180.0
  0
ARC
  5
47
330
18
100
AcDbEntity
  8
0020010007
100
AcDbCircle
 10
26.0000000000001
 20
-7.5999999999999
 30
0.0
 40
2.49999999999997
100
AcDbArc
 50
0.0
 51
90.0
  0
ARC
  5
48
330
18
100
AcDbEntity
  8
0020010007
100
AcDbCircle
 10
26.0000000000001
 20
-17.4
 30
0.0
 40
2.49999999999997
100
AcDbArc
 50
270.0
 51
0.0
  0
ARC
  5
49
330
18
100
AcDbEntity
  8
0020010007
100
AcDbCircle
 10
23.6999999999998
 20
-17.4
 30
0.0
 40
2.49999999999997
100
AcDbArc
 50
180.0
 51
270.0
  0
CIRCLE
  5
4A
330
18
100
AcDbEntity
  8
0030010007
100
AcDbCircle
 10
24.8499999999995
 20
-12.4999999999999
 30
0.0
 40
3.07500030677742
  0
TEXT
  5
4B
330
18
100
AcDbEntity
  8
0040010007
100
AcDbText
 10
-3.16954261255523
 20
-34.6801633810645
 30
0.0
 40
1.50000011920929
  1
MEDIDAS DO NICHO PARA ENCAIXE DA PIA: 975 x 475 mm
 41
0.75
100
AcDbText
  0
LINE
  5
4C
330
18
100
AcDbEntity
  8
0030010007
100
AcDbLine
 10
-0.5
 20
0.5
 30
0.0
 11
-0.5
 21
4.5
 31
0.0
  0
LINE
  5
4D
330
18
100
AcDbEntity
  8
0030010007
100
AcDbLine
 10
13.7375002880708
 20
-11.4999999999999
 30
0.0
 11
13.7375002880708
 21
4.5
 31
0.0
  0
LINE
  5
4E
330
18
100
AcDbEntity
  8
0030010007
100
AcDbLine
 10
0.737835085926974
 20
3.3260336237999
 30
0.0
 11
0.737835085926974
 21
3.6739663762001
 31
0.0
  0
LINE
  5
4F
330
18
100
AcDbEntity
  8
0030010007
100
AcDbLine
 10
0.737835085926974
 20
3.6739663762001
 30
0.0
 11
-0.499999999999988
 21
3.5
 31
0.0
  0
LINE
  5
50
330
18
100
AcDbEntity
  8
0030010007
100
AcDbLine
 10
-0.5
 20
3.5
 30
0.0
 11
0.7378350859269629
 21
3.3260336237999
 31
0.0
  0
LINE
  5
51
330
18
100
AcDbEntity
  8
0030010007
100
AcDbLine
 10
12.4996652021439
 20
3.6739663762001
 30
0.0
 11
12.4996652021439
 21
3.3260336237999
 31
0.0
  0
LINE
  5
52
330
18
100
AcDbEntity
  8
0030010007
100
AcDbLine
 10
12.4996652021439
 20
3.3260336237999
 30
0.0
 11
13.7375002880708
 21
3.5
 31
0.0
  0
LINE
  5
53
330
18
100
AcDbEntity
  8
0030010007
100
AcDbLine
 10
13.7375002880708
 20
3.5
 30
0.0
 11
12.4996652021439
 21
3.6739663762001
 31
0.0
  0
LINE
  5
54
330
18
100
AcDbEntity
  8
0030010007
100
AcDbLine
 10
-0.5
 20
3.5
 30
0.0
 11
13.7375002880708
 21
3.5
 31
0.0
  0
TEXT
  5
55
330
18
100
AcDbEntity
  8
0030010007
100
AcDbText
 10
5.11875017366793
 20
4.2500000476837
 30
0.0
 40
1.50000011920929
  1
285
 41
0.75
100
AcDbText
  0
LINE
  5
56
330
18
100
AcDbEntity
  8
0030010007
100
AcDbLine
 10
13.7375002880708
 20
-11.4999999999999
 30
0.0
 11
13.7375002880708
 21
4.5
 31
0.0
  0
LINE
  5
57
330
18
100
AcDbEntity
  8
0030010007
100
AcDbLine
 10
24.8499999999995
 20
-11.4999999999999
 30
0.0
 11
24.8499999999995
 21
4.5
 31
0.0
  0
LINE
  5
58
330
18
100
AcDbEntity
  8
0030010007
100
AcDbLine
 10
14.9753353739978
 20
3.3260336237999
 30
0.0
 11
14.9753353739978
 21
3.6739663762001
 31
0.0
  0
LINE
  5
59
330
18
100
AcDbEntity
  8
0030010007
100
AcDbLine
 10
14.9753353739978
 20
3.6739663762001
 30
0.0
 11
13.7375002880708
 21
3.5
 31
0.0
  0
LINE
  5
5A
330
18
100
AcDbEntity
  8
0030010007
100
AcDbLine
 10
13.7375002880708
 20
3.5
 30
0.0
 11
14.9753353739978
 21
3.3260336237999
 31
0.0
  0
LINE
  5
5B
330
18
100
AcDbEntity
  8
0030010007
100
AcDbLine
 10
23.6121649140725
 20
3.6739663762001
 30
0.0
 11
23.6121649140725
 21
3.3260336237999
 31
0.0
  0
LINE
  5
5C
330
18
100
AcDbEntity
  8
0030010007
100
AcDbLine
 10
23.6121649140725
 20
3.3260336237999
 30
0.0
 11
24.8499999999995
 21
3.5
 31
0.0
  0
LINE
  5
5D
330
18
100
AcDbEntity
  8
0030010007
100
AcDbLine
 10
24.8499999999995
 20
3.5
 30
0.0
 11
23.6121649140725
 21
3.6739663762001
 31
0.0
  0
LINE
  5
5E
330
18
100
AcDbEntity
  8
0030010007
100
AcDbLine
 10
13.7375002880708
 20
3.5
 30
0.0
 11
24.8499999999995
 21
3.5
 31
0.0
  0
TEXT
  5
5F
330
18
100
AcDbEntity
  8
0030010007
100
AcDbText
 10
17.7937501736677
 20
4.2500000476837
 30
0.0
 40
1.50000011920929
  1
222
 41
0.75
100
AcDbText
  0
LINE
  5
60
330
18
100
AcDbEntity
  8
0030010007
100
AcDbLine
 10
-0.5
 20
0.5
 30
0.0
 11
-0.5
 21
8.0
 31
0.0
  0
LINE
  5
61
330
18
100
AcDbEntity
  8
0030010007
100
AcDbLine
 10
49.4999999999999
 20
0.5
 30
0.0
 11
49.4999999999999
 21
8.0
 31
0.0
  0
LINE
  5
62
330
18
100
AcDbEntity
  8
0030010007
100
AcDbLine
 10
0.737835085926974
 20
6.8260336237999
 30
0.0
 11
0.737835085926974
 21
7.1739663762001
 31
0.0
  0
LINE
  5
63
330
18
100
AcDbEntity
  8
0030010007
100
AcDbLine
 10
0.737835085926974
 20
7.1739663762001
 30
0.0
 11
-0.499999999999988
 21
7.0
 31
0.0
  0
LINE
  5
64
330
18
100
AcDbEntity
  8
0030010007
100
AcDbLine
 10
-0.5
 20
7.0
 30
0.0
 11
0.7378350859269629
 21
6.8260336237999
 31
0.0
  0
LINE
  5
65
330
18
100
AcDbEntity
  8
0030010007
100
AcDbLine
 10
48.262164914073
 20
7.1739663762001
 30
0.0
 11
48.262164914073
 21
6.8260336237999
 31
0.0
  0
LINE
  5
66
330
18
100
AcDbEntity
  8
0030010007
100
AcDbLine
 10
48.262164914073
 20
6.8260336237999
 30
0.0
 11
49.4999999999999
 21
7.0
 31
0.0
  0
LINE
  5
67
330
18
100
AcDbEntity
  8
0030010007
100
AcDbLine
 10
49.4999999999999
 20
7.0
 30
0.0
 11
48.262164914073
 21
7.1739663762001
 31
0.0
  0
LINE
  5
68
330
18
100
AcDbEntity
  8
0030010007
100
AcDbLine
 10
-0.5
 20
7.0
 30
0.0
 11
49.4999999999999
 21
7.0
 31
0.0
  0
TEXT
  5
69
330
18
100
AcDbEntity
  8
0030010007
100
AcDbText
 10
22.4374999938697
 20
7.7500000476837
 30
0.0
 40
1.50000011920929
  1
1000
 41
0.75
100
AcDbText
  0
LINE
  5
6A
330
18
100
AcDbEntity
  8
0030010007
100
AcDbLine
 10
2.34999915199666
 20
-19.5000005985917
 30
0.0
 11
2.34999915199666
 21
-29.4999999999999
 31
0.0
  0
LINE
  5
6B
330
18
100
AcDbEntity
  8
0030010007
100
AcDbLine
 10
19.3500008480023
 20
-19.5000005985907
 30
0.0
 11
19.3500008480023
 21
-29.4999999999999
 31
0.0
  0
LINE
  5
6C
330
18
100
AcDbEntity
  8
0030010007
100
AcDbLine
 10
3.58783423792363
 20
-28.6739663762
 30
0.0
 11
3.58783423792363
 21
-28.3260336237998
 31
0.0
  0
LINE
  5
6D
330
18
100
AcDbEntity
  8
0030010007
100
AcDbLine
 10
3.58783423792363
 20
-28.3260336237998
 30
0.0
 11
2.34999915199666
 21
-28.4999999999999
 31
0.0
  0
LINE
  5
6E
330
18
100
AcDbEntity
  8
0030010007
100
AcDbLine
 10
2.34999915199666
 20
-28.4999999999999
 30
0.0
 11
3.58783423792363
 21
-28.6739663762
 31
0.0
  0
LINE
  5
6F
330
18
100
AcDbEntity
  8
0030010007
100
AcDbLine
 10
18.1121657620754
 20
-28.3260336237998
 30
0.0
 11
18.1121657620754
 21
-28.6739663762
 31
0.0
  0
LINE
  5
70
330
18
100
AcDbEntity
  8
0030010007
100
AcDbLine
 10
18.1121657620754
 20
-28.6739663762
 30
0.0
 11
19.3500008480023
 21
-28.4999999999999
 31
0.0
  0
LINE
  5
71
330
18
100
AcDbEntity
  8
0030010007
100
AcDbLine
 10
19.3500008480023
 20
-28.4999999999999
 30
0.0
 11
18.1121657620754
 21
-28.3260336237998
 31
0.0
  0
LINE
  5
72
330
18
100
AcDbEntity
  8
0030010007
100
AcDbLine
 10
2.34999915199666
 20
-28.4999999999999
 30
0.0
 11
19.3500008480023
 21
-28.4999999999999
 31
0.0
  0
TEXT
  5
73
330
18
100
AcDbEntity
  8
0030010007
100
AcDbText
 10
9.350000029632041
 20
-27.7499999523162
 30
0.0
 40
1.50000011920929
  1
340
 41
0.75
100
AcDbText
  0
LINE
  5
74
330
18
100
AcDbEntity
  8
0030010007
100
AcDbLine
 10
21.1999999999998
 20
-18.4
 30
0.0
 11
21.1999999999998
 21
-29.4999999999999
 31
0.0
  0
LINE
  5
75
330
18
100
AcDbEntity
  8
0030010007
100
AcDbLine
 10
28.5000000000001
 20
-18.3999999999997
 30
0.0
 11
28.5000000000001
 21
-29.4999999999999
 31
0.0
  0
LINE
  5
76
330
18
100
AcDbEntity
  8
0030010007
100
AcDbLine
 10
22.4378350859268
 20
-28.6739663762
 30
0.0
 11
22.4378350859268
 21
-28.3260336237998
 31
0.0
  0
LINE
  5
77
330
18
100
AcDbEntity
  8
0030010007
100
AcDbLine
 10
22.4378350859268
 20
-28.3260336237998
 30
0.0
 11
21.1999999999998
 21
-28.4999999999999
 31
0.0
  0
LINE
  5
78
330
18
100
AcDbEntity
  8
0030010007
100
AcDbLine
 10
21.1999999999998
 20
-28.4999999999999
 30
0.0
 11
22.4378350859268
 21
-28.6739663762
 31
0.0
  0
LINE
  5
79
330
18
100
AcDbEntity
  8
0030010007
100
AcDbLine
 10
27.2621649140731
 20
-28.3260336237998
 30
0.0
 11
27.2621649140731
 21
-28.6739663762
 31
0.0
  0
LINE
  5
7A
330
18
100
AcDbEntity
  8
0030010007
100
AcDbLine
 10
27.2621649140731
 20
-28.6739663762
 30
0.0
 11
28.5000000000001
 21
-28.4999999999999
 31
0.0
  0
LINE
  5
7B
330
18
100
AcDbEntity
  8
0030010007
100
AcDbLine
 10
28.5000000000001
 20
-28.4999999999999
 30
0.0
 11
27.2621649140731
 21
-28.3260336237998
 31
0.0
  0
LINE
  5
7C
330
18
100
AcDbEntity
  8
0030010007
100
AcDbLine
 10
21.1999999999998
 20
-28.4999999999999
 30
0.0
 11
28.5000000000001
 21
-28.4999999999999
 31
0.0
  0
TEXT
  5
7D
330
18
100
AcDbEntity
  8
0030010007
100
AcDbText
 10
23.3500000296325
 20
-27.7499999523162
 30
0.0
 40
1.50000011920929
  1
146
 41
0.75
100
AcDbText
  0
LINE
  5
7E
330
18
100
AcDbEntity
  8
0030010007
100
AcDbLine
 10
27.0000000000001
 20
-19.9
 30
0.0
 11
53.9999999999999
 21
-19.9
 31
0.0
  0
LINE
  5
7F
330
18
100
AcDbEntity
  8
0030010007
100
AcDbLine
 10
27.0000000000001
 20
-5.0999999999999
 30
0.0
 11
53.9999999999999
 21
-5.0999999999999
 31
0.0
  0
LINE
  5
80
330
18
100
AcDbEntity
  8
0030010007
100
AcDbLine
 10
53.1739663762
 20
-18.662164914073
 30
0.0
 11
52.8260336237998
 21
-18.662164914073
 31
0.0
  0
LINE
  5
81
330
18
100
AcDbEntity
  8
0030010007
100
AcDbLine
 10
52.8260336237998
 20
-18.662164914073
 30
0.0
 11
52.9999999999999
 21
-19.9
 31
0.0
  0
LINE
  5
82
330
18
100
AcDbEntity
  8
0030010007
100
AcDbLine
 10
52.9999999999999
 20
-19.9
 30
0.0
 11
53.1739663762
 21
-18.662164914073
 31
0.0
  0
LINE
  5
83
330
18
100
AcDbEntity
  8
0030010007
100
AcDbLine
 10
52.8260336237998
 20
-6.3378350859269
 30
0.0
 11
53.1739663762
 21
-6.3378350859269
 31
0.0
  0
LINE
  5
84
330
18
100
AcDbEntity
  8
0030010007
100
AcDbLine
 10
53.1739663762
 20
-6.3378350859269
 30
0.0
 11
52.9999999999999
 21
-5.0999999999999
 31
0.0
  0
LINE
  5
85
330
18
100
AcDbEntity
  8
0030010007
100
AcDbLine
 10
52.9999999999999
 20
-5.0999999999999
 30
0.0
 11
52.8260336237998
 21
-6.3378350859269
 31
0.0
  0
LINE
  5
86
330
18
100
AcDbEntity
  8
0030010007
100
AcDbLine
 10
52.9999999999999
 20
-19.9
 30
0.0
 11
52.9999999999999
 21
-5.0999999999999
 31
0.0
  0
TEXT
  5
87
330
18
100
AcDbEntity
  8
0030010007
100
AcDbText
 10
52.2499999523162
 20
-13.9999999703674
 30
0.0
 40
1.50000011920929
  1
296
 50
90.0
 41
0.75
100
AcDbText
  0
LINE
  5
88
330
18
100
AcDbEntity
  8
0030010007
100
AcDbLine
 10
49.9999999999997
 20
0.0
 30
0.0
 11
57.4999999999999
 21
0.0
 31
0.0
  0
LINE
  5
89
330
18
100
AcDbEntity
  8
0030010007
100
AcDbLine
 10
49.9999999999997
 20
-24.9999999999999
 30
0.0
 11
57.4999999999999
 21
-24.9999999999999
 31
0.0
  0
LINE
  5
8A
330
18
100
AcDbEntity
  8
0030010007
100
AcDbLine
 10
56.3260336237998
 20
-1.237835085927
 30
0.0
 11
56.6739663762
 21
-1.237835085927
 31
0.0
  0
LINE
  5
8B
330
18
100
AcDbEntity
  8
0030010007
100
AcDbLine
 10
56.6739663762
 20
-1.237835085927
 30
0.0
 11
56.4999999999999
 21
0.0
 31
0.0
  0
LINE
  5
8C
330
18
100
AcDbEntity
  8
0030010007
100
AcDbLine
 10
56.4999999999999
 20
0.0
 30
0.0
 11
56.3260336237998
 21
-1.237835085927
 31
0.0
  0
LINE
  5
8D
330
18
100
AcDbEntity
  8
0030010007
100
AcDbLine
 10
56.6739663762
 20
-23.7621649140729
 30
0.0
 11
56.3260336237998
 21
-23.7621649140729
 31
0.0
  0
LINE
  5
8E
330
18
100
AcDbEntity
  8
0030010007
100
AcDbLine
 10
56.3260336237998
 20
-23.7621649140729
 30
0.0
 11
56.4999999999999
 21
-24.9999999999999
 31
0.0
  0
LINE
  5
8F
330
18
100
AcDbEntity
  8
0030010007
100
AcDbLine
 10
56.4999999999999
 20
-24.9999999999999
 30
0.0
 11
56.6739663762
 21
-23.7621649140729
 31
0.0
  0
LINE
  5
90
330
18
100
AcDbEntity
  8
0030010007
100
AcDbLine
 10
56.4999999999999
 20
0.0
 30
0.0
 11
56.4999999999999
 21
-24.9999999999999
 31
0.0
  0
TEXT
  5
91
330
18
100
AcDbEntity
  8
0030010007
100
AcDbText
 10
55.7499999523162
 20
-14.0000002203674
 30
0.0
 40
1.50000011920929
  1
500
 50
90.0
 41
0.75
100
AcDbText
  0
LINE
  5
92
330
18
100
AcDbEntity
  8
0030010007
100
AcDbLine
 10
5.59362455105662
 20
-22.500000997651
 30
0.0
 11
-8.500000000000018
 21
-22.500000997651
 31
0.0
  0
LINE
  5
93
330
18
100
AcDbEntity
  8
0030010007
100
AcDbLine
 10
5.34999955105729
 20
-2.4999990023511
 30
0.0
 11
-8.5
 21
-2.4999990023511
 31
0.0
  0
LINE
  5
94
330
18
100
AcDbEntity
  8
0030010007
100
AcDbLine
 10
-7.32603362379996
 20
-21.262165911724
 30
0.0
 11
-7.67396637620012
 21
-21.262165911724
 31
0.0
  0
LINE
  5
95
330
18
100
AcDbEntity
  8
0030010007
100
AcDbLine
 10
-7.6739663762001
 20
-21.262165911724
 30
0.0
 11
-7.50000000000002
 21
-22.500000997651
 31
0.0
  0
LINE
  5
96
330
18
100
AcDbEntity
  8
0030010007
100
AcDbLine
 10
-7.5
 20
-22.500000997651
 30
0.0
 11
-7.32603362379992
 21
-21.2621659117241
 31
0.0
  0
LINE
  5
97
330
18
100
AcDbEntity
  8
0030010007
100
AcDbLine
 10
-7.6739663762001
 20
-3.737834088278
 30
0.0
 11
-7.32603362379994
 21
-3.737834088278
 31
0.0
  0
LINE
  5
98
330
18
100
AcDbEntity
  8
0030010007
100
AcDbLine
 10
-7.32603362379996
 20
-3.737834088278
 30
0.0
 11
-7.50000000000004
 21
-2.4999990023511
 31
0.0
  0
LINE
  5
99
330
18
100
AcDbEntity
  8
0030010007
100
AcDbLine
 10
-7.5
 20
-2.4999990023511
 30
0.0
 11
-7.67396637620008
 21
-3.737834088278
 31
0.0
  0
LINE
  5
9A
330
18
100
AcDbEntity
  8
0030010007
100
AcDbLine
 10
-7.5
 20
-22.500000997651
 30
0.0
 11
-7.5
 21
-2.4999990023511
 31
0.0
  0
TEXT
  5
9B
330
18
100
AcDbEntity
  8
0030010007
100
AcDbText
 10
-8.250000047683731
 20
-13.9999999703685
 30
0.0
 40
1.50000011920929
  1
400
 50
90.0
 41
0.75
100
AcDbText
  0
LINE
  5
9C
330
18
100
AcDbEntity
  8
0030010007
100
AcDbLine
 10
-1.0
 20
0.0
 30
0.0
 11
-5.0
 21
0.0
 31
0.0
  0
LINE
  5
9D
330
18
100
AcDbEntity
  8
0030010007
100
AcDbLine
 10
12.7375002880708
 20
-12.4999999999999
 30
0.0
 11
-4.999999999999991
 21
-12.4999999999999
 31
0.0
  0
LINE
  5
9E
330
18
100
AcDbEntity
  8
0030010007
100
AcDbLine
 10
-4.1739663762001
 20
-1.237835085927
 30
0.0
 11
-3.82603362379994
 21
-1.237835085927
 31
0.0
  0
LINE
  5
9F
330
18
100
AcDbEntity
  8
0030010007
100
AcDbLine
 10
-3.8260336237999
 20
-1.237835085927
 30
0.0
 11
-3.99999999999998
 21
0.0
 31
0.0
  0
LINE
  5
A0
330
18
100
AcDbEntity
  8
0030010007
100
AcDbLine
 10
-4.0
 20
0.0
 30
0.0
 11
-4.17396637620008
 21
-1.237835085927
 31
0.0
  0
LINE
  5
A1
330
18
100
AcDbEntity
  8
0030010007
100
AcDbLine
 10
-3.8260336237999
 20
-11.2621649140729
 30
0.0
 11
-4.17396637620006
 21
-11.2621649140729
 31
0.0
  0
LINE
  5
A2
330
18
100
AcDbEntity
  8
0030010007
100
AcDbLine
 10
-4.1739663762001
 20
-11.2621649140729
 30
0.0
 11
-4.00000000000002
 21
-12.4999999999999
 31
0.0
  0
LINE
  5
A3
330
18
100
AcDbEntity
  8
0030010007
100
AcDbLine
 10
-4.0
 20
-12.4999999999999
 30
0.0
 11
-3.82603362379992
 21
-11.2621649140729
 31
0.0
  0
LINE
  5
A4
330
18
100
AcDbEntity
  8
0030010007
100
AcDbLine
 10
-4.0
 20
0.0
 30
0.0
 11
-4.0
 21
-12.4999999999999
 31
0.0
  0
TEXT
  5
A5
330
18
100
AcDbEntity
  8
0030010007
100
AcDbText
 10
-4.75000004768373
 20
-7.7500002203674
 30
0.0
 40
1.50000011920929
  1
250
 50
90.0
 41
0.75
100
AcDbText
  0
LINE
  5
A6
330
18
100
AcDbEntity
  8
0050010007
100
AcDbLine
 10
0.649999999999608
 20
-22.3499999999998
 30
0.0
 11
0.649999999999608
 21
-2.6499999999998
 31
0.0
  0
LINE
  5
A7
330
18
100
AcDbEntity
  8
0050010007
100
AcDbLine
 10
2.14999999999961
 20
-23.8499999999998
 30
0.0
 11
46.8499999999996
 21
-23.8499999999998
 31
0.0
  0
LINE
  5
A8
330
18
100
AcDbEntity
  8
0050010007
100
AcDbLine
 10
2.14999999999961
 20
-1.15
 30
0.0
 11
46.8499999999995
 21
-1.15
 31
0.0
  0
LINE
  5
A9
330
18
100
AcDbEntity
  8
0050010007
100
AcDbLine
 10
48.3499999999997
 20
-2.65
 30
0.0
 11
48.3499999999997
 21
-22.35
 31
0.0
  0
ARC
  5
AA
330
18
100
AcDbEntity
  8
0050010007
100
AcDbCircle
 10
2.14999999999961
 20
-22.3499999999998
 30
0.0
 40
1.5
100
AcDbArc
 50
180.0
 51
270.0
  0
ARC
  5
AB
330
18
100
AcDbEntity
  8
0050010007
100
AcDbCircle
 10
2.14999999999961
 20
-2.65
 30
0.0
 40
1.5
100
AcDbArc
 50
90.0
 51
180.0
  0
ARC
  5
AC
330
18
100
AcDbEntity
  8
0050010007
100
AcDbCircle
 10
46.8499999999997
 20
-2.65
 30
0.0
 40
1.5
100
AcDbArc
 50
0.0
 51
90.0
  0
ARC
  5
AD
330
18
100
AcDbEntity
  8
0050010007
100
AcDbCircle
 10
46.8499999999997
 20
-22.3499999999998
 30
0.0
 40
1.5
100
AcDbArc
 50
270.0
 51
0.0
  0
LINE
  5
AE
330
18
100
AcDbEntity
  8
0060010007
100
AcDbLine
 10
28.9999999999997
 20
-20.8943375672999
 30
0.0
 11
20.6999999999998
 21
-20.8943375672999
 31
0.0
  0
ARC
  5
AF
330
18
100
AcDbEntity
  8
0060010007
100
AcDbCircle
 10
20.6999999999996
 20
-22.2499999999999
 30
0.0
 40
1.3556624327
100
AcDbArc
 50
90.0
 51
146.3658860326
  0
ARC
  5
B0
330
18
100
AcDbEntity
  8
0060010007
100
AcDbCircle
 10
28.9999999999997
 20
-22.2499999999999
 30
0.0
 40
1.3556624327
100
AcDbArc
 50
33.6341139674
 51
90.0
  0
ARC
  5
B1
330
18
100
AcDbEntity
  8
0060010007
100
AcDbCircle
 10
14.9214399620482
 20
-18.1740979059242
 30
0.0
 40
5.71636416874729
100
AcDbArc
 50
276.821160438735
 51
324.432155968634
  0
ARC
  5
B2
330
18
100
AcDbEntity
  8
0060010007
100
AcDbCircle
 10
34.7785600379511
 20
-18.1740979059242
 30
0.0
 40
5.71636416874729
100
AcDbArc
 50
215.567844031366
 51
263.178839561265
  0
LINE
  5
B3
330
18
100
AcDbEntity
  8
0060010007
100
AcDbLine
 10
28.9999999999997
 20
-4.1056624326999
 30
0.0
 11
20.6999999999998
 21
-4.1056624326999
 31
0.0
  0
ARC
  5
B4
330
18
100
AcDbEntity
  8
0060010007
100
AcDbCircle
 10
20.6999999999996
 20
-2.7499999999999
 30
0.0
 40
1.3556624327
100
AcDbArc
 50
213.6341139674
 51
270.0
  0
ARC
  5
B5
330
18
100
AcDbEntity
  8
0060010007
100
AcDbCircle
 10
28.9999999999997
 20
-2.7499999999999
 30
0.0
 40
1.3556624327
100
AcDbArc
 50
270.0
 51
326.3658860326
  0
ARC
  5
B6
330
18
100
AcDbEntity
  8
0060010007
100
AcDbCircle
 10
14.9214399620482
 20
-6.8259020940753
 30
0.0
 40
5.71636416874729
100
AcDbArc
 50
35.5678440313657
 51
83.17883956126509
  0
ARC
  5
B7
330
18
100
AcDbEntity
  8
0060010007
100
AcDbCircle
 10
34.7785600379511
 20
-6.8259020940753
 30
0.0
 40
5.71636416874729
100
AcDbArc
 50
96.82116043873491
 51
144.432155968634
  0
LINE
  5
B8
330
18
100
AcDbEntity
  8
0010010007
100
AcDbLine
 10
47.1400014293256
 20
-22.5499999999998
 30
0.0
 11
34.2397563070907
 21
-22.5499999999998
 31
0.0
  0
LINE
  5
B9
330
18
100
AcDbEntity
  8
0010010007
100
AcDbLine
 10
30.8719532074507
 20
-19.6499999999998
 30
0.0
 11
47.1400014293256
 21
-19.6499999999998
 31
0.0
  0
LINE
  5
BA
330
18
100
AcDbEntity
  8
0010010007
100
AcDbLine
 10
30.5486816920057
 20
-12.0499999999999
 30
0.0
 11
42.9924829999906
 21
-12.0499999999999
 31
0.0
  0
LINE
  5
BB
330
18
100
AcDbEntity
  8
0010010007
100
AcDbLine
 10
30.1935820811857
 20
-11.6949999999999
 30
0.0
 11
30.1935820811857
 21
-6.60499999999992
 31
0.0
  0
LINE
  5
BC
330
18
100
AcDbEntity
  8
0010010007
100
AcDbLine
 10
30.5485491857507
 20
-6.24999999999993
 30
0.0
 11
47.1400014293256
 21
-6.24999999999993
 31
0.0
  0
LINE
  5
BD
330
18
100
AcDbEntity
  8
0010010007
100
AcDbLine
 10
47.1404455773856
 20
-22.5489518737348
 30
0.0
 11
47.1404455773856
 21
-19.6512741386099
 31
0.0
  0
LINE
  5
BE
330
18
100
AcDbEntity
  8
0010010007
100
AcDbLine
 10
47.1404455773856
 20
-18.7497374240099
 30
0.0
 11
47.1404455773856
 21
-6.251275612489931
 31
0.0
  0
ARC
  5
BF
330
18
100
AcDbEntity
  8
0010010007
100
AcDbCircle
 10
30.8719814507357
 20
-20.0049941469149
 30
0.0
 40
0.354997634474998
100
AcDbArc
 50
90.0045584439
 51
203.9359064521
  0
ARC
  5
C0
330
18
100
AcDbEntity
  8
0010010007
100
AcDbCircle
 10
34.2398573815557
 20
-18.5103981862799
 30
0.0
 40
4.03960957300498
100
AcDbArc
 50
203.9311489274
 51
269.9985664081
  0
ARC
  5
C1
330
18
100
AcDbEntity
  8
0010010007
100
AcDbCircle
 10
30.5487598354807
 20
-11.6948898116899
 30
0.0
 40
0.355115815679998
100
AcDbArc
 50
210.7552161235
 51
269.9873918255
  0
ARC
  5
C2
330
18
100
AcDbEntity
  8
0010010007
100
AcDbCircle
 10
30.5481051652157
 20
-11.6950819560149
 30
0.0
 40
0.354521594569998
100
AcDbArc
 50
179.9867547874
 51
210.7937989946
  0
ARC
  5
C3
330
18
100
AcDbEntity
  8
0010010007
100
AcDbCircle
 10
30.5485677891707
 20
-6.60498193500493
 30
0.0
 40
0.354983821974998
100
AcDbArc
 50
90.0030026808
 51
180.0029157449
  0
LINE
  5
C4
330
18
100
AcDbEntity
  8
0010010007
100
AcDbLine
 10
47.1400014293256
 20
-2.45101303649996
 30
0.0
 11
34.2397563070907
 21
-2.45101303649996
 31
0.0
  0
LINE
  5
C5
330
18
100
AcDbEntity
  8
0010010007
100
AcDbLine
 10
30.8719532074507
 20
-5.35101303649995
 30
0.0
 11
47.1400014293256
 21
-5.35101303649995
 31
0.0
  0
LINE
  5
C6
330
18
100
AcDbEntity
  8
0010010007
100
AcDbLine
 10
47.1404455773856
 20
-2.45206116276496
 30
0.0
 11
47.1404455773856
 21
-5.34973889788995
 31
0.0
  0
ARC
  5
C7
330
18
100
AcDbEntity
  8
0010010007
100
AcDbCircle
 10
30.8719814507357
 20
-4.99601888958495
 30
0.0
 40
0.354997634474998
100
AcDbArc
 50
156.0640935479
 51
269.9954415561
  0
ARC
  5
C8
330
18
100
AcDbEntity
  8
0010010007
100
AcDbCircle
 10
34.2398573815557
 20
-6.49061485021994
 30
0.0
 40
4.03960957300498
100
AcDbArc
 50
90.0014335919
 51
156.0688510726
  0
LINE
  5
C9
330
18
100
AcDbEntity
  8
0010010007
100
AcDbLine
 10
30.5486816920057
 20
-12.9510130364999
 30
0.0
 11
42.9924829999906
 21
-12.9510130364999
 31
0.0
  0
LINE
  5
CA
330
18
100
AcDbEntity
  8
0010010007
100
AcDbLine
 10
30.1935820811857
 20
-13.3060130364999
 30
0.0
 11
30.1935820811857
 21
-18.3960130364999
 31
0.0
  0
LINE
  5
CB
330
18
100
AcDbEntity
  8
0010010007
100
AcDbLine
 10
30.5485491857507
 20
-18.7510130364999
 30
0.0
 11
47.1400014293256
 21
-18.7510130364999
 31
0.0
  0
ARC
  5
CC
330
18
100
AcDbEntity
  8
0010010007
100
AcDbCircle
 10
30.5487598354807
 20
-13.3061232248099
 30
0.0
 40
0.355115815679998
100
AcDbArc
 50
90.0126081745
 51
149.2447838765
  0
ARC
  5
CD
330
18
100
AcDbEntity
  8
0010010007
100
AcDbCircle
 10
30.5481051652157
 20
-13.3059310804849
 30
0.0
 40
0.354521594569998
100
AcDbArc
 50
149.2062010054
 51
180.0132452126
  0
ARC
  5
CE
330
18
100
AcDbEntity
  8
0010010007
100
AcDbCircle
 10
30.5485677891707
 20
-18.3960311014949
 30
0.0
 40
0.354983821974998
100
AcDbArc
 50
179.9970842551
 51
269.9969973192
  0
LINE
  5
CF
330
18
100
AcDbEntity
  8
0010010007
100
AcDbLine
 10
42.9924829999906
 20
-12.9510130364999
 30
0.0
 11
42.9924829999906
 21
-12.0499999999999
 31
0.0
  0
ENDSEC
  0
SECTION
  2
OBJECTS
  0
DICTIONARY
  5
C
330
0
100
AcDbDictionary
281
     1
  3
ACAD_GROUP
350
D
  3
ACAD_LAYOUT
350
15
  3
ACAD_MLINESTYLE
350
12
  3
ACAD_PLOTSETTINGS
350
14
  3
ACAD_PLOTSTYLENAME
350
E
  3
ACAD_TABLESTYLE
350
D1
  3
AcDbVariableDictionary
350
D3
  0
DICTIONARY
  5
D
102
{ACAD_REACTORS
330
C
102
}
330
C
100
AcDbDictionary
281
     1
  0
DICTIONARY
  5
15
102
{ACAD_REACTORS
330
C
102
}
330
C
100
AcDbDictionary
281
     1
  3
Layout1
350
17
  3
Model
350
19
  0
DICTIONARY
  5
12
102
{ACAD_REACTORS
330
C
102
}
330
C
100
AcDbDictionary
281
     1
  3
Standard
350
13
  0
DICTIONARY
  5
14
102
{ACAD_REACTORS
330
C
102
}
330
C
100
AcDbDictionary
281
     1
  0
ACDBDICTIONARYWDFLT
  5
E
102
{ACAD_REACTORS
330
C
102
}
330
C
100
AcDbDictionary
281
     1
  3
Normal
350
F
100
AcDbDictionaryWithDefault
340
F
  0
DICTIONARY
  5
D1
102
{ACAD_REACTORS
330
C
102
}
330
C
100
AcDbDictionary
281
     1
  3
Standard
350
D2
  0
DICTIONARY
  5
D3
102
{ACAD_REACTORS
330
C
102
}
330
C
100
AcDbDictionary
281
     1
  3
CTABLESTYLE
350
D4
  0
LAYOUT
  5
17
102
{ACAD_REACTORS
330
15
102
}
330
15
100
AcDbPlotSettings
  1

  2

  4

  6

 40
0.0
 41
0.0
 42
0.0
 43
0.0
 44
0.0
 45
0.0
 46
0.0
 47
0.0
 48
0.0
 49
0.0
140
0.0
141
0.0
142
1.0
143
1.0
 70
   688
 72
     0
 73
     0
 74
     5
  7

 75
    16
147
1.0
148
0.0
149
0.0
100
AcDbLayout
  1
Layout1
 70
     1
 71
     1
 10
0.0
 20
0.0
 11
12.0
 21
9.0
 12
0.0
 22
0.0
 32
0.0
 14
1.000000000000000E+20
 24
1.000000000000000E+20
 34
1.000000000000000E+20
 15
-1.000000000000000E+20
 25
-1.000000000000000E+20
 35
-1.000000000000000E+20
146
0.0
 13
0.0
 23
0.0
 33
0.0
 16
1.0
 26
0.0
 36
0.0
 17
0.0
 27
1.0
 37
0.0
 76
     0
330
16
  0
LAYOUT
  5
19
102
{ACAD_REACTORS
330
15
102
}
330
15
100
AcDbPlotSettings
  1

  2

  4

  6

 40
0.0
 41
0.0
 42
0.0
 43
0.0
 44
0.0
 45
0.0
 46
0.0
 47
0.0
 48
0.0
 49
0.0
140
0.0
141
0.0
142
1.0
143
1.0
 70
  1712
 72
     0
 73
     0
 74
     0
  7

 75
     0
147
1.0
148
0.0
149
0.0
100
AcDbLayout
  1
Model
 70
     1
 71
     0
 10
0.0
 20
0.0
 11
0.0
 21
0.0
 12
0.0
 22
0.0
 32
0.0
 14
-32.05
 24
-32.05
 34
0.0
 15
1258.45
 25
893.05
 35
0.0
146
0.0
 13
0.0
 23
0.0
 33
0.0
 16
1.0
 26
0.0
 36
0.0
 17
0.0
 27
1.0
 37
0.0
 76
     0
330
18
  0
MLINESTYLE
  5
13
102
{ACAD_REACTORS
330
12
102
}
330
12
100
AcDbMlineStyle
  2
Standard
 70
     0
  3

 62
   256
 51
90.0
 52
90.0
 71
     2
 49
0.5
 62
   256
  6
BYLAYER
 49
-0.5
 62
   256
  6
BYLAYER
  0
ACDBPLACEHOLDER
  5
F
102
{ACAD_REACTORS
330
E
102
}
330
E
  0
TABLESTYLE
  5
D2
102
{ACAD_REACTORS
330
D1
102
}
330
D1
100
AcDbTableStyle
  3
Standard
 70
     0
 71
     0
 40
0.06
 41
0.06
280
     0
281
     0
  7
STANDARD
140
0.18
170
     2
 62
     0
 63
     7
283
     0
274
    -2
284
     1
 64
     0
275
    -2
285
     1
 65
     0
276
    -2
286
     1
 66
     0
277
    -2
287
     1
 67
     0
278
    -2
288
     1
 68
     0
279
    -2
289
     1
 69
     0
  7
STANDARD
140
0.25
170
     5
 62
     0
 63
     7
283
     0
274
    -2
284
     1
 64
     0
275
    -2
285
     1
 65
     0
276
    -2
286
     1
 66
     0
277
    -2
287
     1
 67
     0
278
    -2
288
     1
 68
     0
279
    -2
289
     1
 69
     0
  7
STANDARD
140
0.18
170
     5
 62
     0
 63
     7
283
     0
274
    -2
284
     1
 64
     0
275
    -2
285
     1
 65
     0
276
    -2
286
     1
 66
     0
277
    -2
287
     1
 67
     0
278
    -2
288
     1
 68
     0
279
    -2
289
     1
 69
     0
  0
DICTIONARYVAR
  5
D4
102
{ACAD_REACTORS
330
D3
102
}
330
D3
100
DictionaryVariables
280
     0
  1
Standard
  0
ENDSEC
  0
EOF
