  0
SECTION
  2
HEADER
  9
$ACADVER
  1
AC1015
  9
$ACADMAINTVER
 70
     6
  9
$DWGCODEPAGE
  3
UNDEFINED
  9
$INSBASE
 10
0.0
 20
0.0
 30
0.0
  9
$EXTMIN
 10
-32.05
 20
-32.05
 30
0.0
  9
$EXTMAX
 10
1258.45
 20
893.05
 30
0.0
  9
$LIMMIN
 10
-32.05
 20
-32.05
  9
$LIMMAX
 10
1258.45
 20
893.05
  9
$ORTHOMODE
 70
     0
  9
$REGENMODE
 70
     1
  9
$FILLMODE
 70
     1
  9
$QTEXTMODE
 70
     0
  9
$MIRRTEXT
 70
     1
  9
$LTSCALE
 40
1.0
  9
$ATTMODE
 70
     1
  9
$TEXTSIZE
 40
3.0
  9
$TRACEWID
 40
0.05
  9
$TEXTSTYLE
  7
STANDARD
  9
$CLAYER
  8
0
  9
$CELTYPE
  6
ByBlock
  9
$CECOLOR
 62
   256
  9
$CELTSCALE
 40
1.0
  9
$DISPSILH
 70
     0
  9
$DIMSCALE
 40
1.0
  9
$DIMASZ
 40
1.23783508592696
  9
$DIMEXO
 40
1.0
  9
$DIMDLI
 40
0.38
  9
$DIMRND
 40
0.0
  9
$DIMDLE
 40
0.0
  9
$DIMEXE
 40
1.0
  9
$DIMTP
 40
0.0
  9
$DIMTM
 40
0.0
  9
$DIMTXT
 40
3.0
  9
$DIMCEN
 40
1.0
  9
$DIMTSZ
 40
0.0
  9
$DIMTOL
 70
     0
  9
$DIMLIM
 70
     0
  9
$DIMTIH
 70
     1
  9
$DIMTOH
 70
     1
  9
$DIMSE1
 70
     0
  9
$DIMSE2
 70
     0
  9
$DIMTAD
 70
     0
  9
$DIMZIN
 70
     0
  9
$DIMBLK
  1

  9
$DIMASO
 70
     1
  9
$DIMSHO
 70
     1
  9
$DIMPOST
  1

  9
$DIMAPOST
  1

  9
$DIMALT
 70
     0
  9
$DIMALTD
 70
     2
  9
$DIMALTF
 40
25.4
  9
$DIMLFAC
 40
1.0
  9
$DIMTOFL
 70
     0
  9
$DIMTVP
 40
0.0
  9
$DIMTIX
 70
     0
  9
$DIMSOXD
 70
     0
  9
$DIMSAH
 70
     0
  9
$DIMBLK1
  1

  9
$DIMBLK2
  1

  9
$DIMSTYLE
  2
Standard
  9
$DIMCLRD
 70
     0
  9
$DIMCLRE
 70
     0
  9
$DIMCLRT
 70
     0
  9
$DIMTFAC
 40
1.0
  9
$DIMGAP
 40
0.09
  9
$DIMJUST
 70
     0
  9
$DIMSD1
 70
     0
  9
$DIMSD2
 70
     0
  9
$DIMTOLJ
 70
     1
  9
$DIMTZIN
 70
     0
  9
$DIMALTZ
 70
     0
  9
$DIMALTTZ
 70
     0
  9
$DIMUPT
 70
     0
  9
$DIMDEC
 70
     4
  9
$DIMTDEC
 70
     4
  9
$DIMALTU
 70
     2
  9
$DIMALTTD
 70
     2
  9
$DIMTXSTY
  7
STANDARD
  9
$DIMAUNIT
 70
     0
  9
$DIMADEC
 70
     0
  9
$DIMALTRND
 40
0.0
  9
$DIMAZIN
 70
     0
  9
$DIMDSEP
 70
    46
  9
$DIMATFIT
 70
     3
  9
$DIMFRAC
 70
     0
  9
$DIMLDRBLK
  1

  9
$DIMLUNIT
 70
     2
  9
$DIMLWD
 70
    -2
  9
$DIMLWE
 70
    -2
  9
$DIMTMOVE
 70
     0
  9
$LUNITS
 70
     2
  9
$LUPREC
 70
     4
  9
$SKETCHINC
 40
0.1
  9
$FILLETRAD
 40
0.0
  9
$AUNITS
 70
     0
  9
$AUPREC
 70
     4
  9
$MENU
  1
acad
  9
$ELEVATION
 40
0.0
  9
$PELEVATION
 40
0.0
  9
$THICKNESS
 40
0.0
  9
$LIMCHECK
 70
     0
  9
$CHAMFERA
 40
0.0
  9
$CHAMFERB
 40
0.0
  9
$CHAMFERC
 40
1.0
  9
$CHAMFERD
 40
0.0
  9
$SKPOLY
 70
     0
  9
$TDCREATE
 40
2454666.337913773
  9
$TDUCREATE
 40
2454666.462913773
  9
$TDUPDATE
 40
2454666.337913785
  9
$TDUUPDATE
 40
2454666.462913785
  9
$TDINDWG
 40
0.0000000116
  9
$TDUSRTIMER
 40
0.0000000116
  9
$USRTIMER
 70
     1
  9
$ANGBASE
 50
0.0
  9
$ANGDIR
 70
     0
  9
$PDMODE
 70
     0
  9
$PDSIZE
 40
0.0
  9
$PLINEWID
 40
0.0
  9
$SPLFRAME
 70
     0
  9
$SPLINETYPE
 70
     6
  9
$SPLINESEGS
 70
     8
  9
$HANDSEED
  5
E4
  9
$SURFTAB1
 70
     6
  9
$SURFTAB2
 70
     6
  9
$SURFTYPE
 70
     6
  9
$SURFU
 70
     6
  9
$SURFV
 70
     6
  9
$UCSBASE
  2

  9
$UCSNAME
  2

  9
$UCSORG
 10
0.0
 20
0.0
 30
0.0
  9
$UCSXDIR
 10
1.0
 20
0.0
 30
0.0
  9
$UCSYDIR
 10
0.0
 20
1.0
 30
0.0
  9
$UCSORTHOREF
  2

  9
$UCSORTHOVIEW
 70
     0
  9
$UCSORGTOP
 10
0.0
 20
0.0
 30
0.0
  9
$UCSORGBOTTOM
 10
0.0
 20
0.0
 30
0.0
  9
$UCSORGLEFT
 10
0.0
 20
0.0
 30
0.0
  9
$UCSORGRIGHT
 10
0.0
 20
0.0
 30
0.0
  9
$UCSORGFRONT
 10
0.0
 20
0.0
 30
0.0
  9
$UCSORGBACK
 10
0.0
 20
0.0
 30
0.0
  9
$PUCSBASE
  2

  9
$PUCSNAME
  2

  9
$PUCSORG
 10
0.0
 20
0.0
 30
0.0
  9
$PUCSXDIR
 10
1.0
 20
0.0
 30
0.0
  9
$PUCSYDIR
 10
0.0
 20
1.0
 30
0.0
  9
$PUCSORTHOREF
  2

  9
$PUCSORTHOVIEW
 70
     0
  9
$PUCSORGTOP
 10
0.0
 20
0.0
 30
0.0
  9
$PUCSORGBOTTOM
 10
0.0
 20
0.0
 30
0.0
  9
$PUCSORGLEFT
 10
0.0
 20
0.0
 30
0.0
  9
$PUCSORGRIGHT
 10
0.0
 20
0.0
 30
0.0
  9
$PUCSORGFRONT
 10
0.0
 20
0.0
 30
0.0
  9
$PUCSORGBACK
 10
0.0
 20
0.0
 30
0.0
  9
$USERI1
 70
     0
  9
$USERI2
 70
     0
  9
$USERI3
 70
     0
  9
$USERI4
 70
     0
  9
$USERI5
 70
     0
  9
$USERR1
 40
0.0
  9
$USERR2
 40
0.0
  9
$USERR3
 40
0.0
  9
$USERR4
 40
0.0
  9
$USERR5
 40
0.0
  9
$WORLDVIEW
 70
     1
  9
$SHADEDGE
 70
     3
  9
$SHADEDIF
 70
    70
  9
$TILEMODE
 70
     1
  9
$MAXACTVP
 70
    64
  9
$PINSBASE
 10
0.0
 20
0.0
 30
0.0
  9
$PLIMCHECK
 70
     0
  9
$PEXTMIN
 10
1.000000000000000E+20
 20
1.000000000000000E+20
 30
1.000000000000000E+20
  9
$PEXTMAX
 10
-1.000000000000000E+20
 20
-1.000000000000000E+20
 30
-1.000000000000000E+20
  9
$PLIMMIN
 10
0.0
 20
0.0
  9
$PLIMMAX
 10
12.0
 20
9.0
  9
$UNITMODE
 70
     0
  9
$VISRETAIN
 70
     1
  9
$PLINEGEN
 70
     0
  9
$PSLTSCALE
 70
     1
  9
$TREEDEPTH
 70
  3020
  9
$CMLSTYLE
  2
Standard
  9
$CMLJUST
 70
     0
  9
$CMLSCALE
 40
1.0
  9
$PROXYGRAPHICS
 70
     1
  9
$MEASUREMENT
 70
     0
  9
$CELWEIGHT
370
    -1
  9
$ENDCAPS
280
     0
  9
$JOINSTYLE
280
     0
  9
$LWDISPLAY
290
     0
  9
$INSUNITS
 70
     0
  9
$HYPERLINKBASE
  1

  9
$STYLESHEET
  1

  9
$XEDIT
290
     1
  9
$CEPSNTYPE
380
     0
  9
$PSTYLEMODE
290
     0
  9
$FINGERPRINTGUID
  2
{FAEB1C30-E019-11D5-929B-00C0DF256EC4}
  9
$VERSIONGUID
  2
{FAEB1C32-E019-11D5-929B-00C0DF256EC4}
  9
$EXTNAMES
290
     1
  9
$PSVPSCALE
 40
0.0
  9
$OLESTARTUP
290
     0
  0
ENDSEC
  0
SECTION
  2
CLASSES
  0
CLASS
  1
ACDBDICTIONARYWDFLT
  2
AcDbDictionaryWithDefault
  3
ObjectDBX Classes
 90
        0
280
     0
281
     0
  0
CLASS
  1
TABLESTYLE
  2
AcDbTableStyle
  3
ObjectDBX Classes
 90
     2047
280
     0
281
     0
  0
CLASS
  1
DICTIONARYVAR
  2
AcDbDictionaryVar
  3
ObjectDBX Classes
 90
        0
280
     0
281
     0
  0
CLASS
  1
ACDBPLACEHOLDER
  2
AcDbPlaceHolder
  3
ObjectDBX Classes
 90
        0
280
     0
281
     0
  0
CLASS
  1
LAYOUT
  2
AcDbLayout
  3
ObjectDBX Classes
 90
        0
280
     0
281
     0
  0
ENDSEC
  0
SECTION
  2
TABLES
  0
TABLE
  2
VPORT
  5
8
330
0
100
AcDbSymbolTable
 70
     1
  0
VPORT
  5
DB
330
8
100
AcDbSymbolTableRecord
100
AcDbViewportTableRecord
  2
*Active
 70
     0
 10
0.0
 20
0.0
 11
1.0
 21
1.0
 12
10.42990654205607
 22
4.5
 13
0.0
 23
0.0
 14
0.5
 24
0.5
 15
0.5
 25
0.5
 16
0.0
 26
0.0
 36
1.0
 17
0.0
 27
0.0
 37
0.0
 40
9.0
 41
1.972972972850329
 42
50.0
 43
0.0
 44
0.0
 50
0.0
 51
0.0
 71
     0
 72
   100
 73
     1
 74
     3
 75
     0
 76
     0
 77
     0
 78
     0
281
     0
 65
     1
110
0.0
120
0.0
130
0.0
111
1.0
121
0.0
131
0.0
112
0.0
122
1.0
132
0.0
 79
     0
146
0.0
  0
ENDTAB
  0
TABLE
  2
LTYPE
  5
5
330
0
100
AcDbSymbolTable
 70
     9
  0
LTYPE
  5
10
330
5
100
AcDbSymbolTableRecord
100
AcDbLinetypeTableRecord
  2
ByBlock
 70
     0
  3

 72
    65
 73
     0
 40
0.0
  0
LTYPE
  5
11
330
5
100
AcDbSymbolTableRecord
100
AcDbLinetypeTableRecord
  2
ByLayer
 70
     0
  3

 72
    65
 73
     0
 40
0.0
  0
LTYPE
  5
1B
330
5
100
AcDbSymbolTableRecord
100
AcDbLinetypeTableRecord
  2
CONTINUOUS
 70
     0
  3
Solid line
 72
    65
 73
     0
 40
0.0
  0
LTYPE
  5
1C
330
5
100
AcDbSymbolTableRecord
100
AcDbLinetypeTableRecord
  2
HIDDEN
 70
     0
  3
_ _ _ _ _ _ _ _ _ _ _ _ _ _ _ _ _ _ _ _ 
 72
    65
 73
     2
 40
0.375
 49
0.25
 74
     0
 49
-0.125
 74
     0
  0
LTYPE
  5
1D
330
5
100
AcDbSymbolTableRecord
100
AcDbLinetypeTableRecord
  2
DASHED
 70
     0
  3
__ __ __ __ __ __ __ __ __ __ __ __ __  
 72
    65
 73
     2
 40
0.75
 49
0.5
 74
     0
 49
-0.25
 74
     0
  0
LTYPE
  5
1E
330
5
100
AcDbSymbolTableRecord
100
AcDbLinetypeTableRecord
  2
CENTER
 70
     0
  3
____ _ ____ _ ____ _ ____ _ ____ _ ____ 
 72
    65
 73
     4
 40
2.0
 49
1.25
 74
     0
 49
-0.25
 74
     0
 49
0.25
 74
     0
 49
-0.25
 74
     0
  0
LTYPE
  5
1F
330
5
100
AcDbSymbolTableRecord
100
AcDbLinetypeTableRecord
  2
PHANTOM
 70
     0
  3
_____ _ _ _____ _ _ _____ _ _ _____ _ _ 
 72
    65
 73
     6
 40
2.5
 49
1.25
 74
     0
 49
-0.25
 74
     0
 49
0.25
 74
     0
 49
-0.25
 74
     0
 49
0.25
 74
     0
 49
-0.25
 74
     0
  0
LTYPE
  5
20
330
5
100
AcDbSymbolTableRecord
100
AcDbLinetypeTableRecord
  2
DOT
 70
     0
  3
........................................
 72
    65
 73
     2
 40
0.25
 49
0.0
 74
     0
 49
-0.25
 74
     0
  0
LTYPE
  5
21
330
5
100
AcDbSymbolTableRecord
100
AcDbLinetypeTableRecord
  2
DASHDOT
 70
     0
  3
__ . __ . __ . __ . __ . __ . __ . __ . 
 72
    65
 73
     4
 40
1.0
 49
0.5
 74
     0
 49
-0.25
 74
     0
 49
0.0
 74
     0
 49
-0.25
 74
     0
  0
LTYPE
  5
22
330
5
100
AcDbSymbolTableRecord
100
AcDbLinetypeTableRecord
  2
BORDER
 70
     0
  3
__ __ . __ __ . __ __ . __ __ . __ __ . 
 72
    65
 73
     6
 40
1.75
 49
0.5
 74
     0
 49
-0.25
 74
     0
 49
0.5
 74
     0
 49
-0.25
 74
     0
 49
0.0
 74
     0
 49
-0.25
 74
     0
  0
LTYPE
  5
23
330
5
100
AcDbSymbolTableRecord
100
AcDbLinetypeTableRecord
  2
DIVIDE
 70
     0
  3
__ . . __ . . __ . . __ . . __ . . __ . 
 72
    65
 73
     6
 40
1.25
 49
0.5
 74
     0
 49
-0.25
 74
     0
 49
0.0
 74
     0
 49
-0.25
 74
     0
 49
0.0
 74
     0
 49
-0.25
 74
     0
  0
ENDTAB
  0
TABLE
  2
LAYER
  5
2
330
0
100
AcDbSymbolTable
 70
     4
  0
LAYER
  5
24
330
2
100
AcDbSymbolTableRecord
100
AcDbLayerTableRecord
  2
0
 70
     0
 62
     7
  6
CONTINUOUS
370
    -3
390
F
  0
LAYER
  5
25
330
2
100
AcDbSymbolTableRecord
100
AcDbLayerTableRecord
  2
0010010007
 70
     0
 62
     7
  6
CONTINUOUS
370
    -3
390
F
  0
LAYER
  5
26
330
2
100
AcDbSymbolTableRecord
100
AcDbLayerTableRecord
  2
0030010002
 70
     0
 62
     2
  6
CONTINUOUS
370
    -3
390
F
  0
LAYER
  5
27
330
2
100
AcDbSymbolTableRecord
100
AcDbLayerTableRecord
  2
0020010004
 70
     0
 62
     4
  6
CONTINUOUS
370
    -3
390
F
  0
ENDTAB
  0
TABLE
  2
STYLE
  5
3
330
0
100
AcDbSymbolTable
 70
     1
  0
STYLE
  5
28
330
3
100
AcDbSymbolTableRecord
100
AcDbTextStyleTableRecord
  2
STANDARD
 70
     0
 40
0.0
 41
1.0
 50
0.0
 71
     0
 42
0.2
  3
txt
  4

  0
ENDTAB
  0
TABLE
  2
VIEW
  5
6
330
0
100
AcDbSymbolTable
 70
     1
  0
VIEW
  5
29
330
6
100
AcDbSymbolTableRecord
100
AcDbViewTableRecord
  2
1
 70
     0
 40
20600.0
 10
29641.0
 20
34500.0
 41
1.0
 11
0.0
 21
0.0
 31
1.0
 12
0.0
 22
0.0
 32
0.0
 42
50.0
 43
0.0
 44
0.0
 50
0.0
 71
     0
281
     0
 72
     0
  0
ENDTAB
  0
TABLE
  2
UCS
  5
7
330
0
100
AcDbSymbolTable
 70
     0
  0
ENDTAB
  0
TABLE
  2
APPID
  5
9
330
0
100
AcDbSymbolTable
 70
     1
  0
APPID
  5
2A
330
9
100
AcDbSymbolTableRecord
100
AcDbRegAppTableRecord
  2
ACAD
 70
     0
  0
ENDTAB
  0
TABLE
  2
DIMSTYLE
  5
A
330
0
100
AcDbSymbolTable
 70
     1
100
AcDbDimStyleTable
  0
DIMSTYLE
105
2B
330
A
100
AcDbSymbolTableRecord
100
AcDbDimStyleTableRecord
  2
Standard
 70
     0
340
28
  0
ENDTAB
  0
TABLE
  2
BLOCK_RECORD
  5
1
330
0
100
AcDbSymbolTable
 70
     0
  0
BLOCK_RECORD
  5
18
330
1
100
AcDbSymbolTableRecord
100
AcDbBlockTableRecord
  2
*Model_Space
340
19
  0
BLOCK_RECORD
  5
16
330
1
100
AcDbSymbolTableRecord
100
AcDbBlockTableRecord
  2
*Paper_Space
340
17
  0
ENDTAB
  0
ENDSEC
  0
SECTION
  2
BLOCKS
  0
BLOCK
  5
E0
330
18
100
AcDbEntity
  8
0
100
AcDbBlockBegin
  2
*Model_Space
 70
     0
 71
     0
 10
0.0
 20
0.0
 30
0.0
  3
*Model_Space
  1

  0
ENDBLK
  5
E1
330
18
100
AcDbEntity
  8
0
100
AcDbBlockEnd
  0
BLOCK
  5
E2
330
16
100
AcDbEntity
 67
     1
  8
0
100
AcDbBlockBegin
  2
*Paper_Space
 70
     0
 71
     0
 10
0.0
 20
0.0
 30
0.0
  3
*Paper_Space
  1

  0
ENDBLK
  5
E3
330
16
100
AcDbEntity
 67
     1
  8
0
100
AcDbBlockEnd
  0
ENDSEC
  0
SECTION
  2
ENTITIES
  0
LINE
  5
2C
330
18
100
AcDbEntity
  8
0010010007
100
AcDbLine
 10
-10.0
 20
10.0
 30
0.0
 11
-10.0
 21
490.0
 31
0.0
  0
LINE
  5
2D
330
18
100
AcDbEntity
  8
0010010007
100
AcDbLine
 10
13.0
 20
53.0
 30
0.0
 11
13.0
 21
447.0
 31
0.0
  0
LINE
  5
2E
330
18
100
AcDbEntity
  8
0010010007
100
AcDbLine
 10
0.0
 20
0.0
 30
0.0
 11
980.000000000001
 21
0.0
 31
0.0
  0
LINE
  5
2F
330
18
100
AcDbEntity
  8
0010010007
100
AcDbLine
 10
43.0
 20
23.0
 30
0.0
 11
937.0
 21
22.9999999999999
 31
0.0
  0
LINE
  5
30
330
18
100
AcDbEntity
  8
0010010007
100
AcDbLine
 10
43.0
 20
477.0
 30
0.0
 11
937.0
 21
477.0
 31
0.0
  0
LINE
  5
31
330
18
100
AcDbEntity
  8
0010010007
100
AcDbLine
 10
0.0
 20
500.0
 30
0.0
 11
980.000000000001
 21
500.0
 31
0.0
  0
LINE
  5
32
330
18
100
AcDbEntity
  8
0010010007
100
AcDbLine
 10
967.0
 20
447.0
 30
0.0
 11
967.0
 21
53.0
 31
0.0
  0
LINE
  5
33
330
18
100
AcDbEntity
  8
0010010007
100
AcDbLine
 10
990.0
 20
10.0
 30
0.0
 11
990.0
 21
490.0
 31
0.0
  0
ARC
  5
34
330
18
100
AcDbEntity
  8
0010010007
100
AcDbCircle
 10
43.0
 20
53.0
 30
0.0
 40
30.0
100
AcDbArc
 50
180.0
 51
270.0
  0
ARC
  5
35
330
18
100
AcDbEntity
  8
0010010007
100
AcDbCircle
 10
43.0
 20
447.0
 30
0.0
 40
30.0
100
AcDbArc
 50
90.0
 51
180.0
  0
ARC
  5
36
330
18
100
AcDbEntity
  8
0010010007
100
AcDbCircle
 10
937.0
 20
447.0
 30
0.0
 40
30.0
100
AcDbArc
 50
0.0
 51
90.0
  0
ARC
  5
37
330
18
100
AcDbEntity
  8
0010010007
100
AcDbCircle
 10
937.0
 20
53.0
 30
0.0
 40
30.0
100
AcDbArc
 50
270.0
 51
0.0
  0
ARC
  5
38
330
18
100
AcDbEntity
  8
0010010007
100
AcDbCircle
 10
0.0
 20
490.0
 30
0.0
 40
10.0
100
AcDbArc
 50
90.0
 51
180.0
  0
ARC
  5
39
330
18
100
AcDbEntity
  8
0010010007
100
AcDbCircle
 10
980.0
 20
490.0
 30
0.0
 40
10.0
100
AcDbArc
 50
0.0
 51
90.0
  0
ARC
  5
3A
330
18
100
AcDbEntity
  8
0010010007
100
AcDbCircle
 10
980.0
 20
10.0
 30
0.0
 40
10.0
100
AcDbArc
 50
270.0
 51
0.0
  0
ARC
  5
3B
330
18
100
AcDbEntity
  8
0010010007
100
AcDbCircle
 10
0.0
 20
10.0
 30
0.0
 40
10.0
100
AcDbArc
 50
180.0
 51
270.0
  0
LINE
  5
3C
330
18
100
AcDbEntity
  8
0030010002
100
AcDbLine
 10
-10.0
 20
491.000000000004
 30
0.0
 11
-10.0
 21
601.000000000004
 31
0.0
  0
LINE
  5
3D
330
18
100
AcDbEntity
  8
0030010002
100
AcDbLine
 10
990.0
 20
491.000000000004
 30
0.0
 11
990.0
 21
601.000000000004
 31
0.0
  0
SOLID
  5
3E
330
18
100
AcDbEntity
  8
0030010002
100
AcDbTrace
 10
-8.76216491407304
 20
599.8260336238041
 30
0.0
 11
-8.76216491407304
 21
600.173966376204
 31
0.0
 12
-10.0
 22
600.000000000004
 32
0.0
 13
-10.0
 23
600.000000000004
 33
0.0
  0
SOLID
  5
3F
330
18
100
AcDbEntity
  8
0030010002
100
AcDbTrace
 10
988.762164914073
 20
600.173966376204
 30
0.0
 11
988.762164914073
 21
599.8260336238041
 31
0.0
 12
990.0
 22
600.000000000004
 32
0.0
 13
990.0
 23
600.000000000004
 33
0.0
  0
LINE
  5
40
330
18
100
AcDbEntity
  8
0030010002
100
AcDbLine
 10
-10.0
 20
600.000000000004
 30
0.0
 11
990.0
 21
600.000000000004
 31
0.0
  0
TEXT
  5
41
330
18
100
AcDbEntity
  8
0030010002
100
AcDbText
 10
448.7499998774
 20
615.000000953678
 30
0.0
 40
30.0000019073486
  1
1000
 41
0.75
100
AcDbText
  0
LINE
  5
42
330
18
100
AcDbEntity
  8
0030010002
100
AcDbLine
 10
981.0
 20
500.000000000004
 30
0.0
 11
1091.0
 21
500.000000000004
 31
0.0
  0
LINE
  5
43
330
18
100
AcDbEntity
  8
0030010002
100
AcDbLine
 10
981.0
 20
0.0
 30
0.0
 11
1091.0
 21
0.0
 31
0.0
  0
SOLID
  5
44
330
18
100
AcDbEntity
  8
0030010002
100
AcDbTrace
 10
1089.8260336238
 20
498.762164914077
 30
0.0
 11
1090.1739663762
 21
498.762164914077
 31
0.0
 12
1090.0
 22
500.000000000004
 32
0.0
 13
1090.0
 23
500.000000000004
 33
0.0
  0
SOLID
  5
45
330
18
100
AcDbEntity
  8
0030010002
100
AcDbTrace
 10
1090.1739663762
 20
1.23783508592969
 30
0.0
 11
1089.8260336238
 21
1.23783508592969
 31
0.0
 12
1090.0
 22
0.0
 32
0.0
 13
1090.0
 23
0.0
 33
0.0
  0
LINE
  5
46
330
18
100
AcDbEntity
  8
0030010002
100
AcDbLine
 10
1090.0
 20
500.000000000004
 30
0.0
 11
1090.0
 21
0.0
 31
0.0
  0
TEXT
  5
47
330
18
100
AcDbEntity
  8
0030010002
100
AcDbText
 10
1074.99999904633
 20
219.999995592651
 30
0.0
 40
30.0000019073486
  1
500
 50
90.0
 41
0.75
100
AcDbText
  0
LINE
  5
48
330
18
100
AcDbEntity
  8
0010010007
100
AcDbLine
 10
568.722500000003
 20
348.0
 30
0.0
 11
568.722500000003
 21
152.000000000002
 31
0.0
  0
LINE
  5
49
330
18
100
AcDbEntity
  8
0010010007
100
AcDbLine
 10
471.872500000012
 20
398.850000000002
 30
0.0
 11
517.872500000012
 21
398.850000000002
 31
0.0
  0
LINE
  5
4A
330
18
100
AcDbEntity
  8
0010010007
100
AcDbLine
 10
421.022500000006
 20
152.000000000004
 30
0.0
 11
421.022500000006
 21
348.000000000001
 31
0.0
  0
LINE
  5
4B
330
18
100
AcDbEntity
  8
0010010007
100
AcDbLine
 10
517.872500000012
 20
101.150000000005
 30
0.0
 11
471.872500000013
 21
101.150000000005
 31
0.0
  0
CIRCLE
  5
4C
330
18
100
AcDbEntity
  8
0010010007
100
AcDbCircle
 10
494.872499999998
 20
250.0
 30
0.0
 40
44.8499999999995
  0
CIRCLE
  5
4D
330
18
100
AcDbEntity
  8
0010010007
100
AcDbCircle
 10
265.622500000012
 20
250.0
 30
0.0
 40
44.8499999999995
  0
ARC
  5
4E
330
18
100
AcDbEntity
  8
0010010007
100
AcDbCircle
 10
471.872500000012
 20
152.000000000004
 30
0.0
 40
50.8499999999994
100
AcDbArc
 50
180.0
 51
270.0
  0
ARC
  5
4F
330
18
100
AcDbEntity
  8
0010010007
100
AcDbCircle
 10
517.872500000012
 20
152.000000000004
 30
0.0
 40
50.8499999999994
100
AcDbArc
 50
270.0
 51
0.0
  0
ARC
  5
50
330
18
100
AcDbEntity
  8
0010010007
100
AcDbCircle
 10
517.872500000012
 20
348.0
 30
0.0
 40
50.8499999999993
100
AcDbArc
 50
0.0
 51
90.0
  0
ARC
  5
51
330
18
100
AcDbEntity
  8
0010010007
100
AcDbCircle
 10
471.872500000012
 20
348.0
 30
0.0
 40
50.8499999999994
100
AcDbArc
 50
90.0
 51
180.0
  0
ARC
  5
52
330
18
100
AcDbEntity
  8
0010010007
100
AcDbCircle
 10
207.872500000012
 20
6020.70099999994
 30
0.0
 40
5971.60000007288
100
AcDbArc
 50
269.118806055361
 51
270.881193944639
  0
ARC
  5
53
330
18
100
AcDbEntity
  8
0010010007
100
AcDbCircle
 10
298.486653000014
 20
129.376825000003
 30
0.0
 40
79.5790004783769
100
AcDbArc
 50
270.881194128834
 51
358.668311034252
  0
ARC
  5
54
330
18
100
AcDbEntity
  8
0010010007
100
AcDbCircle
 10
-4890.37749999993
 20
250.000000000004
 30
0.0
 40
5269.84499940082
100
AcDbArc
 50
358.668310813432
 51
1.33168919743792
  0
ARC
  5
55
330
18
100
AcDbEntity
  8
0010010007
100
AcDbCircle
 10
298.486653000014
 20
370.623176000001
 30
0.0
 40
79.5789996051525
100
AcDbArc
 50
1.33168896574762
 51
89.11880586009281
  0
ARC
  5
56
330
18
100
AcDbEntity
  8
0010010007
100
AcDbCircle
 10
207.872500000012
 20
-5520.70099999993
 30
0.0
 40
5971.60000007288
100
AcDbArc
 50
89.11880605536101
 51
90.88119394463899
  0
ARC
  5
57
330
18
100
AcDbEntity
  8
0010010007
100
AcDbCircle
 10
117.25834700001
 20
370.623176000001
 30
0.0
 40
79.57899947849531
100
AcDbArc
 50
90.8811941399071
 51
178.668311050985
  0
ARC
  5
58
330
18
100
AcDbEntity
  8
0010010007
100
AcDbCircle
 10
5306.12249999995
 20
250.0
 30
0.0
 40
5269.84500042379
100
AcDbArc
 50
178.668310802815
 51
181.331689186316
  0
ARC
  5
59
330
18
100
AcDbEntity
  8
0010010007
100
AcDbCircle
 10
117.25834700001
 20
129.376825000003
 30
0.0
 40
79.5790006048824
100
AcDbArc
 50
181.331688949015
 51
269.118805871166
  0
CIRCLE
  5
5A
330
18
100
AcDbEntity
  8
0020010004
100
AcDbCircle
 10
265.622500000012
 20
250.0
 30
0.0
 40
61.5000061355488
  0
CIRCLE
  5
5B
330
18
100
AcDbEntity
  8
0020010004
100
AcDbCircle
 10
494.872499999998
 20
250.0
 30
0.0
 40
61.5000061355488
  0
CIRCLE
  5
5C
330
18
100
AcDbEntity
  8
0010010007
100
AcDbCircle
 10
714.377499999988
 20
250.0
 30
0.0
 40
44.8499999999995
  0
ARC
  5
5D
330
18
100
AcDbEntity
  8
0010010007
100
AcDbCircle
 10
772.127499999988
 20
6020.70099999994
 30
0.0
 40
5971.60000007288
100
AcDbArc
 50
269.118806055361
 51
270.881193944639
  0
ARC
  5
5E
330
18
100
AcDbEntity
  8
0010010007
100
AcDbCircle
 10
681.513347
 20
129.376825000003
 30
0.0
 40
79.5790004783769
100
AcDbArc
 50
181.331688965748
 51
269.118805871166
  0
ARC
  5
5F
330
18
100
AcDbEntity
  8
0010010007
100
AcDbCircle
 10
5870.37749999994
 20
250.000000000007
 30
0.0
 40
5269.84499940082
100
AcDbArc
 50
178.668310802562
 51
181.331689186568
  0
ARC
  5
60
330
18
100
AcDbEntity
  8
0010010007
100
AcDbCircle
 10
681.513347
 20
370.623176000001
 30
0.0
 40
79.5789996051525
100
AcDbArc
 50
90.8811941399071
 51
178.668311034252
  0
ARC
  5
61
330
18
100
AcDbEntity
  8
0010010007
100
AcDbCircle
 10
772.127500000002
 20
-5520.70099999993
 30
0.0
 40
5971.60000007288
100
AcDbArc
 50
89.11880605536101
 51
90.88119394463899
  0
ARC
  5
62
330
18
100
AcDbEntity
  8
0010010007
100
AcDbCircle
 10
862.74165299999
 20
370.623176000001
 30
0.0
 40
79.57899947849531
100
AcDbArc
 50
1.331688949015
 51
89.11880586009302
  0
ARC
  5
63
330
18
100
AcDbEntity
  8
0010010007
100
AcDbCircle
 10
-4326.12249999995
 20
249.999999999996
 30
0.0
 40
5269.84500042379
100
AcDbArc
 50
358.668310813684
 51
1.33168919718524
  0
ARC
  5
64
330
18
100
AcDbEntity
  8
0010010007
100
AcDbCircle
 10
862.74165299999
 20
129.376825000003
 30
0.0
 40
79.5790006048824
100
AcDbArc
 50
270.881194128834
 51
358.668311050985
  0
CIRCLE
  5
65
330
18
100
AcDbEntity
  8
0020010004
100
AcDbCircle
 10
714.377499999988
 20
250.0
 30
0.0
 40
61.5000061355488
  0
LINE
  5
66
330
18
100
AcDbEntity
  8
0010010007
100
AcDbLine
 10
568.5008665000061
 20
999.923327803765
 30
0.0
 11
562.993217500006
 21
873.777446803766
 31
0.0
  0
LINE
  5
67
330
18
100
AcDbEntity
  8
0010010007
100
AcDbLine
 10
555.639486500004
 20
862.226766803768
 30
0.0
 11
551.880842500004
 21
859.394424803767
 31
0.0
  0
LINE
  5
68
330
18
100
AcDbEntity
  8
0010010007
100
AcDbLine
 10
421.244170500009
 20
999.923327803765
 30
0.0
 11
426.751819500009
 21
873.777435803766
 31
0.0
  0
LINE
  5
69
330
18
100
AcDbEntity
  8
0010010007
100
AcDbLine
 10
392.872518500008
 20
1001.57970880377
 30
0.0
 11
392.872518500008
 21
1000.87970880377
 31
0.0
  0
LINE
  5
6A
330
18
100
AcDbEntity
  8
0010010007
100
AcDbLine
 10
323.327303500002
 20
831.499444803765
 30
0.0
 11
327.248545500002
 21
832.849636803765
 31
0.0
  0
LINE
  5
6B
330
18
100
AcDbEntity
  8
0010010007
100
AcDbLine
 10
578.872518500008
 20
1000.87970880377
 30
0.0
 11
410.872518500009
 21
1000.87970880377
 31
0.0
  0
LINE
  5
6C
330
18
100
AcDbEntity
  8
0010010007
100
AcDbLine
 10
392.872518500008
 20
1000.87970880377
 30
0.0
 11
22.87251850001161
 21
1000.87970880377
 31
0.0
  0
LINE
  5
6D
330
18
100
AcDbEntity
  8
0010010007
100
AcDbLine
 10
378.422564499997
 20
998.700081803767
 30
0.0
 11
372.000008499997
 21
876.150426803768
 31
0.0
  0
LINE
  5
6E
330
18
100
AcDbEntity
  8
0010010007
100
AcDbLine
 10
434.105926500008
 20
862.226482803766
 30
0.0
 11
437.864194500008
 21
859.394424803766
 31
0.0
  0
LINE
  5
6F
330
18
100
AcDbEntity
  8
0010010007
100
AcDbLine
 10
549.984773500008
 20
860.895533803767
 30
0.0
 11
550.527936500008
 21
860.907666803767
 31
0.0
  0
LINE
  5
70
330
18
100
AcDbEntity
  8
0010010007
100
AcDbLine
 10
550.5279365000021
 20
860.907666803767
 30
0.0
 11
551.055581500002
 21
860.940117803767
 31
0.0
  0
LINE
  5
71
330
18
100
AcDbEntity
  8
0010010007
100
AcDbLine
 10
551.055581499997
 20
860.94011780377
 30
0.0
 11
551.569176499997
 21
860.99352680377
 31
0.0
  0
LINE
  5
72
330
18
100
AcDbEntity
  8
0010010007
100
AcDbLine
 10
551.569176500008
 20
860.993526803766
 30
0.0
 11
552.069023500008
 21
861.0659698037661
 31
0.0
  0
LINE
  5
73
330
18
100
AcDbEntity
  8
0010010007
100
AcDbLine
 10
552.069023500007
 20
861.065969803767
 30
0.0
 11
552.555143500007
 21
861.156233803767
 31
0.0
  0
LINE
  5
74
330
18
100
AcDbEntity
  8
0010010007
100
AcDbLine
 10
552.555143500009
 20
861.156233803766
 30
0.0
 11
553.0269235000091
 21
861.262821803766
 31
0.0
  0
LINE
  5
75
330
18
100
AcDbEntity
  8
0010010007
100
AcDbLine
 10
553.026923500001
 20
861.262821803768
 30
0.0
 11
553.483730500001
 21
861.3848368037681
 31
0.0
  0
LINE
  5
76
330
18
100
AcDbEntity
  8
0010010007
100
AcDbLine
 10
553.483730499996
 20
861.384836803769
 30
0.0
 11
553.922550499997
 21
861.519264803769
 31
0.0
  0
LINE
  5
77
330
18
100
AcDbEntity
  8
0010010007
100
AcDbLine
 10
553.922550500007
 20
861.519264803766
 30
0.0
 11
554.343069500007
 21
861.665873803766
 31
0.0
  0
LINE
  5
78
330
18
100
AcDbEntity
  8
0010010007
100
AcDbLine
 10
554.3430694999991
 20
861.665873803766
 30
0.0
 11
554.731904499999
 21
861.815416803766
 31
0.0
  0
LINE
  5
79
330
18
100
AcDbEntity
  8
0010010007
100
AcDbLine
 10
554.731904500004
 20
861.815416803769
 30
0.0
 11
555.084357500004
 21
861.965669803769
 31
0.0
  0
LINE
  5
7A
330
18
100
AcDbEntity
  8
0010010007
100
AcDbLine
 10
555.084357500004
 20
861.965669803765
 30
0.0
 11
555.369883500004
 21
862.095333803765
 31
0.0
  0
LINE
  5
7B
330
18
100
AcDbEntity
  8
0010010007
100
AcDbLine
 10
555.369883499996
 20
862.095333803769
 30
0.0
 11
555.552576499996
 21
862.179610803769
 31
0.0
  0
LINE
  5
7C
330
18
100
AcDbEntity
  8
0010010007
100
AcDbLine
 10
555.552576500006
 20
862.179610803767
 30
0.0
 11
555.639404500006
 21
862.226704803767
 31
0.0
  0
LINE
  5
7D
330
18
100
AcDbEntity
  8
0010010007
100
AcDbLine
 10
549.984773500008
 20
860.895527803768
 30
0.0
 11
439.760226500009
 21
860.895526803768
 31
0.0
  0
LINE
  5
7E
330
18
100
AcDbEntity
  8
0010010007
100
AcDbLine
 10
551.880842500002
 20
859.394424803766
 30
0.0
 11
437.864194500004
 21
859.394424803766
 31
0.0
  0
LINE
  5
7F
330
18
100
AcDbEntity
  8
0010010007
100
AcDbLine
 10
539.722518499999
 20
858.437543803768
 30
0.0
 11
450.0225185
 21
858.437543803768
 31
0.0
  0
LINE
  5
80
330
18
100
AcDbEntity
  8
0010010007
100
AcDbLine
 10
439.760226500002
 20
860.895526803768
 30
0.0
 11
439.217066500002
 21
860.907662803768
 31
0.0
  0
LINE
  5
81
330
18
100
AcDbEntity
  8
0010010007
100
AcDbLine
 10
439.217066500001
 20
860.907662803769
 30
0.0
 11
438.689395500001
 21
860.940119803769
 31
0.0
  0
LINE
  5
82
330
18
100
AcDbEntity
  8
0010010007
100
AcDbLine
 10
438.689395499998
 20
860.940119803767
 30
0.0
 11
438.175738499998
 21
860.993541803767
 31
0.0
  0
LINE
  5
83
330
18
100
AcDbEntity
  8
0010010007
100
AcDbLine
 10
438.175738500009
 20
860.993541803768
 30
0.0
 11
437.675831500009
 21
861.066000803768
 31
0.0
  0
LINE
  5
84
330
18
100
AcDbEntity
  8
0010010007
100
AcDbLine
 10
437.675831500004
 20
861.06600080377
 30
0.0
 11
437.189665500004
 21
861.15628380377
 31
0.0
  0
LINE
  5
85
330
18
100
AcDbEntity
  8
0010010007
100
AcDbLine
 10
437.189665500002
 20
861.156283803768
 30
0.0
 11
436.717879500002
 21
861.262882803768
 31
0.0
  0
LINE
  5
86
330
18
100
AcDbEntity
  8
0010010007
100
AcDbLine
 10
436.717879500007
 20
861.262882803767
 30
0.0
 11
436.261120500007
 21
861.384889803767
 31
0.0
  0
LINE
  5
87
330
18
100
AcDbEntity
  8
0010010007
100
AcDbLine
 10
436.261120499999
 20
861.384889803765
 30
0.0
 11
435.822419499999
 21
861.519282803765
 31
0.0
  0
LINE
  5
88
330
18
100
AcDbEntity
  8
0010010007
100
AcDbLine
 10
435.822419500008
 20
861.519282803769
 30
0.0
 11
435.402114500008
 21
861.665809803769
 31
0.0
  0
LINE
  5
89
330
18
100
AcDbEntity
  8
0010010007
100
AcDbLine
 10
435.402114500001
 20
861.665809803766
 30
0.0
 11
435.013516500001
 21
861.815255803766
 31
0.0
  0
LINE
  5
8A
330
18
100
AcDbEntity
  8
0010010007
100
AcDbLine
 10
435.013516499996
 20
861.815255803765
 30
0.0
 11
434.661291499996
 21
861.965395803765
 31
0.0
  0
LINE
  5
8B
330
18
100
AcDbEntity
  8
0010010007
100
AcDbLine
 10
434.661291500001
 20
861.965395803767
 30
0.0
 11
434.375861500001
 21
862.095005803767
 31
0.0
  0
LINE
  5
8C
330
18
100
AcDbEntity
  8
0010010007
100
AcDbLine
 10
434.375861499997
 20
862.095005803767
 30
0.0
 11
434.192983499997
 21
862.179372803767
 31
0.0
  0
LINE
  5
8D
330
18
100
AcDbEntity
  8
0010010007
100
AcDbLine
 10
434.192983500005
 20
862.17937280377
 30
0.0
 11
434.105593500005
 21
862.22673380377
 31
0.0
  0
LINE
  5
8E
330
18
100
AcDbEntity
  8
0010010007
100
AcDbLine
 10
437.864194499998
 20
859.394424803766
 30
0.0
 11
450.022518499998
 21
858.437543803766
 31
0.0
  0
LINE
  5
8F
330
18
100
AcDbEntity
  8
0010010007
100
AcDbLine
 10
551.880842500002
 20
859.394424803766
 30
0.0
 11
539.7225185000031
 21
858.437543803766
 31
0.0
  0
LINE
  5
90
330
18
100
AcDbEntity
  8
0010010007
100
AcDbLine
 10
327.248545499999
 20
832.84963680377
 30
0.0
 11
327.869165499999
 21
832.86588780377
 31
0.0
  0
LINE
  5
91
330
18
100
AcDbEntity
  8
0010010007
100
AcDbLine
 10
327.248545499999
 20
832.84963680377
 30
0.0
 11
203.9964915
 21
832.84963680377
 31
0.0
  0
LINE
  5
92
330
18
100
AcDbEntity
  8
0010010007
100
AcDbLine
 10
310.564675500005
 20
828.079708803769
 30
0.0
 11
323.327303500005
 21
831.4994448037691
 31
0.0
  0
LINE
  5
93
330
18
100
AcDbEntity
  8
0010010007
100
AcDbLine
 10
323.327303500002
 20
831.499444803765
 30
0.0
 11
207.917733500003
 21
831.499444803765
 31
0.0
  0
LINE
  5
94
330
18
100
AcDbEntity
  8
0010010007
100
AcDbLine
 10
310.564675500005
 20
828.079708803769
 30
0.0
 11
220.680361500006
 21
828.079708803769
 31
0.0
  0
LINE
  5
95
330
18
100
AcDbEntity
  8
0010010007
100
AcDbLine
 10
203.996491500002
 20
832.84963680377
 30
0.0
 11
87.5478015000031
 21
835.898952803771
 31
0.0
  0
LINE
  5
96
330
18
100
AcDbEntity
  8
0010010007
100
AcDbLine
 10
220.68036150001
 20
828.079708803769
 30
0.0
 11
207.91773350001
 21
831.4994448037691
 31
0.0
  0
LINE
  5
97
330
18
100
AcDbEntity
  8
0010010007
100
AcDbLine
 10
207.917733499999
 20
831.499444803765
 30
0.0
 11
203.996491499999
 21
832.849636803765
 31
0.0
  0
LINE
  5
98
330
18
100
AcDbEntity
  8
0010010007
100
AcDbLine
 10
43.5862995000061
 20
879.179143803765
 30
0.0
 11
37.3224725000062
 21
998.700081803764
 31
0.0
  0
LINE
  5
99
330
18
100
AcDbEntity
  8
0010010007
100
AcDbLine
 10
22.8725185000076
 20
1001.57970880377
 30
0.0
 11
22.8725185000076
 21
1000.87970880377
 31
0.0
  0
ARC
  5
9A
330
18
100
AcDbEntity
  8
0010010007
100
AcDbCircle
 10
569.499914500004
 20
999.879708803765
 30
0.0
 40
0.999999924822539
100
AcDbArc
 50
100.93679514097
 51
177.500021619499
  0
ARC
  5
9B
330
18
100
AcDbEntity
  8
0010010007
100
AcDbCircle
 10
420.245122499997
 20
999.879708803765
 30
0.0
 40
0.999999761732478
100
AcDbArc
 50
2.49997838050098
 51
79.06320485903041
  0
ARC
  5
9C
330
18
100
AcDbEntity
  8
0010010007
100
AcDbCircle
 10
440.438779500008
 20
874.3750218037681
 30
0.0
 40
13.69999938208
100
AcDbArc
 50
182.500001758388
 51
242.465919040747
  0
ARC
  5
9D
330
18
100
AcDbEntity
  8
0010010007
100
AcDbCircle
 10
549.306257500008
 20
874.375024803765
 30
0.0
 40
13.6999999621889
100
AcDbArc
 50
297.534301657662
 51
357.50003166716
  0
ARC
  5
9E
330
18
100
AcDbEntity
  8
0010010007
100
AcDbCircle
 10
326.362635500001
 20
878.542115803768
 30
0.0
 40
45.7000002606338
100
AcDbArc
 50
271.500000571282
 51
357.000000267955
  0
ARC
  5
9F
330
18
100
AcDbEntity
  8
0010010007
100
AcDbCircle
 10
89.22367750000561
 20
881.570733803768
 30
0.0
 40
45.6999992522443
100
AcDbArc
 50
182.99999979766
 51
268.500000649206
  0
ARC
  5
A0
330
18
100
AcDbEntity
  8
0010010007
100
AcDbCircle
 10
35.0256245000055
 20
998.579708803765
 30
0.0
 40
2.30000008570298
100
AcDbArc
 50
3.00000738772457
 51
68.2500027210211
  0
ARC
  5
A1
330
18
100
AcDbEntity
  8
0010010007
100
AcDbCircle
 10
380.719412499995
 20
998.579708803765
 30
0.0
 40
2.30000035755057
100
AcDbArc
 50
111.750020416741
 51
176.999992612275
  0
LINE
  5
A2
330
18
100
AcDbEntity
  8
0010010007
100
AcDbLine
 10
410.872518500008
 20
1000.87970880377
 30
0.0
 11
410.872518500008
 21
1001.57970880377
 31
0.0
  0
LINE
  5
A3
330
18
100
AcDbEntity
  8
0010010007
100
AcDbLine
 10
578.872518500008
 20
1000.87970880377
 30
0.0
 11
578.872518500008
 21
1001.57970880377
 31
0.0
  0
LINE
  5
A4
330
18
100
AcDbEntity
  8
0010010007
100
AcDbLine
 10
-9.794951499992751
 20
1009.77467880377
 30
0.0
 11
-6.54643149999271
 21
1013.02320880377
 31
0.0
  0
LINE
  5
A5
330
18
100
AcDbEntity
  8
0010010007
100
AcDbLine
 10
-8.80501149999327
 20
1008.78473880377
 30
0.0
 11
-5.55648149999331
 21
1012.03325880377
 31
0.0
  0
LINE
  5
A6
330
18
100
AcDbEntity
  8
0010010007
100
AcDbLine
 10
5.0000185000099
 20
992.579708803765
 30
0.0
 11
5.0000185000099
 21
1010.67970880377
 31
0.0
  0
LINE
  5
A7
330
18
100
AcDbEntity
  8
0010010007
100
AcDbLine
 10
17.0414684999996
 20
1006.57970880377
 30
0.0
 11
14.1835884999996
 21
1011.52970880377
 31
0.0
  0
LINE
  5
A8
330
18
100
AcDbEntity
  8
0010010007
100
AcDbLine
 10
25.7017285000038
 20
1001.57970880377
 30
0.0
 11
964.043271499997
 21
1001.57970880377
 31
0.0
  0
LINE
  5
A9
330
18
100
AcDbEntity
  8
0010010007
100
AcDbLine
 10
-5.20292149999295
 20
1012.17970880377
 30
0.0
 11
3.500018500007061
 21
1012.17970880377
 31
0.0
  0
LINE
  5
AA
330
18
100
AcDbEntity
  8
0010010007
100
AcDbLine
 10
-5.20292149999295
 20
1013.57970880377
 30
0.0
 11
994.947921499991
 21
1013.57970880377
 31
0.0
  0
ARC
  5
AB
330
18
100
AcDbEntity
  8
0010010007
100
AcDbCircle
 10
3.5000185000099
 20
1010.67970880377
 30
0.0
 40
1.5
100
AcDbArc
 50
0.0
 51
90.0
  0
ARC
  5
AC
330
18
100
AcDbEntity
  8
0010010007
100
AcDbCircle
 10
-5.20292149999295
 20
1011.67970880377
 30
0.0
 40
1.9
100
AcDbArc
 50
90.0
 51
135.0
  0
ARC
  5
AD
330
18
100
AcDbEntity
  8
0010010007
100
AcDbCircle
 10
-9.29998149999301
 20
1009.27970880377
 30
0.0
 40
0.7
100
AcDbArc
 50
135.0
 51
315.0
  0
ARC
  5
AE
330
18
100
AcDbEntity
  8
0010010007
100
AcDbCircle
 10
-5.20292149999295
 20
1011.67970880377
 30
0.0
 40
0.5
100
AcDbArc
 50
90.0
 51
135.0
  0
ARC
  5
AF
330
18
100
AcDbEntity
  8
0010010007
100
AcDbCircle
 10
25.7017285000038
 20
1011.57970880377
 30
0.0
 40
10.0
100
AcDbArc
 50
210.0
 51
270.0
  0
ARC
  5
B0
330
18
100
AcDbEntity
  8
0010010007
100
AcDbCircle
 10
10.6328785000078
 20
1009.47970880377
 30
0.0
 40
4.1
100
AcDbArc
 50
30.0
 51
90.0
  0
LINE
  5
B1
330
18
100
AcDbEntity
  8
0030010002
100
AcDbLine
 10
-6.20292149999295
 20
1013.57970880377
 30
0.0
 11
-114.95139248226
 21
1013.57970880377
 31
0.0
  0
LINE
  5
B2
330
18
100
AcDbEntity
  8
0030010002
100
AcDbLine
 10
202.996491500006
 20
832.84963680377
 30
0.0
 11
-114.95139248226
 21
832.84963680377
 31
0.0
  0
SOLID
  5
B3
330
18
100
AcDbEntity
  8
0030010002
100
AcDbTrace
 10
-114.125358858461
 20
1012.34187371784
 30
0.0
 11
-113.77742610606
 21
1012.34187371784
 31
0.0
 12
-113.95139248226
 22
1013.57970880377
 32
0.0
 13
-113.95139248226
 23
1013.57970880377
 33
0.0
  0
SOLID
  5
B4
330
18
100
AcDbEntity
  8
0030010002
100
AcDbTrace
 10
-113.77742610606
 20
834.087471889697
 30
0.0
 11
-114.125358858461
 21
834.087471889697
 31
0.0
 12
-113.95139248226
 22
832.84963680377
 32
0.0
 13
-113.95139248226
 23
832.84963680377
 33
0.0
  0
LINE
  5
B5
330
18
100
AcDbEntity
  8
0030010002
100
AcDbLine
 10
-113.95139248226
 20
1013.57970880377
 30
0.0
 11
-113.95139248226
 21
832.84963680377
 31
0.0
  0
TEXT
  5
B6
330
18
100
AcDbEntity
  8
0030010002
100
AcDbText
 10
-128.951393435942
 20
893.214668396417
 30
0.0
 40
30.0000019073486
  1
180
 50
90.0
 41
0.75
100
AcDbText
  0
LINE
  5
B7
330
18
100
AcDbEntity
  8
0010010007
100
AcDbLine
 10
999.539951499988
 20
1009.77467880377
 30
0.0
 11
996.291431499988
 21
1013.02320880377
 31
0.0
  0
LINE
  5
B8
330
18
100
AcDbEntity
  8
0010010007
100
AcDbLine
 10
998.550011499989
 20
1008.78473880377
 30
0.0
 11
995.301481499989
 21
1012.03325880377
 31
0.0
  0
LINE
  5
B9
330
18
100
AcDbEntity
  8
0010010007
100
AcDbLine
 10
984.744981499985
 20
992.579708803765
 30
0.0
 11
984.744981499985
 21
1010.67970880377
 31
0.0
  0
LINE
  5
BA
330
18
100
AcDbEntity
  8
0010010007
100
AcDbLine
 10
972.703531499996
 20
1006.57970880377
 30
0.0
 11
975.561411499996
 21
1011.52970880377
 31
0.0
  0
LINE
  5
BB
330
18
100
AcDbEntity
  8
0010010007
100
AcDbLine
 10
994.947921499988
 20
1012.17970880377
 30
0.0
 11
986.2449814999879
 21
1012.17970880377
 31
0.0
  0
ARC
  5
BC
330
18
100
AcDbEntity
  8
0010010007
100
AcDbCircle
 10
986.244981499985
 20
1010.67970880377
 30
0.0
 40
1.5
100
AcDbArc
 50
90.0
 51
180.0
  0
ARC
  5
BD
330
18
100
AcDbEntity
  8
0010010007
100
AcDbCircle
 10
994.947921499988
 20
1011.67970880377
 30
0.0
 40
1.9
100
AcDbArc
 50
45.0
 51
90.0
  0
ARC
  5
BE
330
18
100
AcDbEntity
  8
0010010007
100
AcDbCircle
 10
999.044981499988
 20
1009.27970880377
 30
0.0
 40
0.7
100
AcDbArc
 50
225.0
 51
45.0
  0
ARC
  5
BF
330
18
100
AcDbEntity
  8
0010010007
100
AcDbCircle
 10
994.947921499988
 20
1011.67970880377
 30
0.0
 40
0.5
100
AcDbArc
 50
45.0
 51
90.0
  0
ARC
  5
C0
330
18
100
AcDbEntity
  8
0010010007
100
AcDbCircle
 10
964.043271499992
 20
1011.57970880377
 30
0.0
 40
10.0
100
AcDbArc
 50
270.0
 51
330.0
  0
ARC
  5
C1
330
18
100
AcDbEntity
  8
0010010007
100
AcDbCircle
 10
979.112121499988
 20
1009.47970880377
 30
0.0
 40
4.1
100
AcDbArc
 50
90.0
 51
150.0
  0
LINE
  5
C2
330
18
100
AcDbEntity
  8
0010010007
100
AcDbLine
 10
596.872481500002
 20
1001.57970880377
 30
0.0
 11
596.872481500002
 21
1000.87970880377
 31
0.0
  0
LINE
  5
C3
330
18
100
AcDbEntity
  8
0010010007
100
AcDbLine
 10
666.417696499993
 20
831.499444803765
 30
0.0
 11
662.496454499993
 21
832.849636803765
 31
0.0
  0
LINE
  5
C4
330
18
100
AcDbEntity
  8
0010010007
100
AcDbLine
 10
596.872481500002
 20
1000.87970880377
 30
0.0
 11
966.872481499998
 21
1000.87970880377
 31
0.0
  0
LINE
  5
C5
330
18
100
AcDbEntity
  8
0010010007
100
AcDbLine
 10
611.3224354999981
 20
998.700081803767
 30
0.0
 11
617.744991499998
 21
876.150426803768
 31
0.0
  0
LINE
  5
C6
330
18
100
AcDbEntity
  8
0010010007
100
AcDbLine
 10
662.496454499997
 20
832.84963680377
 30
0.0
 11
661.875834499997
 21
832.86588780377
 31
0.0
  0
LINE
  5
C7
330
18
100
AcDbEntity
  8
0010010007
100
AcDbLine
 10
662.496454499997
 20
832.84963680377
 30
0.0
 11
785.748508499995
 21
832.84963680377
 31
0.0
  0
LINE
  5
C8
330
18
100
AcDbEntity
  8
0010010007
100
AcDbLine
 10
679.18032449999
 20
828.079708803769
 30
0.0
 11
666.41769649999
 21
831.4994448037691
 31
0.0
  0
LINE
  5
C9
330
18
100
AcDbEntity
  8
0010010007
100
AcDbLine
 10
666.417696499993
 20
831.499444803765
 30
0.0
 11
781.827266499992
 21
831.499444803765
 31
0.0
  0
LINE
  5
CA
330
18
100
AcDbEntity
  8
0010010007
100
AcDbLine
 10
679.18032449999
 20
828.079708803769
 30
0.0
 11
769.064638499989
 21
828.079708803769
 31
0.0
  0
LINE
  5
CB
330
18
100
AcDbEntity
  8
0010010007
100
AcDbLine
 10
785.748508499993
 20
832.84963680377
 30
0.0
 11
902.1971984999921
 21
835.898952803771
 31
0.0
  0
LINE
  5
CC
330
18
100
AcDbEntity
  8
0010010007
100
AcDbLine
 10
769.0646385
 20
828.079708803769
 30
0.0
 11
781.8272665
 21
831.4994448037691
 31
0.0
  0
LINE
  5
CD
330
18
100
AcDbEntity
  8
0010010007
100
AcDbLine
 10
781.827266499997
 20
831.499444803765
 30
0.0
 11
785.748508499997
 21
832.849636803765
 31
0.0
  0
LINE
  5
CE
330
18
100
AcDbEntity
  8
0010010007
100
AcDbLine
 10
946.158700499989
 20
879.179143803765
 30
0.0
 11
952.422527499989
 21
998.700081803764
 31
0.0
  0
LINE
  5
CF
330
18
100
AcDbEntity
  8
0010010007
100
AcDbLine
 10
966.872481499988
 20
1001.57970880377
 30
0.0
 11
966.872481499988
 21
1000.87970880377
 31
0.0
  0
ARC
  5
D0
330
18
100
AcDbEntity
  8
0010010007
100
AcDbCircle
 10
663.382364499994
 20
878.542115803768
 30
0.0
 40
45.7000002606338
100
AcDbArc
 50
182.999999732045
 51
268.499999428718
  0
ARC
  5
D1
330
18
100
AcDbEntity
  8
0010010007
100
AcDbCircle
 10
900.52132249999
 20
881.570733803768
 30
0.0
 40
45.6999992522443
100
AcDbArc
 50
271.499999350794
 51
357.00000020234
  0
ARC
  5
D2
330
18
100
AcDbEntity
  8
0010010007
100
AcDbCircle
 10
954.71937549999
 20
998.579708803765
 30
0.0
 40
2.30000008570298
100
AcDbArc
 50
111.749997278979
 51
176.999992612275
  0
ARC
  5
D3
330
18
100
AcDbEntity
  8
0010010007
100
AcDbCircle
 10
609.0255875
 20
998.579708803765
 30
0.0
 40
2.30000035755057
100
AcDbArc
 50
3.00000738772485
 51
68.24997958325861
  0
LINE
  5
D4
330
18
100
AcDbEntity
  8
0030010002
100
AcDbLine
 10
995.947921499988
 20
1013.57970880377
 30
0.0
 11
1091.86076553176
 21
1013.57970880377
 31
0.0
  0
LINE
  5
D5
330
18
100
AcDbEntity
  8
0030010002
100
AcDbLine
 10
556.639487499997
 20
862.226765803765
 30
0.0
 11
1091.86076553176
 21
862.226765803765
 31
0.0
  0
SOLID
  5
D6
330
18
100
AcDbEntity
  8
0030010002
100
AcDbTrace
 10
1090.68679915556
 20
1012.34187371784
 30
0.0
 11
1091.03473190796
 21
1012.34187371784
 31
0.0
 12
1090.86076553176
 22
1013.57970880377
 32
0.0
 13
1090.86076553176
 23
1013.57970880377
 33
0.0
  0
SOLID
  5
D7
330
18
100
AcDbEntity
  8
0030010002
100
AcDbTrace
 10
1091.03473190796
 20
863.464600889692
 30
0.0
 11
1090.68679915556
 21
863.464600889692
 31
0.0
 12
1090.86076553176
 22
862.226765803765
 32
0.0
 13
1090.86076553176
 23
862.226765803765
 33
0.0
  0
LINE
  5
D8
330
18
100
AcDbEntity
  8
0030010002
100
AcDbLine
 10
1090.86076553176
 20
1013.57970880377
 30
0.0
 11
1090.86076553176
 21
862.226765803765
 31
0.0
  0
TEXT
  5
D9
330
18
100
AcDbEntity
  8
0030010002
100
AcDbText
 10
1075.86076457809
 20
907.903232896417
 30
0.0
 40
30.0000019073486
  1
153
 50
90.0
 41
0.75
100
AcDbText
  0
CIRCLE
  5
DA
330
18
100
AcDbEntity
  8
0010010007
100
AcDbCircle
 10
488.359844962617
 20
433.327819275617
 30
0.0
 40
17.5
  0
ENDSEC
  0
SECTION
  2
OBJECTS
  0
DICTIONARY
  5
C
330
0
100
AcDbDictionary
281
     1
  3
ACAD_GROUP
350
D
  3
ACAD_LAYOUT
350
15
  3
ACAD_MLINESTYLE
350
12
  3
ACAD_PLOTSETTINGS
350
14
  3
ACAD_PLOTSTYLENAME
350
E
  3
ACAD_TABLESTYLE
350
DC
  3
AcDbVariableDictionary
350
DE
  0
DICTIONARY
  5
D
102
{ACAD_REACTORS
330
C
102
}
330
C
100
AcDbDictionary
281
     1
  0
DICTIONARY
  5
15
102
{ACAD_REACTORS
330
C
102
}
330
C
100
AcDbDictionary
281
     1
  3
Layout1
350
17
  3
Model
350
19
  0
DICTIONARY
  5
12
102
{ACAD_REACTORS
330
C
102
}
330
C
100
AcDbDictionary
281
     1
  3
Standard
350
13
  0
DICTIONARY
  5
14
102
{ACAD_REACTORS
330
C
102
}
330
C
100
AcDbDictionary
281
     1
  0
ACDBDICTIONARYWDFLT
  5
E
102
{ACAD_REACTORS
330
C
102
}
330
C
100
AcDbDictionary
281
     1
  3
Normal
350
F
100
AcDbDictionaryWithDefault
340
F
  0
DICTIONARY
  5
DC
102
{ACAD_REACTORS
330
C
102
}
330
C
100
AcDbDictionary
281
     1
  3
Standard
350
DD
  0
DICTIONARY
  5
DE
102
{ACAD_REACTORS
330
C
102
}
330
C
100
AcDbDictionary
281
     1
  3
CTABLESTYLE
350
DF
  0
LAYOUT
  5
17
102
{ACAD_REACTORS
330
15
102
}
330
15
100
AcDbPlotSettings
  1

  2

  4

  6

 40
0.0
 41
0.0
 42
0.0
 43
0.0
 44
0.0
 45
0.0
 46
0.0
 47
0.0
 48
0.0
 49
0.0
140
0.0
141
0.0
142
1.0
143
1.0
 70
   688
 72
     0
 73
     0
 74
     5
  7

 75
    16
147
1.0
148
0.0
149
0.0
100
AcDbLayout
  1
Layout1
 70
     1
 71
     1
 10
0.0
 20
0.0
 11
12.0
 21
9.0
 12
0.0
 22
0.0
 32
0.0
 14
1.000000000000000E+20
 24
1.000000000000000E+20
 34
1.000000000000000E+20
 15
-1.000000000000000E+20
 25
-1.000000000000000E+20
 35
-1.000000000000000E+20
146
0.0
 13
0.0
 23
0.0
 33
0.0
 16
1.0
 26
0.0
 36
0.0
 17
0.0
 27
1.0
 37
0.0
 76
     0
330
16
  0
LAYOUT
  5
19
102
{ACAD_REACTORS
330
15
102
}
330
15
100
AcDbPlotSettings
  1

  2

  4

  6

 40
0.0
 41
0.0
 42
0.0
 43
0.0
 44
0.0
 45
0.0
 46
0.0
 47
0.0
 48
0.0
 49
0.0
140
0.0
141
0.0
142
1.0
143
1.0
 70
  1712
 72
     0
 73
     0
 74
     0
  7

 75
     0
147
1.0
148
0.0
149
0.0
100
AcDbLayout
  1
Model
 70
     1
 71
     0
 10
0.0
 20
0.0
 11
0.0
 21
0.0
 12
0.0
 22
0.0
 32
0.0
 14
-32.05
 24
-32.05
 34
0.0
 15
1258.45
 25
893.05
 35
0.0
146
0.0
 13
0.0
 23
0.0
 33
0.0
 16
1.0
 26
0.0
 36
0.0
 17
0.0
 27
1.0
 37
0.0
 76
     0
330
18
  0
MLINESTYLE
  5
13
102
{ACAD_REACTORS
330
12
102
}
330
12
100
AcDbMlineStyle
  2
Standard
 70
     0
  3

 62
   256
 51
90.0
 52
90.0
 71
     2
 49
0.5
 62
   256
  6
BYLAYER
 49
-0.5
 62
   256
  6
BYLAYER
  0
ACDBPLACEHOLDER
  5
F
102
{ACAD_REACTORS
330
E
102
}
330
E
  0
TABLESTYLE
  5
DD
102
{ACAD_REACTORS
330
DC
102
}
330
DC
100
AcDbTableStyle
  3
Standard
 70
     0
 71
     0
 40
0.06
 41
0.06
280
     0
281
     0
  7
STANDARD
140
0.18
170
     2
 62
     0
 63
     7
283
     0
274
    -2
284
     1
 64
     0
275
    -2
285
     1
 65
     0
276
    -2
286
     1
 66
     0
277
    -2
287
     1
 67
     0
278
    -2
288
     1
 68
     0
279
    -2
289
     1
 69
     0
  7
STANDARD
140
0.25
170
     5
 62
     0
 63
     7
283
     0
274
    -2
284
     1
 64
     0
275
    -2
285
     1
 65
     0
276
    -2
286
     1
 66
     0
277
    -2
287
     1
 67
     0
278
    -2
288
     1
 68
     0
279
    -2
289
     1
 69
     0
  7
STANDARD
140
0.18
170
     5
 62
     0
 63
     7
283
     0
274
    -2
284
     1
 64
     0
275
    -2
285
     1
 65
     0
276
    -2
286
     1
 66
     0
277
    -2
287
     1
 67
     0
278
    -2
288
     1
 68
     0
279
    -2
289
     1
 69
     0
  0
DICTIONARYVAR
  5
DF
102
{ACAD_REACTORS
330
DE
102
}
330
DE
100
DictionaryVariables
280
     0
  1
Standard
  0
ENDSEC
  0
EOF
