  0
SECTION
  2
HEADER
  9
$ACADVER
  1
AC1015
  9
$ACADMAINTVER
 70
     6
  9
$DWGCODEPAGE
  3
UNDEFINED
  9
$INSBASE
 10
0.0
 20
0.0
 30
0.0
  9
$EXTMIN
 10
-32.05
 20
-32.05
 30
0.0
  9
$EXTMAX
 10
1258.45
 20
893.05
 30
0.0
  9
$LIMMIN
 10
-32.05
 20
-32.05
  9
$LIMMAX
 10
1258.45
 20
893.05
  9
$ORTHOMODE
 70
     0
  9
$REGENMODE
 70
     1
  9
$FILLMODE
 70
     1
  9
$QTEXTMODE
 70
     0
  9
$MIRRTEXT
 70
     1
  9
$LTSCALE
 40
1.0
  9
$ATTMODE
 70
     1
  9
$TEXTSIZE
 40
30.0000019073486
  9
$TRACEWID
 40
0.05
  9
$TEXTSTYLE
  7
STANDARD
  9
$CLAYER
  8
0
  9
$CELTYPE
  6
ByBlock
  9
$CECOLOR
 62
   256
  9
$CELTSCALE
 40
1.0
  9
$DISPSILH
 70
     0
  9
$DIMSCALE
 40
1.0
  9
$DIMASZ
 40
1.23783508592696
  9
$DIMEXO
 40
1.0
  9
$DIMDLI
 40
0.38
  9
$DIMRND
 40
0.0
  9
$DIMDLE
 40
0.0
  9
$DIMEXE
 40
1.0
  9
$DIMTP
 40
0.0
  9
$DIMTM
 40
0.0
  9
$DIMTXT
 40
30.0000019073486
  9
$DIMCEN
 40
1.0
  9
$DIMTSZ
 40
0.0
  9
$DIMTOL
 70
     0
  9
$DIMLIM
 70
     0
  9
$DIMTIH
 70
     1
  9
$DIMTOH
 70
     1
  9
$DIMSE1
 70
     0
  9
$DIMSE2
 70
     0
  9
$DIMTAD
 70
     0
  9
$DIMZIN
 70
     0
  9
$DIMBLK
  1

  9
$DIMASO
 70
     1
  9
$DIMSHO
 70
     1
  9
$DIMPOST
  1

  9
$DIMAPOST
  1

  9
$DIMALT
 70
     0
  9
$DIMALTD
 70
     2
  9
$DIMALTF
 40
25.4
  9
$DIMLFAC
 40
1.0
  9
$DIMTOFL
 70
     0
  9
$DIMTVP
 40
0.0
  9
$DIMTIX
 70
     0
  9
$DIMSOXD
 70
     0
  9
$DIMSAH
 70
     0
  9
$DIMBLK1
  1

  9
$DIMBLK2
  1

  9
$DIMSTYLE
  2
Standard
  9
$DIMCLRD
 70
     0
  9
$DIMCLRE
 70
     0
  9
$DIMCLRT
 70
     0
  9
$DIMTFAC
 40
1.0
  9
$DIMGAP
 40
0.09
  9
$DIMJUST
 70
     0
  9
$DIMSD1
 70
     0
  9
$DIMSD2
 70
     0
  9
$DIMTOLJ
 70
     1
  9
$DIMTZIN
 70
     0
  9
$DIMALTZ
 70
     0
  9
$DIMALTTZ
 70
     0
  9
$DIMUPT
 70
     0
  9
$DIMDEC
 70
     4
  9
$DIMTDEC
 70
     4
  9
$DIMALTU
 70
     2
  9
$DIMALTTD
 70
     2
  9
$DIMTXSTY
  7
STANDARD
  9
$DIMAUNIT
 70
     0
  9
$DIMADEC
 70
     0
  9
$DIMALTRND
 40
0.0
  9
$DIMAZIN
 70
     0
  9
$DIMDSEP
 70
    46
  9
$DIMATFIT
 70
     3
  9
$DIMFRAC
 70
     0
  9
$DIMLDRBLK
  1

  9
$DIMLUNIT
 70
     2
  9
$DIMLWD
 70
    -2
  9
$DIMLWE
 70
    -2
  9
$DIMTMOVE
 70
     0
  9
$LUNITS
 70
     2
  9
$LUPREC
 70
     4
  9
$SKETCHINC
 40
0.1
  9
$FILLETRAD
 40
0.0
  9
$AUNITS
 70
     0
  9
$AUPREC
 70
     4
  9
$MENU
  1
acad
  9
$ELEVATION
 40
0.0
  9
$PELEVATION
 40
0.0
  9
$THICKNESS
 40
0.0
  9
$LIMCHECK
 70
     0
  9
$CHAMFERA
 40
0.0
  9
$CHAMFERB
 40
0.0
  9
$CHAMFERC
 40
1.0
  9
$CHAMFERD
 40
0.0
  9
$SKPOLY
 70
     0
  9
$TDCREATE
 40
2455426.45233941
  9
$TDUCREATE
 40
2455426.57733941
  9
$TDUPDATE
 40
2455426.452339422
  9
$TDUUPDATE
 40
2455426.577339422
  9
$TDINDWG
 40
0.0000000116
  9
$TDUSRTIMER
 40
0.0000000116
  9
$USRTIMER
 70
     1
  9
$ANGBASE
 50
0.0
  9
$ANGDIR
 70
     0
  9
$PDMODE
 70
     0
  9
$PDSIZE
 40
0.0
  9
$PLINEWID
 40
0.0
  9
$SPLFRAME
 70
     0
  9
$SPLINETYPE
 70
     6
  9
$SPLINESEGS
 70
     8
  9
$HANDSEED
  5
122
  9
$SURFTAB1
 70
     6
  9
$SURFTAB2
 70
     6
  9
$SURFTYPE
 70
     6
  9
$SURFU
 70
     6
  9
$SURFV
 70
     6
  9
$UCSBASE
  2

  9
$UCSNAME
  2

  9
$UCSORG
 10
0.0
 20
0.0
 30
0.0
  9
$UCSXDIR
 10
1.0
 20
0.0
 30
0.0
  9
$UCSYDIR
 10
0.0
 20
1.0
 30
0.0
  9
$UCSORTHOREF
  2

  9
$UCSORTHOVIEW
 70
     0
  9
$UCSORGTOP
 10
0.0
 20
0.0
 30
0.0
  9
$UCSORGBOTTOM
 10
0.0
 20
0.0
 30
0.0
  9
$UCSORGLEFT
 10
0.0
 20
0.0
 30
0.0
  9
$UCSORGRIGHT
 10
0.0
 20
0.0
 30
0.0
  9
$UCSORGFRONT
 10
0.0
 20
0.0
 30
0.0
  9
$UCSORGBACK
 10
0.0
 20
0.0
 30
0.0
  9
$PUCSBASE
  2

  9
$PUCSNAME
  2

  9
$PUCSORG
 10
0.0
 20
0.0
 30
0.0
  9
$PUCSXDIR
 10
1.0
 20
0.0
 30
0.0
  9
$PUCSYDIR
 10
0.0
 20
1.0
 30
0.0
  9
$PUCSORTHOREF
  2

  9
$PUCSORTHOVIEW
 70
     0
  9
$PUCSORGTOP
 10
0.0
 20
0.0
 30
0.0
  9
$PUCSORGBOTTOM
 10
0.0
 20
0.0
 30
0.0
  9
$PUCSORGLEFT
 10
0.0
 20
0.0
 30
0.0
  9
$PUCSORGRIGHT
 10
0.0
 20
0.0
 30
0.0
  9
$PUCSORGFRONT
 10
0.0
 20
0.0
 30
0.0
  9
$PUCSORGBACK
 10
0.0
 20
0.0
 30
0.0
  9
$USERI1
 70
     0
  9
$USERI2
 70
     0
  9
$USERI3
 70
     0
  9
$USERI4
 70
     0
  9
$USERI5
 70
     0
  9
$USERR1
 40
0.0
  9
$USERR2
 40
0.0
  9
$USERR3
 40
0.0
  9
$USERR4
 40
0.0
  9
$USERR5
 40
0.0
  9
$WORLDVIEW
 70
     1
  9
$SHADEDGE
 70
     3
  9
$SHADEDIF
 70
    70
  9
$TILEMODE
 70
     1
  9
$MAXACTVP
 70
    64
  9
$PINSBASE
 10
0.0
 20
0.0
 30
0.0
  9
$PLIMCHECK
 70
     0
  9
$PEXTMIN
 10
1.000000000000000E+20
 20
1.000000000000000E+20
 30
1.000000000000000E+20
  9
$PEXTMAX
 10
-1.000000000000000E+20
 20
-1.000000000000000E+20
 30
-1.000000000000000E+20
  9
$PLIMMIN
 10
0.0
 20
0.0
  9
$PLIMMAX
 10
12.0
 20
9.0
  9
$UNITMODE
 70
     0
  9
$VISRETAIN
 70
     1
  9
$PLINEGEN
 70
     0
  9
$PSLTSCALE
 70
     1
  9
$TREEDEPTH
 70
  3020
  9
$CMLSTYLE
  2
Standard
  9
$CMLJUST
 70
     0
  9
$CMLSCALE
 40
1.0
  9
$PROXYGRAPHICS
 70
     1
  9
$MEASUREMENT
 70
     0
  9
$CELWEIGHT
370
    -1
  9
$ENDCAPS
280
     0
  9
$JOINSTYLE
280
     0
  9
$LWDISPLAY
290
     0
  9
$INSUNITS
 70
     0
  9
$HYPERLINKBASE
  1

  9
$STYLESHEET
  1

  9
$XEDIT
290
     1
  9
$CEPSNTYPE
380
     0
  9
$PSTYLEMODE
290
     0
  9
$FINGERPRINTGUID
  2
{FAEB1C30-E019-11D5-929B-00C0DF256EC4}
  9
$VERSIONGUID
  2
{FAEB1C32-E019-11D5-929B-00C0DF256EC4}
  9
$EXTNAMES
290
     1
  9
$PSVPSCALE
 40
0.0
  9
$OLESTARTUP
290
     0
  0
ENDSEC
  0
SECTION
  2
CLASSES
  0
CLASS
  1
ACDBDICTIONARYWDFLT
  2
AcDbDictionaryWithDefault
  3
ObjectDBX Classes
 90
        0
280
     0
281
     0
  0
CLASS
  1
TABLESTYLE
  2
AcDbTableStyle
  3
ObjectDBX Classes
 90
     2047
280
     0
281
     0
  0
CLASS
  1
DICTIONARYVAR
  2
AcDbDictionaryVar
  3
ObjectDBX Classes
 90
        0
280
     0
281
     0
  0
CLASS
  1
ACDBPLACEHOLDER
  2
AcDbPlaceHolder
  3
ObjectDBX Classes
 90
        0
280
     0
281
     0
  0
CLASS
  1
LAYOUT
  2
AcDbLayout
  3
ObjectDBX Classes
 90
        0
280
     0
281
     0
  0
ENDSEC
  0
SECTION
  2
TABLES
  0
TABLE
  2
VPORT
  5
8
330
0
100
AcDbSymbolTable
 70
     1
  0
VPORT
  5
119
330
8
100
AcDbSymbolTableRecord
100
AcDbViewportTableRecord
  2
*Active
 70
     0
 10
0.0
 20
0.0
 11
1.0
 21
1.0
 12
10.42990654205607
 22
4.5
 13
0.0
 23
0.0
 14
0.5
 24
0.5
 15
0.5
 25
0.5
 16
0.0
 26
0.0
 36
1.0
 17
0.0
 27
0.0
 37
0.0
 40
9.0
 41
1.972972972850329
 42
50.0
 43
0.0
 44
0.0
 50
0.0
 51
0.0
 71
     0
 72
   100
 73
     1
 74
     3
 75
     0
 76
     0
 77
     0
 78
     0
281
     0
 65
     1
110
0.0
120
0.0
130
0.0
111
1.0
121
0.0
131
0.0
112
0.0
122
1.0
132
0.0
 79
     0
146
0.0
  0
ENDTAB
  0
TABLE
  2
LTYPE
  5
5
330
0
100
AcDbSymbolTable
 70
     9
  0
LTYPE
  5
10
330
5
100
AcDbSymbolTableRecord
100
AcDbLinetypeTableRecord
  2
ByBlock
 70
     0
  3

 72
    65
 73
     0
 40
0.0
  0
LTYPE
  5
11
330
5
100
AcDbSymbolTableRecord
100
AcDbLinetypeTableRecord
  2
ByLayer
 70
     0
  3

 72
    65
 73
     0
 40
0.0
  0
LTYPE
  5
1B
330
5
100
AcDbSymbolTableRecord
100
AcDbLinetypeTableRecord
  2
CONTINUOUS
 70
     0
  3
Solid line
 72
    65
 73
     0
 40
0.0
  0
LTYPE
  5
1C
330
5
100
AcDbSymbolTableRecord
100
AcDbLinetypeTableRecord
  2
HIDDEN
 70
     0
  3
_ _ _ _ _ _ _ _ _ _ _ _ _ _ _ _ _ _ _ _ 
 72
    65
 73
     2
 40
0.375
 49
0.25
 74
     0
 49
-0.125
 74
     0
  0
LTYPE
  5
1D
330
5
100
AcDbSymbolTableRecord
100
AcDbLinetypeTableRecord
  2
DASHED
 70
     0
  3
__ __ __ __ __ __ __ __ __ __ __ __ __  
 72
    65
 73
     2
 40
0.75
 49
0.5
 74
     0
 49
-0.25
 74
     0
  0
LTYPE
  5
1E
330
5
100
AcDbSymbolTableRecord
100
AcDbLinetypeTableRecord
  2
CENTER
 70
     0
  3
____ _ ____ _ ____ _ ____ _ ____ _ ____ 
 72
    65
 73
     4
 40
2.0
 49
1.25
 74
     0
 49
-0.25
 74
     0
 49
0.25
 74
     0
 49
-0.25
 74
     0
  0
LTYPE
  5
1F
330
5
100
AcDbSymbolTableRecord
100
AcDbLinetypeTableRecord
  2
PHANTOM
 70
     0
  3
_____ _ _ _____ _ _ _____ _ _ _____ _ _ 
 72
    65
 73
     6
 40
2.5
 49
1.25
 74
     0
 49
-0.25
 74
     0
 49
0.25
 74
     0
 49
-0.25
 74
     0
 49
0.25
 74
     0
 49
-0.25
 74
     0
  0
LTYPE
  5
20
330
5
100
AcDbSymbolTableRecord
100
AcDbLinetypeTableRecord
  2
DOT
 70
     0
  3
........................................
 72
    65
 73
     2
 40
0.25
 49
0.0
 74
     0
 49
-0.25
 74
     0
  0
LTYPE
  5
21
330
5
100
AcDbSymbolTableRecord
100
AcDbLinetypeTableRecord
  2
DASHDOT
 70
     0
  3
__ . __ . __ . __ . __ . __ . __ . __ . 
 72
    65
 73
     4
 40
1.0
 49
0.5
 74
     0
 49
-0.25
 74
     0
 49
0.0
 74
     0
 49
-0.25
 74
     0
  0
LTYPE
  5
22
330
5
100
AcDbSymbolTableRecord
100
AcDbLinetypeTableRecord
  2
BORDER
 70
     0
  3
__ __ . __ __ . __ __ . __ __ . __ __ . 
 72
    65
 73
     6
 40
1.75
 49
0.5
 74
     0
 49
-0.25
 74
     0
 49
0.5
 74
     0
 49
-0.25
 74
     0
 49
0.0
 74
     0
 49
-0.25
 74
     0
  0
LTYPE
  5
23
330
5
100
AcDbSymbolTableRecord
100
AcDbLinetypeTableRecord
  2
DIVIDE
 70
     0
  3
__ . . __ . . __ . . __ . . __ . . __ . 
 72
    65
 73
     6
 40
1.25
 49
0.5
 74
     0
 49
-0.25
 74
     0
 49
0.0
 74
     0
 49
-0.25
 74
     0
 49
0.0
 74
     0
 49
-0.25
 74
     0
  0
ENDTAB
  0
TABLE
  2
LAYER
  5
2
330
0
100
AcDbSymbolTable
 70
     7
  0
LAYER
  5
24
330
2
100
AcDbSymbolTableRecord
100
AcDbLayerTableRecord
  2
0
 70
     0
 62
     7
  6
CONTINUOUS
370
    -3
390
F
  0
LAYER
  5
25
330
2
100
AcDbSymbolTableRecord
100
AcDbLayerTableRecord
  2
0260010007
 70
     0
 62
     7
  6
CONTINUOUS
370
    -3
390
F
  0
LAYER
  5
26
330
2
100
AcDbSymbolTableRecord
100
AcDbLayerTableRecord
  2
0010010004
 70
     0
 62
     4
  6
CONTINUOUS
370
    -3
390
F
  0
LAYER
  5
27
330
2
100
AcDbSymbolTableRecord
100
AcDbLayerTableRecord
  2
0010010007
 70
     0
 62
     7
  6
CONTINUOUS
370
    -3
390
F
  0
LAYER
  5
28
330
2
100
AcDbSymbolTableRecord
100
AcDbLayerTableRecord
  2
0120010007
 70
     0
 62
     7
  6
CONTINUOUS
370
    -3
390
F
  0
LAYER
  5
29
330
2
100
AcDbSymbolTableRecord
100
AcDbLayerTableRecord
  2
0260010004
 70
     0
 62
     4
  6
CONTINUOUS
370
    -3
390
F
  0
LAYER
  5
2A
330
2
100
AcDbSymbolTableRecord
100
AcDbLayerTableRecord
  2
0010010002
 70
     0
 62
     2
  6
CONTINUOUS
370
    -3
390
F
  0
ENDTAB
  0
TABLE
  2
STYLE
  5
3
330
0
100
AcDbSymbolTable
 70
     1
  0
STYLE
  5
2B
330
3
100
AcDbSymbolTableRecord
100
AcDbTextStyleTableRecord
  2
STANDARD
 70
     0
 40
0.0
 41
1.0
 50
0.0
 71
     0
 42
0.2
  3
txt
  4

  0
ENDTAB
  0
TABLE
  2
VIEW
  5
6
330
0
100
AcDbSymbolTable
 70
     1
  0
VIEW
  5
2C
330
6
100
AcDbSymbolTableRecord
100
AcDbViewTableRecord
  2
1
 70
     0
 40
20600.0
 10
29641.0
 20
34500.0
 41
1.0
 11
0.0
 21
0.0
 31
1.0
 12
0.0
 22
0.0
 32
0.0
 42
50.0
 43
0.0
 44
0.0
 50
0.0
 71
     0
281
     0
 72
     0
  0
ENDTAB
  0
TABLE
  2
UCS
  5
7
330
0
100
AcDbSymbolTable
 70
     0
  0
ENDTAB
  0
TABLE
  2
APPID
  5
9
330
0
100
AcDbSymbolTable
 70
     1
  0
APPID
  5
2D
330
9
100
AcDbSymbolTableRecord
100
AcDbRegAppTableRecord
  2
ACAD
 70
     0
  0
ENDTAB
  0
TABLE
  2
DIMSTYLE
  5
A
330
0
100
AcDbSymbolTable
 70
     1
100
AcDbDimStyleTable
  0
DIMSTYLE
105
2E
330
A
100
AcDbSymbolTableRecord
100
AcDbDimStyleTableRecord
  2
Standard
 70
     0
340
2B
  0
ENDTAB
  0
TABLE
  2
BLOCK_RECORD
  5
1
330
0
100
AcDbSymbolTable
 70
     0
  0
BLOCK_RECORD
  5
18
330
1
100
AcDbSymbolTableRecord
100
AcDbBlockTableRecord
  2
*Model_Space
340
19
  0
BLOCK_RECORD
  5
16
330
1
100
AcDbSymbolTableRecord
100
AcDbBlockTableRecord
  2
*Paper_Space
340
17
  0
ENDTAB
  0
ENDSEC
  0
SECTION
  2
BLOCKS
  0
BLOCK
  5
11E
330
18
100
AcDbEntity
  8
0
100
AcDbBlockBegin
  2
*Model_Space
 70
     0
 71
     0
 10
0.0
 20
0.0
 30
0.0
  3
*Model_Space
  1

  0
ENDBLK
  5
11F
330
18
100
AcDbEntity
  8
0
100
AcDbBlockEnd
  0
BLOCK
  5
120
330
16
100
AcDbEntity
 67
     1
  8
0
100
AcDbBlockBegin
  2
*Paper_Space
 70
     0
 71
     0
 10
0.0
 20
0.0
 30
0.0
  3
*Paper_Space
  1

  0
ENDBLK
  5
121
330
16
100
AcDbEntity
 67
     1
  8
0
100
AcDbBlockEnd
  0
ENDSEC
  0
SECTION
  2
ENTITIES
  0
LINE
  5
2F
330
18
100
AcDbEntity
  8
0260010007
100
AcDbLine
 10
776.031558751017
 20
-155.72186045082
 30
0.0
 11
776.031558751017
 21
309.27813954918
 31
0.0
  0
LINE
  5
30
330
18
100
AcDbEntity
  8
0010010004
100
AcDbLine
 10
758.847990699217
 20
-109.72186045082
 30
0.0
 11
758.847990699217
 21
263.27813954918
 31
0.0
  0
LINE
  5
31
330
18
100
AcDbEntity
  8
0260010007
100
AcDbLine
 10
766.031558751017
 20
319.27813954918
 30
0.0
 11
101.031558751017
 21
319.27813954918
 31
0.0
  0
LINE
  5
32
330
18
100
AcDbEntity
  8
0010010004
100
AcDbLine
 10
720.031558751017
 20
302.09457149738
 30
0.0
 11
147.031558751017
 21
302.09457149738
 31
0.0
  0
LINE
  5
33
330
18
100
AcDbEntity
  8
0010010004
100
AcDbLine
 10
147.031558751017
 20
-148.53829239892
 30
0.0
 11
720.031558751017
 21
-148.53829239892
 31
0.0
  0
LINE
  5
34
330
18
100
AcDbEntity
  8
0260010007
100
AcDbLine
 10
101.031558751017
 20
-165.72186045082
 30
0.0
 11
766.031558751017
 21
-165.72186045082
 31
0.0
  0
LINE
  5
35
330
18
100
AcDbEntity
  8
0010010004
100
AcDbLine
 10
108.215126802917
 20
263.27813954918
 30
0.0
 11
108.215126802917
 21
-109.72186045082
 31
0.0
  0
LINE
  5
36
330
18
100
AcDbEntity
  8
0260010007
100
AcDbLine
 10
91.0315587510174
 20
309.27813954918
 30
0.0
 11
91.0315587510174
 21
-155.72186045082
 31
0.0
  0
LINE
  5
37
330
18
100
AcDbEntity
  8
0010010007
100
AcDbLine
 10
776.031558751017
 20
764.804960407895
 30
0.0
 11
776.031558751017
 21
764.0049604078951
 31
0.0
  0
LINE
  5
38
330
18
100
AcDbEntity
  8
0010010007
100
AcDbLine
 10
762.031558751017
 20
764.0049604078951
 30
0.0
 11
762.031558751017
 21
745.0049604078951
 31
0.0
  0
LINE
  5
39
330
18
100
AcDbEntity
  8
0010010007
100
AcDbLine
 10
761.331558751018
 20
764.0049604078951
 30
0.0
 11
761.331558751018
 21
745.0049604078951
 31
0.0
  0
LINE
  5
3A
330
18
100
AcDbEntity
  8
0010010007
100
AcDbLine
 10
772.708473719518
 20
765.497818493795
 30
0.0
 11
772.296569647618
 21
766.381149626695
 31
0.0
  0
LINE
  5
3B
330
18
100
AcDbEntity
  8
0010010007
100
AcDbLine
 10
734.331558751018
 20
743.304960407895
 30
0.0
 11
734.331558751018
 21
749.704960407895
 31
0.0
  0
LINE
  5
3C
330
18
100
AcDbEntity
  8
0010010007
100
AcDbLine
 10
656.531558751017
 20
764.0049604078951
 30
0.0
 11
656.531558751017
 21
746.0049604078951
 31
0.0
  0
LINE
  5
3D
330
18
100
AcDbEntity
  8
0010010007
100
AcDbLine
 10
759.050063293417
 20
764.0049604078951
 30
0.0
 11
758.992328266517
 21
763.904960407895
 31
0.0
  0
LINE
  5
3E
330
18
100
AcDbEntity
  8
0010010007
100
AcDbLine
 10
646.531558751017
 20
748.5049604078951
 30
0.0
 11
646.531558751017
 21
751.5049604078951
 31
0.0
  0
LINE
  5
3F
330
18
100
AcDbEntity
  8
0010010007
100
AcDbLine
 10
646.531558751017
 20
755.5049604078951
 30
0.0
 11
646.531558751017
 21
758.5049604078951
 31
0.0
  0
LINE
  5
40
330
18
100
AcDbEntity
  8
0010010007
100
AcDbLine
 10
636.531558751017
 20
758.5049604078951
 30
0.0
 11
636.531558751017
 21
755.5049604078951
 31
0.0
  0
LINE
  5
41
330
18
100
AcDbEntity
  8
0010010007
100
AcDbLine
 10
636.531558751017
 20
751.5049604078951
 30
0.0
 11
636.531558751017
 21
748.5049604078951
 31
0.0
  0
LINE
  5
42
330
18
100
AcDbEntity
  8
0010010007
100
AcDbLine
 10
626.531558751017
 20
764.0049604078951
 30
0.0
 11
626.531558751017
 21
746.0049604078951
 31
0.0
  0
LINE
  5
43
330
18
100
AcDbEntity
  8
0010010007
100
AcDbLine
 10
491.410878925018
 20
562.212163819995
 30
0.0
 11
494.967003269418
 21
563.436635627995
 31
0.0
  0
LINE
  5
44
330
18
100
AcDbEntity
  8
0010010007
100
AcDbLine
 10
491.117182843817
 20
562.122371916895
 30
0.0
 11
491.410878925017
 21
562.212163819995
 31
0.0
  0
LINE
  5
45
330
18
100
AcDbEntity
  8
0010010007
100
AcDbLine
 10
96.21664031371761
 20
767.304960407895
 30
0.0
 11
770.846477188318
 21
767.304960407895
 31
0.0
  0
LINE
  5
46
330
18
100
AcDbEntity
  8
0260010007
100
AcDbLine
 10
91.0315587510174
 20
764.804960407895
 30
0.0
 11
776.031558751017
 21
764.804960407895
 31
0.0
  0
LINE
  5
47
330
18
100
AcDbEntity
  8
0010010007
100
AcDbLine
 10
91.0315587510174
 20
764.0049604078951
 30
0.0
 11
776.031558751017
 21
764.0049604078951
 31
0.0
  0
LINE
  5
48
330
18
100
AcDbEntity
  8
0010010007
100
AcDbLine
 10
751.371304713217
 20
759.5049604078951
 30
0.0
 11
656.531558751017
 21
759.5049604078951
 31
0.0
  0
LINE
  5
49
330
18
100
AcDbEntity
  8
0010010007
100
AcDbLine
 10
626.531558751017
 20
759.5049604078951
 30
0.0
 11
448.531558751017
 21
759.5049604078951
 31
0.0
  0
LINE
  5
4A
330
18
100
AcDbEntity
  8
0010010007
100
AcDbLine
 10
418.531558751017
 20
759.5049604078951
 30
0.0
 11
240.531558751017
 21
759.5049604078951
 31
0.0
  0
LINE
  5
4B
330
18
100
AcDbEntity
  8
0010010007
100
AcDbLine
 10
210.531558751017
 20
759.5049604078951
 30
0.0
 11
115.691812788917
 21
759.5049604078951
 31
0.0
  0
LINE
  5
4C
330
18
100
AcDbEntity
  8
0010010007
100
AcDbLine
 10
646.031558751017
 20
759.0049604078951
 30
0.0
 11
637.031558751017
 21
759.0049604078951
 31
0.0
  0
LINE
  5
4D
330
18
100
AcDbEntity
  8
0010010007
100
AcDbLine
 10
438.031558751017
 20
759.0049604078951
 30
0.0
 11
429.031558751017
 21
759.0049604078951
 31
0.0
  0
LINE
  5
4E
330
18
100
AcDbEntity
  8
0010010007
100
AcDbLine
 10
230.031558751017
 20
759.0049604078951
 30
0.0
 11
221.031558751017
 21
759.0049604078951
 31
0.0
  0
LINE
  5
4F
330
18
100
AcDbEntity
  8
0010010007
100
AcDbLine
 10
221.031558751017
 20
755.0049604078951
 30
0.0
 11
230.031558751017
 21
755.0049604078951
 31
0.0
  0
LINE
  5
50
330
18
100
AcDbEntity
  8
0010010007
100
AcDbLine
 10
429.031558751017
 20
755.0049604078951
 30
0.0
 11
438.031558751017
 21
755.0049604078951
 31
0.0
  0
LINE
  5
51
330
18
100
AcDbEntity
  8
0010010007
100
AcDbLine
 10
637.031558751017
 20
755.0049604078951
 30
0.0
 11
646.031558751017
 21
755.0049604078951
 31
0.0
  0
LINE
  5
52
330
18
100
AcDbEntity
  8
0010010007
100
AcDbLine
 10
646.031558751017
 20
752.0049604078951
 30
0.0
 11
637.031558751017
 21
752.0049604078951
 31
0.0
  0
LINE
  5
53
330
18
100
AcDbEntity
  8
0010010007
100
AcDbLine
 10
438.031558751017
 20
752.0049604078951
 30
0.0
 11
429.031558751017
 21
752.0049604078951
 31
0.0
  0
LINE
  5
54
330
18
100
AcDbEntity
  8
0010010007
100
AcDbLine
 10
230.031558751017
 20
752.0049604078951
 30
0.0
 11
221.031558751017
 21
752.0049604078951
 31
0.0
  0
LINE
  5
55
330
18
100
AcDbEntity
  8
0010010007
100
AcDbLine
 10
221.031558751017
 20
748.0049604078951
 30
0.0
 11
230.031558751017
 21
748.0049604078951
 31
0.0
  0
LINE
  5
56
330
18
100
AcDbEntity
  8
0010010007
100
AcDbLine
 10
429.031558751017
 20
748.0049604078951
 30
0.0
 11
438.031558751017
 21
748.0049604078951
 31
0.0
  0
LINE
  5
57
330
18
100
AcDbEntity
  8
0010010007
100
AcDbLine
 10
637.031558751017
 20
748.0049604078951
 30
0.0
 11
646.031558751017
 21
748.0049604078951
 31
0.0
  0
LINE
  5
58
330
18
100
AcDbEntity
  8
0010010007
100
AcDbLine
 10
105.031558751017
 20
745.0049604078951
 30
0.0
 11
105.731558751017
 21
745.0049604078951
 31
0.0
  0
LINE
  5
59
330
18
100
AcDbEntity
  8
0010010007
100
AcDbLine
 10
762.031558751017
 20
745.0049604078951
 30
0.0
 11
761.331558751017
 21
745.0049604078951
 31
0.0
  0
LINE
  5
5A
330
18
100
AcDbEntity
  8
0010010007
100
AcDbLine
 10
655.531558751017
 20
745.0049604078951
 30
0.0
 11
627.531558751017
 21
745.0049604078951
 31
0.0
  0
LINE
  5
5B
330
18
100
AcDbEntity
  8
0010010007
100
AcDbLine
 10
447.531558751017
 20
745.0049604078951
 30
0.0
 11
419.531558751017
 21
745.0049604078951
 31
0.0
  0
LINE
  5
5C
330
18
100
AcDbEntity
  8
0010010007
100
AcDbLine
 10
239.531558751017
 20
745.0049604078951
 30
0.0
 11
211.531558751017
 21
745.0049604078951
 31
0.0
  0
LINE
  5
5D
330
18
100
AcDbEntity
  8
0010010007
100
AcDbLine
 10
448.531558751017
 20
764.0049604078951
 30
0.0
 11
448.531558751017
 21
746.0049604078951
 31
0.0
  0
LINE
  5
5E
330
18
100
AcDbEntity
  8
0010010007
100
AcDbLine
 10
438.531558751017
 20
748.5049604078951
 30
0.0
 11
438.531558751017
 21
751.5049604078951
 31
0.0
  0
LINE
  5
5F
330
18
100
AcDbEntity
  8
0010010007
100
AcDbLine
 10
438.531558751017
 20
755.5049604078951
 30
0.0
 11
438.531558751017
 21
758.5049604078951
 31
0.0
  0
LINE
  5
60
330
18
100
AcDbEntity
  8
0010010007
100
AcDbLine
 10
428.531558751017
 20
758.5049604078951
 30
0.0
 11
428.531558751017
 21
755.5049604078951
 31
0.0
  0
LINE
  5
61
330
18
100
AcDbEntity
  8
0010010007
100
AcDbLine
 10
428.531558751017
 20
751.5049604078951
 30
0.0
 11
428.531558751017
 21
748.5049604078951
 31
0.0
  0
LINE
  5
62
330
18
100
AcDbEntity
  8
0010010007
100
AcDbLine
 10
418.531558751017
 20
764.0049604078951
 30
0.0
 11
418.531558751017
 21
746.0049604078951
 31
0.0
  0
LINE
  5
63
330
18
100
AcDbEntity
  8
0010010007
100
AcDbLine
 10
478.486880749118
 20
558.738092670495
 30
0.0
 11
491.117182843817
 21
562.122371916895
 31
0.0
  0
LINE
  5
64
330
18
100
AcDbEntity
  8
0010010007
100
AcDbLine
 10
495.403006256018
 20
563.517444005195
 30
0.0
 11
494.967003269417
 21
563.436635627995
 31
0.0
  0
LINE
  5
65
330
18
100
AcDbEntity
  8
0010010007
100
AcDbLine
 10
682.414868705217
 20
570.048042279395
 30
0.0
 11
682.934176802117
 21
570.068780633895
 31
0.0
  0
LINE
  5
66
330
18
100
AcDbEntity
  8
0010010007
100
AcDbLine
 10
682.934176802117
 20
570.068780633895
 30
0.0
 11
684.008966308518
 21
570.128292874295
 31
0.0
  0
LINE
  5
67
330
18
100
AcDbEntity
  8
0010010007
100
AcDbLine
 10
684.008966308518
 20
570.128292874295
 30
0.0
 11
685.200588501918
 21
570.220592419795
 31
0.0
  0
LINE
  5
68
330
18
100
AcDbEntity
  8
0010010007
100
AcDbLine
 10
685.200588501918
 20
570.220592419795
 30
0.0
 11
686.514569972818
 21
570.354731680695
 31
0.0
  0
LINE
  5
69
330
18
100
AcDbEntity
  8
0010010007
100
AcDbLine
 10
686.514569972818
 20
570.354731680695
 30
0.0
 11
687.957668027017
 21
570.541578704995
 31
0.0
  0
LINE
  5
6A
330
18
100
AcDbEntity
  8
0010010007
100
AcDbLine
 10
687.957668027017
 20
570.541578704995
 30
0.0
 11
689.519899027618
 21
570.7911159921951
 31
0.0
  0
LINE
  5
6B
330
18
100
AcDbEntity
  8
0010010007
100
AcDbLine
 10
689.519899027618
 20
570.7911159921951
 30
0.0
 11
691.197261679417
 21
571.114666978095
 31
0.0
  0
LINE
  5
6C
330
18
100
AcDbEntity
  8
0010010007
100
AcDbLine
 10
691.197261679417
 20
571.114666978095
 30
0.0
 11
692.974205541317
 21
571.521578493095
 31
0.0
  0
LINE
  5
6D
330
18
100
AcDbEntity
  8
0010010007
100
AcDbLine
 10
692.974205541317
 20
571.521578493095
 30
0.0
 11
694.836274895318
 21
572.020647234895
 31
0.0
  0
LINE
  5
6E
330
18
100
AcDbEntity
  8
0010010007
100
AcDbLine
 10
694.836274895318
 20
572.020647234895
 30
0.0
 11
696.771939606718
 21
572.620781590695
 31
0.0
  0
LINE
  5
6F
330
18
100
AcDbEntity
  8
0010010007
100
AcDbLine
 10
696.771939606718
 20
572.620781590695
 30
0.0
 11
698.767328408718
 21
573.329565651195
 31
0.0
  0
LINE
  5
70
330
18
100
AcDbEntity
  8
0010010007
100
AcDbLine
 10
698.767328408718
 20
573.329565651195
 30
0.0
 11
700.810775295417
 21
574.154614004095
 31
0.0
  0
LINE
  5
71
330
18
100
AcDbEntity
  8
0010010007
100
AcDbLine
 10
700.810775295417
 20
574.154614004095
 30
0.0
 11
702.889062553617
 21
575.102283495495
 31
0.0
  0
LINE
  5
72
330
18
100
AcDbEntity
  8
0010010007
100
AcDbLine
 10
702.889062553617
 20
575.102283495495
 30
0.0
 11
704.989058014517
 21
576.178138299395
 31
0.0
  0
LINE
  5
73
330
18
100
AcDbEntity
  8
0010010007
100
AcDbLine
 10
704.989058014517
 20
576.178138299395
 30
0.0
 11
707.092402073818
 21
577.383741666995
 31
0.0
  0
LINE
  5
74
330
18
100
AcDbEntity
  8
0010010007
100
AcDbLine
 10
707.092402073818
 20
577.383741666995
 30
0.0
 11
709.198595853218
 21
578.730413574795
 31
0.0
  0
LINE
  5
75
330
18
100
AcDbEntity
  8
0010010007
100
AcDbLine
 10
709.198595853218
 20
578.730413574795
 30
0.0
 11
711.299175776418
 21
580.226278587195
 31
0.0
  0
LINE
  5
76
330
18
100
AcDbEntity
  8
0010010007
100
AcDbLine
 10
711.299175776418
 20
580.226278587195
 30
0.0
 11
713.390706945718
 21
581.884742838595
 31
0.0
  0
LINE
  5
77
330
18
100
AcDbEntity
  8
0010010007
100
AcDbLine
 10
713.390706945718
 20
581.884742838595
 30
0.0
 11
715.468682152718
 21
583.7218571221951
 31
0.0
  0
LINE
  5
78
330
18
100
AcDbEntity
  8
0010010007
100
AcDbLine
 10
715.468682152718
 20
583.7218571221951
 30
0.0
 11
717.513279292318
 21
585.742522880195
 31
0.0
  0
LINE
  5
79
330
18
100
AcDbEntity
  8
0010010007
100
AcDbLine
 10
717.513279292318
 20
585.742522880195
 30
0.0
 11
719.512180451718
 21
587.959840347595
 31
0.0
  0
LINE
  5
7A
330
18
100
AcDbEntity
  8
0010010007
100
AcDbLine
 10
719.512180451718
 20
587.959840347595
 30
0.0
 11
721.428828957818
 21
590.358984573395
 31
0.0
  0
LINE
  5
7B
330
18
100
AcDbEntity
  8
0010010007
100
AcDbLine
 10
721.428828957817
 20
590.358984573395
 30
0.0
 11
723.235635450718
 21
592.927942290195
 31
0.0
  0
LINE
  5
7C
330
18
100
AcDbEntity
  8
0010010007
100
AcDbLine
 10
723.235635450718
 20
592.927942290195
 30
0.0
 11
724.905275481818
 21
595.6471835876951
 31
0.0
  0
LINE
  5
7D
330
18
100
AcDbEntity
  8
0010010007
100
AcDbLine
 10
724.9052754818169
 20
595.6471835876951
 30
0.0
 11
726.414837728417
 21
598.494055337895
 31
0.0
  0
LINE
  5
7E
330
18
100
AcDbEntity
  8
0010010007
100
AcDbLine
 10
726.414837728418
 20
598.494055337895
 30
0.0
 11
727.745939827718
 21
601.442895729195
 31
0.0
  0
LINE
  5
7F
330
18
100
AcDbEntity
  8
0010010007
100
AcDbLine
 10
727.745939827718
 20
601.442895729195
 30
0.0
 11
728.884942342418
 21
604.465233446795
 31
0.0
  0
LINE
  5
80
330
18
100
AcDbEntity
  8
0010010007
100
AcDbLine
 10
728.884942342418
 20
604.465233446795
 30
0.0
 11
729.823391146218
 21
607.5307026570951
 31
0.0
  0
LINE
  5
81
330
18
100
AcDbEntity
  8
0010010007
100
AcDbLine
 10
729.823391146218
 20
607.5307026570951
 30
0.0
 11
730.558147821518
 21
610.607662011495
 31
0.0
  0
LINE
  5
82
330
18
100
AcDbEntity
  8
0010010007
100
AcDbLine
 10
730.558147821517
 20
610.607662011495
 30
0.0
 11
731.0914670331171
 21
613.664181614595
 31
0.0
  0
LINE
  5
83
330
18
100
AcDbEntity
  8
0010010007
100
AcDbLine
 10
731.0914670331171
 20
613.664181614595
 30
0.0
 11
731.430040253617
 21
616.6594599686951
 31
0.0
  0
LINE
  5
84
330
18
100
AcDbEntity
  8
0010010007
100
AcDbLine
 10
731.430040253618
 20
616.6594599686951
 30
0.0
 11
731.550282436218
 21
618.544004532795
 31
0.0
  0
LINE
  5
85
330
18
100
AcDbEntity
  8
0010010007
100
AcDbLine
 10
495.403006256018
 20
563.517444005195
 30
0.0
 11
682.414742527418
 21
570.048037739695
 31
0.0
  0
LINE
  5
86
330
18
100
AcDbEntity
  8
0010010007
100
AcDbLine
 10
682.414890035117
 20
570.048042899995
 30
0.0
 11
682.414742527418
 21
570.048037739695
 31
0.0
  0
LINE
  5
87
330
18
100
AcDbEntity
  8
0010010007
100
AcDbLine
 10
478.486880749118
 20
558.738092670495
 30
0.0
 11
388.576236752917
 21
558.738092670495
 31
0.0
  0
LINE
  5
88
330
18
100
AcDbEntity
  8
0010010007
100
AcDbLine
 10
371.660111246018
 20
563.517444005195
 30
0.0
 11
184.648374974618
 21
570.048037739695
 31
0.0
  0
LINE
  5
89
330
18
100
AcDbEntity
  8
0010010007
100
AcDbLine
 10
371.660111246018
 20
563.517444005195
 30
0.0
 11
372.096114232718
 21
563.436635627995
 31
0.0
  0
LINE
  5
8A
330
18
100
AcDbEntity
  8
0010010007
100
AcDbLine
 10
388.576236752917
 20
558.738092670495
 30
0.0
 11
375.945934658217
 21
562.122371916895
 31
0.0
  0
LINE
  5
8B
330
18
100
AcDbEntity
  8
0010010007
100
AcDbLine
 10
375.945934658218
 20
562.122371916895
 30
0.0
 11
375.652238577018
 21
562.212163819995
 31
0.0
  0
LINE
  5
8C
330
18
100
AcDbEntity
  8
0010010007
100
AcDbLine
 10
375.652238577017
 20
562.212163819995
 30
0.0
 11
372.096114232717
 21
563.436635627995
 31
0.0
  0
LINE
  5
8D
330
18
100
AcDbEntity
  8
0010010007
100
AcDbLine
 10
240.531558751017
 20
764.0049604078951
 30
0.0
 11
240.531558751017
 21
746.0049604078951
 31
0.0
  0
LINE
  5
8E
330
18
100
AcDbEntity
  8
0010010007
100
AcDbLine
 10
230.531558751017
 20
748.5049604078951
 30
0.0
 11
230.531558751017
 21
751.5049604078951
 31
0.0
  0
LINE
  5
8F
330
18
100
AcDbEntity
  8
0010010007
100
AcDbLine
 10
230.531558751017
 20
755.5049604078951
 30
0.0
 11
230.531558751017
 21
758.5049604078951
 31
0.0
  0
LINE
  5
90
330
18
100
AcDbEntity
  8
0010010007
100
AcDbLine
 10
220.531558751017
 20
758.5049604078951
 30
0.0
 11
220.531558751017
 21
755.5049604078951
 31
0.0
  0
LINE
  5
91
330
18
100
AcDbEntity
  8
0010010007
100
AcDbLine
 10
220.531558751017
 20
751.5049604078951
 30
0.0
 11
220.531558751017
 21
748.5049604078951
 31
0.0
  0
LINE
  5
92
330
18
100
AcDbEntity
  8
0010010007
100
AcDbLine
 10
210.531558751017
 20
764.0049604078951
 30
0.0
 11
210.531558751017
 21
746.0049604078951
 31
0.0
  0
LINE
  5
93
330
18
100
AcDbEntity
  8
0010010007
100
AcDbLine
 10
108.013054208618
 20
764.0049604078951
 30
0.0
 11
108.070789235618
 21
763.904960407895
 31
0.0
  0
LINE
  5
94
330
18
100
AcDbEntity
  8
0010010007
100
AcDbLine
 10
135.512834812418
 20
618.544005096695
 30
0.0
 11
135.633047424818
 21
616.659818914495
 31
0.0
  0
LINE
  5
95
330
18
100
AcDbEntity
  8
0010010007
100
AcDbLine
 10
135.633047424818
 20
616.659818914495
 30
0.0
 11
135.971671348118
 21
613.664035787795
 31
0.0
  0
LINE
  5
96
330
18
100
AcDbEntity
  8
0010010007
100
AcDbLine
 10
135.971671348118
 20
613.664035787795
 30
0.0
 11
136.505290899818
 21
610.6061037398951
 31
0.0
  0
LINE
  5
97
330
18
100
AcDbEntity
  8
0010010007
100
AcDbLine
 10
136.505290899818
 20
610.6061037398951
 30
0.0
 11
137.240714589817
 21
607.527069337395
 31
0.0
  0
LINE
  5
98
330
18
100
AcDbEntity
  8
0010010007
100
AcDbLine
 10
137.240714589817
 20
607.527069337395
 30
0.0
 11
138.180284199617
 21
604.459049601095
 31
0.0
  0
LINE
  5
99
330
18
100
AcDbEntity
  8
0010010007
100
AcDbLine
 10
138.180284199618
 20
604.459049601095
 30
0.0
 11
139.320907789318
 21
601.4338796933951
 31
0.0
  0
LINE
  5
9A
330
18
100
AcDbEntity
  8
0010010007
100
AcDbLine
 10
139.320907789318
 20
601.4338796933951
 30
0.0
 11
140.654135607217
 21
598.482115704095
 31
0.0
  0
LINE
  5
9B
330
18
100
AcDbEntity
  8
0010010007
100
AcDbLine
 10
140.654135607218
 20
598.482115704095
 30
0.0
 11
142.166289276318
 21
595.632410585795
 31
0.0
  0
LINE
  5
9C
330
18
100
AcDbEntity
  8
0010010007
100
AcDbLine
 10
142.166289276317
 20
595.632410585795
 30
0.0
 11
143.838907183017
 21
592.910589376295
 31
0.0
  0
LINE
  5
9D
330
18
100
AcDbEntity
  8
0010010007
100
AcDbLine
 10
143.838907183017
 20
592.910589376295
 30
0.0
 11
145.648960637317
 21
590.339445881495
 31
0.0
  0
LINE
  5
9E
330
18
100
AcDbEntity
  8
0010010007
100
AcDbLine
 10
145.648960637317
 20
590.339445881495
 30
0.0
 11
147.568955136917
 21
587.938644841895
 31
0.0
  0
LINE
  5
9F
330
18
100
AcDbEntity
  8
0010010007
100
AcDbLine
 10
147.568955136917
 20
587.938644841895
 30
0.0
 11
149.571191031017
 21
585.7202053876951
 31
0.0
  0
LINE
  5
A0
330
18
100
AcDbEntity
  8
0010010007
100
AcDbLine
 10
149.571191031017
 20
585.7202053876951
 30
0.0
 11
151.618902451517
 21
583.699022215495
 31
0.0
  0
LINE
  5
A1
330
18
100
AcDbEntity
  8
0010010007
100
AcDbLine
 10
151.618902451517
 20
583.699022215495
 30
0.0
 11
153.699852881318
 21
581.8618004671951
 31
0.0
  0
LINE
  5
A2
330
18
100
AcDbEntity
  8
0010010007
100
AcDbLine
 10
153.699852881317
 20
581.8618004671951
 30
0.0
 11
155.794275042717
 21
580.203514465995
 31
0.0
  0
LINE
  5
A3
330
18
100
AcDbEntity
  8
0010010007
100
AcDbLine
 10
155.794275042717
 20
580.203514465995
 30
0.0
 11
157.897685050517
 21
578.708061379295
 31
0.0
  0
LINE
  5
A4
330
18
100
AcDbEntity
  8
0010010007
100
AcDbLine
 10
157.897685050517
 20
578.708061379295
 30
0.0
 11
160.006751993217
 21
577.361949468895
 31
0.0
  0
LINE
  5
A5
330
18
100
AcDbEntity
  8
0010010007
100
AcDbLine
 10
160.006751993217
 20
577.361949468895
 30
0.0
 11
162.112902365217
 21
576.157109373295
 31
0.0
  0
LINE
  5
A6
330
18
100
AcDbEntity
  8
0010010007
100
AcDbLine
 10
162.112902365217
 20
576.157109373295
 30
0.0
 11
164.215593267817
 21
575.0822279742951
 31
0.0
  0
LINE
  5
A7
330
18
100
AcDbEntity
  8
0010010007
100
AcDbLine
 10
164.215593267817
 20
575.0822279742951
 30
0.0
 11
166.296353889217
 21
574.1357508405951
 31
0.0
  0
LINE
  5
A8
330
18
100
AcDbEntity
  8
0010010007
100
AcDbLine
 10
166.296353889217
 20
574.1357508405951
 30
0.0
 11
168.341934818417
 21
573.312111231395
 31
0.0
  0
LINE
  5
A9
330
18
100
AcDbEntity
  8
0010010007
100
AcDbLine
 10
168.341934818417
 20
573.312111231395
 30
0.0
 11
170.339081969517
 21
572.604905047595
 31
0.0
  0
LINE
  5
AA
330
18
100
AcDbEntity
  8
0010010007
100
AcDbLine
 10
170.339081969517
 20
572.604905047595
 30
0.0
 11
172.276098130117
 21
572.0064696265951
 31
0.0
  0
LINE
  5
AB
330
18
100
AcDbEntity
  8
0010010007
100
AcDbLine
 10
172.276098130118
 20
572.0064696265951
 30
0.0
 11
174.139002424718
 21
571.509189605695
 31
0.0
  0
LINE
  5
AC
330
18
100
AcDbEntity
  8
0010010007
100
AcDbLine
 10
174.139002424718
 20
571.509189605695
 30
0.0
 11
175.916141014518
 21
571.104119125495
 31
0.0
  0
LINE
  5
AD
330
18
100
AcDbEntity
  8
0010010007
100
AcDbLine
 10
175.916141014518
 20
571.104119125495
 30
0.0
 11
177.593087621518
 21
570.782383335695
 31
0.0
  0
LINE
  5
AE
330
18
100
AcDbEntity
  8
0010010007
100
AcDbLine
 10
177.593087621518
 20
570.782383335695
 30
0.0
 11
179.154237650018
 21
570.534580522395
 31
0.0
  0
LINE
  5
AF
330
18
100
AcDbEntity
  8
0010010007
100
AcDbLine
 10
179.154237650017
 20
570.534580522395
 30
0.0
 11
180.595748115217
 21
570.349321600995
 31
0.0
  0
LINE
  5
B0
330
18
100
AcDbEntity
  8
0010010007
100
AcDbLine
 10
180.595748115217
 20
570.349321600995
 30
0.0
 11
181.907730297217
 21
570.216583579595
 31
0.0
  0
LINE
  5
B1
330
18
100
AcDbEntity
  8
0010010007
100
AcDbLine
 10
181.907730297217
 20
570.216583579595
 30
0.0
 11
183.097094587317
 21
570.125484427195
 31
0.0
  0
LINE
  5
B2
330
18
100
AcDbEntity
  8
0010010007
100
AcDbLine
 10
183.097094587317
 20
570.125484427195
 30
0.0
 11
184.169567745217
 21
570.0669703249951
 31
0.0
  0
LINE
  5
B3
330
18
100
AcDbEntity
  8
0010010007
100
AcDbLine
 10
184.169567745218
 20
570.0669703249951
 30
0.0
 11
184.648236972018
 21
570.048042674295
 31
0.0
  0
LINE
  5
B4
330
18
100
AcDbEntity
  8
0010010007
100
AcDbLine
 10
132.731558751017
 20
743.304960407895
 30
0.0
 11
132.731558751017
 21
749.704960407895
 31
0.0
  0
LINE
  5
B5
330
18
100
AcDbEntity
  8
0010010007
100
AcDbLine
 10
105.731558751017
 20
764.0049604078951
 30
0.0
 11
105.731558751017
 21
745.0049604078951
 31
0.0
  0
LINE
  5
B6
330
18
100
AcDbEntity
  8
0010010007
100
AcDbLine
 10
105.031558751017
 20
764.0049604078951
 30
0.0
 11
105.031558751017
 21
745.0049604078951
 31
0.0
  0
LINE
  5
B7
330
18
100
AcDbEntity
  8
0010010007
100
AcDbLine
 10
91.0315587510174
 20
764.804960407895
 30
0.0
 11
91.0315587510174
 21
764.0049604078951
 31
0.0
  0
LINE
  5
B8
330
18
100
AcDbEntity
  8
0010010007
100
AcDbLine
 10
94.3546437825175
 20
765.497818493795
 30
0.0
 11
94.7665478544176
 21
766.381149626695
 31
0.0
  0
LINE
  5
B9
330
18
100
AcDbEntity
  8
0260010007
100
AcDbLine
 10
94.3546437825175
 20
765.497818493795
 30
0.0
 11
94.7665478544176
 21
766.381149626695
 31
0.0
  0
ARC
  5
BA
330
18
100
AcDbEntity
  8
0010010007
100
AcDbCircle
 10
2133.53155875102
 20
76.7781395491795
 30
0.0
 40
2000.0
100
AcDbArc
 50
176.8296746409
 51
183.1703253591
  0
ARC
  5
BB
330
18
100
AcDbEntity
  8
0010010007
100
AcDbCircle
 10
640.608382736217
 20
182.40951471068
 30
0.0
 40
90.0
100
AcDbArc
 50
3.17032535909999
 51
87.5828618911
  0
ARC
  5
BC
330
18
100
AcDbEntity
  8
0010010007
100
AcDbCircle
 10
602.430202203017
 20
183.87231515258
 30
0.0
 40
90.0
100
AcDbArc
 50
88.0286987925
 51
138.8846732478
  0
ARC
  5
BD
330
18
100
AcDbEntity
  8
0010010007
100
AcDbCircle
 10
466.820449330317
 20
302.23613954918
 30
0.0
 40
90.0
100
AcDbArc
 50
271.5764905938
 51
318.8846732478
  0
ARC
  5
BE
330
18
100
AcDbEntity
  8
0260010007
100
AcDbCircle
 10
466.820449330317
 20
302.23613954918
 30
0.0
 40
90.0
100
AcDbArc
 50
274.7606086334
 51
315.7005552082
  0
ARC
  5
BF
330
18
100
AcDbEntity
  8
0010010007
100
AcDbCircle
 10
640.608382736217
 20
-28.8532356122204
 30
0.0
 40
90.0
100
AcDbArc
 50
272.4171381089
 51
356.8296746409
  0
ARC
  5
C0
330
18
100
AcDbEntity
  8
0010010004
100
AcDbCircle
 10
720.031558751017
 20
263.27813954918
 30
0.0
 40
38.8164319482
100
AcDbArc
 50
0.0
 51
90.0
  0
CIRCLE
  5
C1
330
18
100
AcDbEntity
  8
0120010007
100
AcDbCircle
 10
478.531558751017
 20
259.27813954918
 30
0.0
 40
14.0
  0
ARC
  5
C2
330
18
100
AcDbEntity
  8
0260010007
100
AcDbCircle
 10
766.031558751017
 20
309.27813954918
 30
0.0
 40
10.0
100
AcDbArc
 50
0.0
 51
90.0
  0
ARC
  5
C3
330
18
100
AcDbEntity
  8
0010010004
100
AcDbCircle
 10
720.031558751017
 20
-109.72186045082
 30
0.0
 40
38.8164319482
100
AcDbArc
 50
270.0
 51
0.0
  0
ARC
  5
C4
330
18
100
AcDbEntity
  8
0260010007
100
AcDbCircle
 10
766.031558751017
 20
-155.72186045082
 30
0.0
 40
10.0
100
AcDbArc
 50
270.0
 51
0.0
  0
ARC
  5
C5
330
18
100
AcDbEntity
  8
0010010007
100
AcDbCircle
 10
433.531558751018
 20
4876.77813954918
 30
0.0
 40
5000.0
100
AcDbArc
 50
267.5828618911
 51
272.4171381089
  0
ARC
  5
C6
330
18
100
AcDbEntity
  8
0010010007
100
AcDbCircle
 10
433.531558751018
 20
1511.77813954918
 30
0.0
 40
1300.0
100
AcDbArc
 50
268.4235094062
 51
271.5764905938
  0
ARC
  5
C7
330
18
100
AcDbEntity
  8
0010010007
100
AcDbCircle
 10
400.242668171717
 20
302.23613954918
 30
0.0
 40
90.0
100
AcDbArc
 50
221.1153267522
 51
268.4235094062
  0
ARC
  5
C8
330
18
100
AcDbEntity
  8
0010010007
100
AcDbCircle
 10
264.632915299017
 20
183.87231515258
 30
0.0
 40
90.0
100
AcDbArc
 50
41.1153267522
 51
91.97130120750001
  0
ARC
  5
C9
330
18
100
AcDbEntity
  8
0010010007
100
AcDbCircle
 10
226.454734765818
 20
182.40951471068
 30
0.0
 40
90.0
100
AcDbArc
 50
92.41713810890002
 51
176.8296746409
  0
ARC
  5
CA
330
18
100
AcDbEntity
  8
0010010007
100
AcDbCircle
 10
226.454734765818
 20
-28.8532356122203
 30
0.0
 40
90.0
100
AcDbArc
 50
183.1703253591
 51
267.5828618911
  0
CIRCLE
  5
CB
330
18
100
AcDbEntity
  8
0010010004
100
AcDbCircle
 10
433.531558751017
 20
51.7781395491797
 30
0.0
 40
57.3785688567
  0
CIRCLE
  5
CC
330
18
100
AcDbEntity
  8
0120010007
100
AcDbCircle
 10
433.531558751017
 20
51.7781395491797
 30
0.0
 40
44.85
  0
ARC
  5
CD
330
18
100
AcDbEntity
  8
0010010004
100
AcDbCircle
 10
147.031558751017
 20
263.27813954918
 30
0.0
 40
38.8164319482
100
AcDbArc
 50
90.0
 51
180.0
  0
CIRCLE
  5
CE
330
18
100
AcDbEntity
  8
0120010007
100
AcDbCircle
 10
388.531558751017
 20
259.27813954918
 30
0.0
 40
17.5
  0
ARC
  5
CF
330
18
100
AcDbEntity
  8
0260010007
100
AcDbCircle
 10
101.031558751017
 20
309.27813954918
 30
0.0
 40
10.0
100
AcDbArc
 50
90.0
 51
180.0
  0
ARC
  5
D0
330
18
100
AcDbEntity
  8
0010010007
100
AcDbCircle
 10
-1266.46844124898
 20
76.7781395491799
 30
0.0
 40
2000.0
100
AcDbArc
 50
356.8296746409
 51
3.17032535909999
  0
ARC
  5
D1
330
18
100
AcDbEntity
  8
0010010007
100
AcDbCircle
 10
433.531558751417
 20
-4723.22186045052
 30
0.0
 40
4999.9999999998
100
AcDbArc
 50
87.5828618911
 51
88.0286987925
  0
ARC
  5
D2
330
18
100
AcDbEntity
  8
0010010007
100
AcDbCircle
 10
433.531558750617
 20
-4723.22186045052
 30
0.0
 40
4999.9999999998
100
AcDbArc
 50
91.97130120750001
 51
92.41713810890002
  0
ARC
  5
D3
330
18
100
AcDbEntity
  8
0010010004
100
AcDbCircle
 10
147.031558751017
 20
-109.72186045082
 30
0.0
 40
38.8164319482
100
AcDbArc
 50
180.0
 51
270.0
  0
ARC
  5
D4
330
18
100
AcDbEntity
  8
0260010007
100
AcDbCircle
 10
101.031558751017
 20
-155.72186045082
 30
0.0
 40
10.0
100
AcDbArc
 50
180.0
 51
270.0
  0
ARC
  5
D5
330
18
100
AcDbEntity
  8
0010010007
100
AcDbCircle
 10
751.371304713217
 20
768.304960407895
 30
0.0
 40
8.800000000000001
100
AcDbArc
 50
270.0
 51
329.9999999993
  0
ARC
  5
D6
330
18
100
AcDbEntity
  8
0010010007
100
AcDbCircle
 10
770.846477188318
 20
765.704960407895
 30
0.0
 40
1.6
100
AcDbArc
 50
25.0
 51
90.0
  0
ARC
  5
D7
330
18
100
AcDbEntity
  8
0010010007
100
AcDbCircle
 10
773.796043064017
 20
766.0049604078951
 30
0.0
 40
1.2
100
AcDbArc
 50
205.0
 51
270.0
  0
ARC
  5
D8
330
18
100
AcDbEntity
  8
0010010007
100
AcDbCircle
 10
438.031558751017
 20
758.5049604078951
 30
0.0
 40
0.5
100
AcDbArc
 50
0.0
 51
90.0
  0
ARC
  5
D9
330
18
100
AcDbEntity
  8
0010010007
100
AcDbCircle
 10
646.031558751017
 20
758.5049604078951
 30
0.0
 40
0.5
100
AcDbArc
 50
0.0
 51
90.0
  0
ARC
  5
DA
330
18
100
AcDbEntity
  8
0010010007
100
AcDbCircle
 10
637.031558751017
 20
758.5049604078951
 30
0.0
 40
0.5
100
AcDbArc
 50
90.0
 51
180.0
  0
ARC
  5
DB
330
18
100
AcDbEntity
  8
0010010007
100
AcDbCircle
 10
2933.53155875102
 20
743.304960407895
 30
0.0
 40
2800.8
100
AcDbArc
 50
180.0
 51
182.5517818509
  0
ARC
  5
DC
330
18
100
AcDbEntity
  8
0010010007
100
AcDbCircle
 10
744.131558751018
 20
749.704960407895
 30
0.0
 40
9.800000000000001
100
AcDbArc
 50
90.0
 51
180.0
  0
ARC
  5
DD
330
18
100
AcDbEntity
  8
0010010007
100
AcDbCircle
 10
447.531558751017
 20
746.0049604078951
 30
0.0
 40
1.0
100
AcDbArc
 50
270.0
 51
0.0
  0
ARC
  5
DE
330
18
100
AcDbEntity
  8
0010010007
100
AcDbCircle
 10
655.531558751017
 20
746.0049604078951
 30
0.0
 40
1.0
100
AcDbArc
 50
270.0
 51
0.0
  0
ARC
  5
DF
330
18
100
AcDbEntity
  8
0010010007
100
AcDbCircle
 10
627.531558751017
 20
746.0049604078951
 30
0.0
 40
1.0
100
AcDbArc
 50
180.0
 51
270.0
  0
ARC
  5
E0
330
18
100
AcDbEntity
  8
0010010007
100
AcDbCircle
 10
438.031558751017
 20
755.5049604078951
 30
0.0
 40
0.5
100
AcDbArc
 50
270.0
 51
0.0
  0
ARC
  5
E1
330
18
100
AcDbEntity
  8
0010010007
100
AcDbCircle
 10
438.031558751017
 20
751.5049604078951
 30
0.0
 40
0.5
100
AcDbArc
 50
0.0
 51
90.0
  0
ARC
  5
E2
330
18
100
AcDbEntity
  8
0010010007
100
AcDbCircle
 10
438.031558751017
 20
748.5049604078951
 30
0.0
 40
0.5
100
AcDbArc
 50
270.0
 51
0.0
  0
ARC
  5
E3
330
18
100
AcDbEntity
  8
0010010007
100
AcDbCircle
 10
646.031558751017
 20
755.5049604078951
 30
0.0
 40
0.5
100
AcDbArc
 50
270.0
 51
0.0
  0
ARC
  5
E4
330
18
100
AcDbEntity
  8
0010010007
100
AcDbCircle
 10
637.031558751017
 20
755.5049604078951
 30
0.0
 40
0.5
100
AcDbArc
 50
180.0
 51
270.0
  0
ARC
  5
E5
330
18
100
AcDbEntity
  8
0010010007
100
AcDbCircle
 10
637.031558751017
 20
748.5049604078951
 30
0.0
 40
0.5
100
AcDbArc
 50
180.0
 51
270.0
  0
ARC
  5
E6
330
18
100
AcDbEntity
  8
0010010007
100
AcDbCircle
 10
637.031558751017
 20
751.5049604078951
 30
0.0
 40
0.5
100
AcDbArc
 50
90.0
 51
180.0
  0
ARC
  5
E7
330
18
100
AcDbEntity
  8
0010010007
100
AcDbCircle
 10
646.031558751017
 20
751.5049604078951
 30
0.0
 40
0.5
100
AcDbArc
 50
0.0
 51
90.0
  0
ARC
  5
E8
330
18
100
AcDbEntity
  8
0010010007
100
AcDbCircle
 10
646.031558751017
 20
748.5049604078951
 30
0.0
 40
0.5
100
AcDbArc
 50
270.0
 51
0.0
  0
ARC
  5
E9
330
18
100
AcDbEntity
  8
0010010007
100
AcDbCircle
 10
115.691812788918
 20
768.304960407895
 30
0.0
 40
8.800000000000001
100
AcDbArc
 50
210.0
 51
270.0
  0
ARC
  5
EA
330
18
100
AcDbEntity
  8
0010010007
100
AcDbCircle
 10
96.21664031371761
 20
765.704960407895
 30
0.0
 40
1.6
100
AcDbArc
 50
90.0
 51
155.0
  0
ARC
  5
EB
330
18
100
AcDbEntity
  8
0010010007
100
AcDbCircle
 10
93.2670744380175
 20
766.0049604078951
 30
0.0
 40
1.2
100
AcDbArc
 50
270.0
 51
335.0
  0
ARC
  5
EC
330
18
100
AcDbEntity
  8
0010010007
100
AcDbCircle
 10
230.031558751017
 20
758.5049604078951
 30
0.0
 40
0.5
100
AcDbArc
 50
0.0
 51
90.0
  0
ARC
  5
ED
330
18
100
AcDbEntity
  8
0010010007
100
AcDbCircle
 10
221.031558751017
 20
758.5049604078951
 30
0.0
 40
0.5
100
AcDbArc
 50
90.0
 51
180.0
  0
ARC
  5
EE
330
18
100
AcDbEntity
  8
0010010007
100
AcDbCircle
 10
429.031558751017
 20
758.5049604078951
 30
0.0
 40
0.5
100
AcDbArc
 50
90.0
 51
180.0
  0
ARC
  5
EF
330
18
100
AcDbEntity
  8
0010010007
100
AcDbCircle
 10
-2066.46844124898
 20
743.304960407895
 30
0.0
 40
2800.8
100
AcDbArc
 50
357.4482181163
 51
0.0
  0
ARC
  5
F0
330
18
100
AcDbEntity
  8
0010010007
100
AcDbCircle
 10
122.931558751018
 20
749.704960407895
 30
0.0
 40
9.800000000000001
100
AcDbArc
 50
0.0
 51
90.0
  0
ARC
  5
F1
330
18
100
AcDbEntity
  8
0010010007
100
AcDbCircle
 10
239.531558751017
 20
746.0049604078951
 30
0.0
 40
1.0
100
AcDbArc
 50
270.0
 51
0.0
  0
ARC
  5
F2
330
18
100
AcDbEntity
  8
0010010007
100
AcDbCircle
 10
211.531558751017
 20
746.0049604078951
 30
0.0
 40
1.0
100
AcDbArc
 50
180.0
 51
270.0
  0
ARC
  5
F3
330
18
100
AcDbEntity
  8
0010010007
100
AcDbCircle
 10
419.531558751017
 20
746.0049604078951
 30
0.0
 40
1.0
100
AcDbArc
 50
180.0
 51
270.0
  0
ARC
  5
F4
330
18
100
AcDbEntity
  8
0010010007
100
AcDbCircle
 10
230.031558751017
 20
755.5049604078951
 30
0.0
 40
0.5
100
AcDbArc
 50
270.0
 51
0.0
  0
ARC
  5
F5
330
18
100
AcDbEntity
  8
0010010007
100
AcDbCircle
 10
221.031558751017
 20
755.5049604078951
 30
0.0
 40
0.5
100
AcDbArc
 50
180.0
 51
270.0
  0
ARC
  5
F6
330
18
100
AcDbEntity
  8
0010010007
100
AcDbCircle
 10
221.031558751017
 20
748.5049604078951
 30
0.0
 40
0.5
100
AcDbArc
 50
180.0
 51
270.0
  0
ARC
  5
F7
330
18
100
AcDbEntity
  8
0010010007
100
AcDbCircle
 10
221.031558751017
 20
751.5049604078951
 30
0.0
 40
0.5
100
AcDbArc
 50
90.0
 51
180.0
  0
ARC
  5
F8
330
18
100
AcDbEntity
  8
0010010007
100
AcDbCircle
 10
230.031558751017
 20
751.5049604078951
 30
0.0
 40
0.5
100
AcDbArc
 50
0.0
 51
90.0
  0
ARC
  5
F9
330
18
100
AcDbEntity
  8
0010010007
100
AcDbCircle
 10
230.031558751017
 20
748.5049604078951
 30
0.0
 40
0.5
100
AcDbArc
 50
270.0
 51
0.0
  0
ARC
  5
FA
330
18
100
AcDbEntity
  8
0010010007
100
AcDbCircle
 10
429.031558751017
 20
755.5049604078951
 30
0.0
 40
0.5
100
AcDbArc
 50
180.0
 51
270.0
  0
ARC
  5
FB
330
18
100
AcDbEntity
  8
0010010007
100
AcDbCircle
 10
429.031558751017
 20
748.5049604078951
 30
0.0
 40
0.5
100
AcDbArc
 50
180.0
 51
270.0
  0
ARC
  5
FC
330
18
100
AcDbEntity
  8
0010010007
100
AcDbCircle
 10
429.031558751017
 20
751.5049604078951
 30
0.0
 40
0.5
100
AcDbArc
 50
90.0
 51
180.0
  0
ARC
  5
FD
330
18
100
AcDbEntity
  8
0260010004
100
AcDbCircle
 10
766.031558751017
 20
309.27813954918
 30
0.0
 40
6.5
100
AcDbArc
 50
359.999989283918
 51
90.0
  0
LINE
  5
FE
330
18
100
AcDbEntity
  8
0260010004
100
AcDbLine
 10
766.031558751017
 20
315.77813954918
 30
0.0
 11
101.031558751017
 21
315.77813954918
 31
0.0
  0
ARC
  5
FF
330
18
100
AcDbEntity
  8
0260010004
100
AcDbCircle
 10
101.031558751017
 20
309.27813954918
 30
0.0
 40
6.5
100
AcDbArc
 50
90.0
 51
180.0
  0
LINE
  5
100
330
18
100
AcDbEntity
  8
0260010004
100
AcDbLine
 10
94.5315587510174
 20
309.27813954918
 30
0.0
 11
94.5315587510174
 21
-155.721859235119
 31
0.0
  0
ARC
  5
101
330
18
100
AcDbEntity
  8
0260010004
100
AcDbCircle
 10
101.031558751017
 20
-155.72186045082
 30
0.0
 40
6.5
100
AcDbArc
 50
180.000010716082
 51
270.0
  0
LINE
  5
102
330
18
100
AcDbEntity
  8
0260010004
100
AcDbLine
 10
101.031558751017
 20
-162.22186045082
 30
0.0
 11
766.031558143167
 21
-162.22186045082
 31
0.0
  0
ARC
  5
103
330
18
100
AcDbEntity
  8
0260010004
100
AcDbCircle
 10
766.031558751017
 20
-155.72186045082
 30
0.0
 40
6.50000000000006
100
AcDbArc
 50
269.999994641959
 51
0.0
  0
LINE
  5
104
330
18
100
AcDbEntity
  8
0260010004
100
AcDbLine
 10
772.531558751017
 20
-155.72186045082
 30
0.0
 11
772.531558751017
 21
309.278138333479
 31
0.0
  0
LINE
  5
105
330
18
100
AcDbEntity
  8
0010010007
100
AcDbLine
 10
371.660111246018
 20
563.517444005195
 30
0.0
 11
495.403006256018
 21
563.517444005195
 31
0.0
  0
LINE
  5
106
330
18
100
AcDbEntity
  8
0010010007
100
AcDbLine
 10
491.117182843817
 20
562.122371916895
 30
0.0
 11
375.945934658217
 21
562.122371916895
 31
0.0
  0
LINE
  5
107
330
18
100
AcDbEntity
  8
0010010002
100
AcDbLine
 10
91.0315587510174
 20
310.27813954918
 30
0.0
 11
91.0315587510174
 21
390.27813954918
 31
0.0
  0
LINE
  5
108
330
18
100
AcDbEntity
  8
0010010002
100
AcDbLine
 10
776.031558751017
 20
310.27813954918
 30
0.0
 11
776.031558751017
 21
390.27813954918
 31
0.0
  0
SOLID
  5
109
330
18
100
AcDbEntity
  8
0010010002
100
AcDbTrace
 10
92.2693938369444
 20
389.104173172979
 30
0.0
 11
92.2693938369444
 21
389.45210592538
 31
0.0
 12
91.0315587510174
 22
389.27813954918
 32
0.0
 13
91.0315587510174
 23
389.27813954918
 33
0.0
  0
SOLID
  5
10A
330
18
100
AcDbEntity
  8
0010010002
100
AcDbTrace
 10
774.793723665091
 20
389.45210592538
 30
0.0
 11
774.793723665091
 21
389.104173172979
 31
0.0
 12
776.031558751017
 22
389.27813954918
 32
0.0
 13
776.031558751017
 23
389.27813954918
 33
0.0
  0
LINE
  5
10B
330
18
100
AcDbEntity
  8
0010010002
100
AcDbLine
 10
91.0315587510174
 20
389.27813954918
 30
0.0
 11
776.031558751017
 21
389.27813954918
 31
0.0
  0
TEXT
  5
10C
330
18
100
AcDbEntity
  8
0010010002
100
AcDbText
 10
403.531559343669
 20
404.278140502854
 30
0.0
 40
30.0000019073486
  1
685
 41
0.75
100
AcDbText
  0
LINE
  5
10D
330
18
100
AcDbEntity
  8
0010010002
100
AcDbLine
 10
767.031558751017
 20
319.27813954918
 30
0.0
 11
847.031558751017
 21
319.27813954918
 31
0.0
  0
LINE
  5
10E
330
18
100
AcDbEntity
  8
0010010002
100
AcDbLine
 10
767.031558751017
 20
-165.72186045082
 30
0.0
 11
847.031558751017
 21
-165.72186045082
 31
0.0
  0
SOLID
  5
10F
330
18
100
AcDbEntity
  8
0010010002
100
AcDbTrace
 10
845.8575923748171
 20
318.040304463253
 30
0.0
 11
846.205525127217
 21
318.040304463253
 31
0.0
 12
846.031558751017
 22
319.27813954918
 32
0.0
 13
846.031558751017
 23
319.27813954918
 33
0.0
  0
SOLID
  5
110
330
18
100
AcDbEntity
  8
0010010002
100
AcDbTrace
 10
846.205525127217
 20
-164.484025364893
 30
0.0
 11
845.8575923748171
 21
-164.484025364893
 31
0.0
 12
846.031558751017
 22
-165.72186045082
 32
0.0
 13
846.031558751017
 23
-165.72186045082
 33
0.0
  0
LINE
  5
111
330
18
100
AcDbEntity
  8
0010010002
100
AcDbLine
 10
846.031558751017
 20
319.27813954918
 30
0.0
 11
846.031558751017
 21
-165.72186045082
 31
0.0
  0
TEXT
  5
112
330
18
100
AcDbEntity
  8
0010010002
100
AcDbText
 10
831.031557797343
 20
46.7781351418309
 30
0.0
 40
30.0000019073486
  1
485
 50
90.0
 41
0.75
100
AcDbText
  0
LINE
  5
113
330
18
100
AcDbEntity
  8
0010010002
100
AcDbLine
 10
771.846477188318
 20
767.304960407895
 30
0.0
 11
847.031558751017
 21
767.304960407895
 31
0.0
  0
LINE
  5
114
330
18
100
AcDbEntity
  8
0010010002
100
AcDbLine
 10
496.403006256018
 20
563.517444005195
 30
0.0
 11
847.031558751017
 21
563.517444005195
 31
0.0
  0
SOLID
  5
115
330
18
100
AcDbEntity
  8
0010010002
100
AcDbTrace
 10
845.8575923748171
 20
766.067125321968
 30
0.0
 11
846.205525127217
 21
766.067125321968
 31
0.0
 12
846.031558751017
 22
767.304960407895
 32
0.0
 13
846.031558751017
 23
767.304960407895
 33
0.0
  0
SOLID
  5
116
330
18
100
AcDbEntity
  8
0010010002
100
AcDbTrace
 10
846.205525127217
 20
564.755279091122
 30
0.0
 11
845.8575923748171
 21
564.755279091122
 31
0.0
 12
846.031558751017
 22
563.517444005195
 32
0.0
 13
846.031558751017
 23
563.517444005195
 33
0.0
  0
LINE
  5
117
330
18
100
AcDbEntity
  8
0010010002
100
AcDbLine
 10
846.031558751017
 20
767.304960407895
 30
0.0
 11
846.031558751017
 21
563.517444005195
 31
0.0
  0
TEXT
  5
118
330
18
100
AcDbEntity
  8
0010010002
100
AcDbText
 10
831.031557797343
 20
635.411197799197
 30
0.0
 40
30.0000019073486
  1
203
 50
90.0
 41
0.75
100
AcDbText
  0
ENDSEC
  0
SECTION
  2
OBJECTS
  0
DICTIONARY
  5
C
330
0
100
AcDbDictionary
281
     1
  3
ACAD_GROUP
350
D
  3
ACAD_LAYOUT
350
15
  3
ACAD_MLINESTYLE
350
12
  3
ACAD_PLOTSETTINGS
350
14
  3
ACAD_PLOTSTYLENAME
350
E
  3
ACAD_TABLESTYLE
350
11A
  3
AcDbVariableDictionary
350
11C
  0
DICTIONARY
  5
D
102
{ACAD_REACTORS
330
C
102
}
330
C
100
AcDbDictionary
281
     1
  0
DICTIONARY
  5
15
102
{ACAD_REACTORS
330
C
102
}
330
C
100
AcDbDictionary
281
     1
  3
Layout1
350
17
  3
Model
350
19
  0
DICTIONARY
  5
12
102
{ACAD_REACTORS
330
C
102
}
330
C
100
AcDbDictionary
281
     1
  3
Standard
350
13
  0
DICTIONARY
  5
14
102
{ACAD_REACTORS
330
C
102
}
330
C
100
AcDbDictionary
281
     1
  0
ACDBDICTIONARYWDFLT
  5
E
102
{ACAD_REACTORS
330
C
102
}
330
C
100
AcDbDictionary
281
     1
  3
Normal
350
F
100
AcDbDictionaryWithDefault
340
F
  0
DICTIONARY
  5
11A
102
{ACAD_REACTORS
330
C
102
}
330
C
100
AcDbDictionary
281
     1
  3
Standard
350
11B
  0
DICTIONARY
  5
11C
102
{ACAD_REACTORS
330
C
102
}
330
C
100
AcDbDictionary
281
     1
  3
CTABLESTYLE
350
11D
  0
LAYOUT
  5
17
102
{ACAD_REACTORS
330
15
102
}
330
15
100
AcDbPlotSettings
  1

  2

  4

  6

 40
0.0
 41
0.0
 42
0.0
 43
0.0
 44
0.0
 45
0.0
 46
0.0
 47
0.0
 48
0.0
 49
0.0
140
0.0
141
0.0
142
1.0
143
1.0
 70
   688
 72
     0
 73
     0
 74
     5
  7

 75
    16
147
1.0
148
0.0
149
0.0
100
AcDbLayout
  1
Layout1
 70
     1
 71
     1
 10
0.0
 20
0.0
 11
12.0
 21
9.0
 12
0.0
 22
0.0
 32
0.0
 14
1.000000000000000E+20
 24
1.000000000000000E+20
 34
1.000000000000000E+20
 15
-1.000000000000000E+20
 25
-1.000000000000000E+20
 35
-1.000000000000000E+20
146
0.0
 13
0.0
 23
0.0
 33
0.0
 16
1.0
 26
0.0
 36
0.0
 17
0.0
 27
1.0
 37
0.0
 76
     0
330
16
  0
LAYOUT
  5
19
102
{ACAD_REACTORS
330
15
102
}
330
15
100
AcDbPlotSettings
  1

  2

  4

  6

 40
0.0
 41
0.0
 42
0.0
 43
0.0
 44
0.0
 45
0.0
 46
0.0
 47
0.0
 48
0.0
 49
0.0
140
0.0
141
0.0
142
1.0
143
1.0
 70
  1712
 72
     0
 73
     0
 74
     0
  7

 75
     0
147
1.0
148
0.0
149
0.0
100
AcDbLayout
  1
Model
 70
     1
 71
     0
 10
0.0
 20
0.0
 11
0.0
 21
0.0
 12
0.0
 22
0.0
 32
0.0
 14
-32.05
 24
-32.05
 34
0.0
 15
1258.45
 25
893.05
 35
0.0
146
0.0
 13
0.0
 23
0.0
 33
0.0
 16
1.0
 26
0.0
 36
0.0
 17
0.0
 27
1.0
 37
0.0
 76
     0
330
18
  0
MLINESTYLE
  5
13
102
{ACAD_REACTORS
330
12
102
}
330
12
100
AcDbMlineStyle
  2
Standard
 70
     0
  3

 62
   256
 51
90.0
 52
90.0
 71
     2
 49
0.5
 62
   256
  6
BYLAYER
 49
-0.5
 62
   256
  6
BYLAYER
  0
ACDBPLACEHOLDER
  5
F
102
{ACAD_REACTORS
330
E
102
}
330
E
  0
TABLESTYLE
  5
11B
102
{ACAD_REACTORS
330
11A
102
}
330
11A
100
AcDbTableStyle
  3
Standard
 70
     0
 71
     0
 40
0.06
 41
0.06
280
     0
281
     0
  7
STANDARD
140
0.18
170
     2
 62
     0
 63
     7
283
     0
274
    -2
284
     1
 64
     0
275
    -2
285
     1
 65
     0
276
    -2
286
     1
 66
     0
277
    -2
287
     1
 67
     0
278
    -2
288
     1
 68
     0
279
    -2
289
     1
 69
     0
  7
STANDARD
140
0.25
170
     5
 62
     0
 63
     7
283
     0
274
    -2
284
     1
 64
     0
275
    -2
285
     1
 65
     0
276
    -2
286
     1
 66
     0
277
    -2
287
     1
 67
     0
278
    -2
288
     1
 68
     0
279
    -2
289
     1
 69
     0
  7
STANDARD
140
0.18
170
     5
 62
     0
 63
     7
283
     0
274
    -2
284
     1
 64
     0
275
    -2
285
     1
 65
     0
276
    -2
286
     1
 66
     0
277
    -2
287
     1
 67
     0
278
    -2
288
     1
 68
     0
279
    -2
289
     1
 69
     0
  0
DICTIONARYVAR
  5
11D
102
{ACAD_REACTORS
330
11C
102
}
330
11C
100
DictionaryVariables
280
     0
  1
Standard
  0
ENDSEC
  0
EOF
