  0
SECTION
  2
HEADER
  9
$ACADVER
  1
AC1015
  9
$ACADMAINTVER
 70
     6
  9
$DWGCODEPAGE
  3
UNDEFINED
  9
$INSBASE
 10
0.0
 20
0.0
 30
0.0
  9
$EXTMIN
 10
-32.05
 20
-32.05
 30
0.0
  9
$EXTMAX
 10
1258.45
 20
893.05
 30
0.0
  9
$LIMMIN
 10
-32.05
 20
-32.05
  9
$LIMMAX
 10
1258.45
 20
893.05
  9
$ORTHOMODE
 70
     0
  9
$REGENMODE
 70
     1
  9
$FILLMODE
 70
     1
  9
$QTEXTMODE
 70
     0
  9
$MIRRTEXT
 70
     1
  9
$LTSCALE
 40
1.0
  9
$ATTMODE
 70
     1
  9
$TEXTSIZE
 40
30.0000019073486
  9
$TRACEWID
 40
0.05
  9
$TEXTSTYLE
  7
STANDARD
  9
$CLAYER
  8
0
  9
$CELTYPE
  6
ByBlock
  9
$CECOLOR
 62
   256
  9
$CELTSCALE
 40
1.0
  9
$DISPSILH
 70
     0
  9
$DIMSCALE
 40
1.0
  9
$DIMASZ
 40
19.5259201423987
  9
$DIMEXO
 40
1.0
  9
$DIMDLI
 40
0.38
  9
$DIMRND
 40
0.0
  9
$DIMDLE
 40
0.0
  9
$DIMEXE
 40
1.0
  9
$DIMTP
 40
0.0
  9
$DIMTM
 40
0.0
  9
$DIMTXT
 40
30.0000019073486
  9
$DIMCEN
 40
1.0
  9
$DIMTSZ
 40
0.0
  9
$DIMTOL
 70
     0
  9
$DIMLIM
 70
     0
  9
$DIMTIH
 70
     1
  9
$DIMTOH
 70
     1
  9
$DIMSE1
 70
     0
  9
$DIMSE2
 70
     0
  9
$DIMTAD
 70
     0
  9
$DIMZIN
 70
     0
  9
$DIMBLK
  1

  9
$DIMASO
 70
     1
  9
$DIMSHO
 70
     1
  9
$DIMPOST
  1

  9
$DIMAPOST
  1

  9
$DIMALT
 70
     0
  9
$DIMALTD
 70
     2
  9
$DIMALTF
 40
25.4
  9
$DIMLFAC
 40
1.0
  9
$DIMTOFL
 70
     0
  9
$DIMTVP
 40
0.0
  9
$DIMTIX
 70
     0
  9
$DIMSOXD
 70
     0
  9
$DIMSAH
 70
     0
  9
$DIMBLK1
  1

  9
$DIMBLK2
  1

  9
$DIMSTYLE
  2
Standard
  9
$DIMCLRD
 70
     0
  9
$DIMCLRE
 70
     0
  9
$DIMCLRT
 70
     0
  9
$DIMTFAC
 40
1.0
  9
$DIMGAP
 40
0.09
  9
$DIMJUST
 70
     0
  9
$DIMSD1
 70
     0
  9
$DIMSD2
 70
     0
  9
$DIMTOLJ
 70
     1
  9
$DIMTZIN
 70
     0
  9
$DIMALTZ
 70
     0
  9
$DIMALTTZ
 70
     0
  9
$DIMUPT
 70
     0
  9
$DIMDEC
 70
     4
  9
$DIMTDEC
 70
     4
  9
$DIMALTU
 70
     2
  9
$DIMALTTD
 70
     2
  9
$DIMTXSTY
  7
STANDARD
  9
$DIMAUNIT
 70
     0
  9
$DIMADEC
 70
     0
  9
$DIMALTRND
 40
0.0
  9
$DIMAZIN
 70
     0
  9
$DIMDSEP
 70
    46
  9
$DIMATFIT
 70
     3
  9
$DIMFRAC
 70
     0
  9
$DIMLDRBLK
  1

  9
$DIMLUNIT
 70
     2
  9
$DIMLWD
 70
    -2
  9
$DIMLWE
 70
    -2
  9
$DIMTMOVE
 70
     0
  9
$LUNITS
 70
     2
  9
$LUPREC
 70
     4
  9
$SKETCHINC
 40
0.1
  9
$FILLETRAD
 40
0.0
  9
$AUNITS
 70
     0
  9
$AUPREC
 70
     4
  9
$MENU
  1
acad
  9
$ELEVATION
 40
0.0
  9
$PELEVATION
 40
0.0
  9
$THICKNESS
 40
0.0
  9
$LIMCHECK
 70
     0
  9
$CHAMFERA
 40
0.0
  9
$CHAMFERB
 40
0.0
  9
$CHAMFERC
 40
1.0
  9
$CHAMFERD
 40
0.0
  9
$SKPOLY
 70
     0
  9
$TDCREATE
 40
2453859.549332859
  9
$TDUCREATE
 40
2453859.674332859
  9
$TDUPDATE
 40
2453859.54933287
  9
$TDUUPDATE
 40
2453859.67433287
  9
$TDINDWG
 40
0.0000000116
  9
$TDUSRTIMER
 40
0.0000000116
  9
$USRTIMER
 70
     1
  9
$ANGBASE
 50
0.0
  9
$ANGDIR
 70
     0
  9
$PDMODE
 70
     0
  9
$PDSIZE
 40
0.0
  9
$PLINEWID
 40
0.0
  9
$SPLFRAME
 70
     0
  9
$SPLINETYPE
 70
     6
  9
$SPLINESEGS
 70
     8
  9
$HANDSEED
  5
12C
  9
$SURFTAB1
 70
     6
  9
$SURFTAB2
 70
     6
  9
$SURFTYPE
 70
     6
  9
$SURFU
 70
     6
  9
$SURFV
 70
     6
  9
$UCSBASE
  2

  9
$UCSNAME
  2

  9
$UCSORG
 10
0.0
 20
0.0
 30
0.0
  9
$UCSXDIR
 10
1.0
 20
0.0
 30
0.0
  9
$UCSYDIR
 10
0.0
 20
1.0
 30
0.0
  9
$UCSORTHOREF
  2

  9
$UCSORTHOVIEW
 70
     0
  9
$UCSORGTOP
 10
0.0
 20
0.0
 30
0.0
  9
$UCSORGBOTTOM
 10
0.0
 20
0.0
 30
0.0
  9
$UCSORGLEFT
 10
0.0
 20
0.0
 30
0.0
  9
$UCSORGRIGHT
 10
0.0
 20
0.0
 30
0.0
  9
$UCSORGFRONT
 10
0.0
 20
0.0
 30
0.0
  9
$UCSORGBACK
 10
0.0
 20
0.0
 30
0.0
  9
$PUCSBASE
  2

  9
$PUCSNAME
  2

  9
$PUCSORG
 10
0.0
 20
0.0
 30
0.0
  9
$PUCSXDIR
 10
1.0
 20
0.0
 30
0.0
  9
$PUCSYDIR
 10
0.0
 20
1.0
 30
0.0
  9
$PUCSORTHOREF
  2

  9
$PUCSORTHOVIEW
 70
     0
  9
$PUCSORGTOP
 10
0.0
 20
0.0
 30
0.0
  9
$PUCSORGBOTTOM
 10
0.0
 20
0.0
 30
0.0
  9
$PUCSORGLEFT
 10
0.0
 20
0.0
 30
0.0
  9
$PUCSORGRIGHT
 10
0.0
 20
0.0
 30
0.0
  9
$PUCSORGFRONT
 10
0.0
 20
0.0
 30
0.0
  9
$PUCSORGBACK
 10
0.0
 20
0.0
 30
0.0
  9
$USERI1
 70
     0
  9
$USERI2
 70
     0
  9
$USERI3
 70
     0
  9
$USERI4
 70
     0
  9
$USERI5
 70
     0
  9
$USERR1
 40
0.0
  9
$USERR2
 40
0.0
  9
$USERR3
 40
0.0
  9
$USERR4
 40
0.0
  9
$USERR5
 40
0.0
  9
$WORLDVIEW
 70
     1
  9
$SHADEDGE
 70
     3
  9
$SHADEDIF
 70
    70
  9
$TILEMODE
 70
     1
  9
$MAXACTVP
 70
    64
  9
$PINSBASE
 10
0.0
 20
0.0
 30
0.0
  9
$PLIMCHECK
 70
     0
  9
$PEXTMIN
 10
1.000000000000000E+20
 20
1.000000000000000E+20
 30
1.000000000000000E+20
  9
$PEXTMAX
 10
-1.000000000000000E+20
 20
-1.000000000000000E+20
 30
-1.000000000000000E+20
  9
$PLIMMIN
 10
0.0
 20
0.0
  9
$PLIMMAX
 10
12.0
 20
9.0
  9
$UNITMODE
 70
     0
  9
$VISRETAIN
 70
     1
  9
$PLINEGEN
 70
     0
  9
$PSLTSCALE
 70
     1
  9
$TREEDEPTH
 70
  3020
  9
$CMLSTYLE
  2
Standard
  9
$CMLJUST
 70
     0
  9
$CMLSCALE
 40
1.0
  9
$PROXYGRAPHICS
 70
     1
  9
$MEASUREMENT
 70
     0
  9
$CELWEIGHT
370
    -1
  9
$ENDCAPS
280
     0
  9
$JOINSTYLE
280
     0
  9
$LWDISPLAY
290
     0
  9
$INSUNITS
 70
     0
  9
$HYPERLINKBASE
  1

  9
$STYLESHEET
  1

  9
$XEDIT
290
     1
  9
$CEPSNTYPE
380
     0
  9
$PSTYLEMODE
290
     0
  9
$FINGERPRINTGUID
  2
{FAEB1C30-E019-11D5-929B-00C0DF256EC4}
  9
$VERSIONGUID
  2
{FAEB1C32-E019-11D5-929B-00C0DF256EC4}
  9
$EXTNAMES
290
     1
  9
$PSVPSCALE
 40
0.0
  9
$OLESTARTUP
290
     0
  0
ENDSEC
  0
SECTION
  2
CLASSES
  0
CLASS
  1
ACDBDICTIONARYWDFLT
  2
AcDbDictionaryWithDefault
  3
ObjectDBX Classes
 90
        0
280
     0
281
     0
  0
CLASS
  1
TABLESTYLE
  2
AcDbTableStyle
  3
ObjectDBX Classes
 90
     2047
280
     0
281
     0
  0
CLASS
  1
DICTIONARYVAR
  2
AcDbDictionaryVar
  3
ObjectDBX Classes
 90
        0
280
     0
281
     0
  0
CLASS
  1
ACDBPLACEHOLDER
  2
AcDbPlaceHolder
  3
ObjectDBX Classes
 90
        0
280
     0
281
     0
  0
CLASS
  1
LAYOUT
  2
AcDbLayout
  3
ObjectDBX Classes
 90
        0
280
     0
281
     0
  0
ENDSEC
  0
SECTION
  2
TABLES
  0
TABLE
  2
VPORT
  5
8
330
0
100
AcDbSymbolTable
 70
     1
  0
VPORT
  5
123
330
8
100
AcDbSymbolTableRecord
100
AcDbViewportTableRecord
  2
*Active
 70
     0
 10
0.0
 20
0.0
 11
1.0
 21
1.0
 12
10.42990654205607
 22
4.5
 13
0.0
 23
0.0
 14
0.5
 24
0.5
 15
0.5
 25
0.5
 16
0.0
 26
0.0
 36
1.0
 17
0.0
 27
0.0
 37
0.0
 40
9.0
 41
1.972972972850329
 42
50.0
 43
0.0
 44
0.0
 50
0.0
 51
0.0
 71
     0
 72
   100
 73
     1
 74
     3
 75
     0
 76
     0
 77
     0
 78
     0
281
     0
 65
     1
110
0.0
120
0.0
130
0.0
111
1.0
121
0.0
131
0.0
112
0.0
122
1.0
132
0.0
 79
     0
146
0.0
  0
ENDTAB
  0
TABLE
  2
LTYPE
  5
5
330
0
100
AcDbSymbolTable
 70
     9
  0
LTYPE
  5
10
330
5
100
AcDbSymbolTableRecord
100
AcDbLinetypeTableRecord
  2
ByBlock
 70
     0
  3

 72
    65
 73
     0
 40
0.0
  0
LTYPE
  5
11
330
5
100
AcDbSymbolTableRecord
100
AcDbLinetypeTableRecord
  2
ByLayer
 70
     0
  3

 72
    65
 73
     0
 40
0.0
  0
LTYPE
  5
1B
330
5
100
AcDbSymbolTableRecord
100
AcDbLinetypeTableRecord
  2
CONTINUOUS
 70
     0
  3
Solid line
 72
    65
 73
     0
 40
0.0
  0
LTYPE
  5
1C
330
5
100
AcDbSymbolTableRecord
100
AcDbLinetypeTableRecord
  2
HIDDEN
 70
     0
  3
_ _ _ _ _ _ _ _ _ _ _ _ _ _ _ _ _ _ _ _ 
 72
    65
 73
     2
 40
0.375
 49
0.25
 74
     0
 49
-0.125
 74
     0
  0
LTYPE
  5
1D
330
5
100
AcDbSymbolTableRecord
100
AcDbLinetypeTableRecord
  2
DASHED
 70
     0
  3
__ __ __ __ __ __ __ __ __ __ __ __ __  
 72
    65
 73
     2
 40
0.75
 49
0.5
 74
     0
 49
-0.25
 74
     0
  0
LTYPE
  5
1E
330
5
100
AcDbSymbolTableRecord
100
AcDbLinetypeTableRecord
  2
CENTER
 70
     0
  3
____ _ ____ _ ____ _ ____ _ ____ _ ____ 
 72
    65
 73
     4
 40
2.0
 49
1.25
 74
     0
 49
-0.25
 74
     0
 49
0.25
 74
     0
 49
-0.25
 74
     0
  0
LTYPE
  5
1F
330
5
100
AcDbSymbolTableRecord
100
AcDbLinetypeTableRecord
  2
PHANTOM
 70
     0
  3
_____ _ _ _____ _ _ _____ _ _ _____ _ _ 
 72
    65
 73
     6
 40
2.5
 49
1.25
 74
     0
 49
-0.25
 74
     0
 49
0.25
 74
     0
 49
-0.25
 74
     0
 49
0.25
 74
     0
 49
-0.25
 74
     0
  0
LTYPE
  5
20
330
5
100
AcDbSymbolTableRecord
100
AcDbLinetypeTableRecord
  2
DOT
 70
     0
  3
........................................
 72
    65
 73
     2
 40
0.25
 49
0.0
 74
     0
 49
-0.25
 74
     0
  0
LTYPE
  5
21
330
5
100
AcDbSymbolTableRecord
100
AcDbLinetypeTableRecord
  2
DASHDOT
 70
     0
  3
__ . __ . __ . __ . __ . __ . __ . __ . 
 72
    65
 73
     4
 40
1.0
 49
0.5
 74
     0
 49
-0.25
 74
     0
 49
0.0
 74
     0
 49
-0.25
 74
     0
  0
LTYPE
  5
22
330
5
100
AcDbSymbolTableRecord
100
AcDbLinetypeTableRecord
  2
BORDER
 70
     0
  3
__ __ . __ __ . __ __ . __ __ . __ __ . 
 72
    65
 73
     6
 40
1.75
 49
0.5
 74
     0
 49
-0.25
 74
     0
 49
0.5
 74
     0
 49
-0.25
 74
     0
 49
0.0
 74
     0
 49
-0.25
 74
     0
  0
LTYPE
  5
23
330
5
100
AcDbSymbolTableRecord
100
AcDbLinetypeTableRecord
  2
DIVIDE
 70
     0
  3
__ . . __ . . __ . . __ . . __ . . __ . 
 72
    65
 73
     6
 40
1.25
 49
0.5
 74
     0
 49
-0.25
 74
     0
 49
0.0
 74
     0
 49
-0.25
 74
     0
 49
0.0
 74
     0
 49
-0.25
 74
     0
  0
ENDTAB
  0
TABLE
  2
LAYER
  5
2
330
0
100
AcDbSymbolTable
 70
     5
  0
LAYER
  5
24
330
2
100
AcDbSymbolTableRecord
100
AcDbLayerTableRecord
  2
0
 70
     0
 62
     7
  6
CONTINUOUS
370
    -3
390
F
  0
LAYER
  5
25
330
2
100
AcDbSymbolTableRecord
100
AcDbLayerTableRecord
  2
0010010007
 70
     0
 62
     7
  6
CONTINUOUS
370
    -3
390
F
  0
LAYER
  5
26
330
2
100
AcDbSymbolTableRecord
100
AcDbLayerTableRecord
  2
0020010004
 70
     0
 62
     4
  6
CONTINUOUS
370
    -3
390
F
  0
LAYER
  5
27
330
2
100
AcDbSymbolTableRecord
100
AcDbLayerTableRecord
  2
0010020007
 70
     0
 62
     7
  6
HIDDEN
370
    -3
390
F
  0
LAYER
  5
28
330
2
100
AcDbSymbolTableRecord
100
AcDbLayerTableRecord
  2
0030010002
 70
     0
 62
     2
  6
CONTINUOUS
370
    -3
390
F
  0
ENDTAB
  0
TABLE
  2
STYLE
  5
3
330
0
100
AcDbSymbolTable
 70
     1
  0
STYLE
  5
29
330
3
100
AcDbSymbolTableRecord
100
AcDbTextStyleTableRecord
  2
STANDARD
 70
     0
 40
0.0
 41
1.0
 50
0.0
 71
     0
 42
0.2
  3
txt
  4

  0
ENDTAB
  0
TABLE
  2
VIEW
  5
6
330
0
100
AcDbSymbolTable
 70
     1
  0
VIEW
  5
2A
330
6
100
AcDbSymbolTableRecord
100
AcDbViewTableRecord
  2
1
 70
     0
 40
20600.0
 10
29641.0
 20
34500.0
 41
1.0
 11
0.0
 21
0.0
 31
1.0
 12
0.0
 22
0.0
 32
0.0
 42
50.0
 43
0.0
 44
0.0
 50
0.0
 71
     0
281
     0
 72
     0
  0
ENDTAB
  0
TABLE
  2
UCS
  5
7
330
0
100
AcDbSymbolTable
 70
     0
  0
ENDTAB
  0
TABLE
  2
APPID
  5
9
330
0
100
AcDbSymbolTable
 70
     1
  0
APPID
  5
2B
330
9
100
AcDbSymbolTableRecord
100
AcDbRegAppTableRecord
  2
ACAD
 70
     0
  0
ENDTAB
  0
TABLE
  2
DIMSTYLE
  5
A
330
0
100
AcDbSymbolTable
 70
     1
100
AcDbDimStyleTable
  0
DIMSTYLE
105
2C
330
A
100
AcDbSymbolTableRecord
100
AcDbDimStyleTableRecord
  2
Standard
 70
     0
340
29
  0
ENDTAB
  0
TABLE
  2
BLOCK_RECORD
  5
1
330
0
100
AcDbSymbolTable
 70
     0
  0
BLOCK_RECORD
  5
18
330
1
100
AcDbSymbolTableRecord
100
AcDbBlockTableRecord
  2
*Model_Space
340
19
  0
BLOCK_RECORD
  5
16
330
1
100
AcDbSymbolTableRecord
100
AcDbBlockTableRecord
  2
*Paper_Space
340
17
  0
ENDTAB
  0
ENDSEC
  0
SECTION
  2
BLOCKS
  0
BLOCK
  5
128
330
18
100
AcDbEntity
  8
0
100
AcDbBlockBegin
  2
*Model_Space
 70
     0
 71
     0
 10
0.0
 20
0.0
 30
0.0
  3
*Model_Space
  1

  0
ENDBLK
  5
129
330
18
100
AcDbEntity
  8
0
100
AcDbBlockEnd
  0
BLOCK
  5
12A
330
16
100
AcDbEntity
 67
     1
  8
0
100
AcDbBlockBegin
  2
*Paper_Space
 70
     0
 71
     0
 10
0.0
 20
0.0
 30
0.0
  3
*Paper_Space
  1

  0
ENDBLK
  5
12B
330
16
100
AcDbEntity
 67
     1
  8
0
100
AcDbBlockEnd
  0
ENDSEC
  0
SECTION
  2
ENTITIES
  0
LINE
  5
2D
330
18
100
AcDbEntity
  8
0010010007
100
AcDbLine
 10
0.0
 20
0.0
 30
0.0
 11
0.0
 21
500.0
 31
0.0
  0
LINE
  5
2E
330
18
100
AcDbEntity
  8
0020010004
100
AcDbLine
 10
43.0
 20
53.0
 30
0.0
 11
43.0
 21
447.0
 31
0.0
  0
LINE
  5
2F
330
18
100
AcDbEntity
  8
0010010007
100
AcDbLine
 10
0.0
 20
0.0
 30
0.0
 11
1200.0
 21
0.0
 31
0.0
  0
LINE
  5
30
330
18
100
AcDbEntity
  8
0020010004
100
AcDbLine
 10
1127.0
 20
23.0
 30
0.0
 11
73.0
 21
23.0
 31
0.0
  0
LINE
  5
31
330
18
100
AcDbEntity
  8
0020010004
100
AcDbLine
 10
1026.60798
 20
50.0
 30
0.0
 11
925.3920199999971
 21
50.0
 31
0.0
  0
LINE
  5
32
330
18
100
AcDbEntity
  8
0020010004
100
AcDbLine
 10
1026.60798
 20
57.5
 30
0.0
 11
925.3920199999971
 21
57.5
 31
0.0
  0
LINE
  5
33
330
18
100
AcDbEntity
  8
0020010004
100
AcDbLine
 10
878.937739999998
 20
76.5
 30
0.0
 11
1073.06225
 21
76.5
 31
0.0
  0
LINE
  5
34
330
18
100
AcDbEntity
  8
0020010004
100
AcDbLine
 10
1093.90768
 20
88.0
 30
0.0
 11
858.092319999997
 21
88.0
 31
0.0
  0
LINE
  5
35
330
18
100
AcDbEntity
  8
0020010004
100
AcDbLine
 10
848.617999999999
 20
107.0
 30
0.0
 11
1103.382
 21
107.0
 31
0.0
  0
LINE
  5
36
330
18
100
AcDbEntity
  8
0020010004
100
AcDbLine
 10
1111.44901
 20
118.5
 30
0.0
 11
840.550989999997
 21
118.5
 31
0.0
  0
LINE
  5
37
330
18
100
AcDbEntity
  8
0020010004
100
AcDbLine
 10
837.244419999999
 20
137.5
 30
0.0
 11
1114.75558
 21
137.5
 31
0.0
  0
LINE
  5
38
330
18
100
AcDbEntity
  8
0020010004
100
AcDbLine
 10
1117.5
 20
149.0
 30
0.0
 11
834.5
 21
149.0
 31
0.0
  0
LINE
  5
39
330
18
100
AcDbEntity
  8
0020010004
100
AcDbLine
 10
832.75936
 20
168.0
 30
0.0
 11
1119.24064
 21
168.0
 31
0.0
  0
LINE
  5
3A
330
18
100
AcDbEntity
  8
0020010004
100
AcDbLine
 10
1121.18802
 20
179.5
 30
0.0
 11
830.811979999998
 21
179.5
 31
0.0
  0
LINE
  5
3B
330
18
100
AcDbEntity
  8
0020010004
100
AcDbLine
 10
829.657289999999
 20
198.5
 30
0.0
 11
1122.34271
 21
198.5
 31
0.0
  0
LINE
  5
3C
330
18
100
AcDbEntity
  8
0020010004
100
AcDbLine
 10
1123.50654
 20
210.0
 30
0.0
 11
828.493469999999
 21
210.0
 31
0.0
  0
LINE
  5
3D
330
18
100
AcDbEntity
  8
0020010004
100
AcDbLine
 10
827.917819999999
 20
229.0
 30
0.0
 11
1124.08218
 21
229.0
 31
0.0
  0
LINE
  5
3E
330
18
100
AcDbEntity
  8
0020010004
100
AcDbLine
 10
827.530639999997
 20
240.5
 30
0.0
 11
1124.46936
 21
240.5
 31
0.0
  0
LINE
  5
3F
330
18
100
AcDbEntity
  8
0020010004
100
AcDbLine
 10
1124.46936
 20
259.5
 30
0.0
 11
827.530639999999
 21
259.5
 31
0.0
  0
LINE
  5
40
330
18
100
AcDbEntity
  8
0020010004
100
AcDbLine
 10
827.917819999999
 20
271.0
 30
0.0
 11
1124.08218
 21
271.0
 31
0.0
  0
LINE
  5
41
330
18
100
AcDbEntity
  8
0020010004
100
AcDbLine
 10
1123.50654
 20
290.0
 30
0.0
 11
828.493469999999
 21
290.0
 31
0.0
  0
LINE
  5
42
330
18
100
AcDbEntity
  8
0020010004
100
AcDbLine
 10
829.657289999999
 20
301.5
 30
0.0
 11
1122.34271
 21
301.5
 31
0.0
  0
LINE
  5
43
330
18
100
AcDbEntity
  8
0020010004
100
AcDbLine
 10
1121.18802
 20
320.5
 30
0.0
 11
830.811979999998
 21
320.5
 31
0.0
  0
LINE
  5
44
330
18
100
AcDbEntity
  8
0020010004
100
AcDbLine
 10
832.75936
 20
332.0
 30
0.0
 11
1119.24064
 21
332.0
 31
0.0
  0
LINE
  5
45
330
18
100
AcDbEntity
  8
0020010004
100
AcDbLine
 10
1117.5
 20
351.0
 30
0.0
 11
834.5
 21
351.0
 31
0.0
  0
LINE
  5
46
330
18
100
AcDbEntity
  8
0020010004
100
AcDbLine
 10
837.244419999999
 20
362.5
 30
0.0
 11
1114.75558
 21
362.5
 31
0.0
  0
LINE
  5
47
330
18
100
AcDbEntity
  8
0020010004
100
AcDbLine
 10
1111.44901
 20
381.5
 30
0.0
 11
840.550989999997
 21
381.5
 31
0.0
  0
LINE
  5
48
330
18
100
AcDbEntity
  8
0020010004
100
AcDbLine
 10
848.617999999999
 20
393.0
 30
0.0
 11
1103.382
 21
393.0
 31
0.0
  0
LINE
  5
49
330
18
100
AcDbEntity
  8
0020010004
100
AcDbLine
 10
1093.90768
 20
412.0
 30
0.0
 11
858.092319999997
 21
412.0
 31
0.0
  0
LINE
  5
4A
330
18
100
AcDbEntity
  8
0020010004
100
AcDbLine
 10
878.937739999998
 20
423.5
 30
0.0
 11
1073.06225
 21
423.5
 31
0.0
  0
LINE
  5
4B
330
18
100
AcDbEntity
  8
0020010004
100
AcDbLine
 10
1026.60798
 20
442.5
 30
0.0
 11
925.3920199999971
 21
442.5
 31
0.0
  0
LINE
  5
4C
330
18
100
AcDbEntity
  8
0020010004
100
AcDbLine
 10
1026.60798
 20
450.0
 30
0.0
 11
925.3920199999971
 21
450.0
 31
0.0
  0
LINE
  5
4D
330
18
100
AcDbEntity
  8
0020010004
100
AcDbLine
 10
73.0
 20
477.0
 30
0.0
 11
1127.0
 21
477.0
 31
0.0
  0
LINE
  5
4E
330
18
100
AcDbEntity
  8
0010010007
100
AcDbLine
 10
1200.0
 20
499.299999999999
 30
0.0
 11
0.0
 21
499.299999999999
 31
0.0
  0
LINE
  5
4F
330
18
100
AcDbEntity
  8
0010010007
100
AcDbLine
 10
1200.0
 20
500.699999999999
 30
0.0
 11
0.0
 21
500.699999999999
 31
0.0
  0
LINE
  5
50
330
18
100
AcDbEntity
  8
0020010004
100
AcDbLine
 10
1157.0
 20
447.0
 30
0.0
 11
1157.0
 21
53.0
 31
0.0
  0
LINE
  5
51
330
18
100
AcDbEntity
  8
0010010007
100
AcDbLine
 10
1200.0
 20
0.0
 30
0.0
 11
1200.0
 21
500.0
 31
0.0
  0
ARC
  5
52
330
18
100
AcDbEntity
  8
0020010004
100
AcDbCircle
 10
73.0
 20
447.0
 30
0.0
 40
30.0
100
AcDbArc
 50
90.0
 51
180.0
  0
ARC
  5
53
330
18
100
AcDbEntity
  8
0020010004
100
AcDbCircle
 10
73.0
 20
53.0
 30
0.0
 40
30.0
100
AcDbArc
 50
180.0
 51
270.0
  0
ARC
  5
54
330
18
100
AcDbEntity
  8
0020010004
100
AcDbCircle
 10
1127.0
 20
53.0
 30
0.0
 40
30.0
100
AcDbArc
 50
270.0
 51
0.0
  0
ARC
  5
55
330
18
100
AcDbEntity
  8
0020010004
100
AcDbCircle
 10
1127.0
 20
447.0
 30
0.0
 40
30.0
100
AcDbArc
 50
0.0
 51
90.0
  0
ARC
  5
56
330
18
100
AcDbEntity
  8
0020010004
100
AcDbCircle
 10
925.392019999999
 20
350.0
 30
0.0
 40
100.0
100
AcDbArc
 50
90.0
 51
170.405930386342
  0
ARC
  5
57
330
18
100
AcDbEntity
  8
0020010004
100
AcDbCircle
 10
1026.60798
 20
350.0
 30
0.0
 40
99.99999968060909
100
AcDbArc
 50
9.594069613658309
 51
90.0
  0
ARC
  5
58
330
18
100
AcDbEntity
  8
0020010004
100
AcDbCircle
 10
925.392019999999
 20
150.0
 30
0.0
 40
99.9999998472758
100
AcDbArc
 50
189.594070178602
 51
270.0
  0
ARC
  5
59
330
18
100
AcDbEntity
  8
0020010004
100
AcDbCircle
 10
1517.0
 20
250.0
 30
0.0
 40
699.99999958361
100
AcDbArc
 50
170.405929996452
 51
189.594070003548
  0
ARC
  5
5A
330
18
100
AcDbEntity
  8
0020010004
100
AcDbCircle
 10
1026.60798
 20
150.0
 30
0.0
 40
100.0
100
AcDbArc
 50
270.0
 51
350.405929821398
  0
ARC
  5
5B
330
18
100
AcDbEntity
  8
0020010004
100
AcDbCircle
 10
435.0
 20
250.0
 30
0.0
 40
699.99999958361
100
AcDbArc
 50
350.405929996452
 51
9.594070003547889
  0
ARC
  5
5C
330
18
100
AcDbEntity
  8
0010010007
100
AcDbCircle
 10
297.25245
 20
346.1095
 30
0.0
 40
99.9999995745203
100
AcDbArc
 50
9.21748994871025
 51
82.8478300710761
  0
ARC
  5
5D
330
18
100
AcDbEntity
  8
0010010007
100
AcDbCircle
 10
-295.0
 20
250.0
 30
0.0
 40
700.000000143088
100
AcDbArc
 50
350.782510009829
 51
9.21748999017111
  0
ARC
  5
5E
330
18
100
AcDbEntity
  8
0010010007
100
AcDbCircle
 10
297.25245
 20
153.8905
 30
0.0
 40
100.000000708071
100
AcDbArc
 50
277.152169857588
 51
350.78251005129
  0
ARC
  5
5F
330
18
100
AcDbEntity
  8
0010010007
100
AcDbCircle
 10
235.0
 20
650.0
 30
0.0
 40
600.000000404055
100
AcDbArc
 50
262.847830000105
 51
277.152169999895
  0
ARC
  5
60
330
18
100
AcDbEntity
  8
0010010007
100
AcDbCircle
 10
172.74755
 20
153.8905
 30
0.0
 40
99.9999995745204
100
AcDbArc
 50
189.21748994871
 51
262.847830142412
  0
ARC
  5
61
330
18
100
AcDbEntity
  8
0010010007
100
AcDbCircle
 10
765.0
 20
250.0
 30
0.0
 40
700.000000143088
100
AcDbArc
 50
170.782510009829
 51
189.217489990171
  0
ARC
  5
62
330
18
100
AcDbEntity
  8
0010010007
100
AcDbCircle
 10
679.25245
 20
346.1095
 30
0.0
 40
99.9999995745205
100
AcDbArc
 50
9.21748994871022
 51
82.847830071076
  0
ARC
  5
63
330
18
100
AcDbEntity
  8
0010010007
100
AcDbCircle
 10
617.0
 20
-150.0
 30
0.0
 40
599.999999411836
100
AcDbArc
 50
82.84782998821549
 51
97.15217001178451
  0
ARC
  5
64
330
18
100
AcDbEntity
  8
0010010007
100
AcDbCircle
 10
554.7475500000001
 20
346.1095
 30
0.0
 40
99.9999997158521
100
AcDbArc
 50
97.1521699289239
 51
170.78251005129
  0
ARC
  5
65
330
18
100
AcDbEntity
  8
0010010007
100
AcDbCircle
 10
1147.0
 20
250.0
 30
0.0
 40
700.000000143088
100
AcDbArc
 50
170.782510009829
 51
189.217489990171
  0
ARC
  5
66
330
18
100
AcDbEntity
  8
0010010007
100
AcDbCircle
 10
554.7475500000001
 20
153.8905
 30
0.0
 40
99.9999995745204
100
AcDbArc
 50
189.21748994871
 51
262.847830142412
  0
ARC
  5
67
330
18
100
AcDbEntity
  8
0010010007
100
AcDbCircle
 10
617.0
 20
650.0
 30
0.0
 40
600.000000404055
100
AcDbArc
 50
262.847830000105
 51
277.152169999895
  0
ARC
  5
68
330
18
100
AcDbEntity
  8
0010010007
100
AcDbCircle
 10
679.25245
 20
153.8905
 30
0.0
 40
100.000000708071
100
AcDbArc
 50
277.152169857588
 51
350.78251005129
  0
ARC
  5
69
330
18
100
AcDbEntity
  8
0010010007
100
AcDbCircle
 10
87.0
 20
250.0
 30
0.0
 40
700.000000143088
100
AcDbArc
 50
350.782510009829
 51
9.21748999017111
  0
ARC
  5
6A
330
18
100
AcDbEntity
  8
0010010007
100
AcDbCircle
 10
172.74755
 20
346.1095
 30
0.0
 40
99.9999997158521
100
AcDbArc
 50
97.1521699289239
 51
170.78251005129
  0
ARC
  5
6B
330
18
100
AcDbEntity
  8
0010010007
100
AcDbCircle
 10
235.0
 20
-150.0
 30
0.0
 40
599.999999411836
100
AcDbArc
 50
82.84782998821549
 51
97.15217001178451
  0
ARC
  5
6C
330
18
100
AcDbEntity
  8
0020010004
100
AcDbCircle
 10
1073.06225
 20
426.5
 30
0.0
 40
3.0
100
AcDbArc
 50
270.0
 51
58.7319852623006
  0
ARC
  5
6D
330
18
100
AcDbEntity
  8
0020010004
100
AcDbCircle
 10
1026.60798
 20
350.0
 30
0.0
 40
92.49999996846231
100
AcDbArc
 50
58.73198007503831
 51
90.0
  0
ARC
  5
6E
330
18
100
AcDbEntity
  8
0020010004
100
AcDbCircle
 10
925.392019999999
 20
350.0
 30
0.0
 40
92.5
100
AcDbArc
 50
90.0
 51
121.268030230683
  0
ARC
  5
6F
330
18
100
AcDbEntity
  8
0020010004
100
AcDbCircle
 10
878.937739999998
 20
426.5
 30
0.0
 40
2.99999948569233
100
AcDbArc
 50
121.268040975173
 51
270.0
  0
ARC
  5
70
330
18
100
AcDbEntity
  8
0020010004
100
AcDbCircle
 10
1103.382
 20
396.0
 30
0.0
 40
3.0
100
AcDbArc
 50
270.0
 51
30.9283889574441
  0
ARC
  5
71
330
18
100
AcDbEntity
  8
0020010004
100
AcDbCircle
 10
1026.60798
 20
350.0
 30
0.0
 40
92.4999997291368
100
AcDbArc
 50
30.9284000412369
 51
41.2402496440517
  0
ARC
  5
72
330
18
100
AcDbEntity
  8
0020010004
100
AcDbCircle
 10
1093.90768
 20
409.0
 30
0.0
 40
2.99999961352416
100
AcDbArc
 50
41.2402413378289
 51
90.0
  0
ARC
  5
73
330
18
100
AcDbEntity
  8
0020010004
100
AcDbCircle
 10
858.09232
 20
409.0
 30
0.0
 40
3.0
100
AcDbArc
 50
90.0
 51
138.759758662171
  0
ARC
  5
74
330
18
100
AcDbEntity
  8
0020010004
100
AcDbCircle
 10
925.392019999999
 20
350.0
 30
0.0
 40
92.4999998397119
100
AcDbArc
 50
138.759750355948
 51
149.071599958763
  0
ARC
  5
75
330
18
100
AcDbEntity
  8
0020010004
100
AcDbCircle
 10
848.617999999999
 20
396.0
 30
0.0
 40
2.99999993966019
100
AcDbArc
 50
149.071611042554
 51
270.0
  0
ARC
  5
76
330
18
100
AcDbEntity
  8
0020010004
100
AcDbCircle
 10
1114.75558
 20
365.5
 30
0.0
 40
3.0
100
AcDbArc
 50
270.0
 51
9.973015760143902
  0
ARC
  5
77
330
18
100
AcDbEntity
  8
0020010004
100
AcDbCircle
 10
1026.60798
 20
350.0
 30
0.0
 40
92.50000028060499
100
AcDbArc
 50
9.97301991982771
 51
18.5683496059641
  0
ARC
  5
78
330
18
100
AcDbEntity
  8
0020010004
100
AcDbCircle
 10
1111.44901
 20
378.5
 30
0.0
 40
2.99999959935622
100
AcDbArc
 50
18.568349557699
 51
90.0
  0
ARC
  5
79
330
18
100
AcDbEntity
  8
0020010004
100
AcDbCircle
 10
840.55099
 20
378.5
 30
0.0
 40
3.0
100
AcDbArc
 50
90.0
 51
161.431650442301
  0
ARC
  5
7A
330
18
100
AcDbEntity
  8
0020010004
100
AcDbCircle
 10
925.392019999999
 20
350.0
 30
0.0
 40
92.4999994528695
100
AcDbArc
 50
161.431650394036
 51
170.026980080172
  0
ARC
  5
7B
330
18
100
AcDbEntity
  8
0020010004
100
AcDbCircle
 10
837.244419999999
 20
365.5
 30
0.0
 40
2.99999971833868
100
AcDbArc
 50
170.026984239855
 51
270.0
  0
ARC
  5
7C
330
18
100
AcDbEntity
  8
0020010004
100
AcDbCircle
 10
1119.24064
 20
335.0
 30
0.0
 40
3.0
100
AcDbArc
 50
270.0
 51
7.0813032421941
  0
ARC
  5
7D
330
18
100
AcDbEntity
  8
0020010004
100
AcDbCircle
 10
435.0
 20
250.0
 30
0.0
 40
692.49999959005
100
AcDbArc
 50
7.08130997434245
 51
8.171229974514279
  0
ARC
  5
7E
330
18
100
AcDbEntity
  8
0020010004
100
AcDbCircle
 10
1117.5
 20
348.0
 30
0.0
 40
2.99999972081225
100
AcDbArc
 50
8.171216206404541
 51
90.0
  0
ARC
  5
7F
330
18
100
AcDbEntity
  8
0020010004
100
AcDbCircle
 10
834.5
 20
348.0
 30
0.0
 40
3.0
100
AcDbArc
 50
90.0
 51
171.828783793595
  0
ARC
  5
80
330
18
100
AcDbEntity
  8
0020010004
100
AcDbCircle
 10
1517.0
 20
250.0
 30
0.0
 40
692.499999690357
100
AcDbArc
 50
171.828770025486
 51
172.918690025658
  0
ARC
  5
81
330
18
100
AcDbEntity
  8
0020010004
100
AcDbCircle
 10
832.75936
 20
335.0
 30
0.0
 40
3.00000034659623
100
AcDbArc
 50
172.918696757805
 51
270.0
  0
ARC
  5
82
330
18
100
AcDbEntity
  8
0020010004
100
AcDbCircle
 10
1122.34271
 20
304.5
 30
0.0
 40
3.0
100
AcDbArc
 50
270.0
 51
4.53353986698185
  0
ARC
  5
83
330
18
100
AcDbEntity
  8
0020010004
100
AcDbCircle
 10
435.0
 20
250.0
 30
0.0
 40
692.499999794593
100
AcDbArc
 50
4.53354997429071
 51
5.61808000118864
  0
ARC
  5
84
330
18
100
AcDbEntity
  8
0020010004
100
AcDbCircle
 10
1121.18802
 20
317.5
 30
0.0
 40
3.00000034193015
100
AcDbArc
 50
5.61808255840344
 51
90.0
  0
ARC
  5
85
330
18
100
AcDbEntity
  8
0020010004
100
AcDbCircle
 10
830.811979999999
 20
317.5
 30
0.0
 40
3.0
100
AcDbArc
 50
90.0
 51
174.381917441597
  0
ARC
  5
86
330
18
100
AcDbEntity
  8
0020010004
100
AcDbCircle
 10
1517.0
 20
250.0
 30
0.0
 40
692.499999856636
100
AcDbArc
 50
174.381919998811
 51
175.466450025709
  0
ARC
  5
87
330
18
100
AcDbEntity
  8
0020010004
100
AcDbCircle
 10
829.657289999999
 20
304.5
 30
0.0
 40
3.00000029756337
100
AcDbArc
 50
175.466460133018
 51
270.0
  0
ARC
  5
88
330
18
100
AcDbEntity
  8
0020010004
100
AcDbCircle
 10
1124.08218
 20
274.0
 30
0.0
 40
3.0
100
AcDbArc
 50
270.0
 51
1.99473538682556
  0
ARC
  5
89
330
18
100
AcDbEntity
  8
0020010004
100
AcDbCircle
 10
435.0
 20
250.0
 30
0.0
 40
692.499999681511
100
AcDbArc
 50
1.99474996840449
 51
3.07608994418593
  0
ARC
  5
8A
330
18
100
AcDbEntity
  8
0020010004
100
AcDbCircle
 10
1123.50654
 20
287.0
 30
0.0
 40
2.99999953008735
100
AcDbArc
 50
3.07608412915609
 51
90.0
  0
ARC
  5
8B
330
18
100
AcDbEntity
  8
0020010004
100
AcDbCircle
 10
828.493469999998
 20
287.0
 30
0.0
 40
3.0
100
AcDbArc
 50
90.0
 51
176.923915870844
  0
ARC
  5
8C
330
18
100
AcDbEntity
  8
0020010004
100
AcDbCircle
 10
1517.0
 20
250.0
 30
0.0
 40
692.499999956271
100
AcDbArc
 50
176.923910055814
 51
178.005260048297
  0
ARC
  5
8D
330
18
100
AcDbEntity
  8
0020010004
100
AcDbCircle
 10
827.917819999999
 20
274.0
 30
0.0
 40
2.99999991134221
100
AcDbArc
 50
178.005264613175
 51
270.0
  0
ARC
  5
8E
330
18
100
AcDbEntity
  8
0020010004
100
AcDbCircle
 10
1124.46936
 20
243.5
 30
0.0
 40
3.0
100
AcDbArc
 50
270.0
 51
359.459845643428
  0
ARC
  5
8F
330
18
100
AcDbEntity
  8
0020010004
100
AcDbCircle
 10
435.0
 20
250.0
 30
0.0
 40
692.499999875238
100
AcDbArc
 50
359.459860011196
 51
0.540139988803825
  0
ARC
  5
90
330
18
100
AcDbEntity
  8
0020010004
100
AcDbCircle
 10
1124.46936
 20
256.5
 30
0.0
 40
3.00000030544165
100
AcDbArc
 50
0.540135258830034
 51
90.0
  0
ARC
  5
91
330
18
100
AcDbEntity
  8
0020010004
100
AcDbCircle
 10
827.530639999997
 20
256.5
 30
0.0
 40
3.0
100
AcDbArc
 50
90.0
 51
179.45986474117
  0
ARC
  5
92
330
18
100
AcDbEntity
  8
0020010004
100
AcDbCircle
 10
1517.0
 20
250.0
 30
0.0
 40
692.499999875238
100
AcDbArc
 50
179.459860011196
 51
180.540139988804
  0
ARC
  5
93
330
18
100
AcDbEntity
  8
0020010004
100
AcDbCircle
 10
827.530639999997
 20
243.5
 30
0.0
 40
3.00000031486881
100
AcDbArc
 50
180.540154356573
 51
270.0
  0
ARC
  5
94
330
18
100
AcDbEntity
  8
0020010004
100
AcDbCircle
 10
1073.06225
 20
73.5
 30
0.0
 40
2.99999982139874
100
AcDbArc
 50
301.2680147377
 51
90.0
  0
ARC
  5
95
330
18
100
AcDbEntity
  8
0020010004
100
AcDbCircle
 10
1026.60798
 20
150.0
 30
0.0
 40
92.5
100
AcDbArc
 50
270.0
 51
301.268019924962
  0
ARC
  5
96
330
18
100
AcDbEntity
  8
0020010004
100
AcDbCircle
 10
925.392019999999
 20
150.0
 30
0.0
 40
92.5000003970639
100
AcDbArc
 50
238.731970090819
 51
270.0
  0
ARC
  5
97
330
18
100
AcDbEntity
  8
0020010004
100
AcDbCircle
 10
878.937739999998
 20
73.5
 30
0.0
 40
3.0
100
AcDbArc
 50
90.0
 51
238.731968937806
  0
ARC
  5
98
330
18
100
AcDbEntity
  8
0020010004
100
AcDbCircle
 10
1103.382
 20
104.0
 30
0.0
 40
3.00000045362682
100
AcDbArc
 50
329.071594659588
 51
90.0
  0
ARC
  5
99
330
18
100
AcDbEntity
  8
0020010004
100
AcDbCircle
 10
1026.60798
 20
150.0
 30
0.0
 40
92.50000049892979
100
AcDbArc
 50
318.759749890179
 51
329.071599958763
  0
ARC
  5
9A
330
18
100
AcDbEntity
  8
0020010004
100
AcDbCircle
 10
1093.90768
 20
91.0
 30
0.0
 40
3.0
100
AcDbArc
 50
270.0
 51
318.759744300946
  0
ARC
  5
9B
330
18
100
AcDbEntity
  8
0020010004
100
AcDbCircle
 10
858.09232
 20
91.0
 30
0.0
 40
3.00000027274198
100
AcDbArc
 50
221.240255699054
 51
270.0
  0
ARC
  5
9C
330
18
100
AcDbEntity
  8
0020010004
100
AcDbCircle
 10
925.392019999999
 20
150.0
 30
0.0
 40
92.4999997291368
100
AcDbArc
 50
210.928400041237
 51
221.240250109821
  0
ARC
  5
9D
330
18
100
AcDbEntity
  8
0020010004
100
AcDbCircle
 10
848.617999999999
 20
104.0
 30
0.0
 40
3.0
100
AcDbArc
 50
90.0
 51
210.928405340414
  0
ARC
  5
9E
330
18
100
AcDbEntity
  8
0020010004
100
AcDbCircle
 10
1114.75558
 20
134.5
 30
0.0
 40
2.99999989152341
100
AcDbArc
 50
350.026965429854
 51
90.0
  0
ARC
  5
9F
330
18
100
AcDbEntity
  8
0020010004
100
AcDbCircle
 10
1026.60798
 20
150.0
 30
0.0
 40
92.4999997713052
100
AcDbArc
 50
341.431649806866
 51
350.026980080172
  0
ARC
  5
A0
330
18
100
AcDbEntity
  8
0020010004
100
AcDbCircle
 10
1111.44901
 20
121.5
 30
0.0
 40
3.0
100
AcDbArc
 50
270.0
 51
341.431650442302
  0
ARC
  5
A1
330
18
100
AcDbEntity
  8
0020010004
100
AcDbCircle
 10
840.55099
 20
121.5
 30
0.0
 40
2.99999959935621
100
AcDbArc
 50
198.568349557698
 51
270.0
  0
ARC
  5
A2
330
18
100
AcDbEntity
  8
0020010004
100
AcDbCircle
 10
925.392019999999
 20
150.0
 30
0.0
 40
92.50000028060499
100
AcDbArc
 50
189.973019919828
 51
198.568350193134
  0
ARC
  5
A3
330
18
100
AcDbEntity
  8
0020010004
100
AcDbCircle
 10
837.244419999999
 20
134.5
 30
0.0
 40
3.0
100
AcDbArc
 50
90.0
 51
189.973034570147
  0
ARC
  5
A4
330
18
100
AcDbEntity
  8
0020010004
100
AcDbCircle
 10
1119.24064
 20
165.0
 30
0.0
 40
3.00000046987426
100
AcDbArc
 50
352.918677804897
 51
90.0
  0
ARC
  5
A5
330
18
100
AcDbEntity
  8
0020010004
100
AcDbCircle
 10
435.0
 20
250.0
 30
0.0
 40
692.499999832489
100
AcDbArc
 50
351.828769943588
 51
352.918689943551
  0
ARC
  5
A6
330
18
100
AcDbEntity
  8
0020010004
100
AcDbCircle
 10
1117.5
 20
152.0
 30
0.0
 40
3.0
100
AcDbArc
 50
270.0
 51
351.828764888895
  0
ARC
  5
A7
330
18
100
AcDbEntity
  8
0020010004
100
AcDbCircle
 10
834.5
 20
152.0
 30
0.0
 40
2.9999998629441
100
AcDbArc
 50
188.171235111105
 51
270.0
  0
ARC
  5
A8
330
18
100
AcDbEntity
  8
0020010004
100
AcDbCircle
 10
1517.0
 20
250.0
 30
0.0
 40
692.499999713328
100
AcDbArc
 50
187.081310056449
 51
188.171230056412
  0
ARC
  5
A9
330
18
100
AcDbEntity
  8
0020010004
100
AcDbCircle
 10
832.75936
 20
165.0
 30
0.0
 40
3.0
100
AcDbArc
 50
90.0
 51
187.081322195104
  0
ARC
  5
AA
330
18
100
AcDbEntity
  8
0020010004
100
AcDbCircle
 10
1122.34271
 20
195.5
 30
0.0
 40
3.00000037660597
100
AcDbArc
 50
355.466441094182
 51
90.0
  0
ARC
  5
AB
330
18
100
AcDbEntity
  8
0020010004
100
AcDbCircle
 10
435.0
 20
250.0
 30
0.0
 40
692.499999856636
100
AcDbArc
 50
354.381919998811
 51
355.466449943231
  0
ARC
  5
AC
330
18
100
AcDbEntity
  8
0020010004
100
AcDbCircle
 10
1121.18802
 20
182.5
 30
0.0
 40
3.0
100
AcDbArc
 50
270.0
 51
354.381917441598
  0
ARC
  5
AD
330
18
100
AcDbEntity
  8
0020010004
100
AcDbCircle
 10
830.811979999999
 20
182.5
 30
0.0
 40
3.00000034193015
100
AcDbArc
 50
185.618082558402
 51
270.0
  0
ARC
  5
AE
330
18
100
AcDbEntity
  8
0020010004
100
AcDbCircle
 10
1517.0
 20
250.0
 30
0.0
 40
692.499999873635
100
AcDbArc
 50
184.533550056769
 51
185.618080001189
  0
ARC
  5
AF
330
18
100
AcDbEntity
  8
0020010004
100
AcDbCircle
 10
829.657289999999
 20
195.5
 30
0.0
 40
3.0
100
AcDbArc
 50
90.0
 51
184.533558905817
  0
ARC
  5
B0
330
18
100
AcDbEntity
  8
0020010004
100
AcDbCircle
 10
1124.08218
 20
226.0
 30
0.0
 40
2.99999994614981
100
AcDbArc
 50
358.005245526154
 51
90.0
  0
ARC
  5
B1
330
18
100
AcDbEntity
  8
0020010004
100
AcDbCircle
 10
435.0
 20
250.0
 30
0.0
 40
692.5000000099331
100
AcDbArc
 50
356.923909973196
 51
358.005249948908
  0
ARC
  5
B2
330
18
100
AcDbEntity
  8
0020010004
100
AcDbCircle
 10
1123.50654
 20
213.0
 30
0.0
 40
3.0
100
AcDbArc
 50
270.0
 51
356.923896799767
  0
ARC
  5
B3
330
18
100
AcDbEntity
  8
0020010004
100
AcDbCircle
 10
828.493469999998
 20
213.0
 30
0.0
 40
2.99999958374975
100
AcDbArc
 50
183.076103200232
 51
270.0
  0
ARC
  5
B4
330
18
100
AcDbEntity
  8
0020010004
100
AcDbCircle
 10
1517.0
 20
250.0
 30
0.0
 40
692.499999502147
100
AcDbArc
 50
181.994740034391
 51
183.076090026804
  0
ARC
  5
B5
330
18
100
AcDbEntity
  8
0020010004
100
AcDbCircle
 10
827.917819999999
 20
226.0
 30
0.0
 40
3.0
100
AcDbArc
 50
90.0
 51
181.994754473846
  0
CIRCLE
  5
B6
330
18
100
AcDbEntity
  8
0020010004
100
AcDbCircle
 10
283.0
 20
250.0
 30
0.0
 40
57.4999999864877
  0
CIRCLE
  5
B7
330
18
100
AcDbEntity
  8
0010010007
100
AcDbCircle
 10
283.0
 20
250.0
 30
0.0
 40
44.8499999894604
  0
CIRCLE
  5
B8
330
18
100
AcDbEntity
  8
0020010004
100
AcDbCircle
 10
569.0
 20
250.0
 30
0.0
 40
57.4999999864877
  0
CIRCLE
  5
B9
330
18
100
AcDbEntity
  8
0010010007
100
AcDbCircle
 10
569.0
 20
250.0
 30
0.0
 40
44.8499999894604
  0
LINE
  5
BA
330
18
100
AcDbEntity
  8
0010020007
100
AcDbLine
 10
0.0
 20
500.0
 30
0.0
 11
1200.0
 21
500.0
 31
0.0
  0
LINE
  5
BB
330
18
100
AcDbEntity
  8
0010010007
100
AcDbLine
 10
-346.329156305496
 20
498.299999882904
 30
0.0
 11
-346.329156305496
 21
1.699999999600777
 31
0.0
  0
LINE
  5
BC
330
18
100
AcDbEntity
  8
0010010007
100
AcDbLine
 10
-344.629156305846
 20
0.0
 30
0.0
 11
-317.529156312217
 21
0.0
 31
0.0
  0
ARC
  5
BD
330
18
100
AcDbEntity
  8
0010010007
100
AcDbCircle
 10
-344.629156305879
 20
1.69999999960783
 30
0.0
 40
1.69999999960051
100
AcDbArc
 50
180.0
 51
270.0
  0
ARC
  5
BE
330
18
100
AcDbEntity
  8
0010010007
100
AcDbCircle
 10
-317.529156312218
 20
1.1999999997206
 30
0.0
 40
1.199999999718
100
AcDbArc
 50
270.0
 51
0.0
  0
LINE
  5
BF
330
18
100
AcDbEntity
  8
0010010007
100
AcDbLine
 10
-373.629156305668
 20
499.299999882664
 30
0.0
 11
-347.329156305245
 21
499.299999882664
 31
0.0
  0
LINE
  5
C0
330
18
100
AcDbEntity
  8
0010010007
100
AcDbLine
 10
-373.629156305661
 20
499.999999882504
 30
0.0
 11
-347.329156305245
 21
499.999999882504
 31
0.0
  0
ARC
  5
C1
330
18
100
AcDbEntity
  8
0010010007
100
AcDbCircle
 10
-347.329156305245
 20
498.299999882904
 30
0.0
 40
0.999999999765004
100
AcDbArc
 50
0.0
 51
90.0
  0
LINE
  5
C2
330
18
100
AcDbEntity
  8
0010010007
100
AcDbLine
 10
-359.329156309023
 20
500.699999882341
 30
0.0
 11
-373.629156305662
 21
500.699999882341
 31
0.0
  0
ARC
  5
C3
330
18
100
AcDbEntity
  8
0010010007
100
AcDbCircle
 10
-373.629156305661
 20
499.999999882504
 30
0.0
 40
0.699999999835503
100
AcDbArc
 50
90.0
 51
270.0
  0
LINE
  5
C4
330
18
100
AcDbEntity
  8
0010010007
100
AcDbLine
 10
-359.329156309023
 20
500.699999882341
 30
0.0
 11
-359.329156309023
 21
499.999999882506
 31
0.0
  0
ARC
  5
C5
330
18
100
AcDbEntity
  8
0010010007
100
AcDbCircle
 10
-344.529156305893
 20
498.199999882927
 30
0.0
 40
1.79999999957701
100
AcDbArc
 50
90.0
 51
180.0
  0
ARC
  5
C6
330
18
100
AcDbEntity
  8
0010010007
100
AcDbCircle
 10
-317.529156312216
 20
498.799999882787
 30
0.0
 40
1.199999999718
100
AcDbArc
 50
0.0
 51
90.0
  0
LINE
  5
C7
330
18
100
AcDbEntity
  8
0010010007
100
AcDbLine
 10
-344.529156305926
 20
499.999999882504
 30
0.0
 11
-317.529156312216
 21
499.999999882504
 31
0.0
  0
ARC
  5
C8
330
18
100
AcDbEntity
  8
0010010007
100
AcDbCircle
 10
-347.329156305245
 20
498.299999882904
 30
0.0
 40
1.69999999960051
100
AcDbArc
 50
36.0194639947145
 51
90.0
  0
LINE
  5
C9
330
18
100
AcDbEntity
  8
0030010002
100
AcDbLine
 10
-346.329156305496
 20
499.299999882904
 30
0.0
 11
-346.329156305496
 21
599.49999987786
 31
0.0
  0
LINE
  5
CA
330
18
100
AcDbEntity
  8
0030010002
100
AcDbLine
 10
-374.329156305496
 20
500.832136236215
 30
0.0
 11
-374.329156305496
 21
599.49999987786
 31
0.0
  0
SOLID
  5
CB
330
18
100
AcDbEntity
  8
0030010002
100
AcDbTrace
 10
-326.803236163097
 20
594.171207599098
 30
0.0
 11
-326.803236163097
 21
602.8287921566219
 31
0.0
 12
-346.329156305496
 22
598.49999987786
 32
0.0
 13
-346.329156305496
 23
598.49999987786
 33
0.0
  0
LINE
  5
CC
330
18
100
AcDbEntity
  8
0030010002
100
AcDbLine
 10
-345.329156305496
 20
598.49999987786
 30
0.0
 11
-346.329156305496
 21
598.49999987786
 31
0.0
  0
SOLID
  5
CD
330
18
100
AcDbEntity
  8
0030010002
100
AcDbTrace
 10
-393.855076447895
 20
602.8287921566219
 30
0.0
 11
-393.855076447895
 21
594.171207599098
 31
0.0
 12
-374.329156305496
 22
598.49999987786
 32
0.0
 13
-374.329156305496
 23
598.49999987786
 33
0.0
  0
LINE
  5
CE
330
18
100
AcDbEntity
  8
0030010002
100
AcDbLine
 10
-375.329156305496
 20
598.49999987786
 30
0.0
 11
-374.329156305496
 21
598.49999987786
 31
0.0
  0
TEXT
  5
CF
330
18
100
AcDbEntity
  8
0030010002
100
AcDbText
 10
-433.664119562133
 20
613.5290680345
 30
0.0
 40
30.0000019073486
  1
28
 41
0.75
100
AcDbText
  0
LINE
  5
D0
330
18
100
AcDbEntity
  8
0030010002
100
AcDbLine
 10
-324.844558527361
 20
598.49999987786
 30
0.0
 11
-437.132472105075
 21
598.49999987786
 31
0.0
  0
LINE
  5
D1
330
18
100
AcDbEntity
  8
0030010002
100
AcDbLine
 10
-346.329156305496
 20
0.69999999960055
 30
0.0
 11
-346.329156305496
 21
-102.50000012214
 31
0.0
  0
LINE
  5
D2
330
18
100
AcDbEntity
  8
0030010002
100
AcDbLine
 10
-316.329156312518
 20
0.199999999720603
 30
0.0
 11
-316.329156312518
 21
-102.50000012214
 31
0.0
  0
SOLID
  5
D3
330
18
100
AcDbEntity
  8
0030010002
100
AcDbTrace
 10
-365.855076447895
 20
-97.1712078433776
 30
0.0
 11
-365.855076447895
 21
-105.828792400902
 31
0.0
 12
-346.329156305496
 22
-101.50000012214
 32
0.0
 13
-346.329156305496
 23
-101.50000012214
 33
0.0
  0
LINE
  5
D4
330
18
100
AcDbEntity
  8
0030010002
100
AcDbLine
 10
-347.329156305496
 20
-101.50000012214
 30
0.0
 11
-346.329156305496
 21
-101.50000012214
 31
0.0
  0
SOLID
  5
D5
330
18
100
AcDbEntity
  8
0030010002
100
AcDbTrace
 10
-296.803236170119
 20
-105.828792400902
 30
0.0
 11
-296.803236170119
 21
-97.1712078433776
 31
0.0
 12
-316.329156312518
 22
-101.50000012214
 32
0.0
 13
-316.329156312518
 23
-101.50000012214
 33
0.0
  0
LINE
  5
D6
330
18
100
AcDbEntity
  8
0030010002
100
AcDbLine
 10
-315.329156312518
 20
-101.50000012214
 30
0.0
 11
-316.329156312518
 21
-101.50000012214
 31
0.0
  0
TEXT
  5
D7
330
18
100
AcDbEntity
  8
0030010002
100
AcDbText
 10
-286.692680555009
 20
-87.18653165655719
 30
0.0
 40
30.0000019073486
  1
30
 41
0.75
100
AcDbText
  0
LINE
  5
D8
330
18
100
AcDbEntity
  8
0030010002
100
AcDbLine
 10
-363.863524635445
 20
-101.50000012214
 30
0.0
 11
-244.205361903981
 21
-101.50000012214
 31
0.0
  0
LINE
  5
D9
330
18
100
AcDbEntity
  8
0010010007
100
AcDbLine
 10
-346.329156305496
 20
498.299999882904
 30
0.0
 11
-346.329156305496
 21
1.699999999600777
 31
0.0
  0
LINE
  5
DA
330
18
100
AcDbEntity
  8
0010010007
100
AcDbLine
 10
-317.529156312216
 20
0.0
 30
0.0
 11
-344.629156305848
 21
0.0
 31
0.0
  0
ARC
  5
DB
330
18
100
AcDbEntity
  8
0010010007
100
AcDbCircle
 10
-344.629156305879
 20
1.69999999960783
 30
0.0
 40
1.69999999960051
100
AcDbArc
 50
180.0
 51
270.0
  0
ARC
  5
DC
330
18
100
AcDbEntity
  8
0010010007
100
AcDbCircle
 10
-317.529156312218
 20
1.1999999997206
 30
0.0
 40
1.199999999718
100
AcDbArc
 50
270.0
 51
0.0
  0
LINE
  5
DD
330
18
100
AcDbEntity
  8
0010010007
100
AcDbLine
 10
-373.629156305668
 20
499.299999882664
 30
0.0
 11
-347.329156305245
 21
499.299999882664
 31
0.0
  0
LINE
  5
DE
330
18
100
AcDbEntity
  8
0010010007
100
AcDbLine
 10
-373.629156305661
 20
499.999999882504
 30
0.0
 11
-347.329156305245
 21
499.999999882504
 31
0.0
  0
ARC
  5
DF
330
18
100
AcDbEntity
  8
0010010007
100
AcDbCircle
 10
-347.329156305245
 20
498.299999882904
 30
0.0
 40
0.999999999765004
100
AcDbArc
 50
0.0
 51
90.0
  0
LINE
  5
E0
330
18
100
AcDbEntity
  8
0010010007
100
AcDbLine
 10
-359.329156309023
 20
500.699999882341
 30
0.0
 11
-373.629156305662
 21
500.699999882341
 31
0.0
  0
ARC
  5
E1
330
18
100
AcDbEntity
  8
0010010007
100
AcDbCircle
 10
-373.629156305661
 20
499.999999882504
 30
0.0
 40
0.699999999835503
100
AcDbArc
 50
90.0
 51
270.0
  0
LINE
  5
E2
330
18
100
AcDbEntity
  8
0010010007
100
AcDbLine
 10
-359.329156309023
 20
500.699999882341
 30
0.0
 11
-359.329156309023
 21
499.999999882506
 31
0.0
  0
ARC
  5
E3
330
18
100
AcDbEntity
  8
0010010007
100
AcDbCircle
 10
-344.529156305893
 20
498.199999882927
 30
0.0
 40
1.79999999957701
100
AcDbArc
 50
90.0
 51
180.0
  0
ARC
  5
E4
330
18
100
AcDbEntity
  8
0010010007
100
AcDbCircle
 10
-317.529156312216
 20
498.799999882787
 30
0.0
 40
1.199999999718
100
AcDbArc
 50
0.0
 51
90.0
  0
LINE
  5
E5
330
18
100
AcDbEntity
  8
0010010007
100
AcDbLine
 10
-316.329156312519
 20
1.1999999997206
 30
0.0
 11
-316.329156312519
 21
498.799999882787
 31
0.0
  0
LINE
  5
E6
330
18
100
AcDbEntity
  8
0010010007
100
AcDbLine
 10
-317.529156312271
 20
499.999999882504
 30
0.0
 11
-344.529156305926
 21
499.999999882504
 31
0.0
  0
ARC
  5
E7
330
18
100
AcDbEntity
  8
0010010007
100
AcDbCircle
 10
-347.329156305245
 20
498.299999882904
 30
0.0
 40
1.69999999960051
100
AcDbArc
 50
36.0194639947145
 51
90.0
  0
LINE
  5
E8
330
18
100
AcDbEntity
  8
0030010002
100
AcDbLine
 10
-346.329156305496
 20
499.299999882904
 30
0.0
 11
-346.329156305496
 21
599.49999987786
 31
0.0
  0
LINE
  5
E9
330
18
100
AcDbEntity
  8
0030010002
100
AcDbLine
 10
-374.329156305496
 20
500.832136236215
 30
0.0
 11
-374.329156305496
 21
599.49999987786
 31
0.0
  0
SOLID
  5
EA
330
18
100
AcDbEntity
  8
0030010002
100
AcDbTrace
 10
-326.803236163097
 20
594.171207599098
 30
0.0
 11
-326.803236163097
 21
602.8287921566219
 31
0.0
 12
-346.329156305496
 22
598.49999987786
 32
0.0
 13
-346.329156305496
 23
598.49999987786
 33
0.0
  0
LINE
  5
EB
330
18
100
AcDbEntity
  8
0030010002
100
AcDbLine
 10
-345.329156305496
 20
598.49999987786
 30
0.0
 11
-346.329156305496
 21
598.49999987786
 31
0.0
  0
SOLID
  5
EC
330
18
100
AcDbEntity
  8
0030010002
100
AcDbTrace
 10
-393.855076447895
 20
602.8287921566219
 30
0.0
 11
-393.855076447895
 21
594.171207599098
 31
0.0
 12
-374.329156305496
 22
598.49999987786
 32
0.0
 13
-374.329156305496
 23
598.49999987786
 33
0.0
  0
LINE
  5
ED
330
18
100
AcDbEntity
  8
0030010002
100
AcDbLine
 10
-375.329156305496
 20
598.49999987786
 30
0.0
 11
-374.329156305496
 21
598.49999987786
 31
0.0
  0
TEXT
  5
EE
330
18
100
AcDbEntity
  8
0030010002
100
AcDbText
 10
-433.664119562133
 20
613.5290680345
 30
0.0
 40
30.0000019073486
  1
28
 41
0.75
100
AcDbText
  0
LINE
  5
EF
330
18
100
AcDbEntity
  8
0030010002
100
AcDbLine
 10
-324.844558527361
 20
598.49999987786
 30
0.0
 11
-437.132472105075
 21
598.49999987786
 31
0.0
  0
TEXT
  5
F0
330
18
100
AcDbEntity
  8
0030010002
100
AcDbText
 10
-298.482972819584
 20
613.500000831535
 30
0.0
 40
30.0000019073486
  1
155
 41
0.75
100
AcDbText
  0
LINE
  5
F1
330
18
100
AcDbEntity
  8
0030010002
100
AcDbLine
 10
-346.329156305496
 20
0.69999999960055
 30
0.0
 11
-346.329156305496
 21
-102.50000012214
 31
0.0
  0
LINE
  5
F2
330
18
100
AcDbEntity
  8
0030010002
100
AcDbLine
 10
-316.329156312518
 20
0.199999999720603
 30
0.0
 11
-316.329156312518
 21
-102.50000012214
 31
0.0
  0
SOLID
  5
F3
330
18
100
AcDbEntity
  8
0030010002
100
AcDbTrace
 10
-365.855076447895
 20
-97.1712078433776
 30
0.0
 11
-365.855076447895
 21
-105.828792400902
 31
0.0
 12
-346.329156305496
 22
-101.50000012214
 32
0.0
 13
-346.329156305496
 23
-101.50000012214
 33
0.0
  0
LINE
  5
F4
330
18
100
AcDbEntity
  8
0030010002
100
AcDbLine
 10
-347.329156305496
 20
-101.50000012214
 30
0.0
 11
-346.329156305496
 21
-101.50000012214
 31
0.0
  0
SOLID
  5
F5
330
18
100
AcDbEntity
  8
0030010002
100
AcDbTrace
 10
-296.803236170119
 20
-105.828792400902
 30
0.0
 11
-296.803236170119
 21
-97.1712078433776
 31
0.0
 12
-316.329156312518
 22
-101.50000012214
 32
0.0
 13
-316.329156312518
 23
-101.50000012214
 33
0.0
  0
LINE
  5
F6
330
18
100
AcDbEntity
  8
0030010002
100
AcDbLine
 10
-315.329156312518
 20
-101.50000012214
 30
0.0
 11
-316.329156312518
 21
-101.50000012214
 31
0.0
  0
TEXT
  5
F7
330
18
100
AcDbEntity
  8
0030010002
100
AcDbText
 10
-286.692680555009
 20
-87.18653165655719
 30
0.0
 40
30.0000019073486
  1
30
 41
0.75
100
AcDbText
  0
LINE
  5
F8
330
18
100
AcDbEntity
  8
0030010002
100
AcDbLine
 10
-363.863524635445
 20
-101.50000012214
 30
0.0
 11
-244.205361903981
 21
-101.50000012214
 31
0.0
  0
LINE
  5
F9
330
18
100
AcDbEntity
  8
0010010007
100
AcDbLine
 10
-186.534817857377
 20
284.134992313975
 30
0.0
 11
-186.53481785739
 21
239.284992324515
 31
0.0
  0
LINE
  5
FA
330
18
100
AcDbEntity
  8
0010010007
100
AcDbLine
 10
-189.979247100841
 20
296.989777253724
 30
0.0
 11
-191.329156305482
 21
300.91019824972
 31
0.0
  0
LINE
  5
FB
330
18
100
AcDbEntity
  8
0010010007
100
AcDbLine
 10
-189.979247100841
 20
296.989777253724
 30
0.0
 11
-186.534817857363
 21
284.134992313974
 31
0.0
  0
LINE
  5
FC
330
18
100
AcDbEntity
  8
0010010007
100
AcDbLine
 10
-186.534817857377
 20
194.434992335055
 30
0.0
 11
-186.534817857365
 21
239.284992324515
 31
0.0
  0
LINE
  5
FD
330
18
100
AcDbEntity
  8
0010010007
100
AcDbLine
 10
-189.979247100895
 20
181.580207395305
 30
0.0
 11
-191.329156305539
 21
177.659786399309
 31
0.0
  0
LINE
  5
FE
330
18
100
AcDbEntity
  8
0010010007
100
AcDbLine
 10
-191.329156305496
 20
177.659786399312
 30
0.0
 11
-193.483373080708
 21
95.39356676216821
 31
0.0
  0
ARC
  5
FF
330
18
100
AcDbEntity
  8
0010010007
100
AcDbCircle
 10
-249.164286068758
 20
96.8516227825785
 30
0.0
 40
55.6999999869109
100
AcDbArc
 50
274.239809999021
 51
358.5
  0
LINE
  5
100
330
18
100
AcDbEntity
  8
0010010007
100
AcDbLine
 10
-191.329156305496
 20
300.91019824972
 30
0.0
 11
-193.483373080492
 21
383.176417886701
 31
0.0
  0
ARC
  5
101
330
18
100
AcDbEntity
  8
0010010007
100
AcDbCircle
 10
-249.164286068521
 20
381.718361866442
 30
0.0
 40
55.6999999869109
100
AcDbArc
 50
1.49999999985221
 51
85.7601900009644
  0
ARC
  5
102
330
18
100
AcDbEntity
  8
0010010007
100
AcDbCircle
 10
-319.029202965343
 20
-560.695503145784
 30
0.0
 40
1000.69999976484
100
AcDbArc
 50
85.76019000096451
 51
89.8454067498372
  0
LINE
  5
103
330
18
100
AcDbEntity
  8
0010010007
100
AcDbLine
 10
-186.534817857377
 20
284.134992313975
 30
0.0
 11
-186.53481785739
 21
239.284992324515
 31
0.0
  0
LINE
  5
104
330
18
100
AcDbEntity
  8
0010010007
100
AcDbLine
 10
-189.979247100841
 20
296.989777253724
 30
0.0
 11
-186.534817857363
 21
284.134992313974
 31
0.0
  0
LINE
  5
105
330
18
100
AcDbEntity
  8
0010010007
100
AcDbLine
 10
-186.534817857377
 20
194.434992335055
 30
0.0
 11
-186.534817857365
 21
239.284992324515
 31
0.0
  0
LINE
  5
106
330
18
100
AcDbEntity
  8
0010010007
100
AcDbLine
 10
-189.979247100895
 20
181.580207395305
 30
0.0
 11
-191.329156305539
 21
177.659786399309
 31
0.0
  0
LINE
  5
107
330
18
100
AcDbEntity
  8
0010010007
100
AcDbLine
 10
-189.979247100895
 20
181.580207395305
 30
0.0
 11
-186.534817857411
 21
194.434992335054
 31
0.0
  0
LINE
  5
108
330
18
100
AcDbEntity
  8
0010010007
100
AcDbLine
 10
-191.329156305496
 20
177.659786399312
 30
0.0
 11
-193.483373080708
 21
95.39356676216821
 31
0.0
  0
ARC
  5
109
330
18
100
AcDbEntity
  8
0010010007
100
AcDbCircle
 10
-249.164286068758
 20
96.8516227825785
 30
0.0
 40
55.6999999869109
100
AcDbArc
 50
274.239809999021
 51
358.5
  0
ARC
  5
10A
330
18
100
AcDbEntity
  8
0010010007
100
AcDbCircle
 10
-319.029202965343
 20
1039.26548779483
 30
0.0
 40
1000.69999976484
100
AcDbArc
 50
270.154593250163
 51
274.239809999021
  0
LINE
  5
10B
330
18
100
AcDbEntity
  8
0010010007
100
AcDbLine
 10
-191.329156305496
 20
300.91019824972
 30
0.0
 11
-193.483373080492
 21
383.176417886701
 31
0.0
  0
ARC
  5
10C
330
18
100
AcDbEntity
  8
0010010007
100
AcDbCircle
 10
-249.164286068521
 20
381.718361866442
 30
0.0
 40
55.6999999869109
100
AcDbArc
 50
1.49999999985221
 51
85.7601900009644
  0
LINE
  5
10D
330
18
100
AcDbEntity
  8
0010010007
100
AcDbLine
 10
-189.979247100841
 20
296.989777253724
 30
0.0
 11
-189.979247100895
 21
181.580207395305
 31
0.0
  0
LINE
  5
10E
330
18
100
AcDbEntity
  8
0010010007
100
AcDbLine
 10
-191.329156305536
 20
177.659786399309
 30
0.0
 11
-191.329156305479
 21
300.91019824972
 31
0.0
  0
LINE
  5
10F
330
18
100
AcDbEntity
  8
0030010002
100
AcDbLine
 10
-191.329156305496
 20
301.91019824972
 30
0.0
 11
-191.329156305496
 21
599.49999987786
 31
0.0
  0
LINE
  5
110
330
18
100
AcDbEntity
  8
0030010002
100
AcDbLine
 10
-346.329156305496
 20
499.299999882904
 30
0.0
 11
-346.329156305496
 21
599.49999987786
 31
0.0
  0
SOLID
  5
111
330
18
100
AcDbEntity
  8
0030010002
100
AcDbTrace
 10
-210.855076447895
 20
602.8287921566219
 30
0.0
 11
-210.855076447895
 21
594.171207599098
 31
0.0
 12
-191.329156305496
 22
598.49999987786
 32
0.0
 13
-191.329156305496
 23
598.49999987786
 33
0.0
  0
SOLID
  5
112
330
18
100
AcDbEntity
  8
0030010002
100
AcDbTrace
 10
-326.803236163097
 20
594.171207599098
 30
0.0
 11
-326.803236163097
 21
602.8287921566219
 31
0.0
 12
-346.329156305496
 22
598.49999987786
 32
0.0
 13
-346.329156305496
 23
598.49999987786
 33
0.0
  0
LINE
  5
113
330
18
100
AcDbEntity
  8
0030010002
100
AcDbLine
 10
-191.329156305496
 20
598.49999987786
 30
0.0
 11
-346.329156305496
 21
598.49999987786
 31
0.0
  0
TEXT
  5
114
330
18
100
AcDbEntity
  8
0030010002
100
AcDbText
 10
-298.829160712845
 20
613.500000831535
 30
0.0
 40
30.0000019073486
  1
155
 41
0.75
100
AcDbText
  0
TEXT
  5
115
330
18
100
AcDbEntity
  8
0030010002
100
AcDbText
 10
100.867623979397
 20
135.963572280359
 30
0.0
 40
30.0000019073486
  1
CUBA 340x400
 41
0.75
100
AcDbText
  0
TEXT
  5
116
330
18
100
AcDbEntity
  8
0030010002
100
AcDbText
 10
490.577922379069
 20
135.963572280359
 30
0.0
 40
30.0000019073486
  1
CUBA 340x400
 41
0.75
100
AcDbText
  0
LINE
  5
117
330
18
100
AcDbEntity
  8
0030010002
100
AcDbLine
 10
1201.0
 20
499.999999882504
 30
0.0
 11
1301.0
 21
499.999999882504
 31
0.0
  0
LINE
  5
118
330
18
100
AcDbEntity
  8
0030010002
100
AcDbLine
 10
1201.0
 20
0.0
 30
0.0
 11
1301.0
 21
0.0
 31
0.0
  0
SOLID
  5
119
330
18
100
AcDbEntity
  8
0030010002
100
AcDbTrace
 10
1295.67120772124
 20
480.474079740106
 30
0.0
 11
1304.32879227876
 21
480.474079740106
 31
0.0
 12
1300.0
 22
499.999999882504
 32
0.0
 13
1300.0
 23
499.999999882504
 33
0.0
  0
SOLID
  5
11A
330
18
100
AcDbEntity
  8
0030010002
100
AcDbTrace
 10
1304.32879227876
 20
19.5259201423987
 30
0.0
 11
1295.67120772124
 21
19.5259201423987
 31
0.0
 12
1300.0
 22
0.0
 32
0.0
 13
1300.0
 23
0.0
 33
0.0
  0
LINE
  5
11B
330
18
100
AcDbEntity
  8
0030010002
100
AcDbLine
 10
1300.0
 20
499.999999882504
 30
0.0
 11
1300.0
 21
0.0
 31
0.0
  0
TEXT
  5
11C
330
18
100
AcDbEntity
  8
0030010002
100
AcDbText
 10
1284.99999904633
 20
219.999995533904
 30
0.0
 40
30.0000019073486
  1
500
 50
90.0
 41
0.75
100
AcDbText
  0
LINE
  5
11D
330
18
100
AcDbEntity
  8
0030010002
100
AcDbLine
 10
1200.0
 20
500.999999882504
 30
0.0
 11
1200.0
 21
600.999999882502
 31
0.0
  0
LINE
  5
11E
330
18
100
AcDbEntity
  8
0030010002
100
AcDbLine
 10
0.0000002820333975
 20
501.699999882338
 30
0.0
 11
0.0000002820333975
 21
600.999999882502
 31
0.0
  0
SOLID
  5
11F
330
18
100
AcDbEntity
  8
0030010002
100
AcDbTrace
 10
1180.4740798576
 20
604.328792161264
 30
0.0
 11
1180.4740798576
 21
595.67120760374
 31
0.0
 12
1200.0
 22
599.999999882502
 32
0.0
 13
1200.0
 23
599.999999882502
 33
0.0
  0
SOLID
  5
120
330
18
100
AcDbEntity
  8
0030010002
100
AcDbTrace
 10
19.5259204244321
 20
595.67120760374
 30
0.0
 11
19.5259204244321
 21
604.328792161264
 31
0.0
 12
0.0000002820333975
 22
599.999999882502
 32
0.0
 13
0.0000002820333975
 23
599.999999882502
 33
0.0
  0
LINE
  5
121
330
18
100
AcDbEntity
  8
0030010002
100
AcDbLine
 10
1200.0
 20
599.999999882502
 30
0.0
 11
0.0000002820333975
 21
599.999999882502
 31
0.0
  0
TEXT
  5
122
330
18
100
AcDbEntity
  8
0030010002
100
AcDbText
 10
558.7499950184121
 20
615.000000836177
 30
0.0
 40
30.0000019073486
  1
1200
 41
0.75
100
AcDbText
  0
ENDSEC
  0
SECTION
  2
OBJECTS
  0
DICTIONARY
  5
C
330
0
100
AcDbDictionary
281
     1
  3
ACAD_GROUP
350
D
  3
ACAD_LAYOUT
350
15
  3
ACAD_MLINESTYLE
350
12
  3
ACAD_PLOTSETTINGS
350
14
  3
ACAD_PLOTSTYLENAME
350
E
  3
ACAD_TABLESTYLE
350
124
  3
AcDbVariableDictionary
350
126
  0
DICTIONARY
  5
D
102
{ACAD_REACTORS
330
C
102
}
330
C
100
AcDbDictionary
281
     1
  0
DICTIONARY
  5
15
102
{ACAD_REACTORS
330
C
102
}
330
C
100
AcDbDictionary
281
     1
  3
Layout1
350
17
  3
Model
350
19
  0
DICTIONARY
  5
12
102
{ACAD_REACTORS
330
C
102
}
330
C
100
AcDbDictionary
281
     1
  3
Standard
350
13
  0
DICTIONARY
  5
14
102
{ACAD_REACTORS
330
C
102
}
330
C
100
AcDbDictionary
281
     1
  0
ACDBDICTIONARYWDFLT
  5
E
102
{ACAD_REACTORS
330
C
102
}
330
C
100
AcDbDictionary
281
     1
  3
Normal
350
F
100
AcDbDictionaryWithDefault
340
F
  0
DICTIONARY
  5
124
102
{ACAD_REACTORS
330
C
102
}
330
C
100
AcDbDictionary
281
     1
  3
Standard
350
125
  0
DICTIONARY
  5
126
102
{ACAD_REACTORS
330
C
102
}
330
C
100
AcDbDictionary
281
     1
  3
CTABLESTYLE
350
127
  0
LAYOUT
  5
17
102
{ACAD_REACTORS
330
15
102
}
330
15
100
AcDbPlotSettings
  1

  2

  4

  6

 40
0.0
 41
0.0
 42
0.0
 43
0.0
 44
0.0
 45
0.0
 46
0.0
 47
0.0
 48
0.0
 49
0.0
140
0.0
141
0.0
142
1.0
143
1.0
 70
   688
 72
     0
 73
     0
 74
     5
  7

 75
    16
147
1.0
148
0.0
149
0.0
100
AcDbLayout
  1
Layout1
 70
     1
 71
     1
 10
0.0
 20
0.0
 11
12.0
 21
9.0
 12
0.0
 22
0.0
 32
0.0
 14
1.000000000000000E+20
 24
1.000000000000000E+20
 34
1.000000000000000E+20
 15
-1.000000000000000E+20
 25
-1.000000000000000E+20
 35
-1.000000000000000E+20
146
0.0
 13
0.0
 23
0.0
 33
0.0
 16
1.0
 26
0.0
 36
0.0
 17
0.0
 27
1.0
 37
0.0
 76
     0
330
16
  0
LAYOUT
  5
19
102
{ACAD_REACTORS
330
15
102
}
330
15
100
AcDbPlotSettings
  1

  2

  4

  6

 40
0.0
 41
0.0
 42
0.0
 43
0.0
 44
0.0
 45
0.0
 46
0.0
 47
0.0
 48
0.0
 49
0.0
140
0.0
141
0.0
142
1.0
143
1.0
 70
  1712
 72
     0
 73
     0
 74
     0
  7

 75
     0
147
1.0
148
0.0
149
0.0
100
AcDbLayout
  1
Model
 70
     1
 71
     0
 10
0.0
 20
0.0
 11
0.0
 21
0.0
 12
0.0
 22
0.0
 32
0.0
 14
-32.05
 24
-32.05
 34
0.0
 15
1258.45
 25
893.05
 35
0.0
146
0.0
 13
0.0
 23
0.0
 33
0.0
 16
1.0
 26
0.0
 36
0.0
 17
0.0
 27
1.0
 37
0.0
 76
     0
330
18
  0
MLINESTYLE
  5
13
102
{ACAD_REACTORS
330
12
102
}
330
12
100
AcDbMlineStyle
  2
Standard
 70
     0
  3

 62
   256
 51
90.0
 52
90.0
 71
     2
 49
0.5
 62
   256
  6
BYLAYER
 49
-0.5
 62
   256
  6
BYLAYER
  0
ACDBPLACEHOLDER
  5
F
102
{ACAD_REACTORS
330
E
102
}
330
E
  0
TABLESTYLE
  5
125
102
{ACAD_REACTORS
330
124
102
}
330
124
100
AcDbTableStyle
  3
Standard
 70
     0
 71
     0
 40
0.06
 41
0.06
280
     0
281
     0
  7
STANDARD
140
0.18
170
     2
 62
     0
 63
     7
283
     0
274
    -2
284
     1
 64
     0
275
    -2
285
     1
 65
     0
276
    -2
286
     1
 66
     0
277
    -2
287
     1
 67
     0
278
    -2
288
     1
 68
     0
279
    -2
289
     1
 69
     0
  7
STANDARD
140
0.25
170
     5
 62
     0
 63
     7
283
     0
274
    -2
284
     1
 64
     0
275
    -2
285
     1
 65
     0
276
    -2
286
     1
 66
     0
277
    -2
287
     1
 67
     0
278
    -2
288
     1
 68
     0
279
    -2
289
     1
 69
     0
  7
STANDARD
140
0.18
170
     5
 62
     0
 63
     7
283
     0
274
    -2
284
     1
 64
     0
275
    -2
285
     1
 65
     0
276
    -2
286
     1
 66
     0
277
    -2
287
     1
 67
     0
278
    -2
288
     1
 68
     0
279
    -2
289
     1
 69
     0
  0
DICTIONARYVAR
  5
127
102
{ACAD_REACTORS
330
126
102
}
330
126
100
DictionaryVariables
280
     0
  1
Standard
  0
ENDSEC
  0
EOF
