  0
SECTION
  2
HEADER
  9
$ACADVER
  1
AC1015
  9
$ACADMAINTVER
 70
     6
  9
$DWGCODEPAGE
  3
UNDEFINED
  9
$INSBASE
 10
0.0
 20
0.0
 30
0.0
  9
$EXTMIN
 10
-32.05
 20
-32.05
 30
0.0
  9
$EXTMAX
 10
1258.45
 20
893.05
 30
0.0
  9
$LIMMIN
 10
-32.05
 20
-32.05
  9
$LIMMAX
 10
1258.45
 20
893.05
  9
$ORTHOMODE
 70
     0
  9
$REGENMODE
 70
     1
  9
$FILLMODE
 70
     1
  9
$QTEXTMODE
 70
     0
  9
$MIRRTEXT
 70
     1
  9
$LTSCALE
 40
1.0
  9
$ATTMODE
 70
     1
  9
$TEXTSIZE
 40
30.0000019073486
  9
$TRACEWID
 40
0.05
  9
$TEXTSTYLE
  7
STANDARD
  9
$CLAYER
  8
0
  9
$CELTYPE
  6
ByBlock
  9
$CECOLOR
 62
   256
  9
$CELTSCALE
 40
1.0
  9
$DISPSILH
 70
     0
  9
$DIMSCALE
 40
1.0
  9
$DIMASZ
 40
1.23783508592696
  9
$DIMEXO
 40
1.0
  9
$DIMDLI
 40
0.38
  9
$DIMRND
 40
0.0
  9
$DIMDLE
 40
0.0
  9
$DIMEXE
 40
1.0
  9
$DIMTP
 40
0.0
  9
$DIMTM
 40
0.0
  9
$DIMTXT
 40
30.0000019073486
  9
$DIMCEN
 40
1.0
  9
$DIMTSZ
 40
0.0
  9
$DIMTOL
 70
     0
  9
$DIMLIM
 70
     0
  9
$DIMTIH
 70
     1
  9
$DIMTOH
 70
     1
  9
$DIMSE1
 70
     0
  9
$DIMSE2
 70
     0
  9
$DIMTAD
 70
     0
  9
$DIMZIN
 70
     0
  9
$DIMBLK
  1

  9
$DIMASO
 70
     1
  9
$DIMSHO
 70
     1
  9
$DIMPOST
  1

  9
$DIMAPOST
  1

  9
$DIMALT
 70
     0
  9
$DIMALTD
 70
     2
  9
$DIMALTF
 40
25.4
  9
$DIMLFAC
 40
1.0
  9
$DIMTOFL
 70
     0
  9
$DIMTVP
 40
0.0
  9
$DIMTIX
 70
     0
  9
$DIMSOXD
 70
     0
  9
$DIMSAH
 70
     0
  9
$DIMBLK1
  1

  9
$DIMBLK2
  1

  9
$DIMSTYLE
  2
Standard
  9
$DIMCLRD
 70
     0
  9
$DIMCLRE
 70
     0
  9
$DIMCLRT
 70
     0
  9
$DIMTFAC
 40
1.0
  9
$DIMGAP
 40
0.09
  9
$DIMJUST
 70
     0
  9
$DIMSD1
 70
     0
  9
$DIMSD2
 70
     0
  9
$DIMTOLJ
 70
     1
  9
$DIMTZIN
 70
     0
  9
$DIMALTZ
 70
     0
  9
$DIMALTTZ
 70
     0
  9
$DIMUPT
 70
     0
  9
$DIMDEC
 70
     4
  9
$DIMTDEC
 70
     4
  9
$DIMALTU
 70
     2
  9
$DIMALTTD
 70
     2
  9
$DIMTXSTY
  7
STANDARD
  9
$DIMAUNIT
 70
     0
  9
$DIMADEC
 70
     0
  9
$DIMALTRND
 40
0.0
  9
$DIMAZIN
 70
     0
  9
$DIMDSEP
 70
    46
  9
$DIMATFIT
 70
     3
  9
$DIMFRAC
 70
     0
  9
$DIMLDRBLK
  1

  9
$DIMLUNIT
 70
     2
  9
$DIMLWD
 70
    -2
  9
$DIMLWE
 70
    -2
  9
$DIMTMOVE
 70
     0
  9
$LUNITS
 70
     2
  9
$LUPREC
 70
     4
  9
$SKETCHINC
 40
0.1
  9
$FILLETRAD
 40
0.0
  9
$AUNITS
 70
     0
  9
$AUPREC
 70
     4
  9
$MENU
  1
acad
  9
$ELEVATION
 40
0.0
  9
$PELEVATION
 40
0.0
  9
$THICKNESS
 40
0.0
  9
$LIMCHECK
 70
     0
  9
$CHAMFERA
 40
0.0
  9
$CHAMFERB
 40
0.0
  9
$CHAMFERC
 40
1.0
  9
$CHAMFERD
 40
0.0
  9
$SKPOLY
 70
     0
  9
$TDCREATE
 40
2455390.599681886
  9
$TDUCREATE
 40
2455390.724681886
  9
$TDUPDATE
 40
2455390.599681898
  9
$TDUUPDATE
 40
2455390.724681898
  9
$TDINDWG
 40
0.0000000116
  9
$TDUSRTIMER
 40
0.0000000116
  9
$USRTIMER
 70
     1
  9
$ANGBASE
 50
0.0
  9
$ANGDIR
 70
     0
  9
$PDMODE
 70
     0
  9
$PDSIZE
 40
0.0
  9
$PLINEWID
 40
0.0
  9
$SPLFRAME
 70
     0
  9
$SPLINETYPE
 70
     6
  9
$SPLINESEGS
 70
     8
  9
$HANDSEED
  5
130
  9
$SURFTAB1
 70
     6
  9
$SURFTAB2
 70
     6
  9
$SURFTYPE
 70
     6
  9
$SURFU
 70
     6
  9
$SURFV
 70
     6
  9
$UCSBASE
  2

  9
$UCSNAME
  2

  9
$UCSORG
 10
0.0
 20
0.0
 30
0.0
  9
$UCSXDIR
 10
1.0
 20
0.0
 30
0.0
  9
$UCSYDIR
 10
0.0
 20
1.0
 30
0.0
  9
$UCSORTHOREF
  2

  9
$UCSORTHOVIEW
 70
     0
  9
$UCSORGTOP
 10
0.0
 20
0.0
 30
0.0
  9
$UCSORGBOTTOM
 10
0.0
 20
0.0
 30
0.0
  9
$UCSORGLEFT
 10
0.0
 20
0.0
 30
0.0
  9
$UCSORGRIGHT
 10
0.0
 20
0.0
 30
0.0
  9
$UCSORGFRONT
 10
0.0
 20
0.0
 30
0.0
  9
$UCSORGBACK
 10
0.0
 20
0.0
 30
0.0
  9
$PUCSBASE
  2

  9
$PUCSNAME
  2

  9
$PUCSORG
 10
0.0
 20
0.0
 30
0.0
  9
$PUCSXDIR
 10
1.0
 20
0.0
 30
0.0
  9
$PUCSYDIR
 10
0.0
 20
1.0
 30
0.0
  9
$PUCSORTHOREF
  2

  9
$PUCSORTHOVIEW
 70
     0
  9
$PUCSORGTOP
 10
0.0
 20
0.0
 30
0.0
  9
$PUCSORGBOTTOM
 10
0.0
 20
0.0
 30
0.0
  9
$PUCSORGLEFT
 10
0.0
 20
0.0
 30
0.0
  9
$PUCSORGRIGHT
 10
0.0
 20
0.0
 30
0.0
  9
$PUCSORGFRONT
 10
0.0
 20
0.0
 30
0.0
  9
$PUCSORGBACK
 10
0.0
 20
0.0
 30
0.0
  9
$USERI1
 70
     0
  9
$USERI2
 70
     0
  9
$USERI3
 70
     0
  9
$USERI4
 70
     0
  9
$USERI5
 70
     0
  9
$USERR1
 40
0.0
  9
$USERR2
 40
0.0
  9
$USERR3
 40
0.0
  9
$USERR4
 40
0.0
  9
$USERR5
 40
0.0
  9
$WORLDVIEW
 70
     1
  9
$SHADEDGE
 70
     3
  9
$SHADEDIF
 70
    70
  9
$TILEMODE
 70
     1
  9
$MAXACTVP
 70
    64
  9
$PINSBASE
 10
0.0
 20
0.0
 30
0.0
  9
$PLIMCHECK
 70
     0
  9
$PEXTMIN
 10
1.000000000000000E+20
 20
1.000000000000000E+20
 30
1.000000000000000E+20
  9
$PEXTMAX
 10
-1.000000000000000E+20
 20
-1.000000000000000E+20
 30
-1.000000000000000E+20
  9
$PLIMMIN
 10
0.0
 20
0.0
  9
$PLIMMAX
 10
12.0
 20
9.0
  9
$UNITMODE
 70
     0
  9
$VISRETAIN
 70
     1
  9
$PLINEGEN
 70
     0
  9
$PSLTSCALE
 70
     1
  9
$TREEDEPTH
 70
  3020
  9
$CMLSTYLE
  2
Standard
  9
$CMLJUST
 70
     0
  9
$CMLSCALE
 40
1.0
  9
$PROXYGRAPHICS
 70
     1
  9
$MEASUREMENT
 70
     0
  9
$CELWEIGHT
370
    -1
  9
$ENDCAPS
280
     0
  9
$JOINSTYLE
280
     0
  9
$LWDISPLAY
290
     0
  9
$INSUNITS
 70
     0
  9
$HYPERLINKBASE
  1

  9
$STYLESHEET
  1

  9
$XEDIT
290
     1
  9
$CEPSNTYPE
380
     0
  9
$PSTYLEMODE
290
     0
  9
$FINGERPRINTGUID
  2
{FAEB1C30-E019-11D5-929B-00C0DF256EC4}
  9
$VERSIONGUID
  2
{FAEB1C32-E019-11D5-929B-00C0DF256EC4}
  9
$EXTNAMES
290
     1
  9
$PSVPSCALE
 40
0.0
  9
$OLESTARTUP
290
     0
  0
ENDSEC
  0
SECTION
  2
CLASSES
  0
CLASS
  1
ACDBDICTIONARYWDFLT
  2
AcDbDictionaryWithDefault
  3
ObjectDBX Classes
 90
        0
280
     0
281
     0
  0
CLASS
  1
TABLESTYLE
  2
AcDbTableStyle
  3
ObjectDBX Classes
 90
     2047
280
     0
281
     0
  0
CLASS
  1
DICTIONARYVAR
  2
AcDbDictionaryVar
  3
ObjectDBX Classes
 90
        0
280
     0
281
     0
  0
CLASS
  1
ACDBPLACEHOLDER
  2
AcDbPlaceHolder
  3
ObjectDBX Classes
 90
        0
280
     0
281
     0
  0
CLASS
  1
LAYOUT
  2
AcDbLayout
  3
ObjectDBX Classes
 90
        0
280
     0
281
     0
  0
ENDSEC
  0
SECTION
  2
TABLES
  0
TABLE
  2
VPORT
  5
8
330
0
100
AcDbSymbolTable
 70
     1
  0
VPORT
  5
127
330
8
100
AcDbSymbolTableRecord
100
AcDbViewportTableRecord
  2
*Active
 70
     0
 10
0.0
 20
0.0
 11
1.0
 21
1.0
 12
10.42990654205607
 22
4.5
 13
0.0
 23
0.0
 14
0.5
 24
0.5
 15
0.5
 25
0.5
 16
0.0
 26
0.0
 36
1.0
 17
0.0
 27
0.0
 37
0.0
 40
9.0
 41
1.972972972850329
 42
50.0
 43
0.0
 44
0.0
 50
0.0
 51
0.0
 71
     0
 72
   100
 73
     1
 74
     3
 75
     0
 76
     0
 77
     0
 78
     0
281
     0
 65
     1
110
0.0
120
0.0
130
0.0
111
1.0
121
0.0
131
0.0
112
0.0
122
1.0
132
0.0
 79
     0
146
0.0
  0
ENDTAB
  0
TABLE
  2
LTYPE
  5
5
330
0
100
AcDbSymbolTable
 70
     9
  0
LTYPE
  5
10
330
5
100
AcDbSymbolTableRecord
100
AcDbLinetypeTableRecord
  2
ByBlock
 70
     0
  3

 72
    65
 73
     0
 40
0.0
  0
LTYPE
  5
11
330
5
100
AcDbSymbolTableRecord
100
AcDbLinetypeTableRecord
  2
ByLayer
 70
     0
  3

 72
    65
 73
     0
 40
0.0
  0
LTYPE
  5
1B
330
5
100
AcDbSymbolTableRecord
100
AcDbLinetypeTableRecord
  2
CONTINUOUS
 70
     0
  3
Solid line
 72
    65
 73
     0
 40
0.0
  0
LTYPE
  5
1C
330
5
100
AcDbSymbolTableRecord
100
AcDbLinetypeTableRecord
  2
HIDDEN
 70
     0
  3
_ _ _ _ _ _ _ _ _ _ _ _ _ _ _ _ _ _ _ _ 
 72
    65
 73
     2
 40
0.375
 49
0.25
 74
     0
 49
-0.125
 74
     0
  0
LTYPE
  5
1D
330
5
100
AcDbSymbolTableRecord
100
AcDbLinetypeTableRecord
  2
DASHED
 70
     0
  3
__ __ __ __ __ __ __ __ __ __ __ __ __  
 72
    65
 73
     2
 40
0.75
 49
0.5
 74
     0
 49
-0.25
 74
     0
  0
LTYPE
  5
1E
330
5
100
AcDbSymbolTableRecord
100
AcDbLinetypeTableRecord
  2
CENTER
 70
     0
  3
____ _ ____ _ ____ _ ____ _ ____ _ ____ 
 72
    65
 73
     4
 40
2.0
 49
1.25
 74
     0
 49
-0.25
 74
     0
 49
0.25
 74
     0
 49
-0.25
 74
     0
  0
LTYPE
  5
1F
330
5
100
AcDbSymbolTableRecord
100
AcDbLinetypeTableRecord
  2
PHANTOM
 70
     0
  3
_____ _ _ _____ _ _ _____ _ _ _____ _ _ 
 72
    65
 73
     6
 40
2.5
 49
1.25
 74
     0
 49
-0.25
 74
     0
 49
0.25
 74
     0
 49
-0.25
 74
     0
 49
0.25
 74
     0
 49
-0.25
 74
     0
  0
LTYPE
  5
20
330
5
100
AcDbSymbolTableRecord
100
AcDbLinetypeTableRecord
  2
DOT
 70
     0
  3
........................................
 72
    65
 73
     2
 40
0.25
 49
0.0
 74
     0
 49
-0.25
 74
     0
  0
LTYPE
  5
21
330
5
100
AcDbSymbolTableRecord
100
AcDbLinetypeTableRecord
  2
DASHDOT
 70
     0
  3
__ . __ . __ . __ . __ . __ . __ . __ . 
 72
    65
 73
     4
 40
1.0
 49
0.5
 74
     0
 49
-0.25
 74
     0
 49
0.0
 74
     0
 49
-0.25
 74
     0
  0
LTYPE
  5
22
330
5
100
AcDbSymbolTableRecord
100
AcDbLinetypeTableRecord
  2
BORDER
 70
     0
  3
__ __ . __ __ . __ __ . __ __ . __ __ . 
 72
    65
 73
     6
 40
1.75
 49
0.5
 74
     0
 49
-0.25
 74
     0
 49
0.5
 74
     0
 49
-0.25
 74
     0
 49
0.0
 74
     0
 49
-0.25
 74
     0
  0
LTYPE
  5
23
330
5
100
AcDbSymbolTableRecord
100
AcDbLinetypeTableRecord
  2
DIVIDE
 70
     0
  3
__ . . __ . . __ . . __ . . __ . . __ . 
 72
    65
 73
     6
 40
1.25
 49
0.5
 74
     0
 49
-0.25
 74
     0
 49
0.0
 74
     0
 49
-0.25
 74
     0
 49
0.0
 74
     0
 49
-0.25
 74
     0
  0
ENDTAB
  0
TABLE
  2
LAYER
  5
2
330
0
100
AcDbSymbolTable
 70
     5
  0
LAYER
  5
24
330
2
100
AcDbSymbolTableRecord
100
AcDbLayerTableRecord
  2
0
 70
     0
 62
     7
  6
CONTINUOUS
370
    -3
390
F
  0
LAYER
  5
25
330
2
100
AcDbSymbolTableRecord
100
AcDbLayerTableRecord
  2
0010010007
 70
     0
 62
     7
  6
CONTINUOUS
370
    -3
390
F
  0
LAYER
  5
26
330
2
100
AcDbSymbolTableRecord
100
AcDbLayerTableRecord
  2
0020010004
 70
     0
 62
     4
  6
CONTINUOUS
370
    -3
390
F
  0
LAYER
  5
27
330
2
100
AcDbSymbolTableRecord
100
AcDbLayerTableRecord
  2
0020010007
 70
     0
 62
     7
  6
CONTINUOUS
370
    -3
390
F
  0
LAYER
  5
28
330
2
100
AcDbSymbolTableRecord
100
AcDbLayerTableRecord
  2
0040010002
 70
     0
 62
     2
  6
CONTINUOUS
370
    -3
390
F
  0
ENDTAB
  0
TABLE
  2
STYLE
  5
3
330
0
100
AcDbSymbolTable
 70
     1
  0
STYLE
  5
29
330
3
100
AcDbSymbolTableRecord
100
AcDbTextStyleTableRecord
  2
STANDARD
 70
     0
 40
0.0
 41
1.0
 50
0.0
 71
     0
 42
0.2
  3
txt
  4

  0
ENDTAB
  0
TABLE
  2
VIEW
  5
6
330
0
100
AcDbSymbolTable
 70
     1
  0
VIEW
  5
2A
330
6
100
AcDbSymbolTableRecord
100
AcDbViewTableRecord
  2
1
 70
     0
 40
20600.0
 10
29641.0
 20
34500.0
 41
1.0
 11
0.0
 21
0.0
 31
1.0
 12
0.0
 22
0.0
 32
0.0
 42
50.0
 43
0.0
 44
0.0
 50
0.0
 71
     0
281
     0
 72
     0
  0
ENDTAB
  0
TABLE
  2
UCS
  5
7
330
0
100
AcDbSymbolTable
 70
     0
  0
ENDTAB
  0
TABLE
  2
APPID
  5
9
330
0
100
AcDbSymbolTable
 70
     1
  0
APPID
  5
2B
330
9
100
AcDbSymbolTableRecord
100
AcDbRegAppTableRecord
  2
ACAD
 70
     0
  0
ENDTAB
  0
TABLE
  2
DIMSTYLE
  5
A
330
0
100
AcDbSymbolTable
 70
     1
100
AcDbDimStyleTable
  0
DIMSTYLE
105
2C
330
A
100
AcDbSymbolTableRecord
100
AcDbDimStyleTableRecord
  2
Standard
 70
     0
340
29
  0
ENDTAB
  0
TABLE
  2
BLOCK_RECORD
  5
1
330
0
100
AcDbSymbolTable
 70
    15
  0
BLOCK_RECORD
  5
18
330
1
100
AcDbSymbolTableRecord
100
AcDbBlockTableRecord
  2
*Model_Space
340
19
  0
BLOCK_RECORD
  5
16
330
1
100
AcDbSymbolTableRecord
100
AcDbBlockTableRecord
  2
*Paper_Space
340
17
  0
BLOCK_RECORD
  5
2E
330
1
100
AcDbSymbolTableRecord
100
AcDbBlockTableRecord
  2
DXFLIB-144-BLOCK_39
340
0
102
{BLKREFS
331
E6
102
}
  0
BLOCK_RECORD
  5
39
330
1
100
AcDbSymbolTableRecord
100
AcDbBlockTableRecord
  2
DXFLIB-155-BLOCK_40
340
0
102
{BLKREFS
331
E7
102
}
  0
BLOCK_RECORD
  5
42
330
1
100
AcDbSymbolTableRecord
100
AcDbBlockTableRecord
  2
DXFLIB-156-BLOCK_40
340
0
102
{BLKREFS
331
E8
102
}
  0
BLOCK_RECORD
  5
4D
330
1
100
AcDbSymbolTableRecord
100
AcDbBlockTableRecord
  2
DXFLIB-157-BLOCK_40
340
0
102
{BLKREFS
331
E9
102
}
  0
BLOCK_RECORD
  5
58
330
1
100
AcDbSymbolTableRecord
100
AcDbBlockTableRecord
  2
DXFLIB-158-BLOCK_41
340
0
102
{BLKREFS
331
EA
102
}
  0
BLOCK_RECORD
  5
65
330
1
100
AcDbSymbolTableRecord
100
AcDbBlockTableRecord
  2
DXFLIB-159-BLOCK_41
340
0
102
{BLKREFS
331
EB
102
}
  0
BLOCK_RECORD
  5
70
330
1
100
AcDbSymbolTableRecord
100
AcDbBlockTableRecord
  2
DXFLIB-160-BLOCK_41
340
0
102
{BLKREFS
331
EC
102
}
  0
BLOCK_RECORD
  5
7B
330
1
100
AcDbSymbolTableRecord
100
AcDbBlockTableRecord
  2
DXFLIB-161-BLOCK_41
340
0
102
{BLKREFS
331
ED
102
}
  0
BLOCK_RECORD
  5
86
330
1
100
AcDbSymbolTableRecord
100
AcDbBlockTableRecord
  2
DXFLIB-162-BLOCK_41
340
0
102
{BLKREFS
331
EE
102
}
  0
BLOCK_RECORD
  5
91
330
1
100
AcDbSymbolTableRecord
100
AcDbBlockTableRecord
  2
DXFLIB-163-BLOCK_41
340
0
102
{BLKREFS
331
EF
102
}
  0
BLOCK_RECORD
  5
9C
330
1
100
AcDbSymbolTableRecord
100
AcDbBlockTableRecord
  2
DXFLIB-164-BLOCK_41
340
0
102
{BLKREFS
331
F0
102
}
  0
BLOCK_RECORD
  5
A7
330
1
100
AcDbSymbolTableRecord
100
AcDbBlockTableRecord
  2
DXFLIB-165-BLOCK_41
340
0
102
{BLKREFS
331
F1
102
}
  0
BLOCK_RECORD
  5
B4
330
1
100
AcDbSymbolTableRecord
100
AcDbBlockTableRecord
  2
DXFLIB-166-BLOCK_41
340
0
102
{BLKREFS
331
F2
102
}
  0
BLOCK_RECORD
  5
BF
330
1
100
AcDbSymbolTableRecord
100
AcDbBlockTableRecord
  2
DXFLIB-167-BLOCK_41
340
0
102
{BLKREFS
331
F3
102
}
  0
BLOCK_RECORD
  5
CA
330
1
100
AcDbSymbolTableRecord
100
AcDbBlockTableRecord
  2
DXFLIB-168-BLOCK_42
340
0
102
{BLKREFS
331
F4
102
}
  0
ENDTAB
  0
ENDSEC
  0
SECTION
  2
BLOCKS
  0
BLOCK
  5
12C
330
18
100
AcDbEntity
  8
0
100
AcDbBlockBegin
  2
*Model_Space
 70
     0
 71
     0
 10
0.0
 20
0.0
 30
0.0
  3
*Model_Space
  1

  0
ENDBLK
  5
12D
330
18
100
AcDbEntity
  8
0
100
AcDbBlockEnd
  0
BLOCK
  5
12E
330
16
100
AcDbEntity
 67
     1
  8
0
100
AcDbBlockBegin
  2
*Paper_Space
 70
     0
 71
     0
 10
0.0
 20
0.0
 30
0.0
  3
*Paper_Space
  1

  0
ENDBLK
  5
12F
330
16
100
AcDbEntity
 67
     1
  8
0
100
AcDbBlockEnd
  0
BLOCK
  5
2D
330
2E
100
AcDbEntity
  8
0
100
AcDbBlockBegin
  2
DXFLIB-144-BLOCK_39
 70
     0
 71
     0
 10
0.0
 20
0.0
 30
0.0
  3
DXFLIB-144-BLOCK_39
  1

  0
ARC
  5
2F
330
2E
100
AcDbEntity
  8
0020010007
100
AcDbCircle
 10
17882.1055494717
 20
5305.81292477608
 30
0.0
 40
17762.254965
100
AcDbArc
 50
170.782510958516
 51
189.217488983622
  0
ARC
  5
30
330
2E
100
AcDbEntity
  8
0020010007
100
AcDbCircle
 10
2838.86370366105
 20
2864.62690995673
 30
0.0
 40
2522.22496499999
100
AcDbArc
 50
189.217488983622
 51
262.847834696552
  0
ARC
  5
31
330
2E
100
AcDbEntity
  8
0020010007
100
AcDbCircle
 10
4420.0790494717
 20
15465.8329247761
 30
0.0
 40
15222.2499649999
100
AcDbArc
 50
262.847834696552
 51
277.152165343222
  0
ARC
  5
32
330
2E
100
AcDbEntity
  8
0020010007
100
AcDbCircle
 10
6001.29440362664
 20
2864.62691426852
 30
0.0
 40
2522.22496499999
100
AcDbArc
 50
277.152165343221
 51
350.7825110374051
  0
ARC
  5
33
330
2E
100
AcDbEntity
  8
0020010007
100
AcDbCircle
 10
-9041.9474505283
 20
5305.81292477608
 30
0.0
 40
17762.254965
100
AcDbArc
 50
350.7825110374051
 51
9.217488983362751
  0
ARC
  5
34
330
2E
100
AcDbEntity
  8
0020010007
100
AcDbCircle
 10
6001.29439433954
 20
7746.99893937275
 30
0.0
 40
2522.22496499998
100
AcDbArc
 50
9.21748898336269
 51
82.8478347006474
  0
ARC
  5
35
330
2E
100
AcDbEntity
  8
0020010007
100
AcDbCircle
 10
4420.0790494717
 20
-4854.20707522389
 30
0.0
 40
15222.249965
100
AcDbArc
 50
82.8478347006476
 51
97.1521652081093
  0
ARC
  5
36
330
2E
100
AcDbEntity
  8
0020010007
100
AcDbCircle
 10
2838.86372340468
 20
7746.99895198363
 30
0.0
 40
2522.22496500001
100
AcDbArc
 50
97.1521652081091
 51
170.782510958516
  0
ENDBLK
  5
37
330
2E
100
AcDbEntity
  8
0
100
AcDbBlockEnd
  0
BLOCK
  5
38
330
39
100
AcDbEntity
  8
0
100
AcDbBlockBegin
  2
DXFLIB-155-BLOCK_40
 70
     0
 71
     0
 10
0.0
 20
0.0
 30
0.0
  3
DXFLIB-155-BLOCK_40
  1

  0
LINE
  5
3A
330
39
100
AcDbEntity
  8
0020010007
100
AcDbLine
 10
395.029033254604
 20
44.3113665268145
 30
0.0
 11
1618.69866781841
 21
861.3040751482951
 31
0.0
  0
ARC
  5
3B
330
39
100
AcDbEntity
  8
0020010007
100
AcDbCircle
 10
1558.05187229628
 20
952.139209086342
 30
0.0
 40
109.220215
100
AcDbArc
 50
303.729368435271
 51
90.0
  0
LINE
  5
3C
330
39
100
AcDbEntity
  8
0020010007
100
AcDbLine
 10
1558.05187229628
 20
1061.35942408635
 30
0.0
 11
139.300837792362
 21
1061.35942408635
 31
0.0
  0
ARC
  5
3D
330
39
100
AcDbEntity
  8
0020010007
100
AcDbCircle
 10
139.300837792362
 20
952.139209086342
 30
0.0
 40
109.220215
100
AcDbArc
 50
90.0
 51
194.707006725826
  0
ARC
  5
3E
330
39
100
AcDbEntity
  8
0020010007
100
AcDbCircle
 10
-18082.6815780362
 20
-3830.69020591366
 30
0.0
 40
18729.99687
100
AcDbArc
 50
12.1522198028052
 51
14.7070067258296
  0
ARC
  5
3F
330
39
100
AcDbEntity
  8
0020010007
100
AcDbCircle
 10
334.382237732451
 20
135.146500464862
 30
0.0
 40
109.220215
100
AcDbArc
 50
192.152219802806
 51
303.729368435271
  0
ENDBLK
  5
40
330
39
100
AcDbEntity
  8
0
100
AcDbBlockEnd
  0
BLOCK
  5
41
330
42
100
AcDbEntity
  8
0
100
AcDbBlockBegin
  2
DXFLIB-156-BLOCK_40
 70
     0
 71
     0
 10
0.0
 20
0.0
 30
0.0
  3
DXFLIB-156-BLOCK_40
  1

  0
LINE
  5
43
330
42
100
AcDbEntity
  8
0020010007
100
AcDbLine
 10
209.83816052024
 20
41.2557300682757
 30
0.0
 11
2921.500354162
 21
1540.21029099164
 31
0.0
  0
ARC
  5
44
330
42
100
AcDbEntity
  8
0020010007
100
AcDbCircle
 10
2868.66113305192
 20
1635.79832411883
 30
0.0
 40
109.220215
100
AcDbArc
 50
298.932971111569
 51
90.0
  0
LINE
  5
45
330
42
100
AcDbEntity
  8
0020010007
100
AcDbLine
 10
2868.66113305192
 20
1745.01853911883
 30
0.0
 11
2190.16019171725
 21
1745.01853911883
 31
0.0
  0
ARC
  5
46
330
42
100
AcDbEntity
  8
0020010007
100
AcDbCircle
 10
2190.16019171725
 20
1330.99772411883
 30
0.0
 40
414.020815
100
AcDbArc
 50
90.0
 51
123.729368435302
  0
LINE
  5
47
330
42
100
AcDbEntity
  8
0020010007
100
AcDbLine
 10
1960.26652497034
 20
1675.32625509313
 30
0.0
 11
63.36772147624151
 21
408.8467677582471
 31
0.0
  0
ARC
  5
48
330
42
100
AcDbEntity
  8
0020010007
100
AcDbCircle
 10
124.014516998441
 20
318.011633820246
 30
0.0
 40
109.220215
100
AcDbArc
 50
123.729368435304
 51
190.598586918267
  0
ARC
  5
49
330
42
100
AcDbEntity
  8
0020010007
100
AcDbCircle
 10
-18393.8033698842
 20
-3147.03109088117
 30
0.0
 40
18729.99687
100
AcDbArc
 50
10.0385406220493
 51
10.5985869182682
  0
ARC
  5
4A
330
42
100
AcDbEntity
  8
0020010007
100
AcDbCircle
 10
156.998939410133
 20
136.843763195487
 30
0.0
 40
109.220215
100
AcDbArc
 50
190.038540622052
 51
298.932971111569
  0
ENDBLK
  5
4B
330
42
100
AcDbEntity
  8
0
100
AcDbBlockEnd
  0
BLOCK
  5
4C
330
4D
100
AcDbEntity
  8
0
100
AcDbBlockBegin
  2
DXFLIB-157-BLOCK_40
 70
     0
 71
     0
 10
0.0
 20
0.0
 30
0.0
  3
DXFLIB-157-BLOCK_40
  1

  0
LINE
  5
4E
330
4D
100
AcDbEntity
  8
0020010007
100
AcDbLine
 10
195.897505374139
 20
37.6103748486597
 30
0.0
 11
5218.386489728981
 21
2217.6469060898
 31
0.0
  0
ARC
  5
4F
330
4D
100
AcDbEntity
  8
0020010007
100
AcDbCircle
 10
5174.89885396813
 20
2317.8361315613
 30
0.0
 40
109.220215
100
AcDbArc
 50
293.463495970668
 51
90.0
  0
LINE
  5
50
330
4D
100
AcDbEntity
  8
0020010007
100
AcDbLine
 10
5174.89885396813
 20
2427.0563465613
 30
0.0
 11
3811.50801500427
 21
2427.0563465613
 31
0.0
  0
ARC
  5
51
330
4D
100
AcDbEntity
  8
0020010007
100
AcDbCircle
 10
3811.50801500427
 20
2013.0355315613
 30
0.0
 40
414.020815
100
AcDbArc
 50
90.0
 51
118.93297111155
  0
LINE
  5
52
330
4D
100
AcDbEntity
  8
0020010007
100
AcDbLine
 10
3611.21050242431
 20
2375.38086643888
 30
0.0
 11
72.68337166275796
 21
419.3513159887871
 31
0.0
  0
ARC
  5
53
330
4D
100
AcDbEntity
  8
0020010007
100
AcDbCircle
 10
125.522592772819
 20
323.763282861575
 30
0.0
 40
109.220215
100
AcDbArc
 50
118.932971111553
 51
188.512740218516
  0
ARC
  5
54
330
4D
100
AcDbEntity
  8
0020010007
100
AcDbCircle
 10
-18506.1423137693
 20
-2464.99328343871
 30
0.0
 40
18729.99687
100
AcDbArc
 50
7.941284933046741
 51
8.51274021851493
  0
ARC
  5
55
330
4D
100
AcDbEntity
  8
0020010007
100
AcDbCircle
 10
152.409869613295
 20
137.799600320156
 30
0.0
 40
109.220215
100
AcDbArc
 50
187.941284933052
 51
293.463495970668
  0
ENDBLK
  5
56
330
4D
100
AcDbEntity
  8
0
100
AcDbBlockEnd
  0
BLOCK
  5
57
330
58
100
AcDbEntity
  8
0
100
AcDbBlockBegin
  2
DXFLIB-158-BLOCK_41
 70
     0
 71
     0
 10
0.0
 20
0.0
 30
0.0
  3
DXFLIB-158-BLOCK_41
  1

  0
LINE
  5
59
330
58
100
AcDbEntity
  8
0020010007
100
AcDbLine
 10
179.258327990289
 20
32.9690214490845
 30
0.0
 11
8065.10618555572
 21
2399.54674077847
 31
0.0
  0
ARC
  5
5A
330
58
100
AcDbEntity
  8
0020010007
100
AcDbCircle
 10
8033.71196726922
 20
2504.15772692634
 30
0.0
 40
109.220215
100
AcDbArc
 50
286.704732385733
 51
0.0
  0
LINE
  5
5B
330
58
100
AcDbEntity
  8
0020010007
100
AcDbLine
 10
8142.9321822692
 20
2504.15772692634
 30
0.0
 11
8142.9321822692
 21
2998.95086133273
 31
0.0
  0
ARC
  5
5C
330
58
100
AcDbEntity
  8
0020010007
100
AcDbCircle
 10
8033.7119672692
 20
2998.95086133273
 30
0.0
 40
109.220214999999
100
AcDbArc
 50
0.0
 51
90.0
  0
LINE
  5
5D
330
58
100
AcDbEntity
  8
0020010007
100
AcDbLine
 10
8033.7119672692
 20
3108.17107633273
 30
0.0
 11
6337.77529812047
 21
3108.17107633273
 31
0.0
  0
ARC
  5
5E
330
58
100
AcDbEntity
  8
0020010007
100
AcDbCircle
 10
6337.77529812047
 20
2694.15026133273
 30
0.0
 40
414.020815
100
AcDbArc
 50
90.0
 51
113.463495970669
  0
LINE
  5
5F
330
58
100
AcDbEntity
  8
0020010007
100
AcDbLine
 10
6172.92681837577
 20
3073.93732532931
 30
0.0
 11
83.5771642370928
 21
430.8245701051169
 31
0.0
  0
ARC
  5
60
330
58
100
AcDbEntity
  8
0020010007
100
AcDbCircle
 10
127.064799997936
 20
330.635344633621
 30
0.0
 40
109.220215
100
AcDbArc
 50
113.463495970668
 51
186.444458451254
  0
ARC
  5
61
330
58
100
AcDbEntity
  8
0020010007
100
AcDbCircle
 10
-18593.1096476307
 20
-1783.87855366728
 30
0.0
 40
18729.99687
100
AcDbArc
 50
5.85391819110738
 51
6.444458451258221
  0
ARC
  5
62
330
58
100
AcDbEntity
  8
0020010007
100
AcDbCircle
 10
147.864109703783
 20
137.580007596926
 30
0.0
 40
109.220215
100
AcDbArc
 50
185.853918191113
 51
286.704732385733
  0
ENDBLK
  5
63
330
58
100
AcDbEntity
  8
0
100
AcDbBlockEnd
  0
BLOCK
  5
64
330
65
100
AcDbEntity
  8
0
100
AcDbBlockBegin
  2
DXFLIB-159-BLOCK_41
 70
     0
 71
     0
 10
0.0
 20
0.0
 30
0.0
  3
DXFLIB-159-BLOCK_41
  1

  0
LINE
  5
66
330
65
100
AcDbEntity
  8
0020010007
100
AcDbLine
 10
162.220400669713
 20
28.7408003116209
 30
0.0
 11
7991.05233379531
 21
1444.30389413602
 31
0.0
  0
ARC
  5
67
330
65
100
AcDbEntity
  8
0020010007
100
AcDbCircle
 10
7971.61890123139
 20
1551.78131996782
 30
0.0
 40
109.220215
100
AcDbArc
 50
280.249147188973
 51
0.0
  0
LINE
  5
68
330
65
100
AcDbEntity
  8
0020010007
100
AcDbLine
 10
8080.83911623137
 20
1551.78131996782
 30
0.0
 11
8080.83911623137
 21
2685.33131147694
 31
0.0
  0
ARC
  5
69
330
65
100
AcDbEntity
  8
0020010007
100
AcDbCircle
 10
7971.61890123139
 20
2685.33131147694
 30
0.0
 40
109.220215
100
AcDbArc
 50
0.0
 51
106.704732385733
  0
LINE
  5
6A
330
65
100
AcDbEntity
  8
0020010007
100
AcDbLine
 10
7940.22468294486
 20
2789.94229762481
 30
0.0
 11
97.41959011433937
 21
436.2819018146379
 31
0.0
  0
ARC
  5
6B
330
65
100
AcDbEntity
  8
0020010007
100
AcDbCircle
 10
128.813808400868
 20
331.670915666774
 30
0.0
 40
109.220215
100
AcDbArc
 50
106.704732385733
 51
184.387165912436
  0
ARC
  5
6C
330
65
100
AcDbEntity
  8
0020010007
100
AcDbCircle
 10
-18655.2027136685
 20
-1109.44798101723
 30
0.0
 40
18729.99687
100
AcDbArc
 50
3.79121511719986
 51
4.38716591243416
  0
ARC
  5
6D
330
65
100
AcDbEntity
  8
0020010007
100
AcDbCircle
 10
142.786968105789
 20
136.218226143427
 30
0.0
 40
109.220215
100
AcDbArc
 50
183.791215117205
 51
280.249147188973
  0
ENDBLK
  5
6E
330
65
100
AcDbEntity
  8
0
100
AcDbBlockEnd
  0
BLOCK
  5
6F
330
70
100
AcDbEntity
  8
0
100
AcDbBlockBegin
  2
DXFLIB-160-BLOCK_41
 70
     0
 71
     0
 10
0.0
 20
0.0
 30
0.0
  3
DXFLIB-160-BLOCK_41
  1

  0
LINE
  5
71
330
70
100
AcDbEntity
  8
0020010007
100
AcDbLine
 10
143.723022062974
 20
24.4826522805143
 30
0.0
 11
7940.020099864019
 21
495.341175974252
 31
0.0
  0
ARC
  5
72
330
70
100
AcDbEntity
  8
0020010007
100
AcDbCircle
 10
7933.43572626934
 20
604.36273984586
 30
0.0
 40
109.220215
100
AcDbArc
 50
273.45618898561
 51
0.0
  0
LINE
  5
73
330
70
100
AcDbEntity
  8
0020010007
100
AcDbLine
 10
8042.65594126932
 20
604.36273984586
 30
0.0
 11
8042.65594126932
 21
1742.40276532672
 31
0.0
  0
ARC
  5
74
330
70
100
AcDbEntity
  8
0020010007
100
AcDbCircle
 10
7933.43572626934
 20
1742.40276532672
 30
0.0
 40
109.220215
100
AcDbArc
 50
0.0
 51
100.249147188973
  0
LINE
  5
75
330
70
100
AcDbEntity
  8
0020010007
100
AcDbLine
 10
7914.00229370539
 20
1849.88019115854
 30
0.0
 11
110.6483887515833
 21
438.923883722129
 31
0.0
  0
ARC
  5
76
330
70
100
AcDbEntity
  8
0020010007
100
AcDbCircle
 10
130.081821315506
 20
331.446457890324
 30
0.0
 40
109.220215
100
AcDbArc
 50
100.249147188973
 51
182.342977552439
  0
ARC
  5
77
330
70
100
AcDbEntity
  8
0020010007
100
AcDbCircle
 10
-18693.3858886306
 20
-438.724788244332
 30
0.0
 40
18729.99687
100
AcDbArc
 50
1.74058986958067
 51
2.34297755243335
  0
ARC
  5
78
330
70
100
AcDbEntity
  8
0020010007
100
AcDbCircle
 10
137.138648468314
 20
133.504216152099
 30
0.0
 40
109.220215
100
AcDbArc
 50
181.740589869582
 51
273.45618898561
  0
ENDBLK
  5
79
330
70
100
AcDbEntity
  8
0
100
AcDbBlockEnd
  0
BLOCK
  5
7A
330
7B
100
AcDbEntity
  8
0
100
AcDbBlockBegin
  2
DXFLIB-161-BLOCK_41
 70
     0
 71
     0
 10
0.0
 20
0.0
 30
0.0
  3
DXFLIB-161-BLOCK_41
  1

  0
LINE
  5
7C
330
7B
100
AcDbEntity
  8
0020010007
100
AcDbLine
 10
124.454304737363
 20
495.362819703144
 30
0.0
 11
7912.32125689331
 21
25.01343470381153
 31
0.0
  0
ARC
  5
7D
330
7B
100
AcDbEntity
  8
0020010007
100
AcDbCircle
 10
7918.90563048799
 20
134.034998575454
 30
0.0
 40
109.220215
100
AcDbArc
 50
266.54381101439
 51
0.0
  0
LINE
  5
7E
330
7B
100
AcDbEntity
  8
0020010007
100
AcDbLine
 10
8028.12584548797
 20
134.034998575454
 30
0.0
 11
8028.12584548797
 21
1273.60650006515
 31
0.0
  0
ARC
  5
7F
330
7B
100
AcDbEntity
  8
0020010007
100
AcDbCircle
 10
7918.90563048799
 20
1273.60650006515
 30
0.0
 40
109.220215
100
AcDbArc
 50
0.0
 51
93.4561889856095
  0
LINE
  5
80
330
7B
100
AcDbEntity
  8
0020010007
100
AcDbLine
 10
7912.32125689331
 20
1382.62806393677
 30
0.0
 11
124.4543047373627
 21
912.278678937459
 31
0.0
  0
ARC
  5
81
330
7B
100
AcDbEntity
  8
0020010007
100
AcDbCircle
 10
131.038678332047
 20
803.257115065816
 30
0.0
 40
109.220215
100
AcDbArc
 50
93.4561889856095
 51
180.302417585363
  0
ARC
  5
82
330
7B
100
AcDbEntity
  8
0020010007
100
AcDbCircle
 10
-18707.9159844119
 20
703.820749320284
 30
0.0
 40
18729.99687
100
AcDbArc
 50
359.697582414632
 51
0.302417585367779
  0
ARC
  5
83
330
7B
100
AcDbEntity
  8
0020010007
100
AcDbCircle
 10
131.038678332047
 20
604.384383574763
 30
0.0
 40
109.220215
100
AcDbArc
 50
179.697582414637
 51
266.54381101439
  0
ENDBLK
  5
84
330
7B
100
AcDbEntity
  8
0
100
AcDbBlockEnd
  0
BLOCK
  5
85
330
86
100
AcDbEntity
  8
0
100
AcDbBlockBegin
  2
DXFLIB-162-BLOCK_41
 70
     0
 71
     0
 10
0.0
 20
0.0
 30
0.0
  3
DXFLIB-162-BLOCK_41
  1

  0
LINE
  5
87
330
86
100
AcDbEntity
  8
0020010007
100
AcDbLine
 10
379.027832545505
 20
10230.6480157776
 30
0.0
 11
8783.91526827047
 21
10230.6480157776
 31
0.0
  0
ARC
  5
88
330
86
100
AcDbEntity
  8
0020010007
100
AcDbCircle
 10
8783.91526827047
 20
9933.46743077762
 30
0.0
 40
297.180585000007
100
AcDbArc
 50
0.0
 51
90.0
  0
LINE
  5
89
330
86
100
AcDbEntity
  8
0020010007
100
AcDbLine
 10
9081.09585327049
 20
9933.46743077762
 30
0.0
 11
9081.09585327049
 21
367.8281336199707
 31
0.0
  0
ARC
  5
8A
330
86
100
AcDbEntity
  8
0020010007
100
AcDbCircle
 10
8783.91526827047
 20
367.828133619971
 30
0.0
 40
297.180585000007
100
AcDbArc
 50
270.0
 51
0.0
  0
LINE
  5
8B
330
86
100
AcDbEntity
  8
0020010007
100
AcDbLine
 10
8783.91526827047
 20
70.64754861997589
 30
0.0
 11
379.0278325455056
 21
70.64754861997589
 31
0.0
  0
ARC
  5
8C
330
86
100
AcDbEntity
  8
0020010007
100
AcDbCircle
 10
379.027832545505
 20
367.828133619948
 30
0.0
 40
297.180585
100
AcDbArc
 50
165.29302398294
 51
270.0
  0
ARC
  5
8D
330
86
100
AcDbEntity
  8
0020010007
100
AcDbCircle
 10
-17842.9571467295
 20
5150.64778219879
 30
0.0
 40
18542.0365
100
AcDbArc
 50
345.293023982941
 51
14.7069760170592
  0
ARC
  5
8E
330
86
100
AcDbEntity
  8
0020010007
100
AcDbCircle
 10
379.027832545505
 20
9933.46743077762
 30
0.0
 40
297.180585
100
AcDbArc
 50
90.0
 51
194.70697601706
  0
ENDBLK
  5
8F
330
86
100
AcDbEntity
  8
0
100
AcDbBlockEnd
  0
BLOCK
  5
90
330
91
100
AcDbEntity
  8
0
100
AcDbBlockBegin
  2
DXFLIB-163-BLOCK_41
 70
     0
 71
     0
 10
0.0
 20
0.0
 30
0.0
  3
DXFLIB-163-BLOCK_41
  1

  0
LINE
  5
92
330
91
100
AcDbEntity
  8
0020010007
100
AcDbLine
 10
143.723022062974
 20
1855.47880880474
 30
0.0
 11
7940.020099864019
 21
1384.62028511101
 31
0.0
  0
ARC
  5
93
330
91
100
AcDbEntity
  8
0020010007
100
AcDbCircle
 10
7933.43572626934
 20
1275.5987212394
 30
0.0
 40
109.220215
100
AcDbArc
 50
0.0
 51
86.5438110143905
  0
LINE
  5
94
330
91
100
AcDbEntity
  8
0020010007
100
AcDbLine
 10
8042.65594126932
 20
1275.5987212394
 30
0.0
 11
8042.65594126932
 21
137.558695758499
 31
0.0
  0
ARC
  5
95
330
91
100
AcDbEntity
  8
0020010007
100
AcDbCircle
 10
7933.43572626934
 20
137.558695758499
 30
0.0
 40
109.220215
100
AcDbArc
 50
259.750852811027
 51
0.0
  0
LINE
  5
96
330
91
100
AcDbEntity
  8
0020010007
100
AcDbLine
 10
7914.00229370539
 20
30.0812699267165
 30
0.0
 11
110.6483887515833
 21
1441.03757736309
 31
0.0
  0
ARC
  5
97
330
91
100
AcDbEntity
  8
0020010007
100
AcDbCircle
 10
130.081821315506
 20
1548.51500319491
 30
0.0
 40
109.220215
100
AcDbArc
 50
177.657022447561
 51
259.750852811027
  0
ARC
  5
98
330
91
100
AcDbEntity
  8
0020010007
100
AcDbCircle
 10
-18693.3858886306
 20
2318.68624932956
 30
0.0
 40
18729.99687
100
AcDbArc
 50
357.657022447567
 51
358.259410130419
  0
ARC
  5
99
330
91
100
AcDbEntity
  8
0020010007
100
AcDbCircle
 10
137.138648468314
 20
1746.45724493314
 30
0.0
 40
109.220215
100
AcDbArc
 50
86.5438110143905
 51
178.259410130418
  0
ENDBLK
  5
9A
330
91
100
AcDbEntity
  8
0
100
AcDbBlockEnd
  0
BLOCK
  5
9B
330
9C
100
AcDbEntity
  8
0
100
AcDbBlockBegin
  2
DXFLIB-164-BLOCK_41
 70
     0
 71
     0
 10
0.0
 20
0.0
 30
0.0
  3
DXFLIB-164-BLOCK_41
  1

  0
LINE
  5
9D
330
9C
100
AcDbEntity
  8
0020010007
100
AcDbLine
 10
162.220400669713
 20
2796.52573274404
 30
0.0
 11
7991.05233379531
 21
1380.96263891964
 31
0.0
  0
ARC
  5
9E
330
9C
100
AcDbEntity
  8
0020010007
100
AcDbCircle
 10
7971.61890123139
 20
1273.48521308786
 30
0.0
 40
109.220215
100
AcDbArc
 50
0.0
 51
79.75085281102732
  0
LINE
  5
9F
330
9C
100
AcDbEntity
  8
0020010007
100
AcDbLine
 10
8080.83911623137
 20
1273.48521308786
 30
0.0
 11
8080.83911623137
 21
139.935221578738
 31
0.0
  0
ARC
  5
A0
330
9C
100
AcDbEntity
  8
0020010007
100
AcDbCircle
 10
7971.61890123139
 20
139.935221578738
 30
0.0
 40
109.220215
100
AcDbArc
 50
253.295267614267
 51
0.0
  0
LINE
  5
A1
330
9C
100
AcDbEntity
  8
0020010007
100
AcDbLine
 10
7940.22468294486
 20
35.3242354308504
 30
0.0
 11
97.41959011433937
 21
2388.98463124102
 31
0.0
  0
ARC
  5
A2
330
9C
100
AcDbEntity
  8
0020010007
100
AcDbCircle
 10
128.813808400868
 20
2493.59561738888
 30
0.0
 40
109.220215
100
AcDbArc
 50
175.612834087564
 51
253.295267614267
  0
ARC
  5
A3
330
9C
100
AcDbEntity
  8
0020010007
100
AcDbCircle
 10
-18655.2027136685
 20
3934.71451407288
 30
0.0
 40
18729.99687
100
AcDbArc
 50
355.612834087566
 51
356.2087848828
  0
ARC
  5
A4
330
9C
100
AcDbEntity
  8
0020010007
100
AcDbCircle
 10
142.786968105789
 20
2689.04830691223
 30
0.0
 40
109.220215
100
AcDbArc
 50
79.75085281102732
 51
176.208784882796
  0
ENDBLK
  5
A5
330
9C
100
AcDbEntity
  8
0
100
AcDbBlockEnd
  0
BLOCK
  5
A6
330
A7
100
AcDbEntity
  8
0
100
AcDbBlockBegin
  2
DXFLIB-165-BLOCK_41
 70
     0
 71
     0
 10
0.0
 20
0.0
 30
0.0
  3
DXFLIB-165-BLOCK_41
  1

  0
LINE
  5
A8
330
A7
100
AcDbEntity
  8
0020010007
100
AcDbLine
 10
179.258327990289
 20
3097.82230205281
 30
0.0
 11
8065.10618555572
 21
731.2445827234051
 31
0.0
  0
ARC
  5
A9
330
A7
100
AcDbEntity
  8
0020010007
100
AcDbCircle
 10
8033.71196726922
 20
626.63359657554
 30
0.0
 40
109.220215
100
AcDbArc
 50
0.0
 51
73.295267614267
  0
LINE
  5
AA
330
A7
100
AcDbEntity
  8
0020010007
100
AcDbLine
 10
8142.9321822692
 20
626.63359657554
 30
0.0
 11
8142.9321822692
 21
131.840462169152
 31
0.0
  0
ARC
  5
AB
330
A7
100
AcDbEntity
  8
0020010007
100
AcDbCircle
 10
8033.7119672692
 20
131.840462169152
 30
0.0
 40
109.220214999999
100
AcDbArc
 50
270.0
 51
0.0
  0
LINE
  5
AC
330
A7
100
AcDbEntity
  8
0020010007
100
AcDbLine
 10
8033.7119672692
 20
22.6202471691472
 30
0.0
 11
6337.77529812047
 21
22.6202471691472
 31
0.0
  0
ARC
  5
AD
330
A7
100
AcDbEntity
  8
0020010007
100
AcDbCircle
 10
6337.77529812047
 20
436.641062169175
 30
0.0
 40
414.020815
100
AcDbArc
 50
246.536504029331
 51
270.0
  0
LINE
  5
AE
330
A7
100
AcDbEntity
  8
0020010007
100
AcDbLine
 10
6172.92681837577
 20
56.8539981725724
 30
0.0
 11
83.5771642370928
 21
2699.96675339676
 31
0.0
  0
ARC
  5
AF
330
A7
100
AcDbEntity
  8
0020010007
100
AcDbCircle
 10
127.064799997936
 20
2800.15597886826
 30
0.0
 40
109.220215
100
AcDbArc
 50
173.555541548746
 51
246.536504029332
  0
ARC
  5
B0
330
A7
100
AcDbEntity
  8
0020010007
100
AcDbCircle
 10
-18593.1096476307
 20
4914.66987716915
 30
0.0
 40
18729.99687
100
AcDbArc
 50
353.555541548742
 51
354.146081808893
  0
ARC
  5
B1
330
A7
100
AcDbEntity
  8
0020010007
100
AcDbCircle
 10
147.864109703783
 20
2993.21131590495
 30
0.0
 40
109.220215
100
AcDbArc
 50
73.295267614267
 51
174.146081808887
  0
ENDBLK
  5
B2
330
A7
100
AcDbEntity
  8
0
100
AcDbBlockEnd
  0
BLOCK
  5
B3
330
B4
100
AcDbEntity
  8
0
100
AcDbBlockBegin
  2
DXFLIB-166-BLOCK_41
 70
     0
 71
     0
 10
0.0
 20
0.0
 30
0.0
  3
DXFLIB-166-BLOCK_41
  1

  0
LINE
  5
B5
330
B4
100
AcDbEntity
  8
0020010007
100
AcDbLine
 10
195.897505374139
 20
2407.13820778661
 30
0.0
 11
5218.386489728981
 21
227.1016765454669
 31
0.0
  0
ARC
  5
B6
330
B4
100
AcDbEntity
  8
0020010007
100
AcDbCircle
 10
5174.89885396813
 20
126.91245107397
 30
0.0
 40
109.220215
100
AcDbArc
 50
270.0
 51
66.53650402933231
  0
LINE
  5
B7
330
B4
100
AcDbEntity
  8
0020010007
100
AcDbLine
 10
5174.89885396813
 20
17.6922360739659
 30
0.0
 11
3811.50801500427
 21
17.6922360739659
 31
0.0
  0
ARC
  5
B8
330
B4
100
AcDbEntity
  8
0020010007
100
AcDbCircle
 10
3811.50801500427
 20
431.713051073994
 30
0.0
 40
414.020815
100
AcDbArc
 50
241.06702888845
 51
270.0
  0
LINE
  5
B9
330
B4
100
AcDbEntity
  8
0020010007
100
AcDbLine
 10
3611.21050242431
 20
69.3677161964105
 30
0.0
 11
72.68337166275796
 21
2025.39726664647
 31
0.0
  0
ARC
  5
BA
330
B4
100
AcDbEntity
  8
0020010007
100
AcDbCircle
 10
125.522592772819
 20
2120.9852997737
 30
0.0
 40
109.220215
100
AcDbArc
 50
171.487259781484
 51
241.067028888447
  0
ARC
  5
BB
330
B4
100
AcDbEntity
  8
0020010007
100
AcDbCircle
 10
-18506.1423137693
 20
4909.74186607396
 30
0.0
 40
18729.99687
100
AcDbArc
 50
351.487259781485
 51
352.058715066953
  0
ARC
  5
BC
330
B4
100
AcDbEntity
  8
0020010007
100
AcDbCircle
 10
152.409869613295
 20
2306.94898231511
 30
0.0
 40
109.220215
100
AcDbArc
 50
66.53650402933231
 51
172.058715066948
  0
ENDBLK
  5
BD
330
B4
100
AcDbEntity
  8
0
100
AcDbBlockEnd
  0
BLOCK
  5
BE
330
BF
100
AcDbEntity
  8
0
100
AcDbBlockBegin
  2
DXFLIB-167-BLOCK_41
 70
     0
 71
     0
 10
0.0
 20
0.0
 30
0.0
  3
DXFLIB-167-BLOCK_41
  1

  0
LINE
  5
C0
330
BF
100
AcDbEntity
  8
0020010007
100
AcDbLine
 10
209.83816052024
 20
1724.23141927676
 30
0.0
 11
2921.500354162
 21
225.27685835342
 31
0.0
  0
ARC
  5
C1
330
BF
100
AcDbEntity
  8
0020010007
100
AcDbCircle
 10
2868.66113305192
 20
129.68882522622
 30
0.0
 40
109.220215
100
AcDbArc
 50
270.0
 51
61.0670288884312
  0
LINE
  5
C2
330
BF
100
AcDbEntity
  8
0020010007
100
AcDbLine
 10
2868.66113305192
 20
20.4686102262155
 30
0.0
 11
2190.16019171725
 21
20.4686102262155
 31
0.0
  0
ARC
  5
C3
330
BF
100
AcDbEntity
  8
0020010007
100
AcDbCircle
 10
2190.16019171725
 20
434.489425226243
 30
0.0
 40
414.020815
100
AcDbArc
 50
236.270631564698
 51
270.0
  0
LINE
  5
C4
330
BF
100
AcDbEntity
  8
0020010007
100
AcDbLine
 10
1960.26652497034
 20
90.1608942519421
 30
0.0
 11
63.36772147624151
 21
1356.64038158679
 31
0.0
  0
ARC
  5
C5
330
BF
100
AcDbEntity
  8
0020010007
100
AcDbCircle
 10
124.014516998441
 20
1447.4755155248
 30
0.0
 40
109.220215
100
AcDbArc
 50
169.401413081733
 51
236.270631564696
  0
ARC
  5
C6
330
BF
100
AcDbEntity
  8
0020010007
100
AcDbCircle
 10
-18393.8033698842
 20
4912.51824022621
 30
0.0
 40
18729.99687
100
AcDbArc
 50
349.401413081732
 51
349.961459377951
  0
ARC
  5
C7
330
BF
100
AcDbEntity
  8
0020010007
100
AcDbCircle
 10
156.998939410133
 20
1628.64338614959
 30
0.0
 40
109.220215
100
AcDbArc
 50
61.0670288884312
 51
169.961459377948
  0
ENDBLK
  5
C8
330
BF
100
AcDbEntity
  8
0
100
AcDbBlockEnd
  0
BLOCK
  5
C9
330
CA
100
AcDbEntity
  8
0
100
AcDbBlockBegin
  2
DXFLIB-168-BLOCK_42
 70
     0
 71
     0
 10
0.0
 20
0.0
 30
0.0
  3
DXFLIB-168-BLOCK_42
  1

  0
LINE
  5
CB
330
CA
100
AcDbEntity
  8
0020010007
100
AcDbLine
 10
395.029033254604
 20
1043.01254637545
 30
0.0
 11
1618.69866781841
 21
226.019837753983
 31
0.0
  0
ARC
  5
CC
330
CA
100
AcDbEntity
  8
0020010007
100
AcDbCircle
 10
1558.05187229628
 20
135.184703815924
 30
0.0
 40
109.220215
100
AcDbArc
 50
270.0
 51
56.2706315647287
  0
LINE
  5
CD
330
CA
100
AcDbEntity
  8
0020010007
100
AcDbLine
 10
1558.05187229628
 20
25.9644888159192
 30
0.0
 11
139.300837792362
 21
25.9644888159192
 31
0.0
  0
ARC
  5
CE
330
CA
100
AcDbEntity
  8
0020010007
100
AcDbCircle
 10
139.300837792362
 20
135.184703815924
 30
0.0
 40
109.220215
100
AcDbArc
 50
165.292993274174
 51
270.0
  0
ARC
  5
CF
330
CA
100
AcDbEntity
  8
0020010007
100
AcDbCircle
 10
-18082.6815780362
 20
4918.01411881592
 30
0.0
 40
18729.99687
100
AcDbArc
 50
345.29299327417
 51
347.847780197195
  0
ARC
  5
D0
330
CA
100
AcDbEntity
  8
0020010007
100
AcDbCircle
 10
334.382237732451
 20
952.177412437415
 30
0.0
 40
109.220215
100
AcDbArc
 50
56.2706315647287
 51
167.847780197194
  0
ENDBLK
  5
D1
330
CA
100
AcDbEntity
  8
0
100
AcDbBlockEnd
  0
ENDSEC
  0
SECTION
  2
ENTITIES
  0
LINE
  5
D2
330
18
100
AcDbEntity
  8
0010010007
100
AcDbLine
 10
0.0
 20
600.001181102362
 30
0.0
 11
0.0
 21
0.0
 31
0.0
  0
LINE
  5
D3
330
18
100
AcDbEntity
  8
0020010004
100
AcDbLine
 10
14.0000275590546
 20
531.501046259843
 30
0.0
 11
14.0000275590546
 21
68.5001348425194
 31
0.0
  0
ARC
  5
D4
330
18
100
AcDbEntity
  8
0020010004
100
AcDbCircle
 10
44.0000866141736
 20
68.5001348425196
 30
0.0
 40
30.0000590551179
100
AcDbArc
 50
180.0
 51
270.0
  0
ARC
  5
D5
330
18
100
AcDbEntity
  8
0020010004
100
AcDbCircle
 10
44.0000866141736
 20
531.501046259843
 30
0.0
 40
30.0000590551179
100
AcDbArc
 50
90.0
 51
180.0
  0
LINE
  5
D6
330
18
100
AcDbEntity
  8
0010010007
100
AcDbLine
 10
0.0
 20
600.001181102362
 30
0.0
 11
800.00157480315
 21
600.001181102362
 31
0.0
  0
LINE
  5
D7
330
18
100
AcDbEntity
  8
0010010007
100
AcDbLine
 10
0.0
 20
0.0
 30
0.0
 11
800.00157480315
 21
0.0
 31
0.0
  0
ARC
  5
D8
330
18
100
AcDbEntity
  8
0020010004
100
AcDbCircle
 10
42.0000826771648
 20
510.001003937009
 30
0.0
 40
20.0000393700788
100
AcDbArc
 50
90.0
 51
180.0
  0
ARC
  5
D9
330
18
100
AcDbEntity
  8
0020010004
100
AcDbCircle
 10
42.0000826771648
 20
90.00017716535309
 30
0.0
 40
20.0000393700788
100
AcDbArc
 50
180.0
 51
270.0
  0
LINE
  5
DA
330
18
100
AcDbEntity
  8
0020010004
100
AcDbLine
 10
22.000043307085
 20
510.001003937009
 30
0.0
 11
22.000043307085
 21
90.00017716535331
 31
0.0
  0
LINE
  5
DB
330
18
100
AcDbEntity
  8
0010010007
100
AcDbLine
 10
800.00157480315
 20
600.001181102362
 30
0.0
 11
800.00157480315
 21
0.0
 31
0.0
  0
LINE
  5
DC
330
18
100
AcDbEntity
  8
0020010004
100
AcDbLine
 10
786.001547244095
 20
531.501046259843
 30
0.0
 11
786.001547244095
 21
68.5001348425194
 31
0.0
  0
ARC
  5
DD
330
18
100
AcDbEntity
  8
0020010004
100
AcDbCircle
 10
756.0014881889761
 20
68.5001348425196
 30
0.0
 40
30.0000590551175
100
AcDbArc
 50
270.0
 51
0.0
  0
ARC
  5
DE
330
18
100
AcDbEntity
  8
0020010004
100
AcDbCircle
 10
756.0014881889761
 20
531.501046259843
 30
0.0
 40
30.0000590551175
100
AcDbArc
 50
0.0
 51
90.0
  0
ARC
  5
DF
330
18
100
AcDbEntity
  8
0020010004
100
AcDbCircle
 10
758.001492125985
 20
510.001003937009
 30
0.0
 40
20.0000393700783
100
AcDbArc
 50
0.0
 51
90.0
  0
ARC
  5
E0
330
18
100
AcDbEntity
  8
0020010004
100
AcDbCircle
 10
758.001492125985
 20
90.00017716535309
 30
0.0
 40
20.0000393700783
100
AcDbArc
 50
270.0
 51
0.0
  0
LINE
  5
E1
330
18
100
AcDbEntity
  8
0020010004
100
AcDbLine
 10
778.001531496064
 20
510.001003937009
 30
0.0
 11
778.001531496064
 21
90.00017716535331
 31
0.0
  0
LINE
  5
E2
330
18
100
AcDbEntity
  8
0020010004
100
AcDbLine
 10
44.0000866141736
 20
561.501105314961
 30
0.0
 11
756.0014881889761
 21
561.501105314961
 31
0.0
  0
LINE
  5
E3
330
18
100
AcDbEntity
  8
0020010004
100
AcDbLine
 10
42.0000826771648
 20
530.001043307087
 30
0.0
 11
758.001492125985
 21
530.001043307087
 31
0.0
  0
LINE
  5
E4
330
18
100
AcDbEntity
  8
0020010004
100
AcDbLine
 10
42.0000826771648
 20
70.0001377952769
 30
0.0
 11
758.001492125985
 21
70.00013779527561
 31
0.0
  0
LINE
  5
E5
330
18
100
AcDbEntity
  8
0020010004
100
AcDbLine
 10
44.0000866141736
 20
38.5000757874016
 30
0.0
 11
756.0014881889761
 21
38.5000757874016
 31
0.0
  0
INSERT
  5
E6
330
18
100
AcDbEntity
  8
0
100
AcDbBlockReference
  2
DXFLIB-144-BLOCK_39
 10
45.9815728554449
 20
91.1103179222016
 30
0.0
 41
0.0393700787401575
 42
0.0393700787401575
  0
INSERT
  5
E7
330
18
100
AcDbEntity
  8
0
100
AcDbBlockReference
  2
DXFLIB-155-BLOCK_40
 10
401.915987324262
 20
450.815165587152
 30
0.0
 41
0.0393700787401575
 42
0.0393700787401575
  0
INSERT
  5
E8
330
18
100
AcDbEntity
  8
0
100
AcDbBlockReference
  2
DXFLIB-156-BLOCK_40
 10
414.164876767093
 20
423.899452396896
 30
0.0
 41
0.0393700787401575
 42
0.0393700787401575
  0
INSERT
  5
E9
330
18
100
AcDbEntity
  8
0
100
AcDbBlockReference
  2
DXFLIB-157-BLOCK_40
 10
418.587669833436
 20
397.047570214122
 30
0.0
 41
0.0393700787401575
 42
0.0393700787401575
  0
INSERT
  5
EA
330
18
100
AcDbEntity
  8
0
100
AcDbBlockReference
  2
DXFLIB-158-BLOCK_41
 10
422.011580615382
 20
370.23202967194
 30
0.0
 41
0.0393700787401575
 42
0.0393700787401575
  0
INSERT
  5
EB
330
18
100
AcDbEntity
  8
0
100
AcDbBlockReference
  2
DXFLIB-159-BLOCK_41
 10
424.45618951451
 20
343.679644921938
 30
0.0
 41
0.0393700787401575
 42
0.0393700787401575
  0
INSERT
  5
EC
330
18
100
AcDbEntity
  8
0
100
AcDbBlockReference
  2
DXFLIB-160-BLOCK_41
 10
425.959464119315
 20
317.27322000962
 30
0.0
 41
0.0393700787401575
 42
0.0393700787401575
  0
INSERT
  5
ED
330
18
100
AcDbEntity
  8
0
100
AcDbBlockReference
  2
DXFLIB-161-BLOCK_41
 10
426.531515134329
 20
272.291112231484
 30
0.0
 41
0.0393700787401575
 42
0.0393700787401575
  0
INSERT
  5
EE
330
18
100
AcDbEntity
  8
0
100
AcDbBlockReference
  2
DXFLIB-162-BLOCK_41
 10
392.478017587776
 20
97.2191818031972
 30
0.0
 41
0.0393700787401575
 42
0.0393700787401575
  0
INSERT
  5
EF
330
18
100
AcDbEntity
  8
0
100
AcDbBlockReference
  2
DXFLIB-163-BLOCK_41
 10
425.959464119315
 20
208.713730341356
 30
0.0
 41
0.0393700787401575
 42
0.0393700787401575
  0
INSERT
  5
F0
330
18
100
AcDbEntity
  8
0
100
AcDbBlockReference
  2
DXFLIB-164-BLOCK_41
 10
424.45618951451
 20
145.090570312091
 30
0.0
 41
0.0393700787401575
 42
0.0393700787401575
  0
INSERT
  5
F1
330
18
100
AcDbEntity
  8
0
100
AcDbBlockReference
  2
DXFLIB-165-BLOCK_41
 10
422.011580615382
 20
106.509650505152
 30
0.0
 41
0.0393700787401575
 42
0.0393700787401575
  0
INSERT
  5
F2
330
18
100
AcDbEntity
  8
0
100
AcDbBlockReference
  2
DXFLIB-166-BLOCK_41
 10
418.587669833436
 20
106.703666690001
 30
0.0
 41
0.0393700787401575
 42
0.0393700787401575
  0
INSERT
  5
F3
330
18
100
AcDbEntity
  8
0
100
AcDbBlockReference
  2
DXFLIB-167-BLOCK_41
 10
414.164876767093
 20
106.594360621015
 30
0.0
 41
0.0393700787401575
 42
0.0393700787401575
  0
INSERT
  5
F4
330
18
100
AcDbEntity
  8
0
100
AcDbBlockReference
  2
DXFLIB-168-BLOCK_42
 10
401.915987324262
 20
106.377987448192
 30
0.0
 41
0.0393700787401575
 42
0.0393700787401575
  0
LINE
  5
F5
330
18
100
AcDbEntity
  8
0010010007
100
AcDbLine
 10
930.144266665437
 20
344.850590551181
 30
0.0
 11
930.144266665437
 21
255.150590551181
 31
0.0
  0
LINE
  5
F6
330
18
100
AcDbEntity
  8
0010010007
100
AcDbLine
 10
933.53382394969
 20
239.735404916634
 30
0.0
 11
933.53382394969
 21
360.265776185728
 31
0.0
  0
LINE
  5
F7
330
18
100
AcDbEntity
  8
0010010007
100
AcDbLine
 10
930.144266665437
 20
255.150590551181
 30
0.0
 11
933.53382394969
 21
242.500590551181
 31
0.0
  0
CIRCLE
  5
F8
330
18
100
AcDbEntity
  8
0010010007
100
AcDbCircle
 10
268.000527559056
 20
300.000590551181
 30
0.0
 40
44.85
  0
CIRCLE
  5
F9
330
18
100
AcDbEntity
  8
0010010007
100
AcDbCircle
 10
268.000527559056
 20
300.000590551181
 30
0.0
 40
57.5
  0
LINE
  5
FA
330
18
100
AcDbEntity
  8
0010010007
100
AcDbLine
 10
1093.57071831174
 20
600.001181102362
 30
0.0
 11
1067.57066713066
 21
600.001181102362
 31
0.0
  0
ARC
  5
FB
330
18
100
AcDbEntity
  8
0010010007
100
AcDbCircle
 10
1093.57071831176
 20
598.0011771653531
 30
0.0
 40
2.00000393700765
100
AcDbArc
 50
0.0
 51
90.00000000076339
  0
ARC
  5
FC
330
18
100
AcDbEntity
  8
0010010007
100
AcDbCircle
 10
1067.57066713066
 20
598.0011771653531
 30
0.0
 40
2.00000393700765
100
AcDbArc
 50
90.0
 51
180.0
  0
LINE
  5
FD
330
18
100
AcDbEntity
  8
0010010007
100
AcDbLine
 10
1093.57071831174
 20
0.0
 30
0.0
 11
1067.57066713066
 21
0.0
 31
0.0
  0
ARC
  5
FE
330
18
100
AcDbEntity
  8
0010010007
100
AcDbCircle
 10
1093.57071831176
 20
2.00000393700884
 30
0.0
 40
2.00000393700765
100
AcDbArc
 50
269.999999999237
 51
0.0
  0
ARC
  5
FF
330
18
100
AcDbEntity
  8
0010010007
100
AcDbCircle
 10
1067.57066713066
 20
2.00000393700907
 30
0.0
 40
2.00000393700765
100
AcDbArc
 50
180.0
 51
270.0
  0
LINE
  5
100
330
18
100
AcDbEntity
  8
0010010007
100
AcDbLine
 10
1065.57066319365
 20
598.0011771653531
 30
0.0
 11
1065.57066319365
 21
2.000003937008955
 31
0.0
  0
LINE
  5
101
330
18
100
AcDbEntity
  8
0020010007
100
AcDbLine
 10
934.8757747913201
 20
238.393454075004
 30
0.0
 11
934.8757747913201
 21
361.607727027347
 31
0.0
  0
ARC
  5
102
330
18
100
AcDbEntity
  8
0020010007
100
AcDbCircle
 10
1065.56629122113
 20
1100.68264869911
 30
0.0
 40
1000.70196988189
100
AcDbArc
 50
265.583462283938
 51
270.000250319857
  0
ARC
  5
103
330
18
100
AcDbEntity
  8
0020010007
100
AcDbCircle
 10
992.79471078472
 20
158.486908456836
 30
0.0
 40
55.7001096456692
100
AcDbArc
 50
181.499999998345
 51
265.583462283939
  0
LINE
  5
104
330
18
100
AcDbEntity
  8
0020010007
100
AcDbLine
 10
937.113688175443
 20
157.028849567506
 30
0.0
 11
934.985966497013
 21
238.283262369323
 31
0.0
  0
ARC
  5
105
330
18
100
AcDbEntity
  8
0020010007
100
AcDbCircle
 10
992.7947107870571
 20
441.514272645707
 30
0.0
 40
55.7001096456692
100
AcDbArc
 50
94.4165377159194
 51
178.500000000104
  0
LINE
  5
106
330
18
100
AcDbEntity
  8
0020010007
100
AcDbLine
 10
937.113688177821
 20
442.972331536544
 30
0.0
 11
934.9859664971471
 21
361.717918733175
 31
0.0
  0
LINE
  5
107
330
18
100
AcDbEntity
  8
0010010007
100
AcDbLine
 10
1095.57072224877
 20
2.00000393700884
 30
0.0
 11
1095.57072224877
 21
598.0011771653531
 31
0.0
  0
ARC
  5
108
330
18
100
AcDbEntity
  8
0020010007
100
AcDbCircle
 10
1065.56629122113
 20
-500.681467596751
 30
0.0
 40
1000.70196988189
100
AcDbArc
 50
89.9997496801432
 51
94.41653771591992
  0
LINE
  5
109
330
18
100
AcDbEntity
  8
0010010007
100
AcDbLine
 10
933.53382394969
 20
239.735404916634
 30
0.0
 11
934.985966497013
 21
238.283262369323
 31
0.0
  0
LINE
  5
10A
330
18
100
AcDbEntity
  8
0010010007
100
AcDbLine
 10
930.144266665437
 20
344.850590551181
 30
0.0
 11
933.53382394969
 21
357.500590551181
 31
0.0
  0
LINE
  5
10B
330
18
100
AcDbEntity
  8
0010010007
100
AcDbLine
 10
933.53382394969
 20
360.265776185728
 30
0.0
 11
934.9859664971471
 21
361.717918733175
 31
0.0
  0
LINE
  5
10C
330
18
100
AcDbEntity
  8
0040010002
100
AcDbLine
 10
-1.00000000000045
 20
600.001181102362
 30
0.0
 11
-71.0000000000005
 21
600.001181102362
 31
0.0
  0
LINE
  5
10D
330
18
100
AcDbEntity
  8
0040010002
100
AcDbLine
 10
-1.00000000000045
 20
0.0
 30
0.0
 11
-71.0000000000005
 21
0.0
 31
0.0
  0
SOLID
  5
10E
330
18
100
AcDbEntity
  8
0040010002
100
AcDbTrace
 10
-70.1739663762005
 20
598.763346016435
 30
0.0
 11
-69.8260336238004
 21
598.763346016435
 31
0.0
 12
-70.0000000000005
 22
600.001181102362
 32
0.0
 13
-70.0000000000005
 23
600.001181102362
 33
0.0
  0
SOLID
  5
10F
330
18
100
AcDbEntity
  8
0040010002
100
AcDbTrace
 10
-69.8260336238004
 20
1.23783508592685
 30
0.0
 11
-70.1739663762005
 21
1.23783508592685
 31
0.0
 12
-70.0000000000005
 22
0.0
 32
0.0
 13
-70.0000000000005
 23
0.0
 33
0.0
  0
LINE
  5
110
330
18
100
AcDbEntity
  8
0040010002
100
AcDbLine
 10
-70.0000000000005
 20
600.001181102362
 30
0.0
 11
-70.0000000000005
 21
0.0
 31
0.0
  0
TEXT
  5
111
330
18
100
AcDbEntity
  8
0040010002
100
AcDbText
 10
-85.0000009536748
 20
270.000586143832
 30
0.0
 40
30.0000019073486
  1
600
 50
90.0
 41
0.75
100
AcDbText
  0
LINE
  5
112
330
18
100
AcDbEntity
  8
0040010002
100
AcDbLine
 10
0.0
 20
601.001181102362
 30
0.0
 11
0.0
 21
669.597029113953
 31
0.0
  0
LINE
  5
113
330
18
100
AcDbEntity
  8
0040010002
100
AcDbLine
 10
800.00157480315
 20
601.001181102362
 30
0.0
 11
800.00157480315
 21
669.597029113953
 31
0.0
  0
SOLID
  5
114
330
18
100
AcDbEntity
  8
0040010002
100
AcDbTrace
 10
1.23783508592651
 20
668.423062737753
 30
0.0
 11
1.23783508592651
 21
668.770995490153
 31
0.0
 12
0.0
 22
668.597029113953
 32
0.0
 13
0.0
 23
668.597029113953
 33
0.0
  0
SOLID
  5
115
330
18
100
AcDbEntity
  8
0040010002
100
AcDbTrace
 10
798.763739717223
 20
668.770995490153
 30
0.0
 11
798.763739717223
 21
668.423062737753
 31
0.0
 12
800.00157480315
 22
668.597029113953
 32
0.0
 13
800.00157480315
 23
668.597029113953
 33
0.0
  0
LINE
  5
116
330
18
100
AcDbEntity
  8
0040010002
100
AcDbLine
 10
0.0
 20
668.597029113953
 30
0.0
 11
800.00157480315
 21
668.597029113953
 31
0.0
  0
TEXT
  5
117
330
18
100
AcDbEntity
  8
0040010002
100
AcDbText
 10
370.000787994226
 20
683.597030067628
 30
0.0
 40
30.0000019073486
  1
800
 41
0.75
100
AcDbText
  0
LINE
  5
118
330
18
100
AcDbEntity
  8
0040010002
100
AcDbLine
 10
1095.57072224877
 20
599.0011771653531
 30
0.0
 11
1095.57072224877
 21
669.597029113953
 31
0.0
  0
LINE
  5
119
330
18
100
AcDbEntity
  8
0040010002
100
AcDbLine
 10
934.8757747913201
 20
362.607727027347
 30
0.0
 11
934.8757747913201
 21
669.597029113953
 31
0.0
  0
SOLID
  5
11A
330
18
100
AcDbEntity
  8
0040010002
100
AcDbTrace
 10
1094.33288716284
 20
668.770995490153
 30
0.0
 11
1094.33288716284
 21
668.423062737753
 31
0.0
 12
1095.57072224877
 22
668.597029113953
 32
0.0
 13
1095.57072224877
 23
668.597029113953
 33
0.0
  0
SOLID
  5
11B
330
18
100
AcDbEntity
  8
0040010002
100
AcDbTrace
 10
936.113609877247
 20
668.423062737753
 30
0.0
 11
936.113609877247
 21
668.770995490153
 31
0.0
 12
934.8757747913201
 22
668.597029113953
 32
0.0
 13
934.8757747913201
 23
668.597029113953
 33
0.0
  0
LINE
  5
11C
330
18
100
AcDbEntity
  8
0040010002
100
AcDbLine
 10
1095.57072224877
 20
668.597029113953
 30
0.0
 11
934.8757747913201
 21
668.597029113953
 31
0.0
  0
TEXT
  5
11D
330
18
100
AcDbEntity
  8
0040010002
100
AcDbText
 10
985.223244112696
 20
683.597030067628
 30
0.0
 40
30.0000019073486
  1
160
 41
0.75
100
AcDbText
  0
TEXT
  5
11E
330
18
100
AcDbEntity
  8
0040010002
100
AcDbText
 10
91.32060882745689
 20
173.275103151498
 30
0.0
 40
30.0000019073486
  1
CUBA 340x400
 41
0.75
100
AcDbText
  0
LINE
  5
11F
330
18
100
AcDbEntity
  8
0040010002
100
AcDbLine
 10
1065.57066319365
 20
1.00000393700884
 30
0.0
 11
1065.57066319365
 21
-71.0000000000005
 31
0.0
  0
LINE
  5
120
330
18
100
AcDbEntity
  8
0040010002
100
AcDbLine
 10
1095.57072224877
 20
1.00000393700864
 30
0.0
 11
1095.57072224877
 21
-71.0000000000005
 31
0.0
  0
SOLID
  5
121
330
18
100
AcDbEntity
  8
0040010002
100
AcDbTrace
 10
1064.33282810772
 20
-69.8260336238004
 30
0.0
 11
1064.33282810772
 21
-70.1739663762006
 31
0.0
 12
1065.57066319365
 22
-70.0000000000005
 32
0.0
 13
1065.57066319365
 23
-70.0000000000005
 33
0.0
  0
LINE
  5
122
330
18
100
AcDbEntity
  8
0040010002
100
AcDbLine
 10
1064.57066319365
 20
-70.0000000000005
 30
0.0
 11
1065.57066319365
 21
-70.0000000000005
 31
0.0
  0
SOLID
  5
123
330
18
100
AcDbEntity
  8
0040010002
100
AcDbTrace
 10
1096.8085573347
 20
-70.1739663762006
 30
0.0
 11
1096.8085573347
 21
-69.8260336238004
 31
0.0
 12
1095.57072224877
 22
-70.0000000000005
 32
0.0
 13
1095.57072224877
 23
-70.0000000000005
 33
0.0
  0
LINE
  5
124
330
18
100
AcDbEntity
  8
0040010002
100
AcDbLine
 10
1096.57072224877
 20
-70.0000000000005
 30
0.0
 11
1095.57072224877
 21
-70.0000000000005
 31
0.0
  0
TEXT
  5
125
330
18
100
AcDbEntity
  8
0040010002
100
AcDbText
 10
988.8121503720161
 20
-59.5243637630629
 30
0.0
 40
30.0000019073486
  1
30
 41
0.75
100
AcDbText
  0
LINE
  5
126
330
18
100
AcDbEntity
  8
0040010002
100
AcDbLine
 10
975.570692721199
 20
-70.0000000000005
 30
0.0
 11
1115.21819749434
 21
-70.0000000000005
 31
0.0
  0
ENDSEC
  0
SECTION
  2
OBJECTS
  0
DICTIONARY
  5
C
330
0
100
AcDbDictionary
281
     1
  3
ACAD_GROUP
350
D
  3
ACAD_LAYOUT
350
15
  3
ACAD_MLINESTYLE
350
12
  3
ACAD_PLOTSETTINGS
350
14
  3
ACAD_PLOTSTYLENAME
350
E
  3
ACAD_TABLESTYLE
350
128
  3
AcDbVariableDictionary
350
12A
  0
DICTIONARY
  5
D
102
{ACAD_REACTORS
330
C
102
}
330
C
100
AcDbDictionary
281
     1
  0
DICTIONARY
  5
15
102
{ACAD_REACTORS
330
C
102
}
330
C
100
AcDbDictionary
281
     1
  3
Layout1
350
17
  3
Model
350
19
  0
DICTIONARY
  5
12
102
{ACAD_REACTORS
330
C
102
}
330
C
100
AcDbDictionary
281
     1
  3
Standard
350
13
  0
DICTIONARY
  5
14
102
{ACAD_REACTORS
330
C
102
}
330
C
100
AcDbDictionary
281
     1
  0
ACDBDICTIONARYWDFLT
  5
E
102
{ACAD_REACTORS
330
C
102
}
330
C
100
AcDbDictionary
281
     1
  3
Normal
350
F
100
AcDbDictionaryWithDefault
340
F
  0
DICTIONARY
  5
128
102
{ACAD_REACTORS
330
C
102
}
330
C
100
AcDbDictionary
281
     1
  3
Standard
350
129
  0
DICTIONARY
  5
12A
102
{ACAD_REACTORS
330
C
102
}
330
C
100
AcDbDictionary
281
     1
  3
CTABLESTYLE
350
12B
  0
LAYOUT
  5
17
102
{ACAD_REACTORS
330
15
102
}
330
15
100
AcDbPlotSettings
  1

  2

  4

  6

 40
0.0
 41
0.0
 42
0.0
 43
0.0
 44
0.0
 45
0.0
 46
0.0
 47
0.0
 48
0.0
 49
0.0
140
0.0
141
0.0
142
1.0
143
1.0
 70
   688
 72
     0
 73
     0
 74
     5
  7

 75
    16
147
1.0
148
0.0
149
0.0
100
AcDbLayout
  1
Layout1
 70
     1
 71
     1
 10
0.0
 20
0.0
 11
12.0
 21
9.0
 12
0.0
 22
0.0
 32
0.0
 14
1.000000000000000E+20
 24
1.000000000000000E+20
 34
1.000000000000000E+20
 15
-1.000000000000000E+20
 25
-1.000000000000000E+20
 35
-1.000000000000000E+20
146
0.0
 13
0.0
 23
0.0
 33
0.0
 16
1.0
 26
0.0
 36
0.0
 17
0.0
 27
1.0
 37
0.0
 76
     0
330
16
  0
LAYOUT
  5
19
102
{ACAD_REACTORS
330
15
102
}
330
15
100
AcDbPlotSettings
  1

  2

  4

  6

 40
0.0
 41
0.0
 42
0.0
 43
0.0
 44
0.0
 45
0.0
 46
0.0
 47
0.0
 48
0.0
 49
0.0
140
0.0
141
0.0
142
1.0
143
1.0
 70
  1712
 72
     0
 73
     0
 74
     0
  7

 75
     0
147
1.0
148
0.0
149
0.0
100
AcDbLayout
  1
Model
 70
     1
 71
     0
 10
0.0
 20
0.0
 11
0.0
 21
0.0
 12
0.0
 22
0.0
 32
0.0
 14
-32.05
 24
-32.05
 34
0.0
 15
1258.45
 25
893.05
 35
0.0
146
0.0
 13
0.0
 23
0.0
 33
0.0
 16
1.0
 26
0.0
 36
0.0
 17
0.0
 27
1.0
 37
0.0
 76
     0
330
18
  0
MLINESTYLE
  5
13
102
{ACAD_REACTORS
330
12
102
}
330
12
100
AcDbMlineStyle
  2
Standard
 70
     0
  3

 62
   256
 51
90.0
 52
90.0
 71
     2
 49
0.5
 62
   256
  6
BYLAYER
 49
-0.5
 62
   256
  6
BYLAYER
  0
ACDBPLACEHOLDER
  5
F
102
{ACAD_REACTORS
330
E
102
}
330
E
  0
TABLESTYLE
  5
129
102
{ACAD_REACTORS
330
128
102
}
330
128
100
AcDbTableStyle
  3
Standard
 70
     0
 71
     0
 40
0.06
 41
0.06
280
     0
281
     0
  7
STANDARD
140
0.18
170
     2
 62
     0
 63
     7
283
     0
274
    -2
284
     1
 64
     0
275
    -2
285
     1
 65
     0
276
    -2
286
     1
 66
     0
277
    -2
287
     1
 67
     0
278
    -2
288
     1
 68
     0
279
    -2
289
     1
 69
     0
  7
STANDARD
140
0.25
170
     5
 62
     0
 63
     7
283
     0
274
    -2
284
     1
 64
     0
275
    -2
285
     1
 65
     0
276
    -2
286
     1
 66
     0
277
    -2
287
     1
 67
     0
278
    -2
288
     1
 68
     0
279
    -2
289
     1
 69
     0
  7
STANDARD
140
0.18
170
     5
 62
     0
 63
     7
283
     0
274
    -2
284
     1
 64
     0
275
    -2
285
     1
 65
     0
276
    -2
286
     1
 66
     0
277
    -2
287
     1
 67
     0
278
    -2
288
     1
 68
     0
279
    -2
289
     1
 69
     0
  0
DICTIONARYVAR
  5
12B
102
{ACAD_REACTORS
330
12A
102
}
330
12A
100
DictionaryVariables
280
     0
  1
Standard
  0
ENDSEC
  0
EOF
