  0
SECTION
  2
HEADER
  9
$ACADVER
  1
AC1015
  9
$ACADMAINTVER
 70
     6
  9
$DWGCODEPAGE
  3
UNDEFINED
  9
$INSBASE
 10
0.0
 20
0.0
 30
0.0
  9
$EXTMIN
 10
-32.05
 20
-32.05
 30
0.0
  9
$EXTMAX
 10
1258.45
 20
893.05
 30
0.0
  9
$LIMMIN
 10
-32.05
 20
-32.05
  9
$LIMMAX
 10
1258.45
 20
893.05
  9
$ORTHOMODE
 70
     0
  9
$REGENMODE
 70
     1
  9
$FILLMODE
 70
     1
  9
$QTEXTMODE
 70
     0
  9
$MIRRTEXT
 70
     1
  9
$LTSCALE
 40
1.0
  9
$ATTMODE
 70
     1
  9
$TEXTSIZE
 40
3.0
  9
$TRACEWID
 40
0.05
  9
$TEXTSTYLE
  7
STANDARD
  9
$CLAYER
  8
0
  9
$CELTYPE
  6
ByBlock
  9
$CECOLOR
 62
   256
  9
$CELTSCALE
 40
1.0
  9
$DISPSILH
 70
     0
  9
$DIMSCALE
 40
1.0
  9
$DIMASZ
 40
19.5259201423987
  9
$DIMEXO
 40
1.0
  9
$DIMDLI
 40
0.38
  9
$DIMRND
 40
0.0
  9
$DIMDLE
 40
0.0
  9
$DIMEXE
 40
1.0
  9
$DIMTP
 40
0.0
  9
$DIMTM
 40
0.0
  9
$DIMTXT
 40
3.0
  9
$DIMCEN
 40
1.0
  9
$DIMTSZ
 40
0.0
  9
$DIMTOL
 70
     0
  9
$DIMLIM
 70
     0
  9
$DIMTIH
 70
     1
  9
$DIMTOH
 70
     1
  9
$DIMSE1
 70
     0
  9
$DIMSE2
 70
     0
  9
$DIMTAD
 70
     0
  9
$DIMZIN
 70
     0
  9
$DIMBLK
  1

  9
$DIMASO
 70
     1
  9
$DIMSHO
 70
     1
  9
$DIMPOST
  1

  9
$DIMAPOST
  1

  9
$DIMALT
 70
     0
  9
$DIMALTD
 70
     2
  9
$DIMALTF
 40
25.4
  9
$DIMLFAC
 40
1.0
  9
$DIMTOFL
 70
     0
  9
$DIMTVP
 40
0.0
  9
$DIMTIX
 70
     0
  9
$DIMSOXD
 70
     0
  9
$DIMSAH
 70
     0
  9
$DIMBLK1
  1

  9
$DIMBLK2
  1

  9
$DIMSTYLE
  2
Standard
  9
$DIMCLRD
 70
     0
  9
$DIMCLRE
 70
     0
  9
$DIMCLRT
 70
     0
  9
$DIMTFAC
 40
1.0
  9
$DIMGAP
 40
0.09
  9
$DIMJUST
 70
     0
  9
$DIMSD1
 70
     0
  9
$DIMSD2
 70
     0
  9
$DIMTOLJ
 70
     1
  9
$DIMTZIN
 70
     0
  9
$DIMALTZ
 70
     0
  9
$DIMALTTZ
 70
     0
  9
$DIMUPT
 70
     0
  9
$DIMDEC
 70
     4
  9
$DIMTDEC
 70
     4
  9
$DIMALTU
 70
     2
  9
$DIMALTTD
 70
     2
  9
$DIMTXSTY
  7
STANDARD
  9
$DIMAUNIT
 70
     0
  9
$DIMADEC
 70
     0
  9
$DIMALTRND
 40
0.0
  9
$DIMAZIN
 70
     0
  9
$DIMDSEP
 70
    46
  9
$DIMATFIT
 70
     3
  9
$DIMFRAC
 70
     0
  9
$DIMLDRBLK
  1

  9
$DIMLUNIT
 70
     2
  9
$DIMLWD
 70
    -2
  9
$DIMLWE
 70
    -2
  9
$DIMTMOVE
 70
     0
  9
$LUNITS
 70
     2
  9
$LUPREC
 70
     4
  9
$SKETCHINC
 40
0.1
  9
$FILLETRAD
 40
0.0
  9
$AUNITS
 70
     0
  9
$AUPREC
 70
     4
  9
$MENU
  1
acad
  9
$ELEVATION
 40
0.0
  9
$PELEVATION
 40
0.0
  9
$THICKNESS
 40
0.0
  9
$LIMCHECK
 70
     0
  9
$CHAMFERA
 40
0.0
  9
$CHAMFERB
 40
0.0
  9
$CHAMFERC
 40
1.0
  9
$CHAMFERD
 40
0.0
  9
$SKPOLY
 70
     0
  9
$TDCREATE
 40
2453859.441369537
  9
$TDUCREATE
 40
2453859.566369537
  9
$TDUPDATE
 40
2453859.441369548
  9
$TDUUPDATE
 40
2453859.566369548
  9
$TDINDWG
 40
0.0000000116
  9
$TDUSRTIMER
 40
0.0000000116
  9
$USRTIMER
 70
     1
  9
$ANGBASE
 50
0.0
  9
$ANGDIR
 70
     0
  9
$PDMODE
 70
     0
  9
$PDSIZE
 40
0.0
  9
$PLINEWID
 40
0.0
  9
$SPLFRAME
 70
     0
  9
$SPLINETYPE
 70
     6
  9
$SPLINESEGS
 70
     8
  9
$HANDSEED
  5
139
  9
$SURFTAB1
 70
     6
  9
$SURFTAB2
 70
     6
  9
$SURFTYPE
 70
     6
  9
$SURFU
 70
     6
  9
$SURFV
 70
     6
  9
$UCSBASE
  2

  9
$UCSNAME
  2

  9
$UCSORG
 10
0.0
 20
0.0
 30
0.0
  9
$UCSXDIR
 10
1.0
 20
0.0
 30
0.0
  9
$UCSYDIR
 10
0.0
 20
1.0
 30
0.0
  9
$UCSORTHOREF
  2

  9
$UCSORTHOVIEW
 70
     0
  9
$UCSORGTOP
 10
0.0
 20
0.0
 30
0.0
  9
$UCSORGBOTTOM
 10
0.0
 20
0.0
 30
0.0
  9
$UCSORGLEFT
 10
0.0
 20
0.0
 30
0.0
  9
$UCSORGRIGHT
 10
0.0
 20
0.0
 30
0.0
  9
$UCSORGFRONT
 10
0.0
 20
0.0
 30
0.0
  9
$UCSORGBACK
 10
0.0
 20
0.0
 30
0.0
  9
$PUCSBASE
  2

  9
$PUCSNAME
  2

  9
$PUCSORG
 10
0.0
 20
0.0
 30
0.0
  9
$PUCSXDIR
 10
1.0
 20
0.0
 30
0.0
  9
$PUCSYDIR
 10
0.0
 20
1.0
 30
0.0
  9
$PUCSORTHOREF
  2

  9
$PUCSORTHOVIEW
 70
     0
  9
$PUCSORGTOP
 10
0.0
 20
0.0
 30
0.0
  9
$PUCSORGBOTTOM
 10
0.0
 20
0.0
 30
0.0
  9
$PUCSORGLEFT
 10
0.0
 20
0.0
 30
0.0
  9
$PUCSORGRIGHT
 10
0.0
 20
0.0
 30
0.0
  9
$PUCSORGFRONT
 10
0.0
 20
0.0
 30
0.0
  9
$PUCSORGBACK
 10
0.0
 20
0.0
 30
0.0
  9
$USERI1
 70
     0
  9
$USERI2
 70
     0
  9
$USERI3
 70
     0
  9
$USERI4
 70
     0
  9
$USERI5
 70
     0
  9
$USERR1
 40
0.0
  9
$USERR2
 40
0.0
  9
$USERR3
 40
0.0
  9
$USERR4
 40
0.0
  9
$USERR5
 40
0.0
  9
$WORLDVIEW
 70
     1
  9
$SHADEDGE
 70
     3
  9
$SHADEDIF
 70
    70
  9
$TILEMODE
 70
     1
  9
$MAXACTVP
 70
    64
  9
$PINSBASE
 10
0.0
 20
0.0
 30
0.0
  9
$PLIMCHECK
 70
     0
  9
$PEXTMIN
 10
1.000000000000000E+20
 20
1.000000000000000E+20
 30
1.000000000000000E+20
  9
$PEXTMAX
 10
-1.000000000000000E+20
 20
-1.000000000000000E+20
 30
-1.000000000000000E+20
  9
$PLIMMIN
 10
0.0
 20
0.0
  9
$PLIMMAX
 10
12.0
 20
9.0
  9
$UNITMODE
 70
     0
  9
$VISRETAIN
 70
     1
  9
$PLINEGEN
 70
     0
  9
$PSLTSCALE
 70
     1
  9
$TREEDEPTH
 70
  3020
  9
$CMLSTYLE
  2
Standard
  9
$CMLJUST
 70
     0
  9
$CMLSCALE
 40
1.0
  9
$PROXYGRAPHICS
 70
     1
  9
$MEASUREMENT
 70
     0
  9
$CELWEIGHT
370
    -1
  9
$ENDCAPS
280
     0
  9
$JOINSTYLE
280
     0
  9
$LWDISPLAY
290
     0
  9
$INSUNITS
 70
     0
  9
$HYPERLINKBASE
  1

  9
$STYLESHEET
  1

  9
$XEDIT
290
     1
  9
$CEPSNTYPE
380
     0
  9
$PSTYLEMODE
290
     0
  9
$FINGERPRINTGUID
  2
{FAEB1C30-E019-11D5-929B-00C0DF256EC4}
  9
$VERSIONGUID
  2
{FAEB1C32-E019-11D5-929B-00C0DF256EC4}
  9
$EXTNAMES
290
     1
  9
$PSVPSCALE
 40
0.0
  9
$OLESTARTUP
290
     0
  0
ENDSEC
  0
SECTION
  2
CLASSES
  0
CLASS
  1
ACDBDICTIONARYWDFLT
  2
AcDbDictionaryWithDefault
  3
ObjectDBX Classes
 90
        0
280
     0
281
     0
  0
CLASS
  1
TABLESTYLE
  2
AcDbTableStyle
  3
ObjectDBX Classes
 90
     2047
280
     0
281
     0
  0
CLASS
  1
DICTIONARYVAR
  2
AcDbDictionaryVar
  3
ObjectDBX Classes
 90
        0
280
     0
281
     0
  0
CLASS
  1
ACDBPLACEHOLDER
  2
AcDbPlaceHolder
  3
ObjectDBX Classes
 90
        0
280
     0
281
     0
  0
CLASS
  1
LAYOUT
  2
AcDbLayout
  3
ObjectDBX Classes
 90
        0
280
     0
281
     0
  0
ENDSEC
  0
SECTION
  2
TABLES
  0
TABLE
  2
VPORT
  5
8
330
0
100
AcDbSymbolTable
 70
     1
  0
VPORT
  5
130
330
8
100
AcDbSymbolTableRecord
100
AcDbViewportTableRecord
  2
*Active
 70
     0
 10
0.0
 20
0.0
 11
1.0
 21
1.0
 12
10.42990654205607
 22
4.5
 13
0.0
 23
0.0
 14
0.5
 24
0.5
 15
0.5
 25
0.5
 16
0.0
 26
0.0
 36
1.0
 17
0.0
 27
0.0
 37
0.0
 40
9.0
 41
1.972972972850329
 42
50.0
 43
0.0
 44
0.0
 50
0.0
 51
0.0
 71
     0
 72
   100
 73
     1
 74
     3
 75
     0
 76
     0
 77
     0
 78
     0
281
     0
 65
     1
110
0.0
120
0.0
130
0.0
111
1.0
121
0.0
131
0.0
112
0.0
122
1.0
132
0.0
 79
     0
146
0.0
  0
ENDTAB
  0
TABLE
  2
LTYPE
  5
5
330
0
100
AcDbSymbolTable
 70
     9
  0
LTYPE
  5
10
330
5
100
AcDbSymbolTableRecord
100
AcDbLinetypeTableRecord
  2
ByBlock
 70
     0
  3

 72
    65
 73
     0
 40
0.0
  0
LTYPE
  5
11
330
5
100
AcDbSymbolTableRecord
100
AcDbLinetypeTableRecord
  2
ByLayer
 70
     0
  3

 72
    65
 73
     0
 40
0.0
  0
LTYPE
  5
1B
330
5
100
AcDbSymbolTableRecord
100
AcDbLinetypeTableRecord
  2
CONTINUOUS
 70
     0
  3
Solid line
 72
    65
 73
     0
 40
0.0
  0
LTYPE
  5
1C
330
5
100
AcDbSymbolTableRecord
100
AcDbLinetypeTableRecord
  2
HIDDEN
 70
     0
  3
_ _ _ _ _ _ _ _ _ _ _ _ _ _ _ _ _ _ _ _ 
 72
    65
 73
     2
 40
0.375
 49
0.25
 74
     0
 49
-0.125
 74
     0
  0
LTYPE
  5
1D
330
5
100
AcDbSymbolTableRecord
100
AcDbLinetypeTableRecord
  2
DASHED
 70
     0
  3
__ __ __ __ __ __ __ __ __ __ __ __ __  
 72
    65
 73
     2
 40
0.75
 49
0.5
 74
     0
 49
-0.25
 74
     0
  0
LTYPE
  5
1E
330
5
100
AcDbSymbolTableRecord
100
AcDbLinetypeTableRecord
  2
CENTER
 70
     0
  3
____ _ ____ _ ____ _ ____ _ ____ _ ____ 
 72
    65
 73
     4
 40
2.0
 49
1.25
 74
     0
 49
-0.25
 74
     0
 49
0.25
 74
     0
 49
-0.25
 74
     0
  0
LTYPE
  5
1F
330
5
100
AcDbSymbolTableRecord
100
AcDbLinetypeTableRecord
  2
PHANTOM
 70
     0
  3
_____ _ _ _____ _ _ _____ _ _ _____ _ _ 
 72
    65
 73
     6
 40
2.5
 49
1.25
 74
     0
 49
-0.25
 74
     0
 49
0.25
 74
     0
 49
-0.25
 74
     0
 49
0.25
 74
     0
 49
-0.25
 74
     0
  0
LTYPE
  5
20
330
5
100
AcDbSymbolTableRecord
100
AcDbLinetypeTableRecord
  2
DOT
 70
     0
  3
........................................
 72
    65
 73
     2
 40
0.25
 49
0.0
 74
     0
 49
-0.25
 74
     0
  0
LTYPE
  5
21
330
5
100
AcDbSymbolTableRecord
100
AcDbLinetypeTableRecord
  2
DASHDOT
 70
     0
  3
__ . __ . __ . __ . __ . __ . __ . __ . 
 72
    65
 73
     4
 40
1.0
 49
0.5
 74
     0
 49
-0.25
 74
     0
 49
0.0
 74
     0
 49
-0.25
 74
     0
  0
LTYPE
  5
22
330
5
100
AcDbSymbolTableRecord
100
AcDbLinetypeTableRecord
  2
BORDER
 70
     0
  3
__ __ . __ __ . __ __ . __ __ . __ __ . 
 72
    65
 73
     6
 40
1.75
 49
0.5
 74
     0
 49
-0.25
 74
     0
 49
0.5
 74
     0
 49
-0.25
 74
     0
 49
0.0
 74
     0
 49
-0.25
 74
     0
  0
LTYPE
  5
23
330
5
100
AcDbSymbolTableRecord
100
AcDbLinetypeTableRecord
  2
DIVIDE
 70
     0
  3
__ . . __ . . __ . . __ . . __ . . __ . 
 72
    65
 73
     6
 40
1.25
 49
0.5
 74
     0
 49
-0.25
 74
     0
 49
0.0
 74
     0
 49
-0.25
 74
     0
 49
0.0
 74
     0
 49
-0.25
 74
     0
  0
ENDTAB
  0
TABLE
  2
LAYER
  5
2
330
0
100
AcDbSymbolTable
 70
     4
  0
LAYER
  5
24
330
2
100
AcDbSymbolTableRecord
100
AcDbLayerTableRecord
  2
0
 70
     0
 62
     7
  6
CONTINUOUS
370
    -3
390
F
  0
LAYER
  5
25
330
2
100
AcDbSymbolTableRecord
100
AcDbLayerTableRecord
  2
0010010007
 70
     0
 62
     7
  6
CONTINUOUS
370
    -3
390
F
  0
LAYER
  5
26
330
2
100
AcDbSymbolTableRecord
100
AcDbLayerTableRecord
  2
0020010004
 70
     0
 62
     4
  6
CONTINUOUS
370
    -3
390
F
  0
LAYER
  5
27
330
2
100
AcDbSymbolTableRecord
100
AcDbLayerTableRecord
  2
0030010002
 70
     0
 62
     2
  6
CONTINUOUS
370
    -3
390
F
  0
ENDTAB
  0
TABLE
  2
STYLE
  5
3
330
0
100
AcDbSymbolTable
 70
     1
  0
STYLE
  5
28
330
3
100
AcDbSymbolTableRecord
100
AcDbTextStyleTableRecord
  2
STANDARD
 70
     0
 40
0.0
 41
1.0
 50
0.0
 71
     0
 42
0.2
  3
txt
  4

  0
ENDTAB
  0
TABLE
  2
VIEW
  5
6
330
0
100
AcDbSymbolTable
 70
     1
  0
VIEW
  5
29
330
6
100
AcDbSymbolTableRecord
100
AcDbViewTableRecord
  2
1
 70
     0
 40
20600.0
 10
29641.0
 20
34500.0
 41
1.0
 11
0.0
 21
0.0
 31
1.0
 12
0.0
 22
0.0
 32
0.0
 42
50.0
 43
0.0
 44
0.0
 50
0.0
 71
     0
281
     0
 72
     0
  0
ENDTAB
  0
TABLE
  2
UCS
  5
7
330
0
100
AcDbSymbolTable
 70
     0
  0
ENDTAB
  0
TABLE
  2
APPID
  5
9
330
0
100
AcDbSymbolTable
 70
     1
  0
APPID
  5
2A
330
9
100
AcDbSymbolTableRecord
100
AcDbRegAppTableRecord
  2
ACAD
 70
     0
  0
ENDTAB
  0
TABLE
  2
DIMSTYLE
  5
A
330
0
100
AcDbSymbolTable
 70
     1
100
AcDbDimStyleTable
  0
DIMSTYLE
105
2B
330
A
100
AcDbSymbolTableRecord
100
AcDbDimStyleTableRecord
  2
Standard
 70
     0
340
28
  0
ENDTAB
  0
TABLE
  2
BLOCK_RECORD
  5
1
330
0
100
AcDbSymbolTable
 70
     0
  0
BLOCK_RECORD
  5
18
330
1
100
AcDbSymbolTableRecord
100
AcDbBlockTableRecord
  2
*Model_Space
340
19
  0
BLOCK_RECORD
  5
16
330
1
100
AcDbSymbolTableRecord
100
AcDbBlockTableRecord
  2
*Paper_Space
340
17
  0
ENDTAB
  0
ENDSEC
  0
SECTION
  2
BLOCKS
  0
BLOCK
  5
135
330
18
100
AcDbEntity
  8
0
100
AcDbBlockBegin
  2
*Model_Space
 70
     0
 71
     0
 10
0.0
 20
0.0
 30
0.0
  3
*Model_Space
  1

  0
ENDBLK
  5
136
330
18
100
AcDbEntity
  8
0
100
AcDbBlockEnd
  0
BLOCK
  5
137
330
16
100
AcDbEntity
 67
     1
  8
0
100
AcDbBlockBegin
  2
*Paper_Space
 70
     0
 71
     0
 10
0.0
 20
0.0
 30
0.0
  3
*Paper_Space
  1

  0
ENDBLK
  5
138
330
16
100
AcDbEntity
 67
     1
  8
0
100
AcDbBlockEnd
  0
ENDSEC
  0
SECTION
  2
ENTITIES
  0
ARC
  5
2C
330
18
100
AcDbEntity
  8
0010010007
100
AcDbCircle
 10
587.999999861813
 20
-109.999999974138
 30
0.0
 40
599.999999859004
100
AcDbArc
 50
82.8478347073946
 51
97.15216513707939
  0
LINE
  5
2D
330
18
100
AcDbEntity
  8
0020010004
100
AcDbLine
 10
42.8800039899306
 20
501.929763398704
 30
0.0
 11
42.8800039899306
 21
78.07023646500602
 31
0.0
  0
LINE
  5
2E
330
18
100
AcDbEntity
  8
0020010004
100
AcDbLine
 10
1146.99999973046
 20
70.82891598336209
 30
0.0
 11
469.242183368546
 21
70.82891598336209
 31
0.0
  0
LINE
  5
2F
330
18
100
AcDbEntity
  8
0020010004
100
AcDbLine
 10
469.242183368488
 20
509.171083880352
 30
0.0
 11
1146.99999973045
 21
509.171083880352
 31
0.0
  0
ARC
  5
30
330
18
100
AcDbEntity
  8
0020010004
100
AcDbCircle
 10
1146.99999973046
 20
77.99999998167191
 30
0.0
 40
7.17108399831492
100
AcDbArc
 50
270.0
 51
0.0
  0
ARC
  5
31
330
18
100
AcDbEntity
  8
0020010004
100
AcDbCircle
 10
1146.99999973046
 20
501.999999882031
 30
0.0
 40
7.17108399831492
100
AcDbArc
 50
0.0
 51
90.0
  0
LINE
  5
32
330
18
100
AcDbEntity
  8
0020010004
100
AcDbLine
 10
1154.17108372877
 20
77.99999998167191
 30
0.0
 11
1154.17108372877
 21
501.999999882033
 31
0.0
  0
LINE
  5
33
330
18
100
AcDbEntity
  8
0010010007
100
AcDbLine
 10
0.0
 20
582.999999863001
 30
0.0
 11
1199.99999971802
 21
582.999999863001
 31
0.0
  0
LINE
  5
34
330
18
100
AcDbEntity
  8
0020010004
100
AcDbLine
 10
1176.99999972342
 20
77.99999998167191
 30
0.0
 11
1176.99999972342
 21
501.999999882033
 31
0.0
  0
LINE
  5
35
330
18
100
AcDbEntity
  8
0020010004
100
AcDbLine
 10
1146.99999312225
 20
47.9999999887223
 30
0.0
 11
52.9999999875572
 21
47.9999999887223
 31
0.0
  0
LINE
  5
36
330
18
100
AcDbEntity
  8
0020010004
100
AcDbLine
 10
22.9999999945994
 20
501.999999882031
 30
0.0
 11
22.9999999945994
 21
77.99999998167203
 31
0.0
  0
LINE
  5
37
330
18
100
AcDbEntity
  8
0020010004
100
AcDbLine
 10
52.9999999875599
 20
531.999999874985
 30
0.0
 11
1146.99999973048
 21
531.999999874985
 31
0.0
  0
LINE
  5
38
330
18
100
AcDbEntity
  8
0010010007
100
AcDbLine
 10
0.0
 20
0.0
 30
0.0
 11
0.0
 21
599.999999859012
 31
0.0
  0
ARC
  5
39
330
18
100
AcDbEntity
  8
0010010007
100
AcDbCircle
 10
1032.25244984583
 20
386.109496331403
 30
0.0
 40
99.99999997650021
100
AcDbArc
 50
9.21748896086503
 51
82.8478347411296
  0
ARC
  5
3A
330
18
100
AcDbEntity
  8
0010010007
100
AcDbCircle
 10
969.999999772072
 20
-109.999999974138
 30
0.0
 40
599.999999859004
100
AcDbArc
 50
82.8478347073946
 51
97.15216513707939
  0
ARC
  5
3B
330
18
100
AcDbEntity
  8
0010010007
100
AcDbCircle
 10
1117.99999973729
 20
289.999999931864
 30
0.0
 40
699.999999835506
100
AcDbArc
 50
170.782510940136
 51
189.217488982801
  0
ARC
  5
3C
330
18
100
AcDbEntity
  8
0020010004
100
AcDbCircle
 10
52.9999999875599
 20
501.929763398704
 30
0.0
 40
10.1199959976235
100
AcDbArc
 50
89.6037230182024
 51
180.000000000012
  0
ARC
  5
3D
330
18
100
AcDbEntity
  8
0020010004
100
AcDbCircle
 10
52.9999999875599
 20
78.07023646500601
 30
0.0
 40
10.1199959976219
100
AcDbArc
 50
179.999999999988
 51
270.396276981798
  0
LINE
  5
3E
330
18
100
AcDbEntity
  8
0020010004
100
AcDbLine
 10
53.0699927432124
 20
67.9504825151234
 30
0.0
 11
469.242183368535
 21
70.8289159833591
 31
0.0
  0
LINE
  5
3F
330
18
100
AcDbEntity
  8
0020010004
100
AcDbLine
 10
53.0699927432124
 20
512.049517348583
 30
0.0
 11
469.242183368483
 21
509.17108388035
 31
0.0
  0
ARC
  5
40
330
18
100
AcDbEntity
  8
0010010007
100
AcDbCircle
 10
439.9999998966
 20
289.999999931864
 30
0.0
 40
699.999999835506
100
AcDbArc
 50
350.782511042586
 51
9.21748898014885
  0
ARC
  5
41
330
18
100
AcDbEntity
  8
0010010007
100
AcDbCircle
 10
57.9999999863594
 20
289.999999931864
 30
0.0
 40
699.999999835506
100
AcDbArc
 50
350.782511042586
 51
9.21748898014885
  0
LINE
  5
42
330
18
100
AcDbEntity
  8
0010010007
100
AcDbLine
 10
1199.99999971801
 20
0.0
 30
0.0
 11
0.0
 21
0.0
 31
0.0
  0
ARC
  5
43
330
18
100
AcDbEntity
  8
0020010004
100
AcDbCircle
 10
1146.99999973046
 20
501.999999882031
 30
0.0
 40
29.9999999929502
100
AcDbArc
 50
0.0
 51
90.0
  0
ARC
  5
44
330
18
100
AcDbEntity
  8
0020010004
100
AcDbCircle
 10
1146.99999973046
 20
77.99999998167191
 30
0.0
 40
29.9999999929502
100
AcDbArc
 50
269.999987379229
 51
0.0
  0
ARC
  5
45
330
18
100
AcDbEntity
  8
0020010004
100
AcDbCircle
 10
52.9999999875599
 20
501.999999882031
 30
0.0
 40
29.9999999929502
100
AcDbArc
 50
90.0
 51
180.0
  0
ARC
  5
46
330
18
100
AcDbEntity
  8
0020010004
100
AcDbCircle
 10
52.9999999875599
 20
77.99999998167191
 30
0.0
 40
29.9999999929502
100
AcDbArc
 50
179.999999999996
 51
270.0
  0
ARC
  5
47
330
18
100
AcDbEntity
  8
0010010007
100
AcDbCircle
 10
907.747550438498
 20
386.109496827892
 30
0.0
 40
99.9999999765012
100
AcDbArc
 50
97.1521647819293
 51
170.782510829854
  0
ARC
  5
48
330
18
100
AcDbEntity
  8
0010010007
100
AcDbCircle
 10
1032.25245021144
 20
193.890503693321
 30
0.0
 40
99.9999999765005
100
AcDbArc
 50
277.152165519822
 51
350.782511073669
  0
ARC
  5
49
330
18
100
AcDbEntity
  8
0010010007
100
AcDbCircle
 10
907.74754966119
 20
193.890503523562
 30
0.0
 40
99.99999997650031
100
AcDbArc
 50
189.217488977877
 51
262.84783470708
  0
ARC
  5
4A
330
18
100
AcDbEntity
  8
0010010007
100
AcDbCircle
 10
969.999999772072
 20
689.99999983787
 30
0.0
 40
599.999999859005
100
AcDbArc
 50
262.847834698307
 51
277.152165372655
  0
ARC
  5
4B
330
18
100
AcDbEntity
  8
0010010007
100
AcDbCircle
 10
1499.99999964753
 20
289.999999931864
 30
0.0
 40
699.9999998355
100
AcDbArc
 50
170.782510940136
 51
189.217488982801
  0
ARC
  5
4C
330
18
100
AcDbEntity
  8
0010010007
100
AcDbCircle
 10
650.252449935588
 20
386.109496331403
 30
0.0
 40
99.99999997650021
100
AcDbArc
 50
9.21748896086503
 51
82.8478347411296
  0
ARC
  5
4D
330
18
100
AcDbEntity
  8
0010010007
100
AcDbCircle
 10
525.74755052824
 20
386.109496827892
 30
0.0
 40
99.9999999765012
100
AcDbArc
 50
97.1521647819293
 51
170.782510829854
  0
ARC
  5
4E
330
18
100
AcDbEntity
  8
0010010007
100
AcDbCircle
 10
650.252450301241
 20
193.890503693321
 30
0.0
 40
99.9999999765005
100
AcDbArc
 50
277.152165519822
 51
350.782511073669
  0
ARC
  5
4F
330
18
100
AcDbEntity
  8
0010010007
100
AcDbCircle
 10
525.747549750949
 20
193.890503523562
 30
0.0
 40
99.99999997650021
100
AcDbArc
 50
189.217488977877
 51
262.84783470708
  0
ARC
  5
50
330
18
100
AcDbEntity
  8
0010010007
100
AcDbCircle
 10
587.999999861813
 20
689.99999983787
 30
0.0
 40
599.999999859005
100
AcDbArc
 50
262.847834698307
 51
277.152165372655
  0
LINE
  5
51
330
18
100
AcDbEntity
  8
0010010007
100
AcDbLine
 10
1199.99999971801
 20
0.0
 30
0.0
 11
1199.99999971801
 21
599.999999859005
 31
0.0
  0
LINE
  5
52
330
18
100
AcDbEntity
  8
0010010007
100
AcDbLine
 10
0.0
 20
599.999999859006
 30
0.0
 11
1199.99999971802
 21
599.999999859006
 31
0.0
  0
CIRCLE
  5
53
330
18
100
AcDbEntity
  8
0010010007
100
AcDbCircle
 10
636.499999850412
 20
289.999999931864
 30
0.0
 40
44.8499999894606
  0
CIRCLE
  5
54
330
18
100
AcDbEntity
  8
0020010004
100
AcDbCircle
 10
636.499999850412
 20
289.999999931864
 30
0.0
 40
57.499999986488
  0
CIRCLE
  5
55
330
18
100
AcDbEntity
  8
0010010007
100
AcDbCircle
 10
921.499999783473
 20
289.999999931864
 30
0.0
 40
44.8499999894606
  0
CIRCLE
  5
56
330
18
100
AcDbEntity
  8
0020010004
100
AcDbCircle
 10
921.499999783473
 20
289.999999931864
 30
0.0
 40
57.499999986488
  0
LINE
  5
57
330
18
100
AcDbEntity
  8
0020010004
100
AcDbLine
 10
63.9999999849806
 20
93.99999997789929
 30
0.0
 11
63.9999999849806
 21
485.999999885836
 31
0.0
  0
ARC
  5
58
330
18
100
AcDbEntity
  8
0020010004
100
AcDbCircle
 10
1116.99999973754
 20
289.999999931864
 30
0.0
 40
734.99999982728
100
AcDbArc
 50
170.782510958516
 51
189.217488983622
  0
ARC
  5
59
330
18
100
AcDbEntity
  8
0020010004
100
AcDbCircle
 10
524.7475505284911
 20
193.89050303584
 30
0.0
 40
134.999999968276
100
AcDbArc
 50
189.217489041484
 51
225.520697063367
  0
ARC
  5
5A
330
18
100
AcDbEntity
  8
0020010004
100
AcDbCircle
 10
524.7475505284911
 20
386.109496827892
 30
0.0
 40
134.999999968276
100
AcDbArc
 50
134.479302936633
 51
170.782510958515
  0
ARC
  5
5B
330
18
100
AcDbEntity
  8
0020010004
100
AcDbCircle
 10
426.656330782507
 20
485.999999883075
 30
0.0
 40
4.99999999882542
100
AcDbArc
 50
314.479302936617
 51
90.0
  0
LINE
  5
5C
330
18
100
AcDbEntity
  8
0020010004
100
AcDbLine
 10
426.656330782507
 20
490.999999884654
 30
0.0
 11
68.99999998377757
 21
490.999999884654
 31
0.0
  0
LINE
  5
5D
330
18
100
AcDbEntity
  8
0020010004
100
AcDbLine
 10
426.656330782507
 20
88.9999999790743
 30
0.0
 11
68.99999998377757
 21
88.9999999790743
 31
0.0
  0
LINE
  5
5E
330
18
100
AcDbEntity
  8
0020010004
100
AcDbLine
 10
375.825714497887
 20
271.99999993607
 30
0.0
 11
69.99998852060367
 21
271.99999993607
 31
0.0
  0
LINE
  5
5F
330
18
100
AcDbEntity
  8
0020010004
100
AcDbLine
 10
376.244761308089
 20
253.999999940301
 30
0.0
 11
69.99999998353462
 21
253.999999940301
 31
0.0
  0
LINE
  5
60
330
18
100
AcDbEntity
  8
0020010004
100
AcDbLine
 10
377.112141070074
 20
244.999999942418
 30
0.0
 11
69.99998850059518
 21
244.999999942418
 31
0.0
  0
LINE
  5
61
330
18
100
AcDbEntity
  8
0020010004
100
AcDbLine
 10
377.951258341009
 20
226.999999946645
 30
0.0
 11
69.99999998354673
 21
226.999999946645
 31
0.0
  0
LINE
  5
62
330
18
100
AcDbEntity
  8
0020010004
100
AcDbLine
 10
379.394782592635
 20
217.999999948755
 30
0.0
 11
69.99998850190042
 21
217.999999948755
 31
0.0
  0
LINE
  5
63
330
18
100
AcDbEntity
  8
0020010004
100
AcDbLine
 10
380.65604521481
 20
199.99999995299
 30
0.0
 11
69.99999998357941
 21
199.99999995299
 31
0.0
  0
LINE
  5
64
330
18
100
AcDbEntity
  8
0020010004
100
AcDbLine
 10
382.683761574126
 20
190.9999999551
 30
0.0
 11
69.99998851008229
 21
190.9999999551
 31
0.0
  0
LINE
  5
65
330
18
100
AcDbEntity
  8
0020010004
100
AcDbLine
 10
384.370244311331
 20
172.999999959335
 30
0.0
 11
69.99999998356111
 21
172.999999959335
 31
0.0
  0
LINE
  5
66
330
18
100
AcDbEntity
  8
0020010004
100
AcDbLine
 10
387.367271812354
 20
163.999999961448
 30
0.0
 11
69.99998849762113
 21
163.999999961448
 31
0.0
  0
LINE
  5
67
330
18
100
AcDbEntity
  8
0020010004
100
AcDbLine
 10
390.80823472982
 20
145.999999965683
 30
0.0
 11
69.99999998355372
 21
145.999999965683
 31
0.0
  0
LINE
  5
68
330
18
100
AcDbEntity
  8
0020010004
100
AcDbLine
 10
396.665163935495
 20
136.999999967789
 30
0.0
 11
69.99999998354059
 21
136.999999967789
 31
0.0
  0
LINE
  5
69
330
18
100
AcDbEntity
  8
0020010004
100
AcDbLine
 10
403.045677114014
 20
118.99999997202
 30
0.0
 11
69.99999998357549
 21
118.99999997202
 31
0.0
  0
LINE
  5
6A
330
18
100
AcDbEntity
  8
0020010004
100
AcDbLine
 10
413.872757572617
 20
109.999999974138
 30
0.0
 11
69.99998852017649
 21
109.999999974138
 31
0.0
  0
LINE
  5
6B
330
18
100
AcDbEntity
  8
0020010004
100
AcDbLine
 10
424.677601126414
 20
91.99999997836861
 30
0.0
 11
69.99999998354014
 21
91.99999997836861
 31
0.0
  0
ARC
  5
6C
330
18
100
AcDbEntity
  8
0020010004
100
AcDbCircle
 10
426.656330782507
 20
93.9999999806569
 30
0.0
 40
4.9999999988255
100
AcDbArc
 50
270.0
 51
45.52069706338371
  0
ARC
  5
6D
330
18
100
AcDbEntity
  8
0020010004
100
AcDbCircle
 10
375.999999911664
 20
295.999999930478
 30
0.0
 40
2.99999999929502
100
AcDbArc
 50
0.0
 51
89.9996655163698
  0
ARC
  5
6E
330
18
100
AcDbEntity
  8
0020010004
100
AcDbCircle
 10
375.999999911664
 20
295.599999930571
 30
0.0
 40
0.999999999765008
100
AcDbArc
 50
0.0
 51
90.0000187711391
  0
ARC
  5
6F
330
18
100
AcDbEntity
  8
0020010004
100
AcDbCircle
 10
375.999999911664
 20
283.999999933298
 30
0.0
 40
2.99999999929502
100
AcDbArc
 50
270.0
 51
0.0
  0
ARC
  5
70
330
18
100
AcDbEntity
  8
0020010004
100
AcDbCircle
 10
375.825702944176
 20
268.999999936794
 30
0.0
 40
2.99999999929451
100
AcDbArc
 50
2.00000000046893
 51
89.9997793407012
  0
ARC
  5
71
330
18
100
AcDbEntity
  8
0020010004
100
AcDbCircle
 10
376.244752178
 20
256.99999993958
 30
0.0
 40
2.99999999929482
100
AcDbArc
 50
270.000174372598
 51
1.99999999978186
  0
ARC
  5
72
330
18
100
AcDbEntity
  8
0020010004
100
AcDbCircle
 10
377.112130297801
 20
241.999999943142
 30
0.0
 40
2.99999999929503
100
AcDbArc
 50
4.00000000037521
 51
89.9997942640703
  0
ARC
  5
73
330
18
100
AcDbEntity
  8
0020010004
100
AcDbCircle
 10
377.951252040975
 20
229.999999945932
 30
0.0
 40
2.99999999929561
100
AcDbArc
 50
270.000120321979
 51
3.999999999954451
  0
ARC
  5
74
330
18
100
AcDbEntity
  8
0020010004
100
AcDbCircle
 10
379.394775564751
 20
214.999999949468
 30
0.0
 40
2.99999999929367
100
AcDbArc
 50
6.00000000029048
 51
89.99986577676721
  0
ARC
  5
75
330
18
100
AcDbEntity
  8
0020010004
100
AcDbCircle
 10
380.656026387669
 20
202.999999952226
 30
0.0
 40
2.99999999929601
100
AcDbArc
 50
270.000359571734
 51
5.99999999894204
  0
ARC
  5
76
330
18
100
AcDbEntity
  8
0020010004
100
AcDbCircle
 10
382.683754295294
 20
187.99999995582
 30
0.0
 40
2.99999999929352
100
AcDbArc
 50
8.000000000191189
 51
89.99986098516411
  0
ARC
  5
77
330
18
100
AcDbEntity
  8
0020010004
100
AcDbCircle
 10
384.370244311331
 20
175.999999958636
 30
0.0
 40
2.99999999929502
100
AcDbArc
 50
270.0
 51
8.000000000112649
  0
ARC
  5
78
330
18
100
AcDbEntity
  8
0020010004
100
AcDbCircle
 10
387.367271812354
 20
160.99999996215
 30
0.0
 40
2.99999999929405
100
AcDbArc
 50
16.0000000001447
 51
90.0
  0
ARC
  5
79
330
18
100
AcDbEntity
  8
0020010004
100
AcDbCircle
 10
390.808216440701
 20
148.999999964915
 30
0.0
 40
2.99999999929473
100
AcDbArc
 50
270.000349296426
 51
15.9999999992982
  0
ARC
  5
7A
330
18
100
AcDbEntity
  8
0020010004
100
AcDbCircle
 10
396.665163935495
 20
133.999999968495
 30
0.0
 40
2.99999999929497
100
AcDbArc
 50
27.9999999997911
 51
90.0
  0
ARC
  5
7B
330
18
100
AcDbEntity
  8
0020010004
100
AcDbCircle
 10
403.045677114014
 20
121.999999971329
 30
0.0
 40
2.99999999929502
100
AcDbArc
 50
270.0
 51
28.0000000007777
  0
ARC
  5
7C
330
18
100
AcDbEntity
  8
0020010004
100
AcDbCircle
 10
413.872752597354
 20
106.999999974847
 30
0.0
 40
2.9999999992953
100
AcDbArc
 50
41.9999999997238
 51
89.99990497915071
  0
ARC
  5
7D
330
18
100
AcDbEntity
  8
0020010004
100
AcDbCircle
 10
424.677601126414
 20
94.99999997766641
 30
0.0
 40
2.99999999929502
100
AcDbArc
 50
270.0
 51
42.0000000000763
  0
ARC
  5
7E
330
18
100
AcDbEntity
  8
0020010004
100
AcDbCircle
 10
375.999999911664
 20
284.399999933157
 30
0.0
 40
0.999999999765008
100
AcDbArc
 50
269.999984956643
 51
0.0
  0
ARC
  5
7F
330
18
100
AcDbEntity
  8
0020010004
100
AcDbCircle
 10
375.999999911664
 20
283.99999993325
 30
0.0
 40
2.99999999929502
100
AcDbArc
 50
269.999993702811
 51
0.0
  0
LINE
  5
80
330
18
100
AcDbEntity
  8
0020010004
100
AcDbLine
 10
378.999999910966
 20
295.99999993042
 30
0.0
 11
378.999999910966
 21
283.99999993325
 31
0.0
  0
LINE
  5
81
330
18
100
AcDbEntity
  8
0020010004
100
AcDbLine
 10
387.341048516873
 20
176.417519261428
 30
0.0
 11
385.65455850084
 21
188.417519258614
 31
0.0
  0
LINE
  5
82
330
18
100
AcDbEntity
  8
0020010004
100
AcDbLine
 10
383.639592073041
 20
203.313585341897
 30
0.0
 11
382.378341250133
 21
215.313585339211
 31
0.0
  0
LINE
  5
83
330
18
100
AcDbEntity
  8
0020010004
100
AcDbLine
 10
380.943944190994
 20
230.209269367111
 30
0.0
 11
380.104822447866
 21
242.209269364343
 31
0.0
  0
LINE
  5
84
330
18
100
AcDbEntity
  8
0020010004
100
AcDbLine
 10
379.242924658329
 20
257.104698429655
 30
0.0
 11
378.823875424523
 21
269.104698426907
 31
0.0
  0
LINE
  5
85
330
18
100
AcDbEntity
  8
0020010004
100
AcDbLine
 10
426.907035602335
 20
97.0073917962727
 30
0.0
 11
416.102187073292
 21
109.007391793461
 31
0.0
  0
LINE
  5
86
330
18
100
AcDbEntity
  8
0020010004
100
AcDbLine
 10
405.694519891904
 20
123.408414659378
 30
0.0
 11
399.314006713489
 21
135.408414656518
 31
0.0
  0
LINE
  5
87
330
18
100
AcDbEntity
  8
0020010004
100
AcDbLine
 10
393.692001527788
 20
149.82691203212
 30
0.0
 11
390.251056899463
 21
161.8269120294
 31
0.0
  0
LINE
  5
88
330
18
100
AcDbEntity
  8
0020010004
100
AcDbLine
 10
378.999999910966
 20
283.999999933309
 30
0.0
 11
378.999999910966
 21
295.999999930479
 31
0.0
  0
LINE
  5
89
330
18
100
AcDbEntity
  8
0020010004
100
AcDbLine
 10
396.665163207808
 20
442.999999895943
 30
0.0
 11
69.99999998357589
 21
442.999999895943
 31
0.0
  0
LINE
  5
8A
330
18
100
AcDbEntity
  8
0020010004
100
AcDbLine
 10
66.9999999842821
 20
106.999999974858
 30
0.0
 11
66.9999999842821
 21
94.99999997770181
 31
0.0
  0
LINE
  5
8B
330
18
100
AcDbEntity
  8
0020010004
100
AcDbLine
 10
375.999999492024
 20
298.999999929776
 30
0.0
 11
69.99999998357112
 21
298.999999929776
 31
0.0
  0
LINE
  5
8C
330
18
100
AcDbEntity
  8
0020010004
100
AcDbLine
 10
378.999999910966
 20
295.99999993042
 30
0.0
 11
378.999999910966
 21
283.99999993325
 31
0.0
  0
ARC
  5
8D
330
18
100
AcDbEntity
  8
0020010004
100
AcDbCircle
 10
68.9999999837801
 20
485.999999885833
 30
0.0
 40
4.99999999882504
100
AcDbArc
 50
90.0
 51
179.999999999977
  0
ARC
  5
8E
330
18
100
AcDbEntity
  8
0020010004
100
AcDbCircle
 10
68.9999999837801
 20
93.99999997789929
 30
0.0
 40
4.99999999882504
100
AcDbArc
 50
180.0
 51
270.0
  0
LINE
  5
8F
330
18
100
AcDbEntity
  8
0020010004
100
AcDbLine
 10
66.9999999842821
 20
418.999999901564
 30
0.0
 11
66.9999999842821
 21
430.99999989872
 31
0.0
  0
LINE
  5
90
330
18
100
AcDbEntity
  8
0020010004
100
AcDbLine
 10
66.9999999842821
 20
445.999999895219
 30
0.0
 11
66.9999999842821
 21
457.999999892375
 31
0.0
  0
LINE
  5
91
330
18
100
AcDbEntity
  8
0020010004
100
AcDbLine
 10
66.9999999842821
 20
472.999999888871
 30
0.0
 11
66.9999999842821
 21
484.999999886027
 31
0.0
  0
LINE
  5
92
330
18
100
AcDbEntity
  8
0020010004
100
AcDbLine
 10
393.692001527788
 20
430.173087831608
 30
0.0
 11
390.251056899463
 21
418.173087834328
 31
0.0
  0
ARC
  5
93
330
18
100
AcDbEntity
  8
0020010004
100
AcDbCircle
 10
390.808216440701
 20
430.999999898806
 30
0.0
 40
2.99999999929548
100
AcDbArc
 50
344.000000000704
 51
89.9996551406368
  0
ARC
  5
94
330
18
100
AcDbEntity
  8
0020010004
100
AcDbCircle
 10
396.665163935495
 20
445.999999895233
 30
0.0
 40
2.99999999929502
100
AcDbArc
 50
269.999986101534
 51
332.000000000207
  0
ARC
  5
95
330
18
100
AcDbEntity
  8
0020010004
100
AcDbCircle
 10
424.677601126414
 20
484.999999886066
 30
0.0
 40
2.99999999929502
100
AcDbArc
 50
317.999999999951
 51
90.0
  0
LINE
  5
96
330
18
100
AcDbEntity
  8
0020010004
100
AcDbLine
 10
403.045677114014
 20
460.999999891708
 30
0.0
 11
69.99999998357549
 21
460.999999891708
 31
0.0
  0
LINE
  5
97
330
18
100
AcDbEntity
  8
0020010004
100
AcDbLine
 10
405.694519891904
 20
456.591585204351
 30
0.0
 11
399.314006713489
 21
444.591585207211
 31
0.0
  0
ARC
  5
98
330
18
100
AcDbEntity
  8
0020010004
100
AcDbCircle
 10
403.045677114014
 20
457.9999998924
 30
0.0
 40
2.99999999929502
100
AcDbArc
 50
331.999999999255
 51
90.0
  0
LINE
  5
99
330
18
100
AcDbEntity
  8
0020010004
100
AcDbLine
 10
426.907035602335
 20
482.992608067463
 30
0.0
 11
416.102187073292
 21
470.992608070273
 31
0.0
  0
LINE
  5
9A
330
18
100
AcDbEntity
  8
0020010004
100
AcDbLine
 10
424.677601126414
 20
487.999999885364
 30
0.0
 11
69.99999998354014
 21
487.999999885364
 31
0.0
  0
LINE
  5
9B
330
18
100
AcDbEntity
  8
0020010004
100
AcDbLine
 10
413.872758352964
 20
469.999999889591
 30
0.0
 11
69.99998852018689
 21
469.999999889591
 31
0.0
  0
ARC
  5
9C
330
18
100
AcDbEntity
  8
0020010004
100
AcDbCircle
 10
413.872752597354
 20
472.999999888878
 30
0.0
 40
2.9999999992953
100
AcDbArc
 50
270.0001099241691
 51
318.000000000276
  0
LINE
  5
9D
330
18
100
AcDbEntity
  8
0020010004
100
AcDbLine
 10
379.242924658329
 20
322.89530143408
 30
0.0
 11
378.823875424523
 21
310.895301436826
 31
0.0
  0
LINE
  5
9E
330
18
100
AcDbEntity
  8
0020010004
100
AcDbLine
 10
376.244760844756
 20
325.999999923431
 30
0.0
 11
69.9999999835614
 21
325.999999923431
 31
0.0
  0
ARC
  5
9F
330
18
100
AcDbEntity
  8
0020010004
100
AcDbCircle
 10
376.244752178
 20
322.999999924148
 30
0.0
 40
2.99999999929549
100
AcDbArc
 50
358.000000000257
 51
89.99983447696189
  0
LINE
  5
A0
330
18
100
AcDbEntity
  8
0020010004
100
AcDbLine
 10
375.82571487711
 20
307.999999927666
 30
0.0
 11
69.99998852058661
 21
307.999999927666
 31
0.0
  0
ARC
  5
A1
330
18
100
AcDbEntity
  8
0020010004
100
AcDbCircle
 10
375.825702944176
 20
310.999999926935
 30
0.0
 40
2.9999999992945
100
AcDbArc
 50
270.000227902249
 51
357.9999999995351
  0
LINE
  5
A2
330
18
100
AcDbEntity
  8
0020010004
100
AcDbLine
 10
380.943944190994
 20
349.790730496621
 30
0.0
 11
380.104822447866
 21
337.790730499389
 31
0.0
  0
LINE
  5
A3
330
18
100
AcDbEntity
  8
0020010004
100
AcDbLine
 10
377.951257639552
 20
352.999999917083
 30
0.0
 11
69.99999998356589
 21
352.999999917083
 31
0.0
  0
ARC
  5
A4
330
18
100
AcDbEntity
  8
0020010004
100
AcDbCircle
 10
377.951252040975
 20
349.9999999178
 30
0.0
 40
2.99999999929616
100
AcDbArc
 50
356.000000000043
 51
89.9998930752251
  0
LINE
  5
A5
330
18
100
AcDbEntity
  8
0020010004
100
AcDbLine
 10
377.112141444932
 20
334.999999921318
 30
0.0
 11
69.99998850060058
 21
334.999999921318
 31
0.0
  0
ARC
  5
A6
330
18
100
AcDbEntity
  8
0020010004
100
AcDbCircle
 10
377.112130297801
 20
337.99999992059
 30
0.0
 40
2.99999999929503
100
AcDbArc
 50
270.000212895073
 51
355.999999999625
  0
LINE
  5
A7
330
18
100
AcDbEntity
  8
0020010004
100
AcDbLine
 10
383.639592073041
 20
376.686414521835
 30
0.0
 11
382.378341250133
 21
364.686414524521
 31
0.0
  0
LINE
  5
A8
330
18
100
AcDbEntity
  8
0020010004
100
AcDbLine
 10
380.656045001897
 20
379.999999910739
 30
0.0
 11
69.99999998354457
 21
379.999999910739
 31
0.0
  0
ARC
  5
A9
330
18
100
AcDbEntity
  8
0020010004
100
AcDbCircle
 10
380.656026387669
 20
376.999999911503
 30
0.0
 40
2.99999999929479
100
AcDbArc
 50
354.000000001021
 51
89.99964449393509
  0
LINE
  5
AA
330
18
100
AcDbEntity
  8
0020010004
100
AcDbLine
 10
379.394775564751
 20
361.999999914973
 30
0.0
 11
69.99998850192861
 21
361.999999914973
 31
0.0
  0
ARC
  5
AB
330
18
100
AcDbEntity
  8
0020010004
100
AcDbCircle
 10
379.394775564751
 20
364.999999914253
 30
0.0
 40
2.99999999929346
100
AcDbArc
 50
270.0
 51
353.999999999748
  0
LINE
  5
AC
330
18
100
AcDbEntity
  8
0020010004
100
AcDbLine
 10
387.341048516873
 20
403.582480602301
 30
0.0
 11
385.65455850084
 21
391.582480605115
 31
0.0
  0
LINE
  5
AD
330
18
100
AcDbEntity
  8
0020010004
100
AcDbLine
 10
384.370244311331
 20
406.999999904394
 30
0.0
 11
69.99999998356111
 21
406.999999904394
 31
0.0
  0
ARC
  5
AE
330
18
100
AcDbEntity
  8
0020010004
100
AcDbCircle
 10
384.370244311331
 20
403.999999905096
 30
0.0
 40
2.99999999929502
100
AcDbArc
 50
351.999999999885
 51
90.0
  0
LINE
  5
AF
330
18
100
AcDbEntity
  8
0020010004
100
AcDbLine
 10
382.68376213583
 20
388.999999908629
 30
0.0
 11
69.99998851009997
 21
388.999999908629
 31
0.0
  0
ARC
  5
B0
330
18
100
AcDbEntity
  8
0020010004
100
AcDbCircle
 10
382.683754295294
 20
391.999999907908
 30
0.0
 40
2.99999999929382
100
AcDbArc
 50
270.000149742252
 51
351.999999999768
  0
LINE
  5
B1
330
18
100
AcDbEntity
  8
0020010004
100
AcDbLine
 10
387.367271812354
 20
415.999999902284
 30
0.0
 11
69.99998849762113
 21
415.999999902284
 31
0.0
  0
ARC
  5
B2
330
18
100
AcDbEntity
  8
0020010004
100
AcDbCircle
 10
387.367271812354
 20
418.999999901582
 30
0.0
 40
2.99999999929351
100
AcDbArc
 50
270.0
 51
343.999999999891
  0
LINE
  5
B3
330
18
100
AcDbEntity
  8
0020010004
100
AcDbLine
 10
390.808234497499
 20
433.999999898057
 30
0.0
 11
69.99999998355639
 21
433.999999898057
 31
0.0
  0
ARC
  5
B4
330
18
100
AcDbEntity
  8
0020010004
100
AcDbCircle
 10
69.9999999835654
 20
322.999999924115
 30
0.0
 40
2.99999999929502
100
AcDbArc
 50
90.0
 51
180.000000000343
  0
LINE
  5
B5
330
18
100
AcDbEntity
  8
0020010004
100
AcDbLine
 10
66.9999999842821
 20
310.999999926942
 30
0.0
 11
66.9999999842821
 21
322.999999924098
 31
0.0
  0
ARC
  5
B6
330
18
100
AcDbEntity
  8
0020010004
100
AcDbCircle
 10
69.9999999835654
 20
310.999999926935
 30
0.0
 40
2.99999999929502
100
AcDbArc
 50
179.999999999848
 51
270.0
  0
ARC
  5
B7
330
18
100
AcDbEntity
  8
0020010004
100
AcDbCircle
 10
69.9999999835654
 20
349.999999917771
 30
0.0
 40
2.99999999929502
100
AcDbArc
 50
90.0
 51
180.000000000343
  0
LINE
  5
B8
330
18
100
AcDbEntity
  8
0020010004
100
AcDbLine
 10
66.9999999842821
 20
337.999999920601
 30
0.0
 11
66.9999999842821
 21
349.999999917757
 31
0.0
  0
ARC
  5
B9
330
18
100
AcDbEntity
  8
0020010004
100
AcDbCircle
 10
69.9999999835654
 20
337.99999992059
 30
0.0
 40
2.99999999929502
100
AcDbArc
 50
179.999999999848
 51
270.0
  0
ARC
  5
BA
330
18
100
AcDbEntity
  8
0020010004
100
AcDbCircle
 10
69.9999999835654
 20
376.99999991143
 30
0.0
 40
2.99999999929502
100
AcDbArc
 50
90.0
 51
180.000000000343
  0
LINE
  5
BB
330
18
100
AcDbEntity
  8
0020010004
100
AcDbLine
 10
66.9999999842821
 20
364.999999914253
 30
0.0
 11
66.9999999842821
 21
376.999999911409
 31
0.0
  0
ARC
  5
BC
330
18
100
AcDbEntity
  8
0020010004
100
AcDbCircle
 10
69.9999999835654
 20
364.999999914246
 30
0.0
 40
2.99999999929502
100
AcDbArc
 50
179.999999999848
 51
270.0
  0
ARC
  5
BD
330
18
100
AcDbEntity
  8
0020010004
100
AcDbCircle
 10
69.9999999835654
 20
403.999999905078
 30
0.0
 40
2.99999999929502
100
AcDbArc
 50
90.0
 51
180.000000000343
  0
LINE
  5
BE
330
18
100
AcDbEntity
  8
0020010004
100
AcDbLine
 10
66.9999999842821
 20
391.999999907908
 30
0.0
 11
66.9999999842821
 21
403.999999905064
 31
0.0
  0
ARC
  5
BF
330
18
100
AcDbEntity
  8
0020010004
100
AcDbCircle
 10
69.9999999835654
 20
391.999999907897
 30
0.0
 40
2.99999999929502
100
AcDbArc
 50
179.999999999848
 51
270.0
  0
ARC
  5
C0
330
18
100
AcDbEntity
  8
0020010004
100
AcDbCircle
 10
69.9999999835654
 20
418.999999901553
 30
0.0
 40
2.99999999929502
100
AcDbArc
 50
179.999999999848
 51
270.0
  0
ARC
  5
C1
330
18
100
AcDbEntity
  8
0020010004
100
AcDbCircle
 10
69.9999999835654
 20
430.999999898741
 30
0.0
 40
2.99999999929502
100
AcDbArc
 50
90.0
 51
180.000000000343
  0
ARC
  5
C2
330
18
100
AcDbEntity
  8
0020010004
100
AcDbCircle
 10
69.9999999835654
 20
445.999999895212
 30
0.0
 40
2.99999999929502
100
AcDbArc
 50
179.999999999848
 51
270.0
  0
ARC
  5
C3
330
18
100
AcDbEntity
  8
0020010004
100
AcDbCircle
 10
69.9999999835654
 20
457.999999892396
 30
0.0
 40
2.99999999929502
100
AcDbArc
 50
90.0
 51
180.000000000343
  0
ARC
  5
C4
330
18
100
AcDbEntity
  8
0020010004
100
AcDbCircle
 10
69.9999999835654
 20
472.999999888867
 30
0.0
 40
2.99999999929502
100
AcDbArc
 50
179.999999999848
 51
270.0
  0
ARC
  5
C5
330
18
100
AcDbEntity
  8
0020010004
100
AcDbCircle
 10
69.9999999835654
 20
484.999999886048
 30
0.0
 40
2.99999999929502
100
AcDbArc
 50
90.0
 51
180.000000000343
  0
LINE
  5
C6
330
18
100
AcDbEntity
  8
0020010004
100
AcDbLine
 10
66.9999999842821
 20
160.999999962165
 30
0.0
 11
66.9999999842821
 21
148.999999965009
 31
0.0
  0
LINE
  5
C7
330
18
100
AcDbEntity
  8
0020010004
100
AcDbLine
 10
66.9999999842821
 20
133.999999968513
 30
0.0
 11
66.9999999842821
 21
121.999999971357
 31
0.0
  0
ARC
  5
C8
330
18
100
AcDbEntity
  8
0020010004
100
AcDbCircle
 10
69.9999999835654
 20
94.999999977681
 30
0.0
 40
2.99999999929502
100
AcDbArc
 50
179.999999999657
 51
270.0
  0
ARC
  5
C9
330
18
100
AcDbEntity
  8
0020010004
100
AcDbCircle
 10
69.9999999835654
 20
106.999999974862
 30
0.0
 40
2.99999999929502
100
AcDbArc
 50
90.0
 51
180.000000000152
  0
ARC
  5
CA
330
18
100
AcDbEntity
  8
0020010004
100
AcDbCircle
 10
69.9999999835654
 20
121.999999971336
 30
0.0
 40
2.99999999929502
100
AcDbArc
 50
179.999999999657
 51
270.0
  0
ARC
  5
CB
330
18
100
AcDbEntity
  8
0020010004
100
AcDbCircle
 10
69.9999999835654
 20
133.999999968524
 30
0.0
 40
2.99999999929502
100
AcDbArc
 50
90.0
 51
180.000000000152
  0
ARC
  5
CC
330
18
100
AcDbEntity
  8
0020010004
100
AcDbCircle
 10
69.9999999835654
 20
148.999999964995
 30
0.0
 40
2.99999999929502
100
AcDbArc
 50
179.999999999657
 51
270.0
  0
ARC
  5
CD
330
18
100
AcDbEntity
  8
0020010004
100
AcDbCircle
 10
69.9999999835654
 20
160.99999996218
 30
0.0
 40
2.99999999929502
100
AcDbArc
 50
90.0
 51
180.000000000152
  0
ARC
  5
CE
330
18
100
AcDbEntity
  8
0020010004
100
AcDbCircle
 10
69.9999999835654
 20
187.999999955831
 30
0.0
 40
2.99999999929502
100
AcDbArc
 50
90.0
 51
180.000000000152
  0
LINE
  5
CF
330
18
100
AcDbEntity
  8
0020010004
100
AcDbLine
 10
66.9999999842821
 20
187.99999995582
 30
0.0
 11
66.9999999842821
 21
175.999999958664
 31
0.0
  0
ARC
  5
D0
330
18
100
AcDbEntity
  8
0020010004
100
AcDbCircle
 10
69.9999999835654
 20
175.999999958651
 30
0.0
 40
2.99999999929502
100
AcDbArc
 50
179.999999999657
 51
270.0
  0
ARC
  5
D1
330
18
100
AcDbEntity
  8
0020010004
100
AcDbCircle
 10
69.9999999835654
 20
214.999999949487
 30
0.0
 40
2.99999999929502
100
AcDbArc
 50
90.0
 51
180.000000000152
  0
LINE
  5
D2
330
18
100
AcDbEntity
  8
0020010004
100
AcDbLine
 10
66.9999999842821
 20
214.999999949476
 30
0.0
 11
66.9999999842821
 21
202.99999995232
 31
0.0
  0
ARC
  5
D3
330
18
100
AcDbEntity
  8
0020010004
100
AcDbCircle
 10
69.9999999835654
 20
202.999999952306
 30
0.0
 40
2.99999999929502
100
AcDbArc
 50
179.999999999657
 51
270.0
  0
ARC
  5
D4
330
18
100
AcDbEntity
  8
0020010004
100
AcDbCircle
 10
69.9999999835654
 20
241.999999943142
 30
0.0
 40
2.99999999929502
100
AcDbArc
 50
90.0
 51
180.000000000152
  0
LINE
  5
D5
330
18
100
AcDbEntity
  8
0020010004
100
AcDbLine
 10
66.9999999842821
 20
241.999999943131
 30
0.0
 11
66.9999999842821
 21
229.999999945975
 31
0.0
  0
ARC
  5
D6
330
18
100
AcDbEntity
  8
0020010004
100
AcDbCircle
 10
69.9999999835654
 20
229.999999945961
 30
0.0
 40
2.99999999929502
100
AcDbArc
 50
179.999999999657
 51
270.0
  0
ARC
  5
D7
330
18
100
AcDbEntity
  8
0020010004
100
AcDbCircle
 10
69.9999999835654
 20
268.999999936794
 30
0.0
 40
2.99999999929502
100
AcDbArc
 50
90.0
 51
180.000000000152
  0
LINE
  5
D8
330
18
100
AcDbEntity
  8
0020010004
100
AcDbLine
 10
66.9999999842821
 20
268.99999993679
 30
0.0
 11
66.9999999842821
 21
256.999999939634
 31
0.0
  0
ARC
  5
D9
330
18
100
AcDbEntity
  8
0020010004
100
AcDbCircle
 10
69.9999999835654
 20
256.999999939613
 30
0.0
 40
2.99999999929502
100
AcDbArc
 50
179.999999999657
 51
270.0
  0
ARC
  5
DA
330
18
100
AcDbEntity
  8
0020010004
100
AcDbCircle
 10
69.9999999835654
 20
295.999999930449
 30
0.0
 40
2.99999999929502
100
AcDbArc
 50
90.0
 51
180.000000000152
  0
ARC
  5
DB
330
18
100
AcDbEntity
  8
0020010004
100
AcDbCircle
 10
69.9999999835654
 20
283.999999933269
 30
0.0
 40
2.99999999929502
100
AcDbArc
 50
179.999999999657
 51
270.0
  0
ARC
  5
DC
330
18
100
AcDbEntity
  8
0020010004
100
AcDbCircle
 10
375.999999911664
 20
283.99999993325
 30
0.0
 40
2.99999999929502
100
AcDbArc
 50
270.000334621253
 51
0.0
  0
ARC
  5
DD
330
18
100
AcDbEntity
  8
0020010004
100
AcDbCircle
 10
375.999999911664
 20
295.999999930435
 30
0.0
 40
2.99999999929502
100
AcDbArc
 50
359.999999999846
 51
90.0
  0
LINE
  5
DE
330
18
100
AcDbEntity
  8
0020010004
100
AcDbLine
 10
378.999999910966
 20
283.999999933309
 30
0.0
 11
378.999999910966
 21
295.999999930479
 31
0.0
  0
ARC
  5
DF
330
18
100
AcDbEntity
  8
0020010004
100
AcDbCircle
 10
375.999999911664
 20
295.999999930486
 30
0.0
 40
2.99999999929502
100
AcDbArc
 50
0.0
 51
90.0000080145369
  0
LINE
  5
E0
330
18
100
AcDbEntity
  8
0020010004
100
AcDbLine
 10
376.000017432352
 20
280.999999934003
 30
0.0
 11
69.99998609682393
 21
280.999999934003
 31
0.0
  0
LINE
  5
E1
330
18
100
AcDbEntity
  8
0020010004
100
AcDbLine
 10
66.9999999842821
 20
283.999999933287
 30
0.0
 11
66.9999999842821
 21
295.999999930443
 31
0.0
  0
LINE
  5
E2
330
18
100
AcDbEntity
  8
0010010007
100
AcDbLine
 10
-385.848737022321
 20
584.999999874257
 30
0.0
 11
-385.848737022321
 21
597.9999998712
 31
0.0
  0
LINE
  5
E3
330
18
100
AcDbEntity
  8
0010010007
100
AcDbLine
 10
-305.848737041846
 20
1.99999999950069
 30
0.0
 11
-305.848737041846
 21
599.99999987073
 31
0.0
  0
LINE
  5
E4
330
18
100
AcDbEntity
  8
0010010007
100
AcDbLine
 10
-383.848737372124
 20
599.99999987073
 30
0.0
 11
-305.848737041846
 21
599.99999987073
 31
0.0
  0
LINE
  5
E5
330
18
100
AcDbEntity
  8
0010010007
100
AcDbLine
 10
-383.848737022787
 20
582.999999874724
 30
0.0
 11
-336.848737034513
 21
582.999999874724
 31
0.0
  0
ARC
  5
E6
330
18
100
AcDbEntity
  8
0010010007
100
AcDbCircle
 10
-383.848737022787
 20
584.999999874257
 30
0.0
 40
1.99999999953002
100
AcDbArc
 50
180.0
 51
270.0
  0
ARC
  5
E7
330
18
100
AcDbEntity
  8
0010010007
100
AcDbCircle
 10
-336.848737034519
 20
581.999999874959
 30
0.0
 40
0.999999999765008
100
AcDbArc
 50
0.0001782028217576
 51
89.99999999965471
  0
LINE
  5
E8
330
18
100
AcDbEntity
  8
0010010007
100
AcDbLine
 10
-335.84873703477
 20
289.999999937714
 30
0.0
 11
-335.84873703477
 21
582.000002985185
 31
0.0
  0
LINE
  5
E9
330
18
100
AcDbEntity
  8
0010010007
100
AcDbLine
 10
-335.84873703477
 20
289.999999937712
 30
0.0
 11
-335.84873703477
 21
1.999999479425071
 31
0.0
  0
LINE
  5
EA
330
18
100
AcDbEntity
  8
0010010007
100
AcDbLine
 10
-333.848737035218
 20
0.0
 30
0.0
 11
-307.848737041355
 21
0.0
 31
0.0
  0
ARC
  5
EB
330
18
100
AcDbEntity
  8
0010010007
100
AcDbCircle
 10
-333.848737035272
 20
1.99999999952888
 30
0.0
 40
1.99999999953008
100
AcDbArc
 50
180.000014899878
 51
270.000000000744
  0
ARC
  5
EC
330
18
100
AcDbEntity
  8
0010010007
100
AcDbCircle
 10
-307.848737041344
 20
1.99999999952888
 30
0.0
 40
1.99999999953002
100
AcDbArc
 50
270.0
 51
359.999999999199
  0
ARC
  5
ED
330
18
100
AcDbEntity
  8
0010010007
100
AcDbCircle
 10
-383.848737022787
 20
597.999999871197
 30
0.0
 40
1.99999999953002
100
AcDbArc
 50
90.00001000768241
 51
180.0
  0
LINE
  5
EE
330
18
100
AcDbEntity
  8
0030010002
100
AcDbLine
 10
-335.84873703477
 20
0.999999479423423
 30
0.0
 11
-335.84873703477
 21
-101.0
 31
0.0
  0
LINE
  5
EF
330
18
100
AcDbEntity
  8
0030010002
100
AcDbLine
 10
-305.848737041846
 20
0.999999999501085
 30
0.0
 11
-305.848737041846
 21
-101.0
 31
0.0
  0
SOLID
  5
F0
330
18
100
AcDbEntity
  8
0030010002
100
AcDbTrace
 10
-355.374657177169
 20
-95.67120772123781
 30
0.0
 11
-355.374657177169
 21
-104.328792278762
 31
0.0
 12
-335.84873703477
 22
-99.9999999999998
 32
0.0
 13
-335.84873703477
 23
-99.9999999999998
 33
0.0
  0
LINE
  5
F1
330
18
100
AcDbEntity
  8
0030010002
100
AcDbLine
 10
-336.84873703477
 20
-99.9999999999998
 30
0.0
 11
-335.84873703477
 21
-99.9999999999998
 31
0.0
  0
SOLID
  5
F2
330
18
100
AcDbEntity
  8
0030010002
100
AcDbTrace
 10
-286.322816899447
 20
-104.328792278762
 30
0.0
 11
-286.322816899447
 21
-95.67120772123781
 31
0.0
 12
-305.848737041846
 22
-99.9999999999998
 32
0.0
 13
-305.848737041846
 23
-99.9999999999998
 33
0.0
  0
LINE
  5
F3
330
18
100
AcDbEntity
  8
0030010002
100
AcDbLine
 10
-304.848737041846
 20
-99.9999999999998
 30
0.0
 11
-305.848737041846
 21
-99.9999999999998
 31
0.0
  0
TEXT
  5
F4
330
18
100
AcDbEntity
  8
0030010002
100
AcDbText
 10
-271.643763092914
 20
-86.73261087569701
 30
0.0
 40
30.0000019073486
  1
30
 41
0.75
100
AcDbText
  0
LINE
  5
F5
330
18
100
AcDbEntity
  8
0030010002
100
AcDbLine
 10
-352.001856875768
 20
-100.0
 30
0.0
 11
-225.610483964502
 21
-100.0
 31
0.0
  0
LINE
  5
F6
330
18
100
AcDbEntity
  8
0030010002
100
AcDbLine
 10
-317.57696987539
 20
699.99999987073
 30
0.0
 11
-405.240344911232
 21
699.99999987073
 31
0.0
  0
LINE
  5
F7
330
18
100
AcDbEntity
  8
0030010002
100
AcDbLine
 10
-384.848737372124
 20
599.99999987073
 30
0.0
 11
-486.848737022321
 21
599.99999987073
 31
0.0
  0
LINE
  5
F8
330
18
100
AcDbEntity
  8
0030010002
100
AcDbLine
 10
-384.848737022787
 20
582.999999874724
 30
0.0
 11
-486.848737022321
 21
582.999999874724
 31
0.0
  0
SOLID
  5
F9
330
18
100
AcDbEntity
  8
0030010002
100
AcDbTrace
 10
-481.519944743559
 20
619.5259200131291
 30
0.0
 11
-490.177529301083
 21
619.5259200131291
 31
0.0
 12
-485.848737022321
 22
599.99999987073
 32
0.0
 13
-485.848737022321
 23
599.99999987073
 33
0.0
  0
LINE
  5
FA
330
18
100
AcDbEntity
  8
0030010002
100
AcDbLine
 10
-485.848737022321
 20
600.99999987073
 30
0.0
 11
-485.848737022321
 21
599.99999987073
 31
0.0
  0
SOLID
  5
FB
330
18
100
AcDbEntity
  8
0030010002
100
AcDbTrace
 10
-490.177529301083
 20
563.474079732326
 30
0.0
 11
-481.519944743559
 21
563.474079732326
 31
0.0
 12
-485.848737022321
 22
582.999999874724
 32
0.0
 13
-485.848737022321
 23
582.999999874724
 33
0.0
  0
LINE
  5
FC
330
18
100
AcDbEntity
  8
0030010002
100
AcDbLine
 10
-485.848737022321
 20
581.999999874724
 30
0.0
 11
-485.848737022321
 21
582.999999874724
 31
0.0
  0
TEXT
  5
FD
330
18
100
AcDbEntity
  8
0030010002
100
AcDbText
 10
-498.610014043101
 20
624.945740422236
 30
0.0
 40
30.0000019073486
  1
17
 50
90.0
 41
0.75
100
AcDbText
  0
LINE
  5
FE
330
18
100
AcDbEntity
  8
0030010002
100
AcDbLine
 10
-485.848737022321
 20
566.903779782066
 30
0.0
 11
-485.848737022321
 21
665.775257562216
 31
0.0
  0
LINE
  5
FF
330
18
100
AcDbEntity
  8
0030010002
100
AcDbLine
 10
-385.848737022321
 20
598.9999998712
 30
0.0
 11
-385.848737022321
 21
700.99999987073
 31
0.0
  0
LINE
  5
100
330
18
100
AcDbEntity
  8
0030010002
100
AcDbLine
 10
-335.84873703477
 20
583.000002985185
 30
0.0
 11
-335.84873703477
 21
700.99999987073
 31
0.0
  0
SOLID
  5
101
330
18
100
AcDbEntity
  8
0030010002
100
AcDbTrace
 10
-405.37465716472
 20
704.328792149492
 30
0.0
 11
-405.37465716472
 21
695.671207591968
 31
0.0
 12
-385.848737022321
 22
699.99999987073
 32
0.0
 13
-385.848737022321
 23
699.99999987073
 33
0.0
  0
LINE
  5
102
330
18
100
AcDbEntity
  8
0030010002
100
AcDbLine
 10
-386.848737022321
 20
699.99999987073
 30
0.0
 11
-385.848737022321
 21
699.99999987073
 31
0.0
  0
SOLID
  5
103
330
18
100
AcDbEntity
  8
0030010002
100
AcDbTrace
 10
-316.322816892372
 20
695.671207591968
 30
0.0
 11
-316.322816892372
 21
704.328792149492
 31
0.0
 12
-335.84873703477
 22
699.99999987073
 32
0.0
 13
-335.84873703477
 23
699.99999987073
 33
0.0
  0
LINE
  5
104
330
18
100
AcDbEntity
  8
0030010002
100
AcDbLine
 10
-334.84873703477
 20
699.99999987073
 30
0.0
 11
-335.84873703477
 21
699.99999987073
 31
0.0
  0
TEXT
  5
105
330
18
100
AcDbEntity
  8
0030010002
100
AcDbText
 10
-380.12159607644
 20
714.507399794303
 30
0.0
 40
30.0000019073486
  1
50
 41
0.75
100
AcDbText
  0
LINE
  5
106
330
18
100
AcDbEntity
  8
0010010007
100
AcDbLine
 10
-170.354398586667
 20
334.134992308088
 30
0.0
 11
-170.35439858668
 21
289.284992318628
 31
0.0
  0
LINE
  5
107
330
18
100
AcDbEntity
  8
0010010007
100
AcDbLine
 10
-173.798827830131
 20
346.989777247837
 30
0.0
 11
-175.148737034772
 21
350.910198243833
 31
0.0
  0
LINE
  5
108
330
18
100
AcDbEntity
  8
0010010007
100
AcDbLine
 10
-173.798827830131
 20
346.989777247837
 30
0.0
 11
-170.354398586653
 21
334.134992308086
 31
0.0
  0
LINE
  5
109
330
18
100
AcDbEntity
  8
0010010007
100
AcDbLine
 10
-170.354398586667
 20
244.434992329167
 30
0.0
 11
-170.354398586655
 21
289.284992318628
 31
0.0
  0
LINE
  5
10A
330
18
100
AcDbEntity
  8
0010010007
100
AcDbLine
 10
-173.798827830185
 20
231.580207389418
 30
0.0
 11
-175.148737034829
 21
227.659786393422
 31
0.0
  0
LINE
  5
10B
330
18
100
AcDbEntity
  8
0010010007
100
AcDbLine
 10
-175.148737034786
 20
227.659786393425
 30
0.0
 11
-177.302953809998
 21
145.393566756281
 31
0.0
  0
ARC
  5
10C
330
18
100
AcDbEntity
  8
0010010007
100
AcDbCircle
 10
-232.983866798048
 20
146.851622776691
 30
0.0
 40
55.6999999869109
100
AcDbArc
 50
274.239809999021
 51
358.5
  0
LINE
  5
10D
330
18
100
AcDbEntity
  8
0010010007
100
AcDbLine
 10
-175.148737034786
 20
350.910198243832
 30
0.0
 11
-177.302953809782
 21
433.176417880814
 31
0.0
  0
ARC
  5
10E
330
18
100
AcDbEntity
  8
0010010007
100
AcDbCircle
 10
-232.983866797811
 20
431.718361860555
 30
0.0
 40
55.6999999869109
100
AcDbArc
 50
1.49999999985221
 51
85.7601900009644
  0
ARC
  5
10F
330
18
100
AcDbEntity
  8
0010010007
100
AcDbCircle
 10
-302.848783694633
 20
-510.695503151671
 30
0.0
 40
1000.69999976484
100
AcDbArc
 50
85.76019000096451
 51
90.1717646877499
  0
LINE
  5
110
330
18
100
AcDbEntity
  8
0010010007
100
AcDbLine
 10
-170.354398586667
 20
334.134992308088
 30
0.0
 11
-170.35439858668
 21
289.284992318628
 31
0.0
  0
LINE
  5
111
330
18
100
AcDbEntity
  8
0010010007
100
AcDbLine
 10
-173.798827830131
 20
346.989777247837
 30
0.0
 11
-170.354398586653
 21
334.134992308086
 31
0.0
  0
LINE
  5
112
330
18
100
AcDbEntity
  8
0010010007
100
AcDbLine
 10
-170.354398586667
 20
244.434992329167
 30
0.0
 11
-170.354398586655
 21
289.284992318628
 31
0.0
  0
LINE
  5
113
330
18
100
AcDbEntity
  8
0010010007
100
AcDbLine
 10
-173.798827830185
 20
231.580207389418
 30
0.0
 11
-175.148737034829
 21
227.659786393422
 31
0.0
  0
LINE
  5
114
330
18
100
AcDbEntity
  8
0010010007
100
AcDbLine
 10
-173.798827830185
 20
231.580207389418
 30
0.0
 11
-170.354398586701
 21
244.434992329167
 31
0.0
  0
LINE
  5
115
330
18
100
AcDbEntity
  8
0010010007
100
AcDbLine
 10
-175.148737034786
 20
227.659786393425
 30
0.0
 11
-177.302953809998
 21
145.393566756281
 31
0.0
  0
ARC
  5
116
330
18
100
AcDbEntity
  8
0010010007
100
AcDbCircle
 10
-232.983866798048
 20
146.851622776691
 30
0.0
 40
55.6999999869109
100
AcDbArc
 50
274.239809999021
 51
358.5
  0
ARC
  5
117
330
18
100
AcDbEntity
  8
0010010007
100
AcDbCircle
 10
-302.848783694633
 20
1089.26548778894
 30
0.0
 40
1000.69999976484
100
AcDbArc
 50
269.82823531225
 51
274.239809999021
  0
LINE
  5
118
330
18
100
AcDbEntity
  8
0010010007
100
AcDbLine
 10
-175.148737034786
 20
350.910198243832
 30
0.0
 11
-177.302953809782
 21
433.176417880814
 31
0.0
  0
ARC
  5
119
330
18
100
AcDbEntity
  8
0010010007
100
AcDbCircle
 10
-232.983866797811
 20
431.718361860555
 30
0.0
 40
55.6999999869109
100
AcDbArc
 50
1.49999999985221
 51
85.7601900009644
  0
LINE
  5
11A
330
18
100
AcDbEntity
  8
0010010007
100
AcDbLine
 10
-173.798827830131
 20
346.989777247837
 30
0.0
 11
-173.798827830185
 21
231.580207389418
 31
0.0
  0
LINE
  5
11B
330
18
100
AcDbEntity
  8
0010010007
100
AcDbLine
 10
-175.148737034826
 20
227.659786393422
 30
0.0
 11
-175.148737034769
 21
350.910198243832
 31
0.0
  0
LINE
  5
11C
330
18
100
AcDbEntity
  8
0030010002
100
AcDbLine
 10
0.0
 20
600.999999859005
 30
0.0
 11
0.0
 21
700.999999858999
 31
0.0
  0
LINE
  5
11D
330
18
100
AcDbEntity
  8
0030010002
100
AcDbLine
 10
1199.99999971801
 20
600.999999859005
 30
0.0
 11
1199.99999971801
 21
700.999999858999
 31
0.0
  0
SOLID
  5
11E
330
18
100
AcDbEntity
  8
0030010002
100
AcDbTrace
 10
19.5259201424096
 20
695.671207580237
 30
0.0
 11
19.5259201424096
 21
704.328792137761
 31
0.0
 12
0.0
 22
699.999999858999
 32
0.0
 13
0.0
 23
699.999999858999
 33
0.0
  0
SOLID
  5
11F
330
18
100
AcDbEntity
  8
0030010002
100
AcDbTrace
 10
1180.47407957561
 20
704.328792137761
 30
0.0
 11
1180.47407957561
 21
695.671207580237
 31
0.0
 12
1199.99999971801
 22
699.999999858999
 32
0.0
 13
1199.99999971801
 23
699.999999858999
 33
0.0
  0
LINE
  5
120
330
18
100
AcDbEntity
  8
0030010002
100
AcDbLine
 10
0.0
 20
699.999999858999
 30
0.0
 11
1199.99999971801
 21
699.999999858999
 31
0.0
  0
TEXT
  5
121
330
18
100
AcDbEntity
  8
0030010002
100
AcDbText
 10
558.749999736407
 20
715.000000812674
 30
0.0
 40
30.0000019073486
  1
1200
 41
0.75
100
AcDbText
  0
LINE
  5
122
330
18
100
AcDbEntity
  8
0030010002
100
AcDbLine
 10
1200.99999971801
 20
599.999999859005
 30
0.0
 11
1300.99999971802
 21
599.999999859005
 31
0.0
  0
LINE
  5
123
330
18
100
AcDbEntity
  8
0030010002
100
AcDbLine
 10
1200.99999971801
 20
0.0
 30
0.0
 11
1300.99999971802
 21
0.0
 31
0.0
  0
SOLID
  5
124
330
18
100
AcDbEntity
  8
0030010002
100
AcDbTrace
 10
1295.67120743926
 20
580.474079716606
 30
0.0
 11
1304.32879199678
 21
580.474079716606
 31
0.0
 12
1299.99999971802
 22
599.999999859005
 32
0.0
 13
1299.99999971802
 23
599.999999859005
 33
0.0
  0
SOLID
  5
125
330
18
100
AcDbEntity
  8
0030010002
100
AcDbTrace
 10
1304.32879199678
 20
19.5259201423987
 30
0.0
 11
1295.67120743926
 21
19.5259201423987
 31
0.0
 12
1299.99999971802
 22
0.0
 32
0.0
 13
1299.99999971802
 23
0.0
 33
0.0
  0
LINE
  5
126
330
18
100
AcDbEntity
  8
0030010002
100
AcDbLine
 10
1299.99999971802
 20
599.999999859005
 30
0.0
 11
1299.99999971802
 21
0.0
 31
0.0
  0
TEXT
  5
127
330
18
100
AcDbEntity
  8
0030010002
100
AcDbText
 10
1284.99999876435
 20
269.999995522154
 30
0.0
 40
30.0000019073486
  1
600
 50
90.0
 41
0.75
100
AcDbText
  0
LINE
  5
128
330
18
100
AcDbEntity
  8
0030010002
100
AcDbLine
 10
-335.84873703477
 20
583.000002985185
 30
0.0
 11
-335.84873703477
 21
700.99999987073
 31
0.0
  0
LINE
  5
129
330
18
100
AcDbEntity
  8
0030010002
100
AcDbLine
 10
-175.148737034786
 20
351.910198243832
 30
0.0
 11
-175.148737034786
 21
700.99999987073
 31
0.0
  0
SOLID
  5
12A
330
18
100
AcDbEntity
  8
0030010002
100
AcDbTrace
 10
-316.322816892372
 20
695.671207591968
 30
0.0
 11
-316.322816892372
 21
704.328792149492
 31
0.0
 12
-335.84873703477
 22
699.99999987073
 32
0.0
 13
-335.84873703477
 23
699.99999987073
 33
0.0
  0
SOLID
  5
12B
330
18
100
AcDbEntity
  8
0030010002
100
AcDbTrace
 10
-194.674657177185
 20
704.328792149492
 30
0.0
 11
-194.674657177185
 21
695.671207591968
 31
0.0
 12
-175.148737034786
 22
699.99999987073
 32
0.0
 13
-175.148737034786
 23
699.99999987073
 33
0.0
  0
LINE
  5
12C
330
18
100
AcDbEntity
  8
0030010002
100
AcDbLine
 10
-335.84873703477
 20
699.99999987073
 30
0.0
 11
-175.148737034786
 21
699.99999987073
 31
0.0
  0
TEXT
  5
12D
330
18
100
AcDbEntity
  8
0030010002
100
AcDbText
 10
-285.498736442127
 20
715.000000824404
 30
0.0
 40
30.0000019073486
  1
160
 41
0.75
100
AcDbText
  0
TEXT
  5
12E
330
18
100
AcDbEntity
  8
0030010002
100
AcDbText
 10
448.366143199932
 20
178.666953012999
 30
0.0
 40
30.0000019073486
  1
CUBA 340x400
 41
0.75
100
AcDbText
  0
TEXT
  5
12F
330
18
100
AcDbEntity
  8
0030010002
100
AcDbText
 10
843.768494278684
 20
176.984389816919
 30
0.0
 40
30.0000019073486
  1
CUBA 340x400
 41
0.75
100
AcDbText
  0
ENDSEC
  0
SECTION
  2
OBJECTS
  0
DICTIONARY
  5
C
330
0
100
AcDbDictionary
281
     1
  3
ACAD_GROUP
350
D
  3
ACAD_LAYOUT
350
15
  3
ACAD_MLINESTYLE
350
12
  3
ACAD_PLOTSETTINGS
350
14
  3
ACAD_PLOTSTYLENAME
350
E
  3
ACAD_TABLESTYLE
350
131
  3
AcDbVariableDictionary
350
133
  0
DICTIONARY
  5
D
102
{ACAD_REACTORS
330
C
102
}
330
C
100
AcDbDictionary
281
     1
  0
DICTIONARY
  5
15
102
{ACAD_REACTORS
330
C
102
}
330
C
100
AcDbDictionary
281
     1
  3
Layout1
350
17
  3
Model
350
19
  0
DICTIONARY
  5
12
102
{ACAD_REACTORS
330
C
102
}
330
C
100
AcDbDictionary
281
     1
  3
Standard
350
13
  0
DICTIONARY
  5
14
102
{ACAD_REACTORS
330
C
102
}
330
C
100
AcDbDictionary
281
     1
  0
ACDBDICTIONARYWDFLT
  5
E
102
{ACAD_REACTORS
330
C
102
}
330
C
100
AcDbDictionary
281
     1
  3
Normal
350
F
100
AcDbDictionaryWithDefault
340
F
  0
DICTIONARY
  5
131
102
{ACAD_REACTORS
330
C
102
}
330
C
100
AcDbDictionary
281
     1
  3
Standard
350
132
  0
DICTIONARY
  5
133
102
{ACAD_REACTORS
330
C
102
}
330
C
100
AcDbDictionary
281
     1
  3
CTABLESTYLE
350
134
  0
LAYOUT
  5
17
102
{ACAD_REACTORS
330
15
102
}
330
15
100
AcDbPlotSettings
  1

  2

  4

  6

 40
0.0
 41
0.0
 42
0.0
 43
0.0
 44
0.0
 45
0.0
 46
0.0
 47
0.0
 48
0.0
 49
0.0
140
0.0
141
0.0
142
1.0
143
1.0
 70
   688
 72
     0
 73
     0
 74
     5
  7

 75
    16
147
1.0
148
0.0
149
0.0
100
AcDbLayout
  1
Layout1
 70
     1
 71
     1
 10
0.0
 20
0.0
 11
12.0
 21
9.0
 12
0.0
 22
0.0
 32
0.0
 14
1.000000000000000E+20
 24
1.000000000000000E+20
 34
1.000000000000000E+20
 15
-1.000000000000000E+20
 25
-1.000000000000000E+20
 35
-1.000000000000000E+20
146
0.0
 13
0.0
 23
0.0
 33
0.0
 16
1.0
 26
0.0
 36
0.0
 17
0.0
 27
1.0
 37
0.0
 76
     0
330
16
  0
LAYOUT
  5
19
102
{ACAD_REACTORS
330
15
102
}
330
15
100
AcDbPlotSettings
  1

  2

  4

  6

 40
0.0
 41
0.0
 42
0.0
 43
0.0
 44
0.0
 45
0.0
 46
0.0
 47
0.0
 48
0.0
 49
0.0
140
0.0
141
0.0
142
1.0
143
1.0
 70
  1712
 72
     0
 73
     0
 74
     0
  7

 75
     0
147
1.0
148
0.0
149
0.0
100
AcDbLayout
  1
Model
 70
     1
 71
     0
 10
0.0
 20
0.0
 11
0.0
 21
0.0
 12
0.0
 22
0.0
 32
0.0
 14
-32.05
 24
-32.05
 34
0.0
 15
1258.45
 25
893.05
 35
0.0
146
0.0
 13
0.0
 23
0.0
 33
0.0
 16
1.0
 26
0.0
 36
0.0
 17
0.0
 27
1.0
 37
0.0
 76
     0
330
18
  0
MLINESTYLE
  5
13
102
{ACAD_REACTORS
330
12
102
}
330
12
100
AcDbMlineStyle
  2
Standard
 70
     0
  3

 62
   256
 51
90.0
 52
90.0
 71
     2
 49
0.5
 62
   256
  6
BYLAYER
 49
-0.5
 62
   256
  6
BYLAYER
  0
ACDBPLACEHOLDER
  5
F
102
{ACAD_REACTORS
330
E
102
}
330
E
  0
TABLESTYLE
  5
132
102
{ACAD_REACTORS
330
131
102
}
330
131
100
AcDbTableStyle
  3
Standard
 70
     0
 71
     0
 40
0.06
 41
0.06
280
     0
281
     0
  7
STANDARD
140
0.18
170
     2
 62
     0
 63
     7
283
     0
274
    -2
284
     1
 64
     0
275
    -2
285
     1
 65
     0
276
    -2
286
     1
 66
     0
277
    -2
287
     1
 67
     0
278
    -2
288
     1
 68
     0
279
    -2
289
     1
 69
     0
  7
STANDARD
140
0.25
170
     5
 62
     0
 63
     7
283
     0
274
    -2
284
     1
 64
     0
275
    -2
285
     1
 65
     0
276
    -2
286
     1
 66
     0
277
    -2
287
     1
 67
     0
278
    -2
288
     1
 68
     0
279
    -2
289
     1
 69
     0
  7
STANDARD
140
0.18
170
     5
 62
     0
 63
     7
283
     0
274
    -2
284
     1
 64
     0
275
    -2
285
     1
 65
     0
276
    -2
286
     1
 66
     0
277
    -2
287
     1
 67
     0
278
    -2
288
     1
 68
     0
279
    -2
289
     1
 69
     0
  0
DICTIONARYVAR
  5
134
102
{ACAD_REACTORS
330
133
102
}
330
133
100
DictionaryVariables
280
     0
  1
Standard
  0
ENDSEC
  0
EOF
