  0
SECTION
  2
HEADER
  9
$ACADVER
  1
AC1015
  9
$ACADMAINTVER
 70
     6
  9
$DWGCODEPAGE
  3
UNDEFINED
  9
$INSBASE
 10
0.0
 20
0.0
 30
0.0
  9
$EXTMIN
 10
-32.05
 20
-32.05
 30
0.0
  9
$EXTMAX
 10
1258.45
 20
893.05
 30
0.0
  9
$LIMMIN
 10
-32.05
 20
-32.05
  9
$LIMMAX
 10
1258.45
 20
893.05
  9
$ORTHOMODE
 70
     0
  9
$REGENMODE
 70
     1
  9
$FILLMODE
 70
     1
  9
$QTEXTMODE
 70
     0
  9
$MIRRTEXT
 70
     1
  9
$LTSCALE
 40
1.0
  9
$ATTMODE
 70
     1
  9
$TEXTSIZE
 40
3.0
  9
$TRACEWID
 40
0.05
  9
$TEXTSTYLE
  7
STANDARD
  9
$CLAYER
  8
0
  9
$CELTYPE
  6
ByBlock
  9
$CECOLOR
 62
   256
  9
$CELTSCALE
 40
1.0
  9
$DISPSILH
 70
     0
  9
$DIMSCALE
 40
1.0
  9
$DIMASZ
 40
19.5259201423987
  9
$DIMEXO
 40
1.0
  9
$DIMDLI
 40
0.38
  9
$DIMRND
 40
0.0
  9
$DIMDLE
 40
0.0
  9
$DIMEXE
 40
1.0
  9
$DIMTP
 40
0.0
  9
$DIMTM
 40
0.0
  9
$DIMTXT
 40
3.0
  9
$DIMCEN
 40
1.0
  9
$DIMTSZ
 40
0.0
  9
$DIMTOL
 70
     0
  9
$DIMLIM
 70
     0
  9
$DIMTIH
 70
     1
  9
$DIMTOH
 70
     1
  9
$DIMSE1
 70
     0
  9
$DIMSE2
 70
     0
  9
$DIMTAD
 70
     0
  9
$DIMZIN
 70
     0
  9
$DIMBLK
  1

  9
$DIMASO
 70
     1
  9
$DIMSHO
 70
     1
  9
$DIMPOST
  1

  9
$DIMAPOST
  1

  9
$DIMALT
 70
     0
  9
$DIMALTD
 70
     2
  9
$DIMALTF
 40
25.4
  9
$DIMLFAC
 40
1.0
  9
$DIMTOFL
 70
     0
  9
$DIMTVP
 40
0.0
  9
$DIMTIX
 70
     0
  9
$DIMSOXD
 70
     0
  9
$DIMSAH
 70
     0
  9
$DIMBLK1
  1

  9
$DIMBLK2
  1

  9
$DIMSTYLE
  2
Standard
  9
$DIMCLRD
 70
     0
  9
$DIMCLRE
 70
     0
  9
$DIMCLRT
 70
     0
  9
$DIMTFAC
 40
1.0
  9
$DIMGAP
 40
0.09
  9
$DIMJUST
 70
     0
  9
$DIMSD1
 70
     0
  9
$DIMSD2
 70
     0
  9
$DIMTOLJ
 70
     1
  9
$DIMTZIN
 70
     0
  9
$DIMALTZ
 70
     0
  9
$DIMALTTZ
 70
     0
  9
$DIMUPT
 70
     0
  9
$DIMDEC
 70
     4
  9
$DIMTDEC
 70
     4
  9
$DIMALTU
 70
     2
  9
$DIMALTTD
 70
     2
  9
$DIMTXSTY
  7
STANDARD
  9
$DIMAUNIT
 70
     0
  9
$DIMADEC
 70
     0
  9
$DIMALTRND
 40
0.0
  9
$DIMAZIN
 70
     0
  9
$DIMDSEP
 70
    46
  9
$DIMATFIT
 70
     3
  9
$DIMFRAC
 70
     0
  9
$DIMLDRBLK
  1

  9
$DIMLUNIT
 70
     2
  9
$DIMLWD
 70
    -2
  9
$DIMLWE
 70
    -2
  9
$DIMTMOVE
 70
     0
  9
$LUNITS
 70
     2
  9
$LUPREC
 70
     4
  9
$SKETCHINC
 40
0.1
  9
$FILLETRAD
 40
0.0
  9
$AUNITS
 70
     0
  9
$AUPREC
 70
     4
  9
$MENU
  1
acad
  9
$ELEVATION
 40
0.0
  9
$PELEVATION
 40
0.0
  9
$THICKNESS
 40
0.0
  9
$LIMCHECK
 70
     0
  9
$CHAMFERA
 40
0.0
  9
$CHAMFERB
 40
0.0
  9
$CHAMFERC
 40
1.0
  9
$CHAMFERD
 40
0.0
  9
$SKPOLY
 70
     0
  9
$TDCREATE
 40
2453859.441221065
  9
$TDUCREATE
 40
2453859.566221065
  9
$TDUPDATE
 40
2453859.441221077
  9
$TDUUPDATE
 40
2453859.566221077
  9
$TDINDWG
 40
0.0000000116
  9
$TDUSRTIMER
 40
0.0000000116
  9
$USRTIMER
 70
     1
  9
$ANGBASE
 50
0.0
  9
$ANGDIR
 70
     0
  9
$PDMODE
 70
     0
  9
$PDSIZE
 40
0.0
  9
$PLINEWID
 40
0.0
  9
$SPLFRAME
 70
     0
  9
$SPLINETYPE
 70
     6
  9
$SPLINESEGS
 70
     8
  9
$HANDSEED
  5
1AB
  9
$SURFTAB1
 70
     6
  9
$SURFTAB2
 70
     6
  9
$SURFTYPE
 70
     6
  9
$SURFU
 70
     6
  9
$SURFV
 70
     6
  9
$UCSBASE
  2

  9
$UCSNAME
  2

  9
$UCSORG
 10
0.0
 20
0.0
 30
0.0
  9
$UCSXDIR
 10
1.0
 20
0.0
 30
0.0
  9
$UCSYDIR
 10
0.0
 20
1.0
 30
0.0
  9
$UCSORTHOREF
  2

  9
$UCSORTHOVIEW
 70
     0
  9
$UCSORGTOP
 10
0.0
 20
0.0
 30
0.0
  9
$UCSORGBOTTOM
 10
0.0
 20
0.0
 30
0.0
  9
$UCSORGLEFT
 10
0.0
 20
0.0
 30
0.0
  9
$UCSORGRIGHT
 10
0.0
 20
0.0
 30
0.0
  9
$UCSORGFRONT
 10
0.0
 20
0.0
 30
0.0
  9
$UCSORGBACK
 10
0.0
 20
0.0
 30
0.0
  9
$PUCSBASE
  2

  9
$PUCSNAME
  2

  9
$PUCSORG
 10
0.0
 20
0.0
 30
0.0
  9
$PUCSXDIR
 10
1.0
 20
0.0
 30
0.0
  9
$PUCSYDIR
 10
0.0
 20
1.0
 30
0.0
  9
$PUCSORTHOREF
  2

  9
$PUCSORTHOVIEW
 70
     0
  9
$PUCSORGTOP
 10
0.0
 20
0.0
 30
0.0
  9
$PUCSORGBOTTOM
 10
0.0
 20
0.0
 30
0.0
  9
$PUCSORGLEFT
 10
0.0
 20
0.0
 30
0.0
  9
$PUCSORGRIGHT
 10
0.0
 20
0.0
 30
0.0
  9
$PUCSORGFRONT
 10
0.0
 20
0.0
 30
0.0
  9
$PUCSORGBACK
 10
0.0
 20
0.0
 30
0.0
  9
$USERI1
 70
     0
  9
$USERI2
 70
     0
  9
$USERI3
 70
     0
  9
$USERI4
 70
     0
  9
$USERI5
 70
     0
  9
$USERR1
 40
0.0
  9
$USERR2
 40
0.0
  9
$USERR3
 40
0.0
  9
$USERR4
 40
0.0
  9
$USERR5
 40
0.0
  9
$WORLDVIEW
 70
     1
  9
$SHADEDGE
 70
     3
  9
$SHADEDIF
 70
    70
  9
$TILEMODE
 70
     1
  9
$MAXACTVP
 70
    64
  9
$PINSBASE
 10
0.0
 20
0.0
 30
0.0
  9
$PLIMCHECK
 70
     0
  9
$PEXTMIN
 10
1.000000000000000E+20
 20
1.000000000000000E+20
 30
1.000000000000000E+20
  9
$PEXTMAX
 10
-1.000000000000000E+20
 20
-1.000000000000000E+20
 30
-1.000000000000000E+20
  9
$PLIMMIN
 10
0.0
 20
0.0
  9
$PLIMMAX
 10
12.0
 20
9.0
  9
$UNITMODE
 70
     0
  9
$VISRETAIN
 70
     1
  9
$PLINEGEN
 70
     0
  9
$PSLTSCALE
 70
     1
  9
$TREEDEPTH
 70
  3020
  9
$CMLSTYLE
  2
Standard
  9
$CMLJUST
 70
     0
  9
$CMLSCALE
 40
1.0
  9
$PROXYGRAPHICS
 70
     1
  9
$MEASUREMENT
 70
     0
  9
$CELWEIGHT
370
    -1
  9
$ENDCAPS
280
     0
  9
$JOINSTYLE
280
     0
  9
$LWDISPLAY
290
     0
  9
$INSUNITS
 70
     0
  9
$HYPERLINKBASE
  1

  9
$STYLESHEET
  1

  9
$XEDIT
290
     1
  9
$CEPSNTYPE
380
     0
  9
$PSTYLEMODE
290
     0
  9
$FINGERPRINTGUID
  2
{FAEB1C30-E019-11D5-929B-00C0DF256EC4}
  9
$VERSIONGUID
  2
{FAEB1C32-E019-11D5-929B-00C0DF256EC4}
  9
$EXTNAMES
290
     1
  9
$PSVPSCALE
 40
0.0
  9
$OLESTARTUP
290
     0
  0
ENDSEC
  0
SECTION
  2
CLASSES
  0
CLASS
  1
ACDBDICTIONARYWDFLT
  2
AcDbDictionaryWithDefault
  3
ObjectDBX Classes
 90
        0
280
     0
281
     0
  0
CLASS
  1
TABLESTYLE
  2
AcDbTableStyle
  3
ObjectDBX Classes
 90
     2047
280
     0
281
     0
  0
CLASS
  1
DICTIONARYVAR
  2
AcDbDictionaryVar
  3
ObjectDBX Classes
 90
        0
280
     0
281
     0
  0
CLASS
  1
ACDBPLACEHOLDER
  2
AcDbPlaceHolder
  3
ObjectDBX Classes
 90
        0
280
     0
281
     0
  0
CLASS
  1
LAYOUT
  2
AcDbLayout
  3
ObjectDBX Classes
 90
        0
280
     0
281
     0
  0
ENDSEC
  0
SECTION
  2
TABLES
  0
TABLE
  2
VPORT
  5
8
330
0
100
AcDbSymbolTable
 70
     1
  0
VPORT
  5
1A2
330
8
100
AcDbSymbolTableRecord
100
AcDbViewportTableRecord
  2
*Active
 70
     0
 10
0.0
 20
0.0
 11
1.0
 21
1.0
 12
10.42990654205607
 22
4.5
 13
0.0
 23
0.0
 14
0.5
 24
0.5
 15
0.5
 25
0.5
 16
0.0
 26
0.0
 36
1.0
 17
0.0
 27
0.0
 37
0.0
 40
9.0
 41
1.972972972850329
 42
50.0
 43
0.0
 44
0.0
 50
0.0
 51
0.0
 71
     0
 72
   100
 73
     1
 74
     3
 75
     0
 76
     0
 77
     0
 78
     0
281
     0
 65
     1
110
0.0
120
0.0
130
0.0
111
1.0
121
0.0
131
0.0
112
0.0
122
1.0
132
0.0
 79
     0
146
0.0
  0
ENDTAB
  0
TABLE
  2
LTYPE
  5
5
330
0
100
AcDbSymbolTable
 70
     9
  0
LTYPE
  5
10
330
5
100
AcDbSymbolTableRecord
100
AcDbLinetypeTableRecord
  2
ByBlock
 70
     0
  3

 72
    65
 73
     0
 40
0.0
  0
LTYPE
  5
11
330
5
100
AcDbSymbolTableRecord
100
AcDbLinetypeTableRecord
  2
ByLayer
 70
     0
  3

 72
    65
 73
     0
 40
0.0
  0
LTYPE
  5
1B
330
5
100
AcDbSymbolTableRecord
100
AcDbLinetypeTableRecord
  2
CONTINUOUS
 70
     0
  3
Solid line
 72
    65
 73
     0
 40
0.0
  0
LTYPE
  5
1C
330
5
100
AcDbSymbolTableRecord
100
AcDbLinetypeTableRecord
  2
HIDDEN
 70
     0
  3
_ _ _ _ _ _ _ _ _ _ _ _ _ _ _ _ _ _ _ _ 
 72
    65
 73
     2
 40
0.375
 49
0.25
 74
     0
 49
-0.125
 74
     0
  0
LTYPE
  5
1D
330
5
100
AcDbSymbolTableRecord
100
AcDbLinetypeTableRecord
  2
DASHED
 70
     0
  3
__ __ __ __ __ __ __ __ __ __ __ __ __  
 72
    65
 73
     2
 40
0.75
 49
0.5
 74
     0
 49
-0.25
 74
     0
  0
LTYPE
  5
1E
330
5
100
AcDbSymbolTableRecord
100
AcDbLinetypeTableRecord
  2
CENTER
 70
     0
  3
____ _ ____ _ ____ _ ____ _ ____ _ ____ 
 72
    65
 73
     4
 40
2.0
 49
1.25
 74
     0
 49
-0.25
 74
     0
 49
0.25
 74
     0
 49
-0.25
 74
     0
  0
LTYPE
  5
1F
330
5
100
AcDbSymbolTableRecord
100
AcDbLinetypeTableRecord
  2
PHANTOM
 70
     0
  3
_____ _ _ _____ _ _ _____ _ _ _____ _ _ 
 72
    65
 73
     6
 40
2.5
 49
1.25
 74
     0
 49
-0.25
 74
     0
 49
0.25
 74
     0
 49
-0.25
 74
     0
 49
0.25
 74
     0
 49
-0.25
 74
     0
  0
LTYPE
  5
20
330
5
100
AcDbSymbolTableRecord
100
AcDbLinetypeTableRecord
  2
DOT
 70
     0
  3
........................................
 72
    65
 73
     2
 40
0.25
 49
0.0
 74
     0
 49
-0.25
 74
     0
  0
LTYPE
  5
21
330
5
100
AcDbSymbolTableRecord
100
AcDbLinetypeTableRecord
  2
DASHDOT
 70
     0
  3
__ . __ . __ . __ . __ . __ . __ . __ . 
 72
    65
 73
     4
 40
1.0
 49
0.5
 74
     0
 49
-0.25
 74
     0
 49
0.0
 74
     0
 49
-0.25
 74
     0
  0
LTYPE
  5
22
330
5
100
AcDbSymbolTableRecord
100
AcDbLinetypeTableRecord
  2
BORDER
 70
     0
  3
__ __ . __ __ . __ __ . __ __ . __ __ . 
 72
    65
 73
     6
 40
1.75
 49
0.5
 74
     0
 49
-0.25
 74
     0
 49
0.5
 74
     0
 49
-0.25
 74
     0
 49
0.0
 74
     0
 49
-0.25
 74
     0
  0
LTYPE
  5
23
330
5
100
AcDbSymbolTableRecord
100
AcDbLinetypeTableRecord
  2
DIVIDE
 70
     0
  3
__ . . __ . . __ . . __ . . __ . . __ . 
 72
    65
 73
     6
 40
1.25
 49
0.5
 74
     0
 49
-0.25
 74
     0
 49
0.0
 74
     0
 49
-0.25
 74
     0
 49
0.0
 74
     0
 49
-0.25
 74
     0
  0
ENDTAB
  0
TABLE
  2
LAYER
  5
2
330
0
100
AcDbSymbolTable
 70
     4
  0
LAYER
  5
24
330
2
100
AcDbSymbolTableRecord
100
AcDbLayerTableRecord
  2
0
 70
     0
 62
     7
  6
CONTINUOUS
370
    -3
390
F
  0
LAYER
  5
25
330
2
100
AcDbSymbolTableRecord
100
AcDbLayerTableRecord
  2
0010010007
 70
     0
 62
     7
  6
CONTINUOUS
370
    -3
390
F
  0
LAYER
  5
26
330
2
100
AcDbSymbolTableRecord
100
AcDbLayerTableRecord
  2
0020010004
 70
     0
 62
     4
  6
CONTINUOUS
370
    -3
390
F
  0
LAYER
  5
27
330
2
100
AcDbSymbolTableRecord
100
AcDbLayerTableRecord
  2
0030010002
 70
     0
 62
     2
  6
CONTINUOUS
370
    -3
390
F
  0
ENDTAB
  0
TABLE
  2
STYLE
  5
3
330
0
100
AcDbSymbolTable
 70
     1
  0
STYLE
  5
28
330
3
100
AcDbSymbolTableRecord
100
AcDbTextStyleTableRecord
  2
STANDARD
 70
     0
 40
0.0
 41
1.0
 50
0.0
 71
     0
 42
0.2
  3
txt
  4

  0
ENDTAB
  0
TABLE
  2
VIEW
  5
6
330
0
100
AcDbSymbolTable
 70
     1
  0
VIEW
  5
29
330
6
100
AcDbSymbolTableRecord
100
AcDbViewTableRecord
  2
1
 70
     0
 40
20600.0
 10
29641.0
 20
34500.0
 41
1.0
 11
0.0
 21
0.0
 31
1.0
 12
0.0
 22
0.0
 32
0.0
 42
50.0
 43
0.0
 44
0.0
 50
0.0
 71
     0
281
     0
 72
     0
  0
ENDTAB
  0
TABLE
  2
UCS
  5
7
330
0
100
AcDbSymbolTable
 70
     0
  0
ENDTAB
  0
TABLE
  2
APPID
  5
9
330
0
100
AcDbSymbolTable
 70
     1
  0
APPID
  5
2A
330
9
100
AcDbSymbolTableRecord
100
AcDbRegAppTableRecord
  2
ACAD
 70
     0
  0
ENDTAB
  0
TABLE
  2
DIMSTYLE
  5
A
330
0
100
AcDbSymbolTable
 70
     1
100
AcDbDimStyleTable
  0
DIMSTYLE
105
2B
330
A
100
AcDbSymbolTableRecord
100
AcDbDimStyleTableRecord
  2
Standard
 70
     0
340
28
  0
ENDTAB
  0
TABLE
  2
BLOCK_RECORD
  5
1
330
0
100
AcDbSymbolTable
 70
     0
  0
BLOCK_RECORD
  5
18
330
1
100
AcDbSymbolTableRecord
100
AcDbBlockTableRecord
  2
*Model_Space
340
19
  0
BLOCK_RECORD
  5
16
330
1
100
AcDbSymbolTableRecord
100
AcDbBlockTableRecord
  2
*Paper_Space
340
17
  0
ENDTAB
  0
ENDSEC
  0
SECTION
  2
BLOCKS
  0
BLOCK
  5
1A7
330
18
100
AcDbEntity
  8
0
100
AcDbBlockBegin
  2
*Model_Space
 70
     0
 71
     0
 10
0.0
 20
0.0
 30
0.0
  3
*Model_Space
  1

  0
ENDBLK
  5
1A8
330
18
100
AcDbEntity
  8
0
100
AcDbBlockEnd
  0
BLOCK
  5
1A9
330
16
100
AcDbEntity
 67
     1
  8
0
100
AcDbBlockBegin
  2
*Paper_Space
 70
     0
 71
     0
 10
0.0
 20
0.0
 30
0.0
  3
*Paper_Space
  1

  0
ENDBLK
  5
1AA
330
16
100
AcDbEntity
 67
     1
  8
0
100
AcDbBlockEnd
  0
ENDSEC
  0
SECTION
  2
ENTITIES
  0
LINE
  5
2C
330
18
100
AcDbEntity
  8
0010010007
100
AcDbLine
 10
0.0
 20
549.999999870755
 30
0.0
 11
0.0
 21
0.0
 31
0.0
  0
ARC
  5
2D
330
18
100
AcDbEntity
  8
0020010004
100
AcDbCircle
 10
1496.99999964819
 20
476.841319799199
 30
0.0
 40
10.1195379976221
100
AcDbArc
 50
0.0
 51
90.3957057817846
  0
ARC
  5
2E
330
18
100
AcDbEntity
  8
0020010004
100
AcDbCircle
 10
1496.99999964819
 20
53.1586800762507
 30
0.0
 40
10.1195379976216
100
AcDbArc
 50
269.604294218205
 51
0.0
  0
ARC
  5
2F
330
18
100
AcDbEntity
  8
0020010004
100
AcDbCircle
 10
102.999999975742
 20
476.841319799199
 30
0.0
 40
10.1195379976216
100
AcDbArc
 50
89.6042942182154
 51
180.0
  0
ARC
  5
30
330
18
100
AcDbEntity
  8
0020010004
100
AcDbCircle
 10
102.999999975742
 20
53.1586800762507
 30
0.0
 40
10.119537997622
100
AcDbArc
 50
180.0
 51
270.395705781785
  0
LINE
  5
31
330
18
100
AcDbEntity
  8
0010010007
100
AcDbLine
 10
1599.99999962401
 20
0.0
 30
0.0
 11
0.0
 21
0.0
 31
0.0
  0
LINE
  5
32
330
18
100
AcDbEntity
  8
0010010007
100
AcDbLine
 10
0.0
 20
532.99999987475
 30
0.0
 11
1599.99999962397
 21
532.99999987475
 31
0.0
  0
ARC
  5
33
330
18
100
AcDbEntity
  8
0020010004
100
AcDbCircle
 10
1496.99999964823
 20
52.999999987549
 30
0.0
 40
29.9999999929502
100
AcDbArc
 50
270.0
 51
0.0
  0
LINE
  5
34
330
18
100
AcDbEntity
  8
0020010004
100
AcDbLine
 10
102.999999975742
 20
506.99999988086
 30
0.0
 11
1496.99999964817
 21
506.99999988086
 31
0.0
  0
LINE
  5
35
330
18
100
AcDbEntity
  8
0010010007
100
AcDbLine
 10
1599.99999962401
 20
0.0
 30
0.0
 11
1599.99999962401
 21
549.999999870754
 31
0.0
  0
LINE
  5
36
330
18
100
AcDbEntity
  8
0020010004
100
AcDbLine
 10
1496.99999964823
 20
22.9999999945958
 30
0.0
 11
102.999999975802
 21
22.9999999945958
 31
0.0
  0
LINE
  5
37
330
18
100
AcDbEntity
  8
0020010004
100
AcDbLine
 10
72.9999999828178
 20
476.999999887908
 30
0.0
 11
72.9999999828178
 21
52.99999998754709
 31
0.0
  0
LINE
  5
38
330
18
100
AcDbEntity
  8
0020010004
100
AcDbLine
 10
1526.99999964115
 20
52.999999987549
 30
0.0
 11
1526.99999964115
 21
476.999999887912
 31
0.0
  0
ARC
  5
39
330
18
100
AcDbEntity
  8
0010010007
100
AcDbCircle
 10
1219.99999971331
 20
264.999999937738
 30
0.0
 40
699.999999835506
100
AcDbArc
 50
170.784028523762
 51
189.2159714603
  0
LINE
  5
3A
330
18
100
AcDbEntity
  8
0020010004
100
AcDbLine
 10
1496.93011094268
 20
43.0393834181814
 30
0.0
 11
1088.99999974408
 21
45.8567439892294
 31
0.0
  0
LINE
  5
3B
330
18
100
AcDbEntity
  8
0020010004
100
AcDbLine
 10
1507.11953764585
 20
53.1586800762561
 30
0.0
 11
1507.11953764585
 21
476.841319799202
 31
0.0
  0
LINE
  5
3C
330
18
100
AcDbEntity
  8
0020010004
100
AcDbLine
 10
1496.93011094268
 20
486.960616457276
 30
0.0
 11
1088.99999974407
 21
484.14325588623
 31
0.0
  0
LINE
  5
3D
330
18
100
AcDbEntity
  8
0020010004
100
AcDbLine
 10
103.069888681235
 20
486.960616457276
 30
0.0
 11
510.999999879845
 21
484.14325588623
 31
0.0
  0
LINE
  5
3E
330
18
100
AcDbEntity
  8
0020010004
100
AcDbLine
 10
103.069888681235
 20
43.0393834181759
 30
0.0
 11
510.999999879849
 21
45.8567439892259
 31
0.0
  0
LINE
  5
3F
330
18
100
AcDbEntity
  8
0020010004
100
AcDbLine
 10
1088.9999997441
 20
45.8567439892249
 30
0.0
 11
510.9999998799219
 21
45.8567439892249
 31
0.0
  0
LINE
  5
40
330
18
100
AcDbEntity
  8
0020010004
100
AcDbLine
 10
1088.9999997441
 20
484.143255886233
 30
0.0
 11
510.9999998799219
 21
484.143255886233
 31
0.0
  0
ARC
  5
41
330
18
100
AcDbEntity
  8
0020010004
100
AcDbCircle
 10
102.999999975742
 20
52.999999987549
 30
0.0
 40
29.9999999929502
100
AcDbArc
 50
180.0
 51
269.999999999996
  0
ARC
  5
42
330
18
100
AcDbEntity
  8
0020010004
100
AcDbCircle
 10
1496.99999964823
 20
476.999999887908
 30
0.0
 40
29.9999999929502
100
AcDbArc
 50
0.0
 51
90.0
  0
LINE
  5
43
330
18
100
AcDbEntity
  8
0020010004
100
AcDbLine
 10
92.88046197812579
 20
53.1586800762507
 30
0.0
 11
92.88046197812579
 21
476.841319799201
 31
0.0
  0
ARC
  5
44
330
18
100
AcDbEntity
  8
0020010004
100
AcDbCircle
 10
102.999999975742
 20
476.999999887908
 30
0.0
 40
29.9999999929502
100
AcDbArc
 50
90.00000000000379
 51
180.0
  0
ARC
  5
45
330
18
100
AcDbEntity
  8
0010010007
100
AcDbCircle
 10
799.999999812003
 20
-3434.99999919657
 30
0.0
 40
3899.99999908353
100
AcDbArc
 50
87.40187700084471
 51
92.5981229961338
  0
ARC
  5
46
330
18
100
AcDbEntity
  8
0010010007
100
AcDbCircle
 10
627.7450044632091
 20
361.09381021057
 30
0.0
 40
99.9999999765008
100
AcDbArc
 50
92.5981229676119
 51
170.784028527496
  0
ARC
  5
47
330
18
100
AcDbEntity
  8
0010010007
100
AcDbCircle
 10
627.745004202457
 20
168.906189758514
 30
0.0
 40
99.9999999765015
100
AcDbArc
 50
189.215971437804
 51
267.4018768928
  0
ARC
  5
48
330
18
100
AcDbEntity
  8
0010010007
100
AcDbCircle
 10
972.254995261988
 20
361.093810199014
 30
0.0
 40
99.9999999765011
100
AcDbArc
 50
9.21597147882752
 51
87.4018769727884
  0
ARC
  5
49
330
18
100
AcDbEntity
  8
0010010007
100
AcDbCircle
 10
972.254995178896
 20
168.906189738442
 30
0.0
 40
99.99999997650031
100
AcDbArc
 50
272.598122962693
 51
350.78402858345
  0
ARC
  5
4A
330
18
100
AcDbEntity
  8
0010010007
100
AcDbCircle
 10
799.999999812003
 20
3964.99999907208
 30
0.0
 40
3899.99999908354
100
AcDbArc
 50
267.401876996397
 51
272.598122996323
  0
ARC
  5
4B
330
18
100
AcDbEntity
  8
0010010007
100
AcDbCircle
 10
379.999999910702
 20
264.999999937738
 30
0.0
 40
699.999999835504
100
AcDbArc
 50
350.784028537935
 51
9.2159714748806
  0
LINE
  5
4C
330
18
100
AcDbEntity
  8
0010010007
100
AcDbLine
 10
0.0
 20
549.999999870755
 30
0.0
 11
1599.99999962397
 21
549.999999870755
 31
0.0
  0
CIRCLE
  5
4D
330
18
100
AcDbEntity
  8
0010010007
100
AcDbCircle
 10
799.999999812003
 20
343.499999915497
 30
0.0
 40
44.8499999894606
  0
CIRCLE
  5
4E
330
18
100
AcDbEntity
  8
0020010004
100
AcDbCircle
 10
799.999999812003
 20
343.499999915497
 30
0.0
 40
57.499999986488
  0
LINE
  5
4F
330
18
100
AcDbEntity
  8
0020010004
100
AcDbLine
 10
120.999999971496
 20
258.999999939215
 30
0.0
 11
120.999999971496
 21
270.999999936365
 31
0.0
  0
LINE
  5
50
330
18
100
AcDbEntity
  8
0020010004
100
AcDbLine
 10
120.999999971496
 20
270.999999936334
 30
0.0
 11
120.999999971496
 21
258.999999939095
 31
0.0
  0
ARC
  5
51
330
18
100
AcDbEntity
  8
0020010004
100
AcDbCircle
 10
392.438705243563
 20
445.999999817848
 30
0.0
 40
19.9999999953001
100
AcDbArc
 50
74.723336067717
 51
90.0
  0
ARC
  5
52
330
18
100
AcDbEntity
  8
0020010004
100
AcDbCircle
 10
-222.999999886219
 20
264.999999937738
 30
0.0
 40
707.999999833625
100
AcDbArc
 50
350.7825110374051
 51
9.217488983362809
  0
ARC
  5
53
330
18
100
AcDbEntity
  8
0020010004
100
AcDbCircle
 10
825.999999805895
 20
264.999999937749
 30
0.0
 40
707.999999833625
100
AcDbArc
 50
170.782511016637
 51
189.217488962595
  0
LINE
  5
54
330
18
100
AcDbEntity
  8
0020010004
100
AcDbLine
 10
120.999999971496
 20
258.99999993922
 30
0.0
 11
120.999999971496
 21
270.99999993637
 31
0.0
  0
LINE
  5
55
330
18
100
AcDbEntity
  8
0020010004
100
AcDbLine
 10
392.438705243563
 20
63.999999984946
 30
0.0
 11
210.561290611137
 21
63.999999984946
 31
0.0
  0
LINE
  5
56
330
18
100
AcDbEntity
  8
0020010004
100
AcDbLine
 10
392.438705243563
 20
465.999999890533
 30
0.0
 11
210.561290611137
 21
465.999999890533
 31
0.0
  0
ARC
  5
57
330
18
100
AcDbEntity
  8
0020010004
100
AcDbCircle
 10
369.252450063046
 20
361.109496337276
 30
0.0
 40
107.99999997462
100
AcDbArc
 50
9.2174889833629
 51
74.7233360676416
  0
ARC
  5
58
330
18
100
AcDbEntity
  8
0020010004
100
AcDbCircle
 10
124.328141180464
 20
243.999999942753
 30
0.0
 40
2.99999999929371
100
AcDbArc
 50
90.0004742407565
 51
181.999999997793
  0
LINE
  5
59
330
18
100
AcDbEntity
  8
0020010004
100
AcDbLine
 10
478.671858739286
 20
246.999999941943
 30
0.0
 11
124.328116349353
 21
246.999999941943
 31
0.0
  0
ARC
  5
5A
330
18
100
AcDbEntity
  8
0020010004
100
AcDbCircle
 10
124.747190414197
 20
231.999999945412
 30
0.0
 40
2.99999999929601
100
AcDbArc
 50
182.000000001005
 51
269.999634935588
  0
LINE
  5
5B
330
18
100
AcDbEntity
  8
0020010004
100
AcDbLine
 10
478.252809505425
 20
228.999999946178
 30
0.0
 11
124.747171299502
 21
228.999999946178
 31
0.0
  0
ARC
  5
5C
330
18
100
AcDbEntity
  8
0020010004
100
AcDbCircle
 10
125.621897949164
 20
216.999999948912
 30
0.0
 40
2.99999999929689
100
AcDbArc
 50
90.0
 51
184.000000001444
  0
LINE
  5
5D
330
18
100
AcDbEntity
  8
0020010004
100
AcDbLine
 10
477.378101970549
 20
219.999999948295
 30
0.0
 11
125.621897949247
 21
219.999999948295
 31
0.0
  0
ARC
  5
5E
330
18
100
AcDbEntity
  8
0020010004
100
AcDbCircle
 10
126.461019692302
 20
204.999999951855
 30
0.0
 40
2.99999999929502
100
AcDbArc
 50
183.999999999114
 51
270.0
  0
LINE
  5
5F
330
18
100
AcDbEntity
  8
0020010004
100
AcDbLine
 10
476.538980227447
 20
201.999999952523
 30
0.0
 11
126.461019692353
 21
201.999999952523
 31
0.0
  0
ARC
  5
60
330
18
100
AcDbEntity
  8
0020010004
100
AcDbCircle
 10
128.416808742037
 20
189.999999955291
 30
0.0
 40
2.99999999929463
100
AcDbArc
 50
90.0
 51
186.000000000444
  0
LINE
  5
61
330
18
100
AcDbEntity
  8
0020010004
100
AcDbLine
 10
474.583191177822
 20
192.999999954634
 30
0.0
 11
128.416808742066
 21
192.999999954634
 31
0.0
  0
ARC
  5
62
330
18
100
AcDbEntity
  8
0020010004
100
AcDbCircle
 10
129.678059564772
 20
177.999999958207
 30
0.0
 40
2.99999999929502
100
AcDbArc
 50
185.999999998944
 51
270.0
  0
LINE
  5
63
330
18
100
AcDbEntity
  8
0020010004
100
AcDbLine
 10
473.321940354941
 20
174.999999958869
 30
0.0
 11
129.678059564844
 21
174.999999958869
 31
0.0
  0
ARC
  5
64
330
18
100
AcDbEntity
  8
0020010004
100
AcDbCircle
 10
131.742179777808
 20
162.999999961528
 30
0.0
 40
2.99999999929568
100
AcDbArc
 50
90.0
 51
189.000000002692
  0
LINE
  5
65
330
18
100
AcDbEntity
  8
0020010004
100
AcDbLine
 10
471.257820141996
 20
165.999999960979
 30
0.0
 11
131.742179777853
 21
165.999999960979
 31
0.0
  0
ARC
  5
66
330
18
100
AcDbEntity
  8
0020010004
100
AcDbCircle
 10
133.642793061113
 20
150.999999964522
 30
0.0
 40
2.99999999929502
100
AcDbArc
 50
188.999999999641
 51
270.0
  0
LINE
  5
67
330
18
100
AcDbEntity
  8
0020010004
100
AcDbLine
 10
469.357206858563
 20
147.999999965208
 30
0.0
 11
133.642793061167
 21
147.999999965208
 31
0.0
  0
ARC
  5
68
330
18
100
AcDbEntity
  8
0020010004
100
AcDbCircle
 10
137.098269454651
 20
135.999999968004
 30
0.0
 40
2.99999999929496
100
AcDbArc
 50
90.0
 51
202.999999999963
  0
LINE
  5
69
330
18
100
AcDbEntity
  8
0020010004
100
AcDbLine
 10
465.901763749385
 20
138.999999967325
 30
0.0
 11
137.098269454679
 21
138.999999967325
 31
0.0
  0
ARC
  5
6A
330
18
100
AcDbEntity
  8
0020010004
100
AcDbCircle
 10
142.191967247942
 20
123.999999970778
 30
0.0
 40
2.99999999929581
100
AcDbArc
 50
203.000000001418
 51
269.99960098035
  0
LINE
  5
6B
330
18
100
AcDbEntity
  8
0020010004
100
AcDbLine
 10
460.808032671735
 20
120.999999971553
 30
0.0
 11
142.191946355345
 21
120.999999971553
 31
0.0
  0
ARC
  5
6C
330
18
100
AcDbEntity
  8
0020010004
100
AcDbCircle
 10
151.538424006772
 20
108.999999974401
 30
0.0
 40
2.9999999992958
100
AcDbArc
 50
90.000271321757
 51
220.000000000045
  0
LINE
  5
6D
330
18
100
AcDbEntity
  8
0020010004
100
AcDbLine
 10
451.461575912704
 20
111.999999973665
 30
0.0
 11
151.538409800458
 21
111.999999973665
 31
0.0
  0
ARC
  5
6E
330
18
100
AcDbEntity
  8
0020010004
100
AcDbCircle
 10
161.607619578677
 20
96.9999999771626
 30
0.0
 40
2.99999999929586
100
AcDbArc
 50
220.000000000614
 51
270.000267840274
  0
LINE
  5
6F
330
18
100
AcDbEntity
  8
0020010004
100
AcDbLine
 10
441.392380341036
 20
93.99999997789929
 30
0.0
 11
161.607633602815
 21
93.99999997789929
 31
0.0
  0
ARC
  5
70
330
18
100
AcDbEntity
  8
0020010004
100
AcDbCircle
 10
180.324324046065
 20
82.0000016002377
 30
0.0
 40
2.99999999929442
100
AcDbArc
 50
90.0595346664699
 51
238.415390135965
  0
LINE
  5
71
330
18
100
AcDbEntity
  8
0020010004
100
AcDbLine
 10
422.675846289799
 20
84.9999999800166
 30
0.0
 11
180.321206818851
 21
84.9999999800166
 31
0.0
  0
ARC
  5
72
330
18
100
AcDbEntity
  8
0020010004
100
AcDbCircle
 10
233.747549856613
 20
168.890503538199
 30
0.0
 40
104.999999975324
100
AcDbArc
 50
238.415390122187
 51
256.021336391902
  0
LINE
  5
73
330
18
100
AcDbEntity
  8
0020010004
100
AcDbLine
 10
394.24582357869
 20
66.9999999842439
 30
0.0
 11
208.383692099216
 21
66.9999999842439
 31
0.0
  0
ARC
  5
74
330
18
100
AcDbEntity
  8
0020010004
100
AcDbCircle
 10
210.561290611073
 20
84.0000005927832
 30
0.0
 40
19.9999999953002
100
AcDbArc
 50
254.723333423427
 51
270.0
  0
ARC
  5
75
330
18
100
AcDbEntity
  8
0020010004
100
AcDbCircle
 10
208.754176340968
 20
70.0000010072017
 30
0.0
 40
2.99999999929642
100
AcDbArc
 50
255.816211865855
 51
270.0
  0
LINE
  5
76
330
18
100
AcDbEntity
  8
0020010004
100
AcDbLine
 10
149.240290678023
 20
107.071637145838
 30
0.0
 11
159.30948624989
 21
95.0716371485284
 31
0.0
  0
LINE
  5
77
330
18
100
AcDbEntity
  8
0020010004
100
AcDbLine
 10
139.430452688244
 20
122.827806585519
 30
0.0
 11
134.336754894887
 21
134.827806582787
 31
0.0
  0
LINE
  5
78
330
18
100
AcDbEntity
  8
0020010004
100
AcDbLine
 10
130.679728040064
 20
150.530696569542
 30
0.0
 11
128.779114756671
 21
162.530696566376
 31
0.0
  0
LINE
  5
79
330
18
100
AcDbEntity
  8
0020010004
100
AcDbLine
 10
126.694493879364
 20
177.68641456853
 30
0.0
 11
125.433243056492
 21
189.686414565532
 31
0.0
  0
LINE
  5
7A
330
18
100
AcDbEntity
  8
0020010004
100
AcDbLine
 10
123.468327542192
 20
204.790730530714
 30
0.0
 11
122.629205799083
 21
216.790730527648
 31
0.0
  0
LINE
  5
7B
330
18
100
AcDbEntity
  8
0020010004
100
AcDbLine
 10
121.749017933867
 20
231.895301455274
 30
0.0
 11
121.329968700054
 21
243.895301452782
 31
0.0
  0
ARC
  5
7C
330
18
100
AcDbEntity
  8
0020010004
100
AcDbCircle
 10
476.538980227447
 20
204.999999951839
 30
0.0
 40
2.99999999929431
100
AcDbArc
 50
270.000000000764
 51
356.000000000351
  0
ARC
  5
7D
330
18
100
AcDbEntity
  8
0020010004
100
AcDbCircle
 10
477.378101970549
 20
216.999999948996
 30
0.0
 40
2.99999999929502
100
AcDbArc
 50
355.999999999891
 51
89.99999999935081
  0
LINE
  5
7E
330
18
100
AcDbEntity
  8
0020010004
100
AcDbLine
 10
479.531672377466
 20
204.790730530669
 30
0.0
 11
480.370794120587
 21
216.790730527803
 31
0.0
  0
ARC
  5
7F
330
18
100
AcDbEntity
  8
0020010004
100
AcDbCircle
 10
478.252809505425
 20
231.999999945476
 30
0.0
 40
2.99999999929558
100
AcDbArc
 50
269.999999999542
 51
358.0000000000661
  0
ARC
  5
80
330
18
100
AcDbEntity
  8
0020010004
100
AcDbCircle
 10
478.671858739286
 20
243.999999942645
 30
0.0
 40
2.99999999929502
100
AcDbArc
 50
357.999999999913
 51
89.999999999848
  0
LINE
  5
81
330
18
100
AcDbEntity
  8
0020010004
100
AcDbLine
 10
481.250981985846
 20
231.895301455394
 30
0.0
 11
481.670031219649
 21
243.895301452562
 31
0.0
  0
ARC
  5
82
330
18
100
AcDbEntity
  8
0020010004
100
AcDbCircle
 10
473.321940354941
 20
177.999999958194
 30
0.0
 40
2.99999999929293
100
AcDbArc
 50
270.000000000497
 51
354.000000000592
  0
ARC
  5
83
330
18
100
AcDbEntity
  8
0020010004
100
AcDbCircle
 10
474.583191177822
 20
189.999999955415
 30
0.0
 40
2.99999999929502
100
AcDbArc
 50
354.000000001287
 51
89.9999999993899
  0
LINE
  5
84
330
18
100
AcDbEntity
  8
0020010004
100
AcDbLine
 10
476.305506040313
 20
177.686414568501
 30
0.0
 11
477.566756863212
 21
189.686414565759
 31
0.0
  0
ARC
  5
85
330
18
100
AcDbEntity
  8
0020010004
100
AcDbCircle
 10
394.24582357869
 20
70.0000010072126
 30
0.0
 40
2.9999999992943
100
AcDbArc
 50
270.0
 51
284.183788134153
  0
ARC
  5
86
330
18
100
AcDbEntity
  8
0020010004
100
AcDbCircle
 10
422.675669628966
 20
81.9999999859192
 30
0.0
 40
2.99999999929502
100
AcDbArc
 50
301.584606415078
 51
89.99999993888341
  0
ARC
  5
87
330
18
100
AcDbEntity
  8
0020010004
100
AcDbCircle
 10
369.252450063046
 20
168.89050353821
 30
0.0
 40
104.999999975326
100
AcDbArc
 50
284.183788141396
 51
301.584606415121
  0
ARC
  5
88
330
18
100
AcDbEntity
  8
0020010004
100
AcDbCircle
 10
469.357206858563
 20
150.999999964557
 30
0.0
 40
2.9999999992942
100
AcDbArc
 50
270.00000000084
 51
351.0000000009
  0
ARC
  5
89
330
18
100
AcDbEntity
  8
0020010004
100
AcDbCircle
 10
471.257820141996
 20
162.999999961738
 30
0.0
 40
2.99999999929502
100
AcDbArc
 50
351.00000000102
 51
89.99999999980891
  0
LINE
  5
8A
330
18
100
AcDbEntity
  8
0020010004
100
AcDbLine
 10
472.320271879612
 20
150.530696569604
 30
0.0
 11
474.22088516306
 21
162.530696566788
 31
0.0
  0
ARC
  5
8B
330
18
100
AcDbEntity
  8
0020010004
100
AcDbCircle
 10
460.808032671735
 20
123.999999970823
 30
0.0
 40
2.9999999992939
100
AcDbArc
 50
269.999999999542
 51
336.999999999696
  0
ARC
  5
8C
330
18
100
AcDbEntity
  8
0020010004
100
AcDbCircle
 10
465.901730465298
 20
135.999999968215
 30
0.0
 40
2.99999999929502
100
AcDbArc
 50
337.000000002896
 51
89.9999999990837
  0
LINE
  5
8D
330
18
100
AcDbEntity
  8
0020010004
100
AcDbLine
 10
463.569547231469
 20
122.827806585605
 30
0.0
 11
468.663245024968
 21
134.827806583209
 31
0.0
  0
ARC
  5
8E
330
18
100
AcDbEntity
  8
0020010004
100
AcDbCircle
 10
441.392380341036
 20
96.99999997721351
 30
0.0
 40
2.99999999929448
100
AcDbArc
 50
269.999999999963
 51
320.000000000282
  0
ARC
  5
8F
330
18
100
AcDbEntity
  8
0020010004
100
AcDbCircle
 10
451.461575912704
 20
108.999999974338
 30
0.0
 40
2.99999999929502
100
AcDbArc
 50
319.99999999944
 51
89.99999999996091
  0
LINE
  5
90
330
18
100
AcDbEntity
  8
0020010004
100
AcDbLine
 10
453.759709241509
 20
107.071637145697
 30
0.0
 11
443.690513669843
 21
95.0716371486285
 31
0.0
  0
ARC
  5
91
330
18
100
AcDbEntity
  8
0020010004
100
AcDbCircle
 10
233.747549856613
 20
168.890503538199
 30
0.0
 40
107.99999997462
100
AcDbArc
 50
189.217488983363
 51
254.723333422787
  0
ARC
  5
92
330
18
100
AcDbEntity
  8
0020010004
100
AcDbCircle
 10
392.438705243563
 20
84.0000000576365
 30
0.0
 40
19.9999999953002
100
AcDbArc
 50
270.0
 51
285.276663932283
  0
ARC
  5
93
330
18
100
AcDbEntity
  8
0020010004
100
AcDbCircle
 10
369.252450063046
 20
168.89050353821
 30
0.0
 40
107.99999997462
100
AcDbArc
 50
285.276663932358
 51
350.782511016637
  0
LINE
  5
94
330
18
100
AcDbEntity
  8
0020010004
100
AcDbLine
 10
479.000009738589
 20
255.999999939882
 30
0.0
 11
123.999999970953
 21
255.999999939882
 31
0.0
  0
ARC
  5
95
330
18
100
AcDbEntity
  8
0020010004
100
AcDbCircle
 10
478.999999948879
 20
258.999999939164
 30
0.0
 40
2.99999999929497
100
AcDbArc
 50
270.000186969689
 51
0.0
  0
LINE
  5
96
330
18
100
AcDbEntity
  8
0020010004
100
AcDbLine
 10
479.000008077178
 20
273.999999935655
 30
0.0
 11
123.999999970954
 21
273.999999935655
 31
0.0
  0
ARC
  5
97
330
18
100
AcDbEntity
  8
0020010004
100
AcDbCircle
 10
123.999999970871
 20
270.99999993635
 30
0.0
 40
2.99999999929502
100
AcDbArc
 50
90.0
 51
180.000000000304
  0
LINE
  5
98
330
18
100
AcDbEntity
  8
0020010004
100
AcDbLine
 10
478.671858739286
 20
282.999999933538
 30
0.0
 11
124.328116349353
 21
282.999999933538
 31
0.0
  0
ARC
  5
99
330
18
100
AcDbEntity
  8
0020010004
100
AcDbCircle
 10
124.328141180464
 20
285.999999932734
 30
0.0
 40
2.99999999929371
100
AcDbArc
 50
178.000000002207
 51
269.999525759244
  0
LINE
  5
9A
330
18
100
AcDbEntity
  8
0020010004
100
AcDbLine
 10
478.252809505425
 20
300.999999929309
 30
0.0
 11
124.747171299502
 21
300.999999929309
 31
0.0
  0
ARC
  5
9B
330
18
100
AcDbEntity
  8
0020010004
100
AcDbCircle
 10
124.747190414197
 20
297.999999930073
 30
0.0
 40
2.99999999929589
100
AcDbArc
 50
90.00036506441241
 51
177.999999998997
  0
LINE
  5
9C
330
18
100
AcDbEntity
  8
0020010004
100
AcDbLine
 10
477.378101970549
 20
309.999999927191
 30
0.0
 11
125.621897949247
 21
309.999999927191
 31
0.0
  0
ARC
  5
9D
330
18
100
AcDbEntity
  8
0020010004
100
AcDbCircle
 10
125.621897949164
 20
312.999999926575
 30
0.0
 40
2.9999999992969
100
AcDbArc
 50
175.999999998554
 51
270.0
  0
LINE
  5
9E
330
18
100
AcDbEntity
  8
0020010004
100
AcDbLine
 10
476.538980227447
 20
327.999999922964
 30
0.0
 11
126.461019692353
 21
327.999999922964
 31
0.0
  0
ARC
  5
9F
330
18
100
AcDbEntity
  8
0020010004
100
AcDbCircle
 10
126.461019692302
 20
324.999999923632
 30
0.0
 40
2.99999999929502
100
AcDbArc
 50
90.0
 51
176.000000000886
  0
LINE
  5
A0
330
18
100
AcDbEntity
  8
0020010004
100
AcDbLine
 10
474.583191177822
 20
336.999999920852
 30
0.0
 11
128.416808742066
 21
336.999999920852
 31
0.0
  0
ARC
  5
A1
330
18
100
AcDbEntity
  8
0020010004
100
AcDbCircle
 10
128.416808742037
 20
339.99999992019
 30
0.0
 40
2.99999999929463
100
AcDbArc
 50
173.999999999556
 51
270.0
  0
LINE
  5
A2
330
18
100
AcDbEntity
  8
0020010004
100
AcDbLine
 10
473.321940354941
 20
354.999999916618
 30
0.0
 11
129.678059564844
 21
354.999999916618
 31
0.0
  0
ARC
  5
A3
330
18
100
AcDbEntity
  8
0020010004
100
AcDbCircle
 10
129.678059564772
 20
351.99999991728
 30
0.0
 40
2.99999999929502
100
AcDbArc
 50
90.0
 51
174.000000001054
  0
LINE
  5
A4
330
18
100
AcDbEntity
  8
0020010004
100
AcDbLine
 10
471.257820141996
 20
363.9999999145
 30
0.0
 11
131.742179777853
 21
363.9999999145
 31
0.0
  0
ARC
  5
A5
330
18
100
AcDbEntity
  8
0020010004
100
AcDbCircle
 10
131.742179777808
 20
366.999999913951
 30
0.0
 40
2.99999999929568
100
AcDbArc
 50
170.999999997308
 51
270.0
  0
LINE
  5
A6
330
18
100
AcDbEntity
  8
0020010004
100
AcDbLine
 10
469.357206858563
 20
381.999999910273
 30
0.0
 11
133.642793061167
 21
381.999999910273
 31
0.0
  0
ARC
  5
A7
330
18
100
AcDbEntity
  8
0020010004
100
AcDbCircle
 10
133.642793061113
 20
378.999999910962
 30
0.0
 40
2.99999999929502
100
AcDbArc
 50
90.0
 51
171.000000000361
  0
LINE
  5
A8
330
18
100
AcDbEntity
  8
0020010004
100
AcDbLine
 10
465.901763749385
 20
390.999999908159
 30
0.0
 11
137.098269454679
 21
390.999999908159
 31
0.0
  0
ARC
  5
A9
330
18
100
AcDbEntity
  8
0020010004
100
AcDbCircle
 10
137.098269454651
 20
393.999999907483
 30
0.0
 40
2.99999999929492
100
AcDbArc
 50
157.000000000039
 51
270.0
  0
ARC
  5
AA
330
18
100
AcDbEntity
  8
0020010004
100
AcDbCircle
 10
233.747549856613
 20
361.109496337285
 30
0.0
 40
107.99999997462
100
AcDbArc
 50
105.276666577213
 51
170.782511016637
  0
ARC
  5
AB
330
18
100
AcDbEntity
  8
0020010004
100
AcDbCircle
 10
210.561290611073
 20
445.999999282696
 30
0.0
 40
19.9999999953002
100
AcDbArc
 50
90.0
 51
105.276666576573
  0
LINE
  5
AC
330
18
100
AcDbEntity
  8
0020010004
100
AcDbLine
 10
460.808032671735
 20
408.999999903926
 30
0.0
 11
142.191946355345
 21
408.999999903926
 31
0.0
  0
ARC
  5
AD
330
18
100
AcDbEntity
  8
0020010004
100
AcDbCircle
 10
142.191967247942
 20
405.999999904707
 30
0.0
 40
2.9999999992957
100
AcDbArc
 50
90.00039901964971
 51
156.999999998584
  0
LINE
  5
AE
330
18
100
AcDbEntity
  8
0020010004
100
AcDbLine
 10
451.461575912704
 20
417.99999990182
 30
0.0
 11
151.538409800458
 21
417.99999990182
 31
0.0
  0
ARC
  5
AF
330
18
100
AcDbEntity
  8
0020010004
100
AcDbCircle
 10
151.538424006772
 20
420.99999990108
 30
0.0
 40
2.99999999929588
100
AcDbArc
 50
139.999999999953
 51
269.999728678243
  0
LINE
  5
B0
330
18
100
AcDbEntity
  8
0020010004
100
AcDbLine
 10
441.392380341036
 20
435.999999897587
 30
0.0
 11
161.607633602815
 21
435.999999897587
 31
0.0
  0
ARC
  5
B1
330
18
100
AcDbEntity
  8
0020010004
100
AcDbCircle
 10
161.607619578677
 20
432.999999898322
 30
0.0
 40
2.99999999929574
100
AcDbArc
 50
89.99973215972601
 51
139.999999999358
  0
LINE
  5
B2
330
18
100
AcDbEntity
  8
0020010004
100
AcDbLine
 10
422.675846289799
 20
444.999999895468
 30
0.0
 11
180.321206818851
 21
444.999999895468
 31
0.0
  0
ARC
  5
B3
330
18
100
AcDbEntity
  8
0020010004
100
AcDbCircle
 10
180.324324046065
 20
447.999998275247
 30
0.0
 40
2.99999999929616
100
AcDbArc
 50
121.584609864015
 51
269.94046533353
  0
LINE
  5
B4
330
18
100
AcDbEntity
  8
0020010004
100
AcDbLine
 10
394.24582357869
 20
462.999999891241
 30
0.0
 11
208.383692099216
 21
462.999999891241
 31
0.0
  0
ARC
  5
B5
330
18
100
AcDbEntity
  8
0020010004
100
AcDbCircle
 10
233.747549856613
 20
361.109496337285
 30
0.0
 40
104.999999975326
100
AcDbArc
 50
103.978663608098
 51
121.584609877812
  0
LINE
  5
B6
330
18
100
AcDbEntity
  8
0020010004
100
AcDbLine
 10
453.759709241509
 20
422.928362729788
 30
0.0
 11
443.690513669843
 21
434.928362726856
 31
0.0
  0
ARC
  5
B7
330
18
100
AcDbEntity
  8
0020010004
100
AcDbCircle
 10
451.461575912704
 20
420.999999901147
 30
0.0
 40
2.99999999929502
100
AcDbArc
 50
270.000000000039
 51
40.0000000005603
  0
ARC
  5
B8
330
18
100
AcDbEntity
  8
0020010004
100
AcDbCircle
 10
441.392380341036
 20
432.999999898271
 30
0.0
 40
2.99999999929324
100
AcDbArc
 50
39.9999999996897
 51
90.00000000003691
  0
LINE
  5
B9
330
18
100
AcDbEntity
  8
0020010004
100
AcDbLine
 10
463.569547231469
 20
407.17219328988
 30
0.0
 11
468.663245024968
 21
395.172193292276
 31
0.0
  0
ARC
  5
BA
330
18
100
AcDbEntity
  8
0020010004
100
AcDbCircle
 10
465.901730465298
 20
393.99999990727
 30
0.0
 40
2.99999999929502
100
AcDbArc
 50
270.000000000916
 51
22.999999997104
  0
ARC
  5
BB
330
18
100
AcDbEntity
  8
0020010004
100
AcDbCircle
 10
460.808032671735
 20
405.999999904663
 30
0.0
 40
2.9999999992939
100
AcDbArc
 50
23.0000000003042
 51
90.0000000004581
  0
LINE
  5
BC
330
18
100
AcDbEntity
  8
0020010004
100
AcDbLine
 10
472.320271879612
 20
379.469303305883
 30
0.0
 11
474.22088516306
 21
367.469303308699
 31
0.0
  0
ARC
  5
BD
330
18
100
AcDbEntity
  8
0020010004
100
AcDbCircle
 10
471.257820141996
 20
366.999999913747
 30
0.0
 40
2.99999999929502
100
AcDbArc
 50
270.000000000191
 51
8.999999998979972
  0
ARC
  5
BE
330
18
100
AcDbEntity
  8
0020010004
100
AcDbCircle
 10
469.357206858563
 20
378.99999991093
 30
0.0
 40
2.9999999992942
100
AcDbArc
 50
8.999999999099741
 51
89.9999999991597
  0
ARC
  5
BF
330
18
100
AcDbEntity
  8
0020010004
100
AcDbCircle
 10
369.252450063046
 20
361.109496337276
 30
0.0
 40
104.999999975326
100
AcDbArc
 50
58.41539358487911
 51
75.81621185860411
  0
ARC
  5
C0
330
18
100
AcDbEntity
  8
0020010004
100
AcDbCircle
 10
422.675669628966
 20
447.99999988956
 30
0.0
 40
2.99999999929502
100
AcDbArc
 50
270.000000061117
 51
58.4153935849212
  0
ARC
  5
C1
330
18
100
AcDbEntity
  8
0020010004
100
AcDbCircle
 10
394.24582357869
 20
459.999998868272
 30
0.0
 40
2.99999999929441
100
AcDbArc
 50
75.81621186584729
 51
90.0
  0
LINE
  5
C2
330
18
100
AcDbEntity
  8
0020010004
100
AcDbLine
 10
476.305506040313
 20
352.313585306983
 30
0.0
 11
477.566756863212
 21
340.313585309725
 31
0.0
  0
ARC
  5
C3
330
18
100
AcDbEntity
  8
0020010004
100
AcDbCircle
 10
474.583191177822
 20
339.99999992007
 30
0.0
 40
2.99999999929502
100
AcDbArc
 50
270.00000000061
 51
5.99999999871553
  0
ARC
  5
C4
330
18
100
AcDbEntity
  8
0020010004
100
AcDbCircle
 10
473.321940354941
 20
351.999999917291
 30
0.0
 40
2.99999999929294
100
AcDbArc
 50
5.99999999940992
 51
89.99999999950281
  0
ARC
  5
C5
330
18
100
AcDbEntity
  8
0020010004
100
AcDbCircle
 10
478.999999948879
 20
270.999999936368
 30
0.0
 40
2.99999999929502
100
AcDbArc
 50
0.0
 51
89.99984411758712
  0
LINE
  5
C6
330
18
100
AcDbEntity
  8
0020010004
100
AcDbLine
 10
481.250981985846
 20
298.104698420093
 30
0.0
 11
481.670031219649
 21
286.104698422925
 31
0.0
  0
ARC
  5
C7
330
18
100
AcDbEntity
  8
0020010004
100
AcDbCircle
 10
478.671858739286
 20
285.999999932836
 30
0.0
 40
2.99999999929502
100
AcDbArc
 50
270.000000000152
 51
2.00000000008702
  0
ARC
  5
C8
330
18
100
AcDbEntity
  8
0020010004
100
AcDbCircle
 10
478.252809505425
 20
297.999999930011
 30
0.0
 40
2.99999999929558
100
AcDbArc
 50
1.99999999993376
 51
90.0000000004581
  0
LINE
  5
C9
330
18
100
AcDbEntity
  8
0020010004
100
AcDbLine
 10
479.531672377466
 20
325.20926934481
 30
0.0
 11
480.370794120587
 21
313.209269347674
 31
0.0
  0
ARC
  5
CA
330
18
100
AcDbEntity
  8
0020010004
100
AcDbCircle
 10
477.378101970549
 20
312.999999926489
 30
0.0
 40
2.99999999929502
100
AcDbArc
 50
270.000000000649
 51
4.00000000010894
  0
ARC
  5
CB
330
18
100
AcDbEntity
  8
0020010004
100
AcDbCircle
 10
476.538980227447
 20
324.999999923648
 30
0.0
 40
2.99999999929431
100
AcDbArc
 50
3.9999999996492
 51
89.9999999992357
  0
LINE
  5
CC
330
18
100
AcDbEntity
  8
0020010004
100
AcDbLine
 10
481.99999994818
 20
258.999999939153
 30
0.0
 11
481.99999994818
 21
270.999999936361
 31
0.0
  0
LINE
  5
CD
330
18
100
AcDbEntity
  8
0020010004
100
AcDbLine
 10
481.99999994818
 20
270.999999936379
 30
0.0
 11
481.99999994818
 21
258.999999939087
 31
0.0
  0
ARC
  5
CE
330
18
100
AcDbEntity
  8
0020010004
100
AcDbCircle
 10
123.999999970871
 20
258.999999939204
 30
0.0
 40
2.99999999929502
100
AcDbArc
 50
179.999999999731
 51
270.0
  0
LINE
  5
CF
330
18
100
AcDbEntity
  8
0020010004
100
AcDbLine
 10
120.999999971496
 20
270.999999936334
 30
0.0
 11
120.999999971496
 21
258.999999939097
 31
0.0
  0
LINE
  5
D0
330
18
100
AcDbEntity
  8
0020010004
100
AcDbLine
 10
121.749017933867
 20
298.104698420213
 30
0.0
 11
121.329968700054
 21
286.104698422705
 31
0.0
  0
LINE
  5
D1
330
18
100
AcDbEntity
  8
0020010004
100
AcDbLine
 10
123.468327542192
 20
325.209269344765
 30
0.0
 11
122.629205799083
 21
313.209269347831
 31
0.0
  0
LINE
  5
D2
330
18
100
AcDbEntity
  8
0020010004
100
AcDbLine
 10
126.694493879364
 20
352.313585306956
 30
0.0
 11
125.433243056492
 21
340.313585309954
 31
0.0
  0
LINE
  5
D3
330
18
100
AcDbEntity
  8
0020010004
100
AcDbLine
 10
130.679728040064
 20
379.469303305945
 30
0.0
 11
128.779114756671
 21
367.469303309111
 31
0.0
  0
LINE
  5
D4
330
18
100
AcDbEntity
  8
0020010004
100
AcDbLine
 10
139.430452688244
 20
407.172193289962
 30
0.0
 11
134.336754894887
 21
395.172193292694
 31
0.0
  0
LINE
  5
D5
330
18
100
AcDbEntity
  8
0020010004
100
AcDbLine
 10
149.240290678023
 20
422.928362729641
 30
0.0
 11
159.30948624989
 21
434.928362726951
 31
0.0
  0
ARC
  5
D6
330
18
100
AcDbEntity
  8
0020010004
100
AcDbCircle
 10
208.754176340968
 20
459.999998868283
 30
0.0
 40
2.99999999929444
100
AcDbArc
 50
90.0
 51
104.183788134155
  0
ARC
  5
D7
330
18
100
AcDbEntity
  8
0020010004
100
AcDbCircle
 10
1207.56129438046
 20
445.999999817848
 30
0.0
 40
19.9999999953001
100
AcDbArc
 50
90.0
 51
105.276663932283
  0
ARC
  5
D8
330
18
100
AcDbEntity
  8
0020010004
100
AcDbCircle
 10
1822.99999951015
 20
264.999999937738
 30
0.0
 40
707.999999833625
100
AcDbArc
 50
170.782511016637
 51
189.217488962595
  0
ARC
  5
D9
330
18
100
AcDbEntity
  8
0020010004
100
AcDbCircle
 10
773.9999998181301
 20
264.999999937749
 30
0.0
 40
707.999999833625
100
AcDbArc
 50
350.7825110374051
 51
9.21748898336284
  0
LINE
  5
DA
330
18
100
AcDbEntity
  8
0020010004
100
AcDbLine
 10
1478.99999965244
 20
258.99999993922
 30
0.0
 11
1478.99999965244
 21
270.99999993637
 31
0.0
  0
LINE
  5
DB
330
18
100
AcDbEntity
  8
0020010004
100
AcDbLine
 10
1207.56129438046
 20
63.999999984946
 30
0.0
 11
1389.43870901289
 21
63.999999984946
 31
0.0
  0
LINE
  5
DC
330
18
100
AcDbEntity
  8
0020010004
100
AcDbLine
 10
1207.56129438046
 20
465.999999890533
 30
0.0
 11
1389.43870901289
 21
465.999999890533
 31
0.0
  0
ARC
  5
DD
330
18
100
AcDbEntity
  8
0020010004
100
AcDbCircle
 10
1230.74754956092
 20
361.109496337276
 30
0.0
 40
107.99999997462
100
AcDbArc
 50
105.276663932358
 51
170.782511016637
  0
ARC
  5
DE
330
18
100
AcDbEntity
  8
0020010004
100
AcDbCircle
 10
1475.67185844345
 20
243.999999942753
 30
0.0
 40
2.99999999929371
100
AcDbArc
 50
358.000000002207
 51
89.9995257592435
  0
LINE
  5
DF
330
18
100
AcDbEntity
  8
0020010004
100
AcDbLine
 10
1121.32814088472
 20
246.999999941943
 30
0.0
 11
1475.67188327465
 21
246.999999941943
 31
0.0
  0
ARC
  5
E0
330
18
100
AcDbEntity
  8
0020010004
100
AcDbCircle
 10
1475.25280920978
 20
231.999999945412
 30
0.0
 40
2.99999999929601
100
AcDbArc
 50
270.000365064412
 51
357.999999998995
  0
LINE
  5
E1
330
18
100
AcDbEntity
  8
0020010004
100
AcDbLine
 10
1121.74719011854
 20
228.999999946178
 30
0.0
 11
1475.25282832447
 21
228.999999946178
 31
0.0
  0
ARC
  5
E2
330
18
100
AcDbEntity
  8
0020010004
100
AcDbCircle
 10
1474.37810167475
 20
216.999999948912
 30
0.0
 40
2.99999999929689
100
AcDbArc
 50
355.999999998556
 51
90.0
  0
LINE
  5
E3
330
18
100
AcDbEntity
  8
0020010004
100
AcDbLine
 10
1122.62189765348
 20
219.999999948295
 30
0.0
 11
1474.37810167478
 21
219.999999948295
 31
0.0
  0
ARC
  5
E4
330
18
100
AcDbEntity
  8
0020010004
100
AcDbCircle
 10
1473.53897993167
 20
204.999999951855
 30
0.0
 40
2.99999999929502
100
AcDbArc
 50
270.0
 51
356.000000000886
  0
LINE
  5
E5
330
18
100
AcDbEntity
  8
0020010004
100
AcDbLine
 10
1123.46101939656
 20
201.999999952523
 30
0.0
 11
1473.53897993165
 21
201.999999952523
 31
0.0
  0
ARC
  5
E6
330
18
100
AcDbEntity
  8
0020010004
100
AcDbCircle
 10
1471.58319088194
 20
189.999999955291
 30
0.0
 40
2.99999999929463
100
AcDbArc
 50
353.999999999556
 51
90.0
  0
LINE
  5
E7
330
18
100
AcDbEntity
  8
0020010004
100
AcDbLine
 10
1125.41680844615
 20
192.999999954634
 30
0.0
 11
1471.5831908819
 21
192.999999954634
 31
0.0
  0
ARC
  5
E8
330
18
100
AcDbEntity
  8
0020010004
100
AcDbCircle
 10
1470.32194005915
 20
177.999999958207
 30
0.0
 40
2.99999999929502
100
AcDbArc
 50
270.0
 51
354.000000001056
  0
LINE
  5
E9
330
18
100
AcDbEntity
  8
0020010004
100
AcDbLine
 10
1126.67805926908
 20
174.999999958869
 30
0.0
 11
1470.32194005918
 21
174.999999958869
 31
0.0
  0
ARC
  5
EA
330
18
100
AcDbEntity
  8
0020010004
100
AcDbCircle
 10
1468.25781984616
 20
162.999999961528
 30
0.0
 40
2.99999999929568
100
AcDbArc
 50
350.999999997308
 51
90.0
  0
LINE
  5
EB
330
18
100
AcDbEntity
  8
0020010004
100
AcDbLine
 10
1128.74217948201
 20
165.999999960979
 30
0.0
 11
1468.25781984615
 21
165.999999960979
 31
0.0
  0
ARC
  5
EC
330
18
100
AcDbEntity
  8
0020010004
100
AcDbCircle
 10
1466.35720656282
 20
150.999999964522
 30
0.0
 40
2.99999999929502
100
AcDbArc
 50
270.0
 51
351.000000000359
  0
LINE
  5
ED
330
18
100
AcDbEntity
  8
0020010004
100
AcDbLine
 10
1130.64279276541
 20
147.999999965208
 30
0.0
 11
1466.3572065628
 21
147.999999965208
 31
0.0
  0
ARC
  5
EE
330
18
100
AcDbEntity
  8
0020010004
100
AcDbCircle
 10
1462.90173016932
 20
135.999999968004
 30
0.0
 40
2.99999999929496
100
AcDbArc
 50
337.000000000037
 51
90.0
  0
LINE
  5
EF
330
18
100
AcDbEntity
  8
0020010004
100
AcDbLine
 10
1134.09823587459
 20
138.999999967325
 30
0.0
 11
1462.90173016929
 21
138.999999967325
 31
0.0
  0
ARC
  5
F0
330
18
100
AcDbEntity
  8
0020010004
100
AcDbCircle
 10
1457.80803237603
 20
123.999999970778
 30
0.0
 40
2.99999999929581
100
AcDbArc
 50
270.00039901965
 51
336.999999998582
  0
LINE
  5
F1
330
18
100
AcDbEntity
  8
0020010004
100
AcDbLine
 10
1139.19196695229
 20
120.999999971553
 30
0.0
 11
1457.80805326868
 21
120.999999971553
 31
0.0
  0
ARC
  5
F2
330
18
100
AcDbEntity
  8
0020010004
100
AcDbCircle
 10
1448.46157561715
 20
108.999999974401
 30
0.0
 40
2.9999999992958
100
AcDbArc
 50
319.999999999955
 51
89.999728678243
  0
LINE
  5
F3
330
18
100
AcDbEntity
  8
0020010004
100
AcDbLine
 10
1148.5384237113
 20
111.999999973665
 30
0.0
 11
1448.46158982355
 21
111.999999973665
 31
0.0
  0
ARC
  5
F4
330
18
100
AcDbEntity
  8
0020010004
100
AcDbCircle
 10
1438.39238004526
 20
96.9999999771626
 30
0.0
 40
2.99999999929586
100
AcDbArc
 50
269.999732159726
 51
319.999999999386
  0
LINE
  5
F5
330
18
100
AcDbEntity
  8
0020010004
100
AcDbLine
 10
1158.60761928297
 20
93.99999997789929
 30
0.0
 11
1438.39236602119
 21
93.99999997789929
 31
0.0
  0
ARC
  5
F6
330
18
100
AcDbEntity
  8
0020010004
100
AcDbCircle
 10
1419.67567557785
 20
82.0000016002377
 30
0.0
 40
2.99999999929442
100
AcDbArc
 50
301.584609864035
 51
89.94046533353
  0
LINE
  5
F7
330
18
100
AcDbEntity
  8
0020010004
100
AcDbLine
 10
1177.32415333421
 20
84.9999999800166
 30
0.0
 11
1419.67879280516
 21
84.9999999800166
 31
0.0
  0
ARC
  5
F8
330
18
100
AcDbEntity
  8
0020010004
100
AcDbCircle
 10
1366.25244976736
 20
168.890503538199
 30
0.0
 40
104.999999975324
100
AcDbArc
 50
283.978663608098
 51
301.584609877813
  0
LINE
  5
F9
330
18
100
AcDbEntity
  8
0020010004
100
AcDbLine
 10
1205.75417604532
 20
66.9999999842439
 30
0.0
 11
1391.61630752479
 21
66.9999999842439
 31
0.0
  0
ARC
  5
FA
330
18
100
AcDbEntity
  8
0020010004
100
AcDbCircle
 10
1389.43870901284
 20
84.0000005927832
 30
0.0
 40
19.9999999953002
100
AcDbArc
 50
270.0
 51
285.276666576573
  0
ARC
  5
FB
330
18
100
AcDbEntity
  8
0020010004
100
AcDbCircle
 10
1391.24582328295
 20
70.0000010072017
 30
0.0
 40
2.99999999929642
100
AcDbArc
 50
270.0
 51
284.183788134145
  0
LINE
  5
FC
330
18
100
AcDbEntity
  8
0020010004
100
AcDbLine
 10
1450.75970894591
 20
107.071637145838
 30
0.0
 11
1440.69051337405
 21
95.0716371485284
 31
0.0
  0
LINE
  5
FD
330
18
100
AcDbEntity
  8
0020010004
100
AcDbLine
 10
1460.56954693573
 20
122.827806585519
 30
0.0
 11
1465.66324472909
 21
134.827806582787
 31
0.0
  0
LINE
  5
FE
330
18
100
AcDbEntity
  8
0020010004
100
AcDbLine
 10
1469.32027158387
 20
150.530696569542
 30
0.0
 11
1471.22088486727
 21
162.530696566376
 31
0.0
  0
LINE
  5
FF
330
18
100
AcDbEntity
  8
0020010004
100
AcDbLine
 10
1473.30550574457
 20
177.68641456853
 30
0.0
 11
1474.56675656744
 21
189.686414565532
 31
0.0
  0
LINE
  5
100
330
18
100
AcDbEntity
  8
0020010004
100
AcDbLine
 10
1476.53167208173
 20
204.790730530722
 30
0.0
 11
1477.37079382483
 21
216.790730527656
 31
0.0
  0
LINE
  5
101
330
18
100
AcDbEntity
  8
0020010004
100
AcDbLine
 10
1478.25098169011
 20
231.895301455274
 30
0.0
 11
1478.67003092392
 21
243.895301452782
 31
0.0
  0
ARC
  5
102
330
18
100
AcDbEntity
  8
0020010004
100
AcDbCircle
 10
1123.46101939656
 20
204.999999951839
 30
0.0
 40
2.99999999929431
100
AcDbArc
 50
183.999999999649
 51
269.999999999236
  0
ARC
  5
103
330
18
100
AcDbEntity
  8
0020010004
100
AcDbCircle
 10
1122.62189765348
 20
216.999999948996
 30
0.0
 40
2.99999999929502
100
AcDbArc
 50
90.00000000064921
 51
184.000000000109
  0
LINE
  5
104
330
18
100
AcDbEntity
  8
0020010004
100
AcDbLine
 10
1120.46832724654
 20
204.790730530669
 30
0.0
 11
1119.62920550342
 21
216.790730527803
 31
0.0
  0
ARC
  5
105
330
18
100
AcDbEntity
  8
0020010004
100
AcDbCircle
 10
1121.74719011854
 20
231.999999945476
 30
0.0
 40
2.99999999929558
100
AcDbArc
 50
181.999999999934
 51
270.000000000458
  0
ARC
  5
106
330
18
100
AcDbEntity
  8
0020010004
100
AcDbCircle
 10
1121.32814088472
 20
243.999999942645
 30
0.0
 40
2.99999999929502
100
AcDbArc
 50
90.0000000001519
 51
182.000000000087
  0
LINE
  5
107
330
18
100
AcDbEntity
  8
0020010004
100
AcDbLine
 10
1118.74901763818
 20
231.895301455394
 30
0.0
 11
1118.32996840438
 21
243.895301452562
 31
0.0
  0
ARC
  5
108
330
18
100
AcDbEntity
  8
0020010004
100
AcDbCircle
 10
1126.67805926908
 20
177.999999958194
 30
0.0
 40
2.99999999929293
100
AcDbArc
 50
185.999999999408
 51
269.999999999503
  0
ARC
  5
109
330
18
100
AcDbEntity
  8
0020010004
100
AcDbCircle
 10
1125.41680844615
 20
189.999999955415
 30
0.0
 40
2.99999999929502
100
AcDbArc
 50
90.0000000006101
 51
185.999999998713
  0
LINE
  5
10A
330
18
100
AcDbEntity
  8
0020010004
100
AcDbLine
 10
1123.69449358371
 20
177.686414568501
 30
0.0
 11
1122.43324276081
 21
189.686414565759
 31
0.0
  0
ARC
  5
10B
330
18
100
AcDbEntity
  8
0020010004
100
AcDbCircle
 10
1205.75417604532
 20
70.0000010072126
 30
0.0
 40
2.9999999992943
100
AcDbArc
 50
255.816211865847
 51
270.0
  0
ARC
  5
10C
330
18
100
AcDbEntity
  8
0020010004
100
AcDbCircle
 10
1177.32432999506
 20
81.9999999859192
 30
0.0
 40
2.99999999929502
100
AcDbArc
 50
90.00000006111659
 51
238.415393584922
  0
ARC
  5
10D
330
18
100
AcDbEntity
  8
0020010004
100
AcDbCircle
 10
1230.74754956092
 20
168.89050353821
 30
0.0
 40
104.999999975326
100
AcDbArc
 50
238.415393584879
 51
255.816211858604
  0
ARC
  5
10E
330
18
100
AcDbEntity
  8
0020010004
100
AcDbCircle
 10
1130.64279276541
 20
150.999999964557
 30
0.0
 40
2.9999999992942
100
AcDbArc
 50
188.9999999991
 51
269.99999999916
  0
ARC
  5
10F
330
18
100
AcDbEntity
  8
0020010004
100
AcDbCircle
 10
1128.74217948201
 20
162.999999961738
 30
0.0
 40
2.99999999929502
100
AcDbArc
 50
90.00000000019109
 51
188.99999999898
  0
LINE
  5
110
330
18
100
AcDbEntity
  8
0020010004
100
AcDbLine
 10
1127.67972774436
 20
150.530696569604
 30
0.0
 11
1125.77911446091
 21
162.530696566788
 31
0.0
  0
ARC
  5
111
330
18
100
AcDbEntity
  8
0020010004
100
AcDbCircle
 10
1139.19196695229
 20
123.999999970823
 30
0.0
 40
2.9999999992939
100
AcDbArc
 50
203.000000000304
 51
270.000000000458
  0
ARC
  5
112
330
18
100
AcDbEntity
  8
0020010004
100
AcDbCircle
 10
1134.09826915867
 20
135.999999968215
 30
0.0
 40
2.99999999929502
100
AcDbArc
 50
90.0000000009163
 51
202.999999997104
  0
LINE
  5
113
330
18
100
AcDbEntity
  8
0020010004
100
AcDbLine
 10
1136.43045239256
 20
122.827806585605
 30
0.0
 11
1131.33675459906
 21
134.827806583209
 31
0.0
  0
ARC
  5
114
330
18
100
AcDbEntity
  8
0020010004
100
AcDbCircle
 10
1158.60761928297
 20
96.99999997721351
 30
0.0
 40
2.99999999929448
100
AcDbArc
 50
219.999999999718
 51
270.000000000037
  0
ARC
  5
115
330
18
100
AcDbEntity
  8
0020010004
100
AcDbCircle
 10
1148.5384237113
 20
108.999999974338
 30
0.0
 40
2.99999999929502
100
AcDbArc
 50
90.00000000003909
 51
220.00000000056
  0
LINE
  5
116
330
18
100
AcDbEntity
  8
0020010004
100
AcDbLine
 10
1146.24029038246
 20
107.071637145697
 30
0.0
 11
1156.30948595413
 21
95.0716371486285
 31
0.0
  0
ARC
  5
117
330
18
100
AcDbEntity
  8
0020010004
100
AcDbCircle
 10
1366.25244976736
 20
168.890503538199
 30
0.0
 40
107.99999997462
100
AcDbArc
 50
285.276666577213
 51
350.782511016637
  0
ARC
  5
118
330
18
100
AcDbEntity
  8
0020010004
100
AcDbCircle
 10
1207.56129438046
 20
84.0000000576365
 30
0.0
 40
19.9999999953002
100
AcDbArc
 50
254.723336067717
 51
270.0
  0
ARC
  5
119
330
18
100
AcDbEntity
  8
0020010004
100
AcDbCircle
 10
1230.74754956092
 20
168.89050353821
 30
0.0
 40
107.99999997462
100
AcDbArc
 50
189.217488983363
 51
254.723336067642
  0
LINE
  5
11A
330
18
100
AcDbEntity
  8
0020010004
100
AcDbLine
 10
1120.99998988542
 20
255.999999939882
 30
0.0
 11
1475.99999965305
 21
255.999999939882
 31
0.0
  0
ARC
  5
11B
330
18
100
AcDbEntity
  8
0020010004
100
AcDbCircle
 10
1120.99999967513
 20
258.999999939164
 30
0.0
 40
2.99999999929497
100
AcDbArc
 50
180.0
 51
269.999813030311
  0
LINE
  5
11C
330
18
100
AcDbEntity
  8
0020010004
100
AcDbLine
 10
1120.99999154685
 20
273.999999935655
 30
0.0
 11
1475.99999965307
 21
273.999999935655
 31
0.0
  0
ARC
  5
11D
330
18
100
AcDbEntity
  8
0020010004
100
AcDbCircle
 10
1475.99999965305
 20
270.99999993635
 30
0.0
 40
2.99999999929502
100
AcDbArc
 50
359.999999999696
 51
90.0
  0
LINE
  5
11E
330
18
100
AcDbEntity
  8
0020010004
100
AcDbLine
 10
1121.32814088472
 20
282.999999933538
 30
0.0
 11
1475.67188327465
 21
282.999999933538
 31
0.0
  0
ARC
  5
11F
330
18
100
AcDbEntity
  8
0020010004
100
AcDbCircle
 10
1475.67185844345
 20
285.999999932734
 30
0.0
 40
2.99999999929371
100
AcDbArc
 50
270.000474240756
 51
1.99999999779283
  0
LINE
  5
120
330
18
100
AcDbEntity
  8
0020010004
100
AcDbLine
 10
1121.74719011854
 20
300.999999929309
 30
0.0
 11
1475.25282832447
 21
300.999999929309
 31
0.0
  0
ARC
  5
121
330
18
100
AcDbEntity
  8
0020010004
100
AcDbCircle
 10
1475.25280920978
 20
297.999999930073
 30
0.0
 40
2.99999999929589
100
AcDbArc
 50
2.00000000100272
 51
89.99963493558759
  0
LINE
  5
122
330
18
100
AcDbEntity
  8
0020010004
100
AcDbLine
 10
1122.62189765348
 20
309.999999927197
 30
0.0
 11
1474.37810167478
 21
309.999999927197
 31
0.0
  0
ARC
  5
123
330
18
100
AcDbEntity
  8
0020010004
100
AcDbCircle
 10
1474.37810167475
 20
312.999999926575
 30
0.0
 40
2.9999999992969
100
AcDbArc
 50
270.0
 51
4.00000000144576
  0
LINE
  5
124
330
18
100
AcDbEntity
  8
0020010004
100
AcDbLine
 10
1123.46101939656
 20
327.999999922964
 30
0.0
 11
1473.53897993165
 21
327.999999922964
 31
0.0
  0
ARC
  5
125
330
18
100
AcDbEntity
  8
0020010004
100
AcDbCircle
 10
1473.53897993167
 20
324.999999923632
 30
0.0
 40
2.99999999929502
100
AcDbArc
 50
3.99999999911381
 51
90.0
  0
LINE
  5
126
330
18
100
AcDbEntity
  8
0020010004
100
AcDbLine
 10
1125.41680844615
 20
336.999999920852
 30
0.0
 11
1471.5831908819
 21
336.999999920852
 31
0.0
  0
ARC
  5
127
330
18
100
AcDbEntity
  8
0020010004
100
AcDbCircle
 10
1471.58319088194
 20
339.99999992019
 30
0.0
 40
2.99999999929463
100
AcDbArc
 50
270.0
 51
6.00000000044355
  0
LINE
  5
128
330
18
100
AcDbEntity
  8
0020010004
100
AcDbLine
 10
1126.67805926908
 20
354.999999916618
 30
0.0
 11
1470.32194005918
 21
354.999999916617
 31
0.0
  0
ARC
  5
129
330
18
100
AcDbEntity
  8
0020010004
100
AcDbCircle
 10
1470.32194005915
 20
351.99999991728
 30
0.0
 40
2.99999999929502
100
AcDbArc
 50
5.99999999894635
 51
90.0
  0
LINE
  5
12A
330
18
100
AcDbEntity
  8
0020010004
100
AcDbLine
 10
1128.74217948201
 20
363.9999999145
 30
0.0
 11
1468.25781984615
 21
363.9999999145
 31
0.0
  0
ARC
  5
12B
330
18
100
AcDbEntity
  8
0020010004
100
AcDbCircle
 10
1468.25781984616
 20
366.999999913951
 30
0.0
 40
2.99999999929568
100
AcDbArc
 50
270.0
 51
9.000000002691762
  0
LINE
  5
12C
330
18
100
AcDbEntity
  8
0020010004
100
AcDbLine
 10
1130.64279276541
 20
381.999999910273
 30
0.0
 11
1466.3572065628
 21
381.999999910273
 31
0.0
  0
ARC
  5
12D
330
18
100
AcDbEntity
  8
0020010004
100
AcDbCircle
 10
1466.35720656282
 20
378.999999910957
 30
0.0
 40
2.99999999929502
100
AcDbArc
 50
8.99999999963916
 51
90.0
  0
LINE
  5
12E
330
18
100
AcDbEntity
  8
0020010004
100
AcDbLine
 10
1134.09823587459
 20
390.999999908159
 30
0.0
 11
1462.90173016929
 21
390.999999908159
 31
0.0
  0
ARC
  5
12F
330
18
100
AcDbEntity
  8
0020010004
100
AcDbCircle
 10
1462.90173016932
 20
393.999999907483
 30
0.0
 40
2.99999999929492
100
AcDbArc
 50
270.0
 51
22.999999999961
  0
ARC
  5
130
330
18
100
AcDbEntity
  8
0020010004
100
AcDbCircle
 10
1366.25244976736
 20
361.109496337285
 30
0.0
 40
107.99999997462
100
AcDbArc
 50
9.21748898336296
 51
74.72333342278689
  0
ARC
  5
131
330
18
100
AcDbEntity
  8
0020010004
100
AcDbCircle
 10
1389.43870901284
 20
445.999999282696
 30
0.0
 40
19.9999999953002
100
AcDbArc
 50
74.72333342342711
 51
90.0
  0
LINE
  5
132
330
18
100
AcDbEntity
  8
0020010004
100
AcDbLine
 10
1139.19196695229
 20
408.999999903926
 30
0.0
 11
1457.80805326868
 21
408.999999903926
 31
0.0
  0
ARC
  5
133
330
18
100
AcDbEntity
  8
0020010004
100
AcDbCircle
 10
1457.80803237603
 20
405.999999904707
 30
0.0
 40
2.9999999992957
100
AcDbArc
 50
23.0000000014162
 51
89.99960098035039
  0
LINE
  5
134
330
18
100
AcDbEntity
  8
0020010004
100
AcDbLine
 10
1148.5384237113
 20
417.99999990182
 30
0.0
 11
1448.46158982355
 21
417.99999990182
 31
0.0
  0
ARC
  5
135
330
18
100
AcDbEntity
  8
0020010004
100
AcDbCircle
 10
1448.46157561715
 20
420.99999990108
 30
0.0
 40
2.99999999929588
100
AcDbArc
 50
270.000271321757
 51
40.0000000000471
  0
LINE
  5
136
330
18
100
AcDbEntity
  8
0020010004
100
AcDbLine
 10
1158.60761928297
 20
435.999999897587
 30
0.0
 11
1438.39236602119
 21
435.999999897587
 31
0.0
  0
ARC
  5
137
330
18
100
AcDbEntity
  8
0020010004
100
AcDbCircle
 10
1438.39238004526
 20
432.999999898322
 30
0.0
 40
2.99999999929574
100
AcDbArc
 50
40.0000000006419
 51
90.00026784027401
  0
LINE
  5
138
330
18
100
AcDbEntity
  8
0020010004
100
AcDbLine
 10
1177.32415333421
 20
444.999999895468
 30
0.0
 11
1419.67879280516
 21
444.999999895468
 31
0.0
  0
ARC
  5
139
330
18
100
AcDbEntity
  8
0020010004
100
AcDbCircle
 10
1419.67567557785
 20
447.999998275247
 30
0.0
 40
2.99999999929616
100
AcDbArc
 50
270.05953466647
 51
58.41539013598509
  0
LINE
  5
13A
330
18
100
AcDbEntity
  8
0020010004
100
AcDbLine
 10
1205.75417604532
 20
462.999999891241
 30
0.0
 11
1391.61630752479
 21
462.999999891241
 31
0.0
  0
ARC
  5
13B
330
18
100
AcDbEntity
  8
0020010004
100
AcDbCircle
 10
1366.25244976736
 20
361.109496337285
 30
0.0
 40
104.999999975326
100
AcDbArc
 50
58.4153901221879
 51
76.021336391902
  0
LINE
  5
13C
330
18
100
AcDbEntity
  8
0020010004
100
AcDbLine
 10
1146.24029038246
 20
422.928362729788
 30
0.0
 11
1156.30948595413
 21
434.928362726856
 31
0.0
  0
ARC
  5
13D
330
18
100
AcDbEntity
  8
0020010004
100
AcDbCircle
 10
1148.5384237113
 20
420.999999901147
 30
0.0
 40
2.99999999929502
100
AcDbArc
 50
139.99999999944
 51
269.999999999961
  0
ARC
  5
13E
330
18
100
AcDbEntity
  8
0020010004
100
AcDbCircle
 10
1158.60761928297
 20
432.999999898271
 30
0.0
 40
2.99999999929324
100
AcDbArc
 50
89.99999999996309
 51
140.00000000031
  0
LINE
  5
13F
330
18
100
AcDbEntity
  8
0020010004
100
AcDbLine
 10
1136.43045239256
 20
407.17219328988
 30
0.0
 11
1131.33675459906
 21
395.172193292276
 31
0.0
  0
ARC
  5
140
330
18
100
AcDbEntity
  8
0020010004
100
AcDbCircle
 10
1134.09826915867
 20
393.99999990727
 30
0.0
 40
2.99999999929502
100
AcDbArc
 50
157.000000002896
 51
269.999999999084
  0
ARC
  5
141
330
18
100
AcDbEntity
  8
0020010004
100
AcDbCircle
 10
1139.19196695229
 20
405.999999904663
 30
0.0
 40
2.9999999992939
100
AcDbArc
 50
89.9999999995419
 51
156.999999999696
  0
LINE
  5
142
330
18
100
AcDbEntity
  8
0020010004
100
AcDbLine
 10
1127.67972774436
 20
379.469303305883
 30
0.0
 11
1125.77911446091
 21
367.469303308699
 31
0.0
  0
ARC
  5
143
330
18
100
AcDbEntity
  8
0020010004
100
AcDbCircle
 10
1128.74217948201
 20
366.999999913747
 30
0.0
 40
2.99999999929502
100
AcDbArc
 50
171.00000000102
 51
269.999999999809
  0
ARC
  5
144
330
18
100
AcDbEntity
  8
0020010004
100
AcDbCircle
 10
1130.64279276541
 20
378.99999991093
 30
0.0
 40
2.9999999992942
100
AcDbArc
 50
90.0000000008403
 51
171.0000000009
  0
ARC
  5
145
330
18
100
AcDbEntity
  8
0020010004
100
AcDbCircle
 10
1230.74754956092
 20
361.109496337276
 30
0.0
 40
104.999999975326
100
AcDbArc
 50
104.183788141396
 51
121.584606415121
  0
ARC
  5
146
330
18
100
AcDbEntity
  8
0020010004
100
AcDbCircle
 10
1177.32432999506
 20
447.99999988956
 30
0.0
 40
2.99999999929502
100
AcDbArc
 50
121.584606415079
 51
269.999999938883
  0
ARC
  5
147
330
18
100
AcDbEntity
  8
0020010004
100
AcDbCircle
 10
1205.75417604532
 20
459.999998868272
 30
0.0
 40
2.99999999929441
100
AcDbArc
 50
90.0
 51
104.183788134153
  0
LINE
  5
148
330
18
100
AcDbEntity
  8
0020010004
100
AcDbLine
 10
1123.69449358371
 20
352.313585306983
 30
0.0
 11
1122.43324276081
 21
340.313585309725
 31
0.0
  0
ARC
  5
149
330
18
100
AcDbEntity
  8
0020010004
100
AcDbCircle
 10
1125.41680844615
 20
339.99999992007
 30
0.0
 40
2.99999999929502
100
AcDbArc
 50
174.000000001284
 51
269.99999999939
  0
ARC
  5
14A
330
18
100
AcDbEntity
  8
0020010004
100
AcDbCircle
 10
1126.67805926908
 20
351.999999917291
 30
0.0
 40
2.99999999929294
100
AcDbArc
 50
90.0000000004972
 51
174.00000000059
  0
ARC
  5
14B
330
18
100
AcDbEntity
  8
0020010004
100
AcDbCircle
 10
1120.99999967513
 20
270.999999936368
 30
0.0
 40
2.99999999929502
100
AcDbArc
 50
90.0001558824129
 51
180.0
  0
LINE
  5
14C
330
18
100
AcDbEntity
  8
0020010004
100
AcDbLine
 10
1118.74901763818
 20
298.104698420093
 30
0.0
 11
1118.32996840438
 21
286.104698422925
 31
0.0
  0
ARC
  5
14D
330
18
100
AcDbEntity
  8
0020010004
100
AcDbCircle
 10
1121.32814088472
 20
285.999999932836
 30
0.0
 40
2.99999999929502
100
AcDbArc
 50
177.999999999913
 51
269.999999999848
  0
ARC
  5
14E
330
18
100
AcDbEntity
  8
0020010004
100
AcDbCircle
 10
1121.74719011854
 20
297.999999930011
 30
0.0
 40
2.99999999929558
100
AcDbArc
 50
89.9999999995419
 51
178.000000000066
  0
LINE
  5
14F
330
18
100
AcDbEntity
  8
0020010004
100
AcDbLine
 10
1120.46832724654
 20
325.20926934481
 30
0.0
 11
1119.62920550342
 21
313.209269347674
 31
0.0
  0
ARC
  5
150
330
18
100
AcDbEntity
  8
0020010004
100
AcDbCircle
 10
1122.62189765348
 20
312.999999926489
 30
0.0
 40
2.99999999929502
100
AcDbArc
 50
175.999999999891
 51
269.999999999351
  0
ARC
  5
151
330
18
100
AcDbEntity
  8
0020010004
100
AcDbCircle
 10
1123.46101939656
 20
324.999999923648
 30
0.0
 40
2.99999999929431
100
AcDbArc
 50
90.0000000007643
 51
176.000000000351
  0
LINE
  5
152
330
18
100
AcDbEntity
  8
0020010004
100
AcDbLine
 10
1117.99999967584
 20
258.999999939153
 30
0.0
 11
1117.99999967584
 21
270.999999936361
 31
0.0
  0
LINE
  5
153
330
18
100
AcDbEntity
  8
0020010004
100
AcDbLine
 10
1117.99999967584
 20
270.999999936379
 30
0.0
 11
1117.99999967584
 21
258.999999939087
 31
0.0
  0
ARC
  5
154
330
18
100
AcDbEntity
  8
0020010004
100
AcDbCircle
 10
1475.99999965305
 20
258.999999939204
 30
0.0
 40
2.99999999929502
100
AcDbArc
 50
270.0
 51
0.0
  0
LINE
  5
155
330
18
100
AcDbEntity
  8
0020010004
100
AcDbLine
 10
1478.99999965244
 20
270.999999936334
 30
0.0
 11
1478.99999965244
 21
258.999999939097
 31
0.0
  0
LINE
  5
156
330
18
100
AcDbEntity
  8
0020010004
100
AcDbLine
 10
1478.25098169011
 20
298.104698420213
 30
0.0
 11
1478.67003092392
 21
286.104698422705
 31
0.0
  0
LINE
  5
157
330
18
100
AcDbEntity
  8
0020010004
100
AcDbLine
 10
1476.53167208173
 20
325.209269344765
 30
0.0
 11
1477.37079382483
 21
313.209269347831
 31
0.0
  0
LINE
  5
158
330
18
100
AcDbEntity
  8
0020010004
100
AcDbLine
 10
1473.30550574457
 20
352.313585306956
 30
0.0
 11
1474.56675656744
 21
340.313585309954
 31
0.0
  0
LINE
  5
159
330
18
100
AcDbEntity
  8
0020010004
100
AcDbLine
 10
1469.32027158387
 20
379.469303305945
 30
0.0
 11
1471.22088486727
 21
367.469303309111
 31
0.0
  0
LINE
  5
15A
330
18
100
AcDbEntity
  8
0020010004
100
AcDbLine
 10
1460.56954693573
 20
407.172193289962
 30
0.0
 11
1465.66324472909
 21
395.172193292694
 31
0.0
  0
LINE
  5
15B
330
18
100
AcDbEntity
  8
0020010004
100
AcDbLine
 10
1450.75970894591
 20
422.928362729641
 30
0.0
 11
1440.69051337405
 21
434.928362726951
 31
0.0
  0
ARC
  5
15C
330
18
100
AcDbEntity
  8
0020010004
100
AcDbCircle
 10
1391.24582328295
 20
459.999998868283
 30
0.0
 40
2.99999999929444
100
AcDbArc
 50
75.8162118658452
 51
90.0
  0
TEXT
  5
15D
330
18
100
AcDbEntity
  8
0030010002
100
AcDbText
 10
668.395419708496
 20
191.985343177826
 30
0.0
 40
30.0000019073486
  1
CUBA 560x400
 41
0.75
100
AcDbText
  0
LINE
  5
15E
330
18
100
AcDbEntity
  8
0010010007
100
AcDbLine
 10
-130.389961231954
 20
388.349999908753
 30
0.0
 11
-130.389961231967
 21
343.499999919292
 31
0.0
  0
LINE
  5
15F
330
18
100
AcDbEntity
  8
0010010007
100
AcDbLine
 10
-133.834390475418
 20
401.2047848485
 30
0.0
 11
-135.184299680059
 21
405.125205844488
 31
0.0
  0
LINE
  5
160
330
18
100
AcDbEntity
  8
0010010007
100
AcDbLine
 10
-133.834390475418
 20
401.2047848485
 30
0.0
 11
-130.38996123194
 21
388.349999908749
 31
0.0
  0
LINE
  5
161
330
18
100
AcDbEntity
  8
0010010007
100
AcDbLine
 10
-130.389961231954
 20
298.64999992983
 30
0.0
 11
-130.389961231942
 21
343.499999919291
 31
0.0
  0
LINE
  5
162
330
18
100
AcDbEntity
  8
0010010007
100
AcDbLine
 10
-133.834390475418
 20
285.795214990083
 30
0.0
 11
-135.184299680059
 21
281.874793994092
 31
0.0
  0
LINE
  5
163
330
18
100
AcDbEntity
  8
0010010007
100
AcDbLine
 10
-133.834390475418
 20
285.795214990083
 30
0.0
 11
-130.389961231933
 21
298.649999929832
 31
0.0
  0
LINE
  5
164
330
18
100
AcDbEntity
  8
0010010007
100
AcDbLine
 10
-135.184299680018
 20
405.12520584449
 30
0.0
 11
-135.27272893473
 21
408.502182838956
 31
0.0
  0
ARC
  5
165
330
18
100
AcDbEntity
  8
0010010007
100
AcDbCircle
 10
-190.953641922802
 20
407.044126818653
 30
0.0
 40
55.6999999869109
100
AcDbArc
 50
1.499999999897
 51
85.4521432829967
  0
ARC
  5
166
330
18
100
AcDbEntity
  8
0010010007
100
AcDbCircle
 10
-265.884346339222
 20
-534.980495532565
 30
0.0
 40
1000.69999976484
100
AcDbArc
 50
85.45214328299652
 51
90.0
  0
LINE
  5
167
330
18
100
AcDbEntity
  8
0010010007
100
AcDbLine
 10
-135.184299680073
 20
281.874793994091
 30
0.0
 11
-139.392261855788
 21
121.179201723282
 31
0.0
  0
ARC
  5
168
330
18
100
AcDbEntity
  8
0010010007
100
AcDbCircle
 10
-195.073174843852
 20
122.637257743691
 30
0.0
 40
55.6999999869109
100
AcDbArc
 50
274.297341433945
 51
358.5
  0
ARC
  5
169
330
18
100
AcDbEntity
  8
0010010007
100
AcDbCircle
 10
-265.884346339222
 20
1064.98049540804
 30
0.0
 40
1000.69999976484
100
AcDbArc
 50
270.0
 51
274.297341433945
  0
LINE
  5
16A
330
18
100
AcDbEntity
  8
0010010007
100
AcDbLine
 10
-345.884346319697
 20
534.999999874282
 30
0.0
 11
-345.884346319697
 21
547.999999871226
 31
0.0
  0
LINE
  5
16B
330
18
100
AcDbEntity
  8
0010010007
100
AcDbLine
 10
-265.884346339222
 20
1.99999999952615
 30
0.0
 11
-265.884346339222
 21
549.999999870755
 31
0.0
  0
LINE
  5
16C
330
18
100
AcDbEntity
  8
0010010007
100
AcDbLine
 10
-343.884346669499
 20
549.999999870755
 30
0.0
 11
-265.884346339222
 21
549.999999870755
 31
0.0
  0
LINE
  5
16D
330
18
100
AcDbEntity
  8
0010010007
100
AcDbLine
 10
-343.884346320162
 20
532.99999987475
 30
0.0
 11
-296.884346331889
 21
532.99999987475
 31
0.0
  0
ARC
  5
16E
330
18
100
AcDbEntity
  8
0010010007
100
AcDbCircle
 10
-343.884346320162
 20
534.999999874282
 30
0.0
 40
1.99999999953002
100
AcDbArc
 50
180.0
 51
270.0
  0
ARC
  5
16F
330
18
100
AcDbEntity
  8
0010010007
100
AcDbCircle
 10
-296.884346331895
 20
531.999999874985
 30
0.0
 40
0.999999999765008
100
AcDbArc
 50
0.0001782028217576
 51
89.99999999965471
  0
LINE
  5
170
330
18
100
AcDbEntity
  8
0010010007
100
AcDbLine
 10
-295.884346332146
 20
532.000002985211
 30
0.0
 11
-295.884346332146
 21
264.99999993774
 31
0.0
  0
LINE
  5
171
330
18
100
AcDbEntity
  8
0010010007
100
AcDbLine
 10
-295.884346332146
 20
264.999999937738
 30
0.0
 11
-295.884346332146
 21
1.999999479448718
 31
0.0
  0
LINE
  5
172
330
18
100
AcDbEntity
  8
0010010007
100
AcDbLine
 10
-293.884346332593
 20
0.0
 30
0.0
 11
-267.884346338731
 21
0.0
 31
0.0
  0
ARC
  5
173
330
18
100
AcDbEntity
  8
0010010007
100
AcDbCircle
 10
-293.884346332648
 20
1.99999999955435
 30
0.0
 40
1.99999999953008
100
AcDbArc
 50
180.000014899878
 51
270.000000000744
  0
ARC
  5
174
330
18
100
AcDbEntity
  8
0010010007
100
AcDbCircle
 10
-267.88434633872
 20
1.99999999955435
 30
0.0
 40
1.99999999953002
100
AcDbArc
 50
270.0
 51
359.999999999199
  0
ARC
  5
175
330
18
100
AcDbEntity
  8
0010010007
100
AcDbCircle
 10
-343.884346320162
 20
547.9999998712231
 30
0.0
 40
1.99999999953002
100
AcDbArc
 50
90.00001000768241
 51
180.0
  0
LINE
  5
176
330
18
100
AcDbEntity
  8
0010010007
100
AcDbLine
 10
-135.184299680073
 20
281.874793994091
 30
0.0
 11
-135.184299680018
 21
405.12520584449
 31
0.0
  0
LINE
  5
177
330
18
100
AcDbEntity
  8
0010010007
100
AcDbLine
 10
-133.834390475418
 20
401.2047848485
 30
0.0
 11
-133.834390475418
 21
285.795214990083
 31
0.0
  0
LINE
  5
178
330
18
100
AcDbEntity
  8
0030010002
100
AcDbLine
 10
-295.884346332146
 20
0.999999479448888
 30
0.0
 11
-295.884346332146
 21
-100.999999999974
 31
0.0
  0
LINE
  5
179
330
18
100
AcDbEntity
  8
0030010002
100
AcDbLine
 10
-265.884346339222
 20
0.9999999995265511
 30
0.0
 11
-265.884346339222
 21
-100.999999999974
 31
0.0
  0
SOLID
  5
17A
330
18
100
AcDbEntity
  8
0030010002
100
AcDbTrace
 10
-315.410266474545
 20
-95.6712077212123
 30
0.0
 11
-315.410266474545
 21
-104.328792278736
 31
0.0
 12
-295.884346332146
 22
-99.99999999997441
 32
0.0
 13
-295.884346332146
 23
-99.99999999997441
 33
0.0
  0
LINE
  5
17B
330
18
100
AcDbEntity
  8
0030010002
100
AcDbLine
 10
-296.884346332146
 20
-99.99999999997441
 30
0.0
 11
-295.884346332146
 21
-99.99999999997441
 31
0.0
  0
SOLID
  5
17C
330
18
100
AcDbEntity
  8
0030010002
100
AcDbTrace
 10
-246.358426196823
 20
-104.328792278736
 30
0.0
 11
-246.358426196823
 21
-95.6712077212123
 31
0.0
 12
-265.884346339222
 22
-99.99999999997441
 32
0.0
 13
-265.884346339222
 23
-99.99999999997441
 33
0.0
  0
LINE
  5
17D
330
18
100
AcDbEntity
  8
0030010002
100
AcDbLine
 10
-264.884346339222
 20
-99.99999999997441
 30
0.0
 11
-265.884346339222
 21
-99.99999999997441
 31
0.0
  0
TEXT
  5
17E
330
18
100
AcDbEntity
  8
0030010002
100
AcDbText
 10
-231.679372390288
 20
-86.7326108756715
 30
0.0
 40
30.0000019073486
  1
30
 41
0.75
100
AcDbText
  0
LINE
  5
17F
330
18
100
AcDbEntity
  8
0030010002
100
AcDbLine
 10
-312.037466173143
 20
-99.99999999997451
 30
0.0
 11
-185.646093261878
 21
-99.99999999997461
 31
0.0
  0
LINE
  5
180
330
18
100
AcDbEntity
  8
0030010002
100
AcDbLine
 10
-295.884346332146
 20
533.000002985211
 30
0.0
 11
-295.884346332146
 21
650.999999870755
 31
0.0
  0
LINE
  5
181
330
18
100
AcDbEntity
  8
0030010002
100
AcDbLine
 10
-135.184299680018
 20
406.12520584449
 30
0.0
 11
-135.184299680018
 21
650.999999870755
 31
0.0
  0
SOLID
  5
182
330
18
100
AcDbEntity
  8
0030010002
100
AcDbTrace
 10
-276.358426189747
 20
645.671207591993
 30
0.0
 11
-276.358426189747
 21
654.328792149517
 31
0.0
 12
-295.884346332146
 22
649.999999870755
 32
0.0
 13
-295.884346332146
 23
649.999999870755
 33
0.0
  0
SOLID
  5
183
330
18
100
AcDbEntity
  8
0030010002
100
AcDbTrace
 10
-154.710219822417
 20
654.328792149517
 30
0.0
 11
-154.710219822417
 21
645.671207591993
 31
0.0
 12
-135.184299680018
 22
649.999999870755
 32
0.0
 13
-135.184299680018
 23
649.999999870755
 33
0.0
  0
LINE
  5
184
330
18
100
AcDbEntity
  8
0030010002
100
AcDbLine
 10
-295.884346332146
 20
649.999999870755
 30
0.0
 11
-135.184299680018
 21
649.999999870755
 31
0.0
  0
TEXT
  5
185
330
18
100
AcDbEntity
  8
0030010002
100
AcDbText
 10
-245.534322413431
 20
665.00000082443
 30
0.0
 40
30.0000019073486
  1
160
 41
0.75
100
AcDbText
  0
LINE
  5
186
330
18
100
AcDbEntity
  8
0030010002
100
AcDbLine
 10
-277.612579172766
 20
649.999999870755
 30
0.0
 11
-365.275954208609
 21
649.999999870755
 31
0.0
  0
LINE
  5
187
330
18
100
AcDbEntity
  8
0030010002
100
AcDbLine
 10
-344.884346669499
 20
549.999999870755
 30
0.0
 11
-446.884346319697
 21
549.999999870755
 31
0.0
  0
LINE
  5
188
330
18
100
AcDbEntity
  8
0030010002
100
AcDbLine
 10
-344.884346320162
 20
532.99999987475
 30
0.0
 11
-446.884346319697
 21
532.99999987475
 31
0.0
  0
SOLID
  5
189
330
18
100
AcDbEntity
  8
0030010002
100
AcDbTrace
 10
-441.555554040935
 20
569.525920013154
 30
0.0
 11
-450.213138598459
 21
569.525920013154
 31
0.0
 12
-445.884346319697
 22
549.999999870755
 32
0.0
 13
-445.884346319697
 23
549.999999870755
 33
0.0
  0
LINE
  5
18A
330
18
100
AcDbEntity
  8
0030010002
100
AcDbLine
 10
-445.884346319697
 20
550.999999870755
 30
0.0
 11
-445.884346319697
 21
549.999999870755
 31
0.0
  0
SOLID
  5
18B
330
18
100
AcDbEntity
  8
0030010002
100
AcDbTrace
 10
-450.213138598459
 20
513.474079732351
 30
0.0
 11
-441.555554040935
 21
513.474079732351
 31
0.0
 12
-445.884346319697
 22
532.99999987475
 32
0.0
 13
-445.884346319697
 23
532.99999987475
 33
0.0
  0
LINE
  5
18C
330
18
100
AcDbEntity
  8
0030010002
100
AcDbLine
 10
-445.884346319697
 20
531.99999987475
 30
0.0
 11
-445.884346319697
 21
532.99999987475
 31
0.0
  0
TEXT
  5
18D
330
18
100
AcDbEntity
  8
0030010002
100
AcDbText
 10
-458.645623340477
 20
574.945740422261
 30
0.0
 40
30.0000019073486
  1
17
 50
90.0
 41
0.75
100
AcDbText
  0
LINE
  5
18E
330
18
100
AcDbEntity
  8
0030010002
100
AcDbLine
 10
-445.884346319697
 20
516.903779782091
 30
0.0
 11
-445.884346319697
 21
615.775257562242
 31
0.0
  0
LINE
  5
18F
330
18
100
AcDbEntity
  8
0030010002
100
AcDbLine
 10
-345.884346319697
 20
548.999999871226
 30
0.0
 11
-345.884346319697
 21
650.999999870755
 31
0.0
  0
LINE
  5
190
330
18
100
AcDbEntity
  8
0030010002
100
AcDbLine
 10
-295.884346332146
 20
533.000002985211
 30
0.0
 11
-295.884346332146
 21
650.999999870755
 31
0.0
  0
SOLID
  5
191
330
18
100
AcDbEntity
  8
0030010002
100
AcDbTrace
 10
-365.410266462095
 20
654.328792149517
 30
0.0
 11
-365.410266462095
 21
645.671207591993
 31
0.0
 12
-345.884346319697
 22
649.999999870755
 32
0.0
 13
-345.884346319697
 23
649.999999870755
 33
0.0
  0
LINE
  5
192
330
18
100
AcDbEntity
  8
0030010002
100
AcDbLine
 10
-346.884346319697
 20
649.999999870755
 30
0.0
 11
-345.884346319697
 21
649.999999870755
 31
0.0
  0
SOLID
  5
193
330
18
100
AcDbEntity
  8
0030010002
100
AcDbTrace
 10
-276.358426189747
 20
645.671207591993
 30
0.0
 11
-276.358426189747
 21
654.328792149517
 31
0.0
 12
-295.884346332146
 22
649.999999870755
 32
0.0
 13
-295.884346332146
 23
649.999999870755
 33
0.0
  0
LINE
  5
194
330
18
100
AcDbEntity
  8
0030010002
100
AcDbLine
 10
-294.884346332146
 20
649.999999870755
 30
0.0
 11
-295.884346332146
 21
649.999999870755
 31
0.0
  0
TEXT
  5
195
330
18
100
AcDbEntity
  8
0030010002
100
AcDbText
 10
-340.157205373816
 20
664.507399794328
 30
0.0
 40
30.0000019073486
  1
50
 41
0.75
100
AcDbText
  0
LINE
  5
196
330
18
100
AcDbEntity
  8
0030010002
100
AcDbLine
 10
0.0
 20
550.999999870755
 30
0.0
 11
0.0
 21
650.999999870755
 31
0.0
  0
LINE
  5
197
330
18
100
AcDbEntity
  8
0030010002
100
AcDbLine
 10
1599.99999962401
 20
550.999999870754
 30
0.0
 11
1599.99999962401
 21
650.999999870755
 31
0.0
  0
SOLID
  5
198
330
18
100
AcDbEntity
  8
0030010002
100
AcDbTrace
 10
19.5259201423586
 20
645.671207591993
 30
0.0
 11
19.5259201423587
 21
654.328792149517
 31
0.0
 12
0.0
 22
649.999999870755
 32
0.0
 13
0.0
 23
649.999999870755
 33
0.0
  0
SOLID
  5
199
330
18
100
AcDbEntity
  8
0030010002
100
AcDbTrace
 10
1580.47407948161
 20
654.328792149517
 30
0.0
 11
1580.47407948161
 21
645.671207591993
 31
0.0
 12
1599.99999962401
 22
649.999999870755
 32
0.0
 13
1599.99999962401
 23
649.999999870755
 33
0.0
  0
LINE
  5
19A
330
18
100
AcDbEntity
  8
0030010002
100
AcDbLine
 10
0.0
 20
649.999999870755
 30
0.0
 11
1599.99999962401
 21
649.999999870755
 31
0.0
  0
TEXT
  5
19B
330
18
100
AcDbEntity
  8
0030010002
100
AcDbText
 10
758.749999689382
 20
665.00000082443
 30
0.0
 40
30.0000019073486
  1
1600
 41
0.75
100
AcDbText
  0
LINE
  5
19C
330
18
100
AcDbEntity
  8
0030010002
100
AcDbLine
 10
1600.99999962401
 20
549.999999870754
 30
0.0
 11
1700.99999981197
 21
549.999999870754
 31
0.0
  0
LINE
  5
19D
330
18
100
AcDbEntity
  8
0030010002
100
AcDbLine
 10
1600.99999962401
 20
0.0
 30
0.0
 11
1700.99999981197
 21
0.0
 31
0.0
  0
SOLID
  5
19E
330
18
100
AcDbEntity
  8
0030010002
100
AcDbTrace
 10
1695.6712075332
 20
530.474079728356
 30
0.0
 11
1704.32879209073
 21
530.474079728356
 31
0.0
 12
1699.99999981197
 22
549.999999870754
 32
0.0
 13
1699.99999981197
 23
549.999999870754
 33
0.0
  0
SOLID
  5
19F
330
18
100
AcDbEntity
  8
0030010002
100
AcDbTrace
 10
1704.32879209073
 20
19.5259201423987
 30
0.0
 11
1695.6712075332
 21
19.5259201423987
 31
0.0
 12
1699.99999981197
 22
0.0
 32
0.0
 13
1699.99999981197
 23
0.0
 33
0.0
  0
LINE
  5
1A0
330
18
100
AcDbEntity
  8
0030010002
100
AcDbLine
 10
1699.99999981197
 20
549.999999870754
 30
0.0
 11
1699.99999981197
 21
0.0
 31
0.0
  0
TEXT
  5
1A1
330
18
100
AcDbEntity
  8
0030010002
100
AcDbText
 10
1684.99999885829
 20
244.999995528028
 30
0.0
 40
30.0000019073486
  1
550
 50
90.0
 41
0.75
100
AcDbText
  0
ENDSEC
  0
SECTION
  2
OBJECTS
  0
DICTIONARY
  5
C
330
0
100
AcDbDictionary
281
     1
  3
ACAD_GROUP
350
D
  3
ACAD_LAYOUT
350
15
  3
ACAD_MLINESTYLE
350
12
  3
ACAD_PLOTSETTINGS
350
14
  3
ACAD_PLOTSTYLENAME
350
E
  3
ACAD_TABLESTYLE
350
1A3
  3
AcDbVariableDictionary
350
1A5
  0
DICTIONARY
  5
D
102
{ACAD_REACTORS
330
C
102
}
330
C
100
AcDbDictionary
281
     1
  0
DICTIONARY
  5
15
102
{ACAD_REACTORS
330
C
102
}
330
C
100
AcDbDictionary
281
     1
  3
Layout1
350
17
  3
Model
350
19
  0
DICTIONARY
  5
12
102
{ACAD_REACTORS
330
C
102
}
330
C
100
AcDbDictionary
281
     1
  3
Standard
350
13
  0
DICTIONARY
  5
14
102
{ACAD_REACTORS
330
C
102
}
330
C
100
AcDbDictionary
281
     1
  0
ACDBDICTIONARYWDFLT
  5
E
102
{ACAD_REACTORS
330
C
102
}
330
C
100
AcDbDictionary
281
     1
  3
Normal
350
F
100
AcDbDictionaryWithDefault
340
F
  0
DICTIONARY
  5
1A3
102
{ACAD_REACTORS
330
C
102
}
330
C
100
AcDbDictionary
281
     1
  3
Standard
350
1A4
  0
DICTIONARY
  5
1A5
102
{ACAD_REACTORS
330
C
102
}
330
C
100
AcDbDictionary
281
     1
  3
CTABLESTYLE
350
1A6
  0
LAYOUT
  5
17
102
{ACAD_REACTORS
330
15
102
}
330
15
100
AcDbPlotSettings
  1

  2

  4

  6

 40
0.0
 41
0.0
 42
0.0
 43
0.0
 44
0.0
 45
0.0
 46
0.0
 47
0.0
 48
0.0
 49
0.0
140
0.0
141
0.0
142
1.0
143
1.0
 70
   688
 72
     0
 73
     0
 74
     5
  7

 75
    16
147
1.0
148
0.0
149
0.0
100
AcDbLayout
  1
Layout1
 70
     1
 71
     1
 10
0.0
 20
0.0
 11
12.0
 21
9.0
 12
0.0
 22
0.0
 32
0.0
 14
1.000000000000000E+20
 24
1.000000000000000E+20
 34
1.000000000000000E+20
 15
-1.000000000000000E+20
 25
-1.000000000000000E+20
 35
-1.000000000000000E+20
146
0.0
 13
0.0
 23
0.0
 33
0.0
 16
1.0
 26
0.0
 36
0.0
 17
0.0
 27
1.0
 37
0.0
 76
     0
330
16
  0
LAYOUT
  5
19
102
{ACAD_REACTORS
330
15
102
}
330
15
100
AcDbPlotSettings
  1

  2

  4

  6

 40
0.0
 41
0.0
 42
0.0
 43
0.0
 44
0.0
 45
0.0
 46
0.0
 47
0.0
 48
0.0
 49
0.0
140
0.0
141
0.0
142
1.0
143
1.0
 70
  1712
 72
     0
 73
     0
 74
     0
  7

 75
     0
147
1.0
148
0.0
149
0.0
100
AcDbLayout
  1
Model
 70
     1
 71
     0
 10
0.0
 20
0.0
 11
0.0
 21
0.0
 12
0.0
 22
0.0
 32
0.0
 14
-32.05
 24
-32.05
 34
0.0
 15
1258.45
 25
893.05
 35
0.0
146
0.0
 13
0.0
 23
0.0
 33
0.0
 16
1.0
 26
0.0
 36
0.0
 17
0.0
 27
1.0
 37
0.0
 76
     0
330
18
  0
MLINESTYLE
  5
13
102
{ACAD_REACTORS
330
12
102
}
330
12
100
AcDbMlineStyle
  2
Standard
 70
     0
  3

 62
   256
 51
90.0
 52
90.0
 71
     2
 49
0.5
 62
   256
  6
BYLAYER
 49
-0.5
 62
   256
  6
BYLAYER
  0
ACDBPLACEHOLDER
  5
F
102
{ACAD_REACTORS
330
E
102
}
330
E
  0
TABLESTYLE
  5
1A4
102
{ACAD_REACTORS
330
1A3
102
}
330
1A3
100
AcDbTableStyle
  3
Standard
 70
     0
 71
     0
 40
0.06
 41
0.06
280
     0
281
     0
  7
STANDARD
140
0.18
170
     2
 62
     0
 63
     7
283
     0
274
    -2
284
     1
 64
     0
275
    -2
285
     1
 65
     0
276
    -2
286
     1
 66
     0
277
    -2
287
     1
 67
     0
278
    -2
288
     1
 68
     0
279
    -2
289
     1
 69
     0
  7
STANDARD
140
0.25
170
     5
 62
     0
 63
     7
283
     0
274
    -2
284
     1
 64
     0
275
    -2
285
     1
 65
     0
276
    -2
286
     1
 66
     0
277
    -2
287
     1
 67
     0
278
    -2
288
     1
 68
     0
279
    -2
289
     1
 69
     0
  7
STANDARD
140
0.18
170
     5
 62
     0
 63
     7
283
     0
274
    -2
284
     1
 64
     0
275
    -2
285
     1
 65
     0
276
    -2
286
     1
 66
     0
277
    -2
287
     1
 67
     0
278
    -2
288
     1
 68
     0
279
    -2
289
     1
 69
     0
  0
DICTIONARYVAR
  5
1A6
102
{ACAD_REACTORS
330
1A5
102
}
330
1A5
100
DictionaryVariables
280
     0
  1
Standard
  0
ENDSEC
  0
EOF
